  0
SECTION
  2
HEADER
  9
$ACADVER
  1
AC1021
  9
$ACADMAINTVER
 70
    25
  9
$DWGCODEPAGE
  3
ANSI_1250
  9
$INSBASE
 10
0.0
 20
0.0
 30
0.0
  9
$EXTMIN
 10
0.0
 20
0.0
 30
0.0
  9
$EXTMAX
 10
0.21
 20
0.297
 30
0.0
  9
$LIMMIN
 10
0.0
 20
0.0
  9
$LIMMAX
 10
0.21
 20
0.297
  9
$ORTHOMODE
 70
     0
  9
$REGENMODE
 70
     1
  9
$FILLMODE
 70
     1
  9
$QTEXTMODE
 70
     0
  9
$MIRRTEXT
 70
     1
  9
$LTSCALE
 40
1.0
  9
$ATTMODE
 70
     1
  9
$TEXTSIZE
 40
0.0035
  9
$TRACEWID
 40
1.0
  9
$TEXTSTYLE
  7
Standard
  9
$CLAYER
  8
0
  9
$CELTYPE
  6
ByLayer
  9
$CECOLOR
 62
   256
  9
$CELTSCALE
 40
1.0
  9
$DISPSILH
 70
     0
  9
$DIMSCALE
 40
1.0
  9
$DIMASZ
 40
0.003302
  9
$DIMEXO
 40
0.001
  9
$DIMDLI
 40
3.75
  9
$DIMRND
 40
0.0
  9
$DIMDLE
 40
0.0
  9
$DIMEXE
 40
0.001
  9
$DIMTP
 40
0.0
  9
$DIMTM
 40
0.0
  9
$DIMTXT
 40
0.0035
  9
$DIMCEN
 40
2.5
  9
$DIMTSZ
 40
0.0
  9
$DIMTOL
 70
     0
  9
$DIMLIM
 70
     0
  9
$DIMTIH
 70
     1
  9
$DIMTOH
 70
     1
  9
$DIMSE1
 70
     0
  9
$DIMSE2
 70
     0
  9
$DIMTAD
 70
     1
  9
$DIMZIN
 70
     0
  9
$DIMBLK
  1

  9
$DIMASO
 70
     1
  9
$DIMSHO
 70
     1
  9
$DIMPOST
  1

  9
$DIMAPOST
  1

  9
$DIMALT
 70
     0
  9
$DIMALTD
 70
     3
  9
$DIMALTF
 40
39.3700787402
  9
$DIMLFAC
 40
50.0
  9
$DIMTOFL
 70
     1
  9
$DIMTVP
 40
0.0
  9
$DIMTIX
 70
     0
  9
$DIMSOXD
 70
     0
  9
$DIMSAH
 70
     0
  9
$DIMBLK1
  1

  9
$DIMBLK2
  1

  9
$DIMSTYLE
  2
ISO-25
  9
$DIMCLRD
 70
     0
  9
$DIMCLRE
 70
     0
  9
$DIMCLRT
 70
     0
  9
$DIMTFAC
 40
1.0
  9
$DIMGAP
 40
0.001524
  9
$DIMJUST
 70
     0
  9
$DIMSD1
 70
     0
  9
$DIMSD2
 70
     0
  9
$DIMTOLJ
 70
     0
  9
$DIMTZIN
 70
     0
  9
$DIMALTZ
 70
     0
  9
$DIMALTTZ
 70
     0
  9
$DIMUPT
 70
     0
  9
$DIMDEC
 70
     2
  9
$DIMTDEC
 70
     2
  9
$DIMALTU
 70
     2
  9
$DIMALTTD
 70
     3
  9
$DIMTXSTY
  7
Standard
  9
$DIMAUNIT
 70
     0
  9
$DIMADEC
 70
     2
  9
$DIMALTRND
 40
0.0
  9
$DIMAZIN
 70
     0
  9
$DIMDSEP
 70
    44
  9
$DIMATFIT
 70
     3
  9
$DIMFRAC
 70
     0
  9
$DIMLDRBLK
  1

  9
$DIMLUNIT
 70
     2
  9
$DIMLWD
 70
    -2
  9
$DIMLWE
 70
    -2
  9
$DIMTMOVE
 70
     0
  9
$DIMFXL
 40
1.0
  9
$DIMFXLON
 70
     0
  9
$DIMJOGANG
 40
0.7853981634
  9
$DIMTFILL
 70
     0
  9
$DIMTFILLCLR
 70
     0
  9
$DIMARCSYM
 70
     0
  9
$DIMLTYPE
  6

  9
$DIMLTEX1
  6

  9
$DIMLTEX2
  6

  9
$LUNITS
 70
     2
  9
$LUPREC
 70
     2
  9
$SKETCHINC
 40
1.0
  9
$FILLETRAD
 40
10.0
  9
$AUNITS
 70
     0
  9
$AUPREC
 70
     2
  9
$MENU
  1
.
  9
$ELEVATION
 40
0.0
  9
$PELEVATION
 40
0.0
  9
$THICKNESS
 40
0.0
  9
$LIMCHECK
 70
     0
  9
$CHAMFERA
 40
0.0
  9
$CHAMFERB
 40
0.0
  9
$CHAMFERC
 40
0.0
  9
$CHAMFERD
 40
0.0
  9
$SKPOLY
 70
     0
  9
$TDCREATE
 40
2458074.528921273
  9
$TDUCREATE
 40
2458074.487254607
  9
$TDUPDATE
 40
2458074.52892169
  9
$TDUUPDATE
 40
2458074.487255023
  9
$TDINDWG
 40
0.0000000116
  9
$TDUSRTIMER
 40
0.0000000116
  9
$USRTIMER
 70
     1
  9
$ANGBASE
 50
0.0
  9
$ANGDIR
 70
     0
  9
$PDMODE
 70
     0
  9
$PDSIZE
 40
-1.0
  9
$PLINEWID
 40
0.0
  9
$SPLFRAME
 70
     0
  9
$SPLINETYPE
 70
     6
  9
$SPLINESEGS
 70
     8
  9
$HANDSEED
  5
3C7
  9
$SURFTAB1
 70
     6
  9
$SURFTAB2
 70
     6
  9
$SURFTYPE
 70
     6
  9
$SURFU
 70
     6
  9
$SURFV
 70
     6
  9
$UCSBASE
  2

  9
$UCSNAME
  2

  9
$UCSORG
 10
0.0
 20
0.0
 30
0.0
  9
$UCSXDIR
 10
1.0
 20
0.0
 30
0.0
  9
$UCSYDIR
 10
0.0
 20
1.0
 30
0.0
  9
$UCSORTHOREF
  2

  9
$UCSORTHOVIEW
 70
     0
  9
$UCSORGTOP
 10
0.0
 20
0.0
 30
0.0
  9
$UCSORGBOTTOM
 10
0.0
 20
0.0
 30
0.0
  9
$UCSORGLEFT
 10
0.0
 20
0.0
 30
0.0
  9
$UCSORGRIGHT
 10
0.0
 20
0.0
 30
0.0
  9
$UCSORGFRONT
 10
0.0
 20
0.0
 30
0.0
  9
$UCSORGBACK
 10
0.0
 20
0.0
 30
0.0
  9
$PUCSBASE
  2

  9
$PUCSNAME
  2

  9
$PUCSORG
 10
0.0
 20
0.0
 30
0.0
  9
$PUCSXDIR
 10
1.0
 20
0.0
 30
0.0
  9
$PUCSYDIR
 10
0.0
 20
1.0
 30
0.0
  9
$PUCSORTHOREF
  2

  9
$PUCSORTHOVIEW
 70
     0
  9
$PUCSORGTOP
 10
0.0
 20
0.0
 30
0.0
  9
$PUCSORGBOTTOM
 10
0.0
 20
0.0
 30
0.0
  9
$PUCSORGLEFT
 10
0.0
 20
0.0
 30
0.0
  9
$PUCSORGRIGHT
 10
0.0
 20
0.0
 30
0.0
  9
$PUCSORGFRONT
 10
0.0
 20
0.0
 30
0.0
  9
$PUCSORGBACK
 10
0.0
 20
0.0
 30
0.0
  9
$USERI1
 70
     0
  9
$USERI2
 70
     0
  9
$USERI3
 70
     0
  9
$USERI4
 70
     0
  9
$USERI5
 70
     0
  9
$USERR1
 40
0.0
  9
$USERR2
 40
0.0
  9
$USERR3
 40
0.0
  9
$USERR4
 40
0.0
  9
$USERR5
 40
0.0
  9
$WORLDVIEW
 70
     1
  9
$SHADEDGE
 70
     3
  9
$SHADEDIF
 70
    70
  9
$TILEMODE
 70
     1
  9
$MAXACTVP
 70
    64
  9
$PINSBASE
 10
0.0
 20
0.0
 30
0.0
  9
$PLIMCHECK
 70
     0
  9
$PEXTMIN
 10
1.0000000000E+20
 20
1.0000000000E+20
 30
1.0000000000E+20
  9
$PEXTMAX
 10
-1.0000000000E+20
 20
-1.0000000000E+20
 30
-1.0000000000E+20
  9
$PLIMMIN
 10
0.0
 20
0.0
  9
$PLIMMAX
 10
420.0
 20
297.0
  9
$UNITMODE
 70
     0
  9
$VISRETAIN
 70
     1
  9
$PLINEGEN
 70
     0
  9
$PSLTSCALE
 70
     1
  9
$TREEDEPTH
 70
  3020
  9
$CMLSTYLE
  2
Standard
  9
$CMLJUST
 70
     0
  9
$CMLSCALE
 40
20.0
  9
$PROXYGRAPHICS
 70
     1
  9
$MEASUREMENT
 70
     1
  9
$CELWEIGHT
370
    -1
  9
$ENDCAPS
280
     0
  9
$JOINSTYLE
280
     0
  9
$LWDISPLAY
290
     1
  9
$INSUNITS
 70
     4
  9
$HYPERLINKBASE
  1

  9
$STYLESHEET
  1

  9
$XEDIT
290
     1
  9
$CEPSNTYPE
380
     0
  9
$PSTYLEMODE
290
     1
  9
$FINGERPRINTGUID
  2
{F803B3BE-7A21-4D22-B8A5-7B3FD7C9C9DD}
  9
$VERSIONGUID
  2
{FAEB1C32-E019-11D5-929B-00C0DF256EC4}
  9
$EXTNAMES
290
     1
  9
$PSVPSCALE
 40
0.0
  9
$OLESTARTUP
290
     0
  9
$SORTENTS
280
   127
  9
$INDEXCTL
280
     0
  9
$HIDETEXT
280
     1
  9
$XCLIPFRAME
290
     0
  9
$HALOGAP
280
     0
  9
$OBSCOLOR
 70
   257
  9
$OBSLTYPE
280
     0
  9
$INTERSECTIONDISPLAY
280
     0
  9
$INTERSECTIONCOLOR
 70
   257
  9
$DIMASSOC
280
     2
  9
$PROJECTNAME
  1

  9
$CAMERADISPLAY
290
     0
  9
$LENSLENGTH
 40
50.0
  9
$CAMERAHEIGHT
 40
0.0
  9
$STEPSPERSEC
 40
2.0
  9
$STEPSIZE
 40
6.0
  9
$3DDWFPREC
 40
2.0
  9
$PSOLWIDTH
 40
5.0
  9
$PSOLHEIGHT
 40
80.0
  9
$LOFTANG1
 40
1.5707963268
  9
$LOFTANG2
 40
1.5707963268
  9
$LOFTMAG1
 40
0.0
  9
$LOFTMAG2
 40
0.0
  9
$LOFTPARAM
 70
     7
  9
$LOFTNORMALS
280
     1
  9
$LATITUDE
 40
37.795
  9
$LONGITUDE
 40
-122.394
  9
$NORTHDIRECTION
 40
0.0
  9
$TIMEZONE
 70
 -8000
  9
$LIGHTGLYPHDISPLAY
280
     1
  9
$TILEMODELIGHTSYNCH
280
     1
  9
$CMATERIAL
347
44
  9
$SOLIDHIST
280
     0
  9
$SHOWHIST
280
     1
  9
$DWFFRAME
280
     2
  9
$DGNFRAME
280
     2
  9
$REALWORLDSCALE
290
     1
  9
$INTERFERECOLOR
 62
   256
  9
$CSHADOW
280
     0
  9
$SHADOWPLANELOCATION
 40
0.0
  0
ENDSEC
  0
SECTION
  2
CLASSES
  0
CLASS
  1
ACDBDICTIONARYWDFLT
  2
AcDbDictionaryWithDefault
  3
ObjectDBX Classes
 90
        0
 91
        4
280
     0
281
     0
  0
CLASS
  1
VISUALSTYLE
  2
AcDbVisualStyle
  3
ObjectDBX Classes
 90
     4095
 91
        4
280
     0
281
     0
  0
CLASS
  1
MATERIAL
  2
AcDbMaterial
  3
ObjectDBX Classes
 90
     1153
 91
        4
280
     0
281
     0
  0
CLASS
  1
SCALE
  2
AcDbScale
  3
ObjectDBX Classes
 90
     1153
 91
        4
280
     0
281
     0
  0
CLASS
  1
TABLESTYLE
  2
AcDbTableStyle
  3
ObjectDBX Classes
 90
     4095
 91
        4
280
     0
281
     0
  0
CLASS
  1
MLEADERSTYLE
  2
AcDbMLeaderStyle
  3
ACDB_MLEADERSTYLE_CLASS
 90
     4095
 91
        4
280
     0
281
     0
  0
CLASS
  1
SUN
  2
AcDbSun
  3
SCENEOE
 90
     1153
 91
        4
280
     0
281
     0
  0
CLASS
  1
DICTIONARYVAR
  2
AcDbDictionaryVar
  3
ObjectDBX Classes
 90
        0
 91
        4
280
     0
281
     0
  0
CLASS
  1
CELLSTYLEMAP
  2
AcDbCellStyleMap
  3
ObjectDBX Classes
 90
     1152
 91
        4
280
     0
281
     0
  0
ENDSEC
  0
SECTION
  2
TABLES
  0
TABLE
  2
VPORT
  5
8
330
0
100
AcDbSymbolTable
 70
     1
  0
VPORT
  5
29
330
8
100
AcDbSymbolTableRecord
100
AcDbViewportTableRecord
  2
*Active
 70
     0
 10
0.0
 20
0.0
 11
1.0
 21
1.0
 12
0.105
 22
0.1485
 13
0.0
 23
0.0
 14
10.0
 24
10.0
 15
10.0
 25
10.0
 16
0.0
 26
0.0
 36
1.0
 17
0.0
 27
0.0
 37
0.0
 40
0.297
 41
0.7070707071
 42
50.0
 43
0.0
 44
0.0
 50
0.0
 51
0.0
 71
     0
 72
  2000
 73
     1
 74
     3
 75
     0
 76
     0
 77
     0
 78
     0
281
     0
 65
     1
110
0.0
120
0.0
130
0.0
111
1.0
121
0.0
131
0.0
112
0.0
122
1.0
132
0.0
 79
     0
146
0.0
 60
     3
 61
     5
292
     1
282
     1
141
0.0
142
0.0
 63
   250
361
6D
  0
ENDTAB
  0
TABLE
  2
LTYPE
  5
5
330
0
100
AcDbSymbolTable
 70
     6
  0
LTYPE
  5
14
330
5
100
AcDbSymbolTableRecord
100
AcDbLinetypeTableRecord
  2
ByBlock
 70
     0
  3

 72
    65
 73
     0
 40
0.0
  0
LTYPE
  5
15
330
5
100
AcDbSymbolTableRecord
100
AcDbLinetypeTableRecord
  2
ByLayer
 70
     0
  3

 72
    65
 73
     0
 40
0.0
  0
LTYPE
  5
16
330
5
100
AcDbSymbolTableRecord
100
AcDbLinetypeTableRecord
  2
Continuous
 70
     0
  3
Solid line
 72
    65
 73
     0
 40
0.0
  0
LTYPE
  5
6E
330
5
100
AcDbSymbolTableRecord
100
AcDbLinetypeTableRecord
  2
HIDDEN
 70
     0
  3
Hidden __ __ __ __ __ __ __ __ __ __ __ __ __ __
 72
    65
 73
     2
 40
0.001905
 49
0.00127
 74
     0
 49
-0.000635
 74
     0
  0
LTYPE
  5
6F
330
5
100
AcDbSymbolTableRecord
100
AcDbLinetypeTableRecord
  2
PHANTOM
 70
     0
  3
Phantom ______  __  __  ______  __  __  ______
 72
    65
 73
     6
 40
0.0127
 49
0.00635
 74
     0
 49
-0.00127
 74
     0
 49
0.00127
 74
     0
 49
-0.00127
 74
     0
 49
0.00127
 74
     0
 49
-0.00127
 74
     0
  0
LTYPE
  5
70
330
5
100
AcDbSymbolTableRecord
100
AcDbLinetypeTableRecord
  2
CENTER
 70
     0
  3
Center ____ _ ____ _ ____ _ ____ _ ____ _ ____
 72
    65
 73
     4
 40
0.01016
 49
0.00635
 74
     0
 49
-0.00127
 74
     0
 49
0.00127
 74
     0
 49
-0.00127
 74
     0
  0
LTYPE
  5
71
330
5
100
AcDbSymbolTableRecord
100
AcDbLinetypeTableRecord
  2
CENTERX2
 70
     0
  3
Center (2x) ________  __  ________  __  _____
 72
    65
 73
     4
 40
0.02032
 49
0.0127
 74
     0
 49
-0.00254
 74
     0
 49
0.00254
 74
     0
 49
-0.00254
 74
     0
  0
LTYPE
  5
72
330
5
100
AcDbSymbolTableRecord
100
AcDbLinetypeTableRecord
  2
DOT2
 70
     0
  3
Dot (.5x) ........................................
 72
    65
 73
     2
 40
0.000635
 49
0.0
 74
     0
 49
-0.000635
 74
     0
  0
ENDTAB
  0
TABLE
  2
LAYER
  5
2
330
0
100
AcDbSymbolTable
 70
     1
  0
LAYER
  5
10
330
2
100
AcDbSymbolTableRecord
100
AcDbLayerTableRecord
  2
0
 70
     0
 62
     7
  6
Continuous
370
    -3
390
F
347
46
  0
ENDTAB
  0
TABLE
  2
STYLE
  5
3
330
0
100
AcDbSymbolTable
 70
     1
  0
STYLE
  5
11
330
3
100
AcDbSymbolTableRecord
100
AcDbTextStyleTableRecord
  2
Standard
 70
     0
 40
0.0
 41
1.0
 50
0.0
 71
     0
 42
0.0035
  3
txt
  4

  0
ENDTAB
  0
TABLE
  2
VIEW
  5
6
330
0
100
AcDbSymbolTable
 70
     0
  0
ENDTAB
  0
TABLE
  2
UCS
  5
7
330
0
100
AcDbSymbolTable
 70
     0
  0
ENDTAB
  0
TABLE
  2
APPID
  5
9
330
0
100
AcDbSymbolTable
 70
     2
  0
APPID
  5
12
330
9
100
AcDbSymbolTableRecord
100
AcDbRegAppTableRecord
  2
ACAD
 70
     0
  0
APPID
  5
3C1
330
9
100
AcDbSymbolTableRecord
100
AcDbRegAppTableRecord
  2
ACAD_MLEADERVER
 70
     0
  0
ENDTAB
  0
TABLE
  2
DIMSTYLE
  5
A
330
0
100
AcDbSymbolTable
 70
     1
100
AcDbDimStyleTable
  0
DIMSTYLE
105
27
330
A
100
AcDbSymbolTableRecord
100
AcDbDimStyleTableRecord
  2
ISO-25
 70
     0
 41
2.5
 42
0.625
 43
3.75
 44
1.25
 73
     0
 74
     0
 77
     1
 78
     8
140
2.5
141
2.5
143
0.0393700787
147
0.625
171
     3
172
     1
178
     0
271
     2
272
     2
274
     3
278
    44
283
     0
284
     8
340
11
  0
ENDTAB
  0
TABLE
  2
BLOCK_RECORD
  5
1
330
0
100
AcDbSymbolTable
 70
     1
  0
BLOCK_RECORD
  5
1F
330
1
100
AcDbSymbolTableRecord
100
AcDbBlockTableRecord
  2
*Model_Space
340
22
 70
     0
280
     1
281
     0
  0
BLOCK_RECORD
  5
1B
330
1
100
AcDbSymbolTableRecord
100
AcDbBlockTableRecord
  2
*Paper_Space
340
1E
 70
     0
280
     1
281
     0
  0
BLOCK_RECORD
  5
23
330
1
100
AcDbSymbolTableRecord
100
AcDbBlockTableRecord
  2
*Paper_Space0
340
26
 70
     0
280
     1
281
     0
  0
ENDTAB
  0
ENDSEC
  0
SECTION
  2
BLOCKS
  0
BLOCK
  5
20
330
1F
100
AcDbEntity
  8
0
100
AcDbBlockBegin
  2
*Model_Space
 70
     0
 10
0.0
 20
0.0
 30
0.0
  3
*Model_Space
  1

  0
ENDBLK
  5
21
330
1F
100
AcDbEntity
  8
0
100
AcDbBlockEnd
  0
BLOCK
  5
1C
330
1B
100
AcDbEntity
 67
     1
  8
0
100
AcDbBlockBegin
  2
*Paper_Space
 70
     0
 10
0.0
 20
0.0
 30
0.0
  3
*Paper_Space
  1

  0
ENDBLK
  5
1D
330
1B
100
AcDbEntity
 67
     1
  8
0
100
AcDbBlockEnd
  0
BLOCK
  5
24
330
23
100
AcDbEntity
  8
0
100
AcDbBlockBegin
  2
*Paper_Space0
 70
     0
 10
0.0
 20
0.0
 30
0.0
  3
*Paper_Space0
  1

  0
ENDBLK
  5
25
330
23
100
AcDbEntity
  8
0
100
AcDbBlockEnd
  0
ENDSEC
  0
SECTION
  2
ENTITIES
  0
LINE
  5
73
330
1F
100
AcDbEntity
  8
0
  6
Continuous
 62
     7
370
    25
100
AcDbLine
 10
0.063553748
 20
0.1968315464
 30
0.0
 11
0.0634552715
 21
0.1968230801
 31
0.0
  0
LINE
  5
74
330
1F
100
AcDbEntity
  8
0
  6
Continuous
 62
     7
370
    25
100
AcDbLine
 10
0.0634552715
 20
0.1762337642
 30
0.0
 11
0.0635540245
 21
0.1762252753
 31
0.0
  0
LINE
  5
75
330
1F
100
AcDbEntity
  8
0
  6
Continuous
 62
     7
370
    25
100
AcDbLine
 10
0.1696729253
 20
0.1968654221
 30
0.0
 11
0.1452721809
 21
0.1968654221
 31
0.0
  0
LINE
  5
76
330
1F
100
AcDbEntity
  8
0
  6
Continuous
 62
     7
370
    25
100
AcDbLine
 10
0.1452723627
 20
0.1961914223
 30
0.0
 11
0.1499380813
 21
0.1961914223
 31
0.0
  0
LINE
  5
77
330
1F
100
AcDbEntity
  8
0
  6
Continuous
 62
     7
370
    25
100
AcDbLine
 10
0.1502532647
 20
0.1961914223
 30
0.0
 11
0.1571910833
 21
0.1961914223
 31
0.0
  0
LINE
  5
78
330
1F
100
AcDbEntity
  8
0
  6
Continuous
 62
     7
370
    25
100
AcDbLine
 10
0.1574680851
 20
0.1961914223
 30
0.0
 11
0.163236544
 21
0.1961914223
 31
0.0
  0
LINE
  5
79
330
1F
100
AcDbEntity
  8
0
  6
Continuous
 62
     7
370
    25
100
AcDbLine
 10
0.1634498785
 20
0.1961914223
 30
0.0
 11
0.1674999974
 21
0.1961914223
 31
0.0
  0
LINE
  5
7A
330
1F
100
AcDbEntity
  8
0
  6
Continuous
 62
     7
370
    25
100
AcDbLine
 10
0.1676432799
 20
0.1961914223
 30
0.0
 11
0.1695825241
 21
0.1961914223
 31
0.0
  0
LINE
  5
7B
330
1F
100
AcDbEntity
  8
0
  6
Continuous
 62
     7
370
    25
100
AcDbLine
 10
0.1696635745
 20
0.1961914223
 30
0.0
 11
0.1696729253
 21
0.1961914223
 31
0.0
  0
LINE
  5
7C
330
1F
100
AcDbEntity
  8
0
  6
Continuous
 62
     7
370
    25
100
AcDbLine
 10
0.1696729253
 20
0.1768654221
 30
0.0
 11
0.1696611713
 21
0.1768654221
 31
0.0
  0
LINE
  5
7D
330
1F
100
AcDbEntity
  8
0
  6
Continuous
 62
     7
370
    25
100
AcDbLine
 10
0.1695850728
 20
0.1768654221
 30
0.0
 11
0.1676418398
 21
0.1768654221
 31
0.0
  0
LINE
  5
7E
330
1F
100
AcDbEntity
  8
0
  6
Continuous
 62
     7
370
    25
100
AcDbLine
 10
0.1675023864
 20
0.1768654221
 30
0.0
 11
0.1634516881
 21
0.1768654221
 31
0.0
  0
LINE
  5
7F
330
1F
100
AcDbEntity
  8
0
  6
Continuous
 62
     7
370
    25
100
AcDbLine
 10
0.1632354639
 20
0.1768654221
 30
0.0
 11
0.1574676655
 21
0.1768654221
 31
0.0
  0
LINE
  5
80
330
1F
100
AcDbEntity
  8
0
  6
Continuous
 62
     7
370
    25
100
AcDbLine
 10
0.1571921752
 20
0.1768654221
 30
0.0
 11
0.1502523933
 21
0.1768654221
 31
0.0
  0
LINE
  5
81
330
1F
100
AcDbEntity
  8
0
  6
Continuous
 62
     7
370
    25
100
AcDbLine
 10
0.1499390386
 20
0.1768654221
 30
0.0
 11
0.1452721803
 21
0.1768654221
 31
0.0
  0
LINE
  5
82
330
1F
100
AcDbEntity
  8
0
  6
Continuous
 62
     7
370
    25
100
AcDbLine
 10
0.1452723644
 20
0.1761914223
 30
0.0
 11
0.1696729253
 21
0.1761914223
 31
0.0
  0
ARC
  5
83
330
1F
100
AcDbEntity
  8
0
  6
Continuous
 62
     7
370
    25
100
AcDbCircle
 10
0.2018932031
 20
0.1865284222
 30
0.0
 40
0.0531212252784277
100
AcDbArc
 50
169.5192775947
 51
190.4807224053
  0
ARC
  5
84
330
1F
100
AcDbEntity
  8
0
  6
Continuous
 62
     7
370
    25
100
AcDbCircle
 10
0.2014714742
 20
0.1865280248
 30
0.0
 40
0.0520291705290935
100
AcDbArc
 50
169.2962820724
 51
190.7028273099
  0
ARC
  5
85
330
1F
100
AcDbEntity
  8
0
  6
Continuous
 62
     7
370
    25
100
AcDbCircle
 10
0.179383281
 20
0.186528802
 30
0.0
 40
0.0246135186817247
100
AcDbArc
 50
156.885261879
 51
203.1166607242
  0
ARC
  5
86
330
1F
100
AcDbEntity
  8
0
  6
Continuous
 62
     7
370
    25
100
AcDbCircle
 10
0.1791321285
 20
0.1865284013
 30
0.0
 40
0.0236965407958667
100
AcDbArc
 50
155.9541597203
 51
204.0446801445
  0
ARC
  5
87
330
1F
100
AcDbEntity
  8
0
  6
Continuous
 62
     7
370
    25
100
AcDbCircle
 10
0.1775849157
 20
0.18652876
 30
0.0
 40
0.0178106782321958
100
AcDbArc
 50
147.1445980373
 51
212.8579889949
  0
ARC
  5
88
330
1F
100
AcDbEntity
  8
0
  6
Continuous
 62
     7
370
    25
100
AcDbCircle
 10
0.1774509811
 20
0.1865283501
 30
0.0
 40
0.0170107514043035
100
AcDbArc
 50
145.4044704412
 51
214.5955861331
  0
ARC
  5
89
330
1F
100
AcDbEntity
  8
0
  6
Continuous
 62
     7
370
    25
100
AcDbCircle
 10
0.1785794166
 20
0.1865284937
 30
0.0
 40
0.0152773934934421
100
AcDbArc
 50
140.7653006498
 51
219.2353920528
  0
ARC
  5
8A
330
1F
100
AcDbEntity
  8
0
  6
Continuous
 62
     7
370
    25
100
AcDbCircle
 10
0.1785318322
 20
0.1865280868
 30
0.0
 40
0.0145597486216836
100
AcDbArc
 50
138.3322502816
 51
221.6630358456
  0
ARC
  5
8B
330
1F
100
AcDbEntity
  8
0
  6
Continuous
 62
     7
370
    25
100
AcDbCircle
 10
0.1793996321
 20
0.1865283406
 30
0.0
 40
0.0143940472656697
100
AcDbArc
 50
137.8305996566
 51
222.1685238625
  0
ARC
  5
8C
330
1F
100
AcDbEntity
  8
0
  6
Continuous
 62
     7
370
    25
100
AcDbCircle
 10
0.1793976871
 20
0.186528099
 30
0.0
 40
0.0137183635064553
100
AcDbArc
 50
135.0064915811
 51
224.9900436612
  0
ARC
  5
8D
330
1F
100
AcDbEntity
  8
0
  6
Continuous
 62
     7
370
    25
100
AcDbCircle
 10
0.1349487592
 20
0.1859383173
 30
0.0
 40
0.0001490747274042
100
AcDbArc
 50
253.0018687731
 51
294.9045540811
  0
ARC
  5
8E
330
1F
100
AcDbEntity
  8
0
  6
Continuous
 62
     7
370
    25
100
AcDbCircle
 10
0.1349487592
 20
0.1859383173
 30
0.0
 40
0.0001490747274042
100
AcDbArc
 50
155.0954459189
 51
196.9981312269
  0
LINE
  5
8F
330
1F
100
AcDbEntity
  8
0
  6
Continuous
 62
     7
370
    25
100
AcDbLine
 10
0.135011539
 20
0.1858031073
 30
0.0
 11
0.1350169128
 21
0.1858084811
 31
0.0
  0
LINE
  5
90
330
1F
100
AcDbEntity
  8
0
  6
Continuous
 62
     7
370
    25
100
AcDbLine
 10
0.1348189229
 20
0.1860064709
 30
0.0
 11
0.134813549
 21
0.1860010971
 31
0.0
  0
ARC
  5
91
330
1F
100
AcDbEntity
  8
0
  6
Continuous
 62
     7
370
    25
100
AcDbCircle
 10
0.0749145245
 20
0.1859163712
 30
0.0
 40
0.0001490747274042
100
AcDbArc
 50
253.0036363857
 51
291.4158714968
  0
ARC
  5
92
330
1F
100
AcDbEntity
  8
0
  6
Continuous
 62
     7
370
    25
100
AcDbCircle
 10
0.0749145245
 20
0.1859163712
 30
0.0
 40
0.0001490747274042
100
AcDbArc
 50
155.0951020284
 51
196.9963636143
  0
LINE
  5
93
330
1F
100
AcDbEntity
  8
0
  6
Continuous
 62
     7
370
    25
100
AcDbLine
 10
0.0747846888
 20
0.1859845243
 30
0.0
 11
0.0747793148
 21
0.1859791504
 31
0.0
  0
ARC
  5
94
330
1F
100
AcDbEntity
  8
0
  6
Continuous
 62
     7
370
    25
100
AcDbCircle
 10
0.1349267517
 20
0.1859285985
 30
0.0
 40
0.0001490747274042
100
AcDbArc
 50
253.0018687731
 51
294.9045540811
  0
ARC
  5
95
330
1F
100
AcDbEntity
  8
0
  6
Continuous
 62
     7
370
    25
100
AcDbCircle
 10
0.1349267517
 20
0.1859285985
 30
0.0
 40
0.0001490747274042
100
AcDbArc
 50
155.0954459189
 51
196.9981312269
  0
LINE
  5
96
330
1F
100
AcDbEntity
  8
0
  6
Continuous
 62
     7
370
    25
100
AcDbLine
 10
0.1349895315
 20
0.1857933884
 30
0.0
 11
0.1349917061
 21
0.1857955629
 31
0.0
  0
LINE
  5
97
330
1F
100
AcDbEntity
  8
0
  6
Continuous
 62
     7
370
    25
100
AcDbLine
 10
0.1347969155
 20
0.1859967521
 30
0.0
 11
0.1347915417
 21
0.1859913782
 31
0.0
  0
ARC
  5
98
330
1F
100
AcDbEntity
  8
0
  6
Continuous
 62
     7
370
    25
100
AcDbCircle
 10
0.0749326061
 20
0.1859221642
 30
0.0
 40
0.0001490747274042
100
AcDbArc
 50
253.0036363857
 51
294.9048979716
  0
ARC
  5
99
330
1F
100
AcDbEntity
  8
0
  6
Continuous
 62
     7
370
    25
100
AcDbCircle
 10
0.0749326061
 20
0.1859221642
 30
0.0
 40
0.0001490747274042
100
AcDbArc
 50
155.0951020284
 51
196.9963636143
  0
LINE
  5
9A
330
1F
100
AcDbEntity
  8
0
  6
Continuous
 62
     7
370
    25
100
AcDbLine
 10
0.074995384
 20
0.1857869535
 30
0.0
 11
0.075000758
 21
0.1857923275
 31
0.0
  0
LINE
  5
9B
330
1F
100
AcDbEntity
  8
0
  6
Continuous
 62
     7
370
    25
100
AcDbLine
 10
0.0748027704
 20
0.1859903173
 30
0.0
 11
0.0747973965
 21
0.1859849435
 31
0.0
  0
LINE
  5
9C
330
1F
100
AcDbEntity
  8
0
  6
Continuous
 62
     7
370
    25
100
AcDbLine
 10
0.0752151869
 20
0.1858653336
 30
0.0
 11
0.0752835987
 21
0.1859337443
 31
0.0
  0
LINE
  5
9D
330
1F
100
AcDbEntity
  8
0
  6
Continuous
 62
     7
370
    25
100
AcDbLine
 10
0.1352320938
 20
0.1858822408
 30
0.0
 11
0.1352997474
 21
0.1859498944
 31
0.0
  0
LINE
  5
9E
330
1F
100
AcDbEntity
  8
0
  6
Continuous
 62
     7
370
    25
100
AcDbLine
 10
0.0844799231
 20
0.1756438773
 30
0.0
 11
0.0844799231
 21
0.1756439894
 31
0.0
  0
LINE
  5
9F
330
1F
100
AcDbEntity
  8
0
  6
Continuous
 62
     7
370
    25
100
AcDbLine
 10
0.0644799231
 20
0.1756438773
 30
0.0
 11
0.0644799231
 21
0.1756439894
 31
0.0
  0
LINE
  5
A0
330
1F
100
AcDbEntity
  8
0
  6
Continuous
 62
     7
370
    25
100
AcDbLine
 10
0.0840529249
 20
0.1757057732
 30
0.0
 11
0.0840529249
 21
0.1757056921
 31
0.0
  0
LINE
  5
A1
330
1F
100
AcDbEntity
  8
0
  6
Continuous
 62
     7
370
    25
100
AcDbLine
 10
0.0640529249
 20
0.1757057732
 30
0.0
 11
0.0640529249
 21
0.1757057076
 31
0.0
  0
LINE
  5
A2
330
1F
100
AcDbEntity
  8
0
  6
Continuous
 62
     7
370
    25
100
AcDbLine
 10
0.0840529249
 20
0.1757056921
 30
0.0
 11
0.0840529249
 21
0.1752512234
 31
0.0
  0
LINE
  5
A3
330
1F
100
AcDbEntity
  8
0
  6
Continuous
 62
     7
370
    25
100
AcDbLine
 10
0.0840529249
 20
0.161622135
 30
0.0
 11
0.0840529249
 21
0.1612228435
 31
0.0
  0
LINE
  5
A4
330
1F
100
AcDbEntity
  8
0
  6
Continuous
 62
     7
370
    25
100
AcDbLine
 10
0.0847269247
 20
0.1612228435
 30
0.0
 11
0.0847269247
 21
0.1757050186
 31
0.0
  0
LINE
  5
A5
330
1F
100
AcDbEntity
  8
0
  6
Continuous
 62
     7
370
    25
100
AcDbLine
 10
0.0847269247
 20
0.1610573691
 30
0.0
 11
0.0847269247
 21
0.1612228435
 31
0.0
  0
LINE
  5
A6
330
1F
100
AcDbEntity
  8
0
  6
Continuous
 62
     7
370
    25
100
AcDbLine
 10
0.0840529249
 20
0.1612228435
 30
0.0
 11
0.0840529249
 21
0.1610574811
 31
0.0
  0
LINE
  5
A7
330
1F
100
AcDbEntity
  8
0
  6
Continuous
 62
     7
370
    25
100
AcDbLine
 10
0.0640529249
 20
0.1757057076
 30
0.0
 11
0.0640529249
 21
0.1612228435
 31
0.0
  0
LINE
  5
A8
330
1F
100
AcDbEntity
  8
0
  6
Continuous
 62
     7
370
    25
100
AcDbLine
 10
0.0647269247
 20
0.1612228435
 30
0.0
 11
0.0647269247
 21
0.161622135
 31
0.0
  0
LINE
  5
A9
330
1F
100
AcDbEntity
  8
0
  6
Continuous
 62
     7
370
    25
100
AcDbLine
 10
0.0647269247
 20
0.1752512234
 30
0.0
 11
0.0647269247
 21
0.1757056015
 31
0.0
  0
LINE
  5
AA
330
1F
100
AcDbEntity
  8
0
  6
Continuous
 62
     7
370
    25
100
AcDbLine
 10
0.0647269247
 20
0.1610573691
 30
0.0
 11
0.0647269247
 21
0.1612228435
 31
0.0
  0
LINE
  5
AB
330
1F
100
AcDbEntity
  8
0
  6
Continuous
 62
     7
370
    25
100
AcDbLine
 10
0.0640529249
 20
0.1612228435
 30
0.0
 11
0.0640529249
 21
0.1610574811
 31
0.0
  0
LINE
  5
AC
330
1F
100
AcDbEntity
  8
0
  6
Continuous
 62
     7
370
    25
100
AcDbLine
 10
0.1224899243
 20
0.1855284222
 30
0.0
 11
0.1224899243
 21
0.1771314221
 31
0.0
  0
LINE
  5
AD
330
1F
100
AcDbEntity
  8
0
  6
Continuous
 62
     7
370
    25
100
AcDbLine
 10
0.1226899253
 20
0.1771314221
 30
0.0
 11
0.1226899253
 21
0.1855284222
 31
0.0
  0
LINE
  5
AE
330
1F
100
AcDbEntity
  8
0
  6
Continuous
 62
     7
370
    25
100
AcDbLine
 10
0.1172899244
 20
0.1855284222
 30
0.0
 11
0.1172899244
 21
0.1771314221
 31
0.0
  0
LINE
  5
AF
330
1F
100
AcDbEntity
  8
0
  6
Continuous
 62
     7
370
    25
100
AcDbLine
 10
0.1174899243
 20
0.1771314221
 30
0.0
 11
0.1174899243
 21
0.1855284222
 31
0.0
  0
LINE
  5
B0
330
1F
100
AcDbEntity
  8
0
  6
Continuous
 62
     7
370
    25
100
AcDbLine
 10
0.1120899246
 20
0.1855284222
 30
0.0
 11
0.1120899246
 21
0.1771314221
 31
0.0
  0
LINE
  5
B1
330
1F
100
AcDbEntity
  8
0
  6
Continuous
 62
     7
370
    25
100
AcDbLine
 10
0.1122899244
 20
0.1771314221
 30
0.0
 11
0.1122899244
 21
0.1855284222
 31
0.0
  0
LINE
  5
B2
330
1F
100
AcDbEntity
  8
0
  6
Continuous
 62
     7
370
    25
100
AcDbLine
 10
0.1068899248
 20
0.1855284222
 30
0.0
 11
0.1068899248
 21
0.1771314221
 31
0.0
  0
LINE
  5
B3
330
1F
100
AcDbEntity
  8
0
  6
Continuous
 62
     7
370
    25
100
AcDbLine
 10
0.1070899246
 20
0.1771314221
 30
0.0
 11
0.1070899246
 21
0.1855284222
 31
0.0
  0
LINE
  5
B4
330
1F
100
AcDbEntity
  8
0
  6
Continuous
 62
     7
370
    25
100
AcDbLine
 10
0.101689925
 20
0.1855284222
 30
0.0
 11
0.101689925
 21
0.1771314221
 31
0.0
  0
LINE
  5
B5
330
1F
100
AcDbEntity
  8
0
  6
Continuous
 62
     7
370
    25
100
AcDbLine
 10
0.1018899248
 20
0.1771314221
 30
0.0
 11
0.1018899248
 21
0.1855284222
 31
0.0
  0
LINE
  5
B6
330
1F
100
AcDbEntity
  8
0
  6
Continuous
 62
     7
370
    25
100
AcDbLine
 10
0.0964899252
 20
0.1855284222
 30
0.0
 11
0.0964899252
 21
0.1771314221
 31
0.0
  0
LINE
  5
B7
330
1F
100
AcDbEntity
  8
0
  6
Continuous
 62
     7
370
    25
100
AcDbLine
 10
0.096689925
 20
0.1771314221
 30
0.0
 11
0.096689925
 21
0.1855284222
 31
0.0
  0
LINE
  5
B8
330
1F
100
AcDbEntity
  8
0
  6
Continuous
 62
     7
370
    25
100
AcDbLine
 10
0.0912899254
 20
0.1855284222
 30
0.0
 11
0.0912899254
 21
0.1771314221
 31
0.0
  0
LINE
  5
B9
330
1F
100
AcDbEntity
  8
0
  6
Continuous
 62
     7
370
    25
100
AcDbLine
 10
0.0914899252
 20
0.1771314221
 30
0.0
 11
0.0914899252
 21
0.1855284222
 31
0.0
  0
LINE
  5
BA
330
1F
100
AcDbEntity
  8
0
  6
Continuous
 62
     7
370
    25
100
AcDbLine
 10
0.0860899256
 20
0.1855284222
 30
0.0
 11
0.0860899256
 21
0.1771314221
 31
0.0
  0
LINE
  5
BB
330
1F
100
AcDbEntity
  8
0
  6
Continuous
 62
     7
370
    25
100
AcDbLine
 10
0.0862899254
 20
0.1771314221
 30
0.0
 11
0.0862899254
 21
0.1855284222
 31
0.0
  0
LINE
  5
BC
330
1F
100
AcDbEntity
  8
0
  6
Continuous
 62
     7
370
    25
100
AcDbLine
 10
0.0862899254
 20
0.1875284222
 30
0.0
 11
0.0862899254
 21
0.1959254223
 31
0.0
  0
LINE
  5
BD
330
1F
100
AcDbEntity
  8
0
  6
Continuous
 62
     7
370
    25
100
AcDbLine
 10
0.0860899256
 20
0.1959254223
 30
0.0
 11
0.0860899256
 21
0.1875284222
 31
0.0
  0
LINE
  5
BE
330
1F
100
AcDbEntity
  8
0
  6
Continuous
 62
     7
370
    25
100
AcDbLine
 10
0.0914899252
 20
0.1875284222
 30
0.0
 11
0.0914899252
 21
0.1959254223
 31
0.0
  0
LINE
  5
BF
330
1F
100
AcDbEntity
  8
0
  6
Continuous
 62
     7
370
    25
100
AcDbLine
 10
0.0912899254
 20
0.1959254223
 30
0.0
 11
0.0912899254
 21
0.1875284222
 31
0.0
  0
LINE
  5
C0
330
1F
100
AcDbEntity
  8
0
  6
Continuous
 62
     7
370
    25
100
AcDbLine
 10
0.096689925
 20
0.1875284222
 30
0.0
 11
0.096689925
 21
0.1959254223
 31
0.0
  0
LINE
  5
C1
330
1F
100
AcDbEntity
  8
0
  6
Continuous
 62
     7
370
    25
100
AcDbLine
 10
0.0964899252
 20
0.1959254223
 30
0.0
 11
0.0964899252
 21
0.1875284222
 31
0.0
  0
LINE
  5
C2
330
1F
100
AcDbEntity
  8
0
  6
Continuous
 62
     7
370
    25
100
AcDbLine
 10
0.1018899248
 20
0.1875284222
 30
0.0
 11
0.1018899248
 21
0.1959254223
 31
0.0
  0
LINE
  5
C3
330
1F
100
AcDbEntity
  8
0
  6
Continuous
 62
     7
370
    25
100
AcDbLine
 10
0.101689925
 20
0.1959254223
 30
0.0
 11
0.101689925
 21
0.1875284222
 31
0.0
  0
LINE
  5
C4
330
1F
100
AcDbEntity
  8
0
  6
Continuous
 62
     7
370
    25
100
AcDbLine
 10
0.1070899246
 20
0.1875284222
 30
0.0
 11
0.1070899246
 21
0.1959254223
 31
0.0
  0
LINE
  5
C5
330
1F
100
AcDbEntity
  8
0
  6
Continuous
 62
     7
370
    25
100
AcDbLine
 10
0.1068899248
 20
0.1959254223
 30
0.0
 11
0.1068899248
 21
0.1875284222
 31
0.0
  0
LINE
  5
C6
330
1F
100
AcDbEntity
  8
0
  6
Continuous
 62
     7
370
    25
100
AcDbLine
 10
0.1122899244
 20
0.1875284222
 30
0.0
 11
0.1122899244
 21
0.1959254223
 31
0.0
  0
LINE
  5
C7
330
1F
100
AcDbEntity
  8
0
  6
Continuous
 62
     7
370
    25
100
AcDbLine
 10
0.1120899246
 20
0.1959254223
 30
0.0
 11
0.1120899246
 21
0.1875284222
 31
0.0
  0
LINE
  5
C8
330
1F
100
AcDbEntity
  8
0
  6
Continuous
 62
     7
370
    25
100
AcDbLine
 10
0.1174899243
 20
0.1875284222
 30
0.0
 11
0.1174899243
 21
0.1959254223
 31
0.0
  0
LINE
  5
C9
330
1F
100
AcDbEntity
  8
0
  6
Continuous
 62
     7
370
    25
100
AcDbLine
 10
0.1172899244
 20
0.1959254223
 30
0.0
 11
0.1172899244
 21
0.1875284222
 31
0.0
  0
LINE
  5
CA
330
1F
100
AcDbEntity
  8
0
  6
Continuous
 62
     7
370
    25
100
AcDbLine
 10
0.1226899253
 20
0.1875284222
 30
0.0
 11
0.1226899253
 21
0.1959254223
 31
0.0
  0
LINE
  5
CB
330
1F
100
AcDbEntity
  8
0
  6
Continuous
 62
     7
370
    25
100
AcDbLine
 10
0.1224899243
 20
0.1959254223
 30
0.0
 11
0.1224899243
 21
0.1875284222
 31
0.0
  0
LINE
  5
CC
330
1F
100
AcDbEntity
  8
0
  6
Continuous
 62
     7
370
    25
100
AcDbLine
 10
0.1237355052
 20
0.1771314221
 30
0.0
 11
0.0850442122
 21
0.1771314221
 31
0.0
  0
LINE
  5
CD
330
1F
100
AcDbEntity
  8
0
  6
Continuous
 62
     7
370
    25
100
AcDbLine
 10
0.085044422
 20
0.1759254223
 30
0.0
 11
0.1237356423
 21
0.1759254223
 31
0.0
  0
LINE
  5
CE
330
1F
100
AcDbEntity
  8
0
  6
Continuous
 62
     7
370
    25
100
AcDbLine
 10
0.1237366925
 20
0.1971314221
 30
0.0
 11
0.0850431584
 21
0.1971314221
 31
0.0
  0
LINE
  5
CF
330
1F
100
AcDbEntity
  8
0
  6
Continuous
 62
     7
370
    25
100
AcDbLine
 10
0.0850433586
 20
0.1959254223
 30
0.0
 11
0.1237364934
 21
0.1959254223
 31
0.0
  0
CIRCLE
  5
D0
330
1F
100
AcDbEntity
  8
0
  6
Continuous
 62
     7
370
    25
100
AcDbCircle
 10
0.144390195
 20
0.1965283677
 30
0.0
 40
0.0008813860649369
  0
CIRCLE
  5
D1
330
1F
100
AcDbEntity
  8
0
  6
Continuous
 62
     7
370
    25
100
AcDbCircle
 10
0.0843902006
 20
0.1965283674
 30
0.0
 40
0.0008813847961676
  0
LINE
  5
D2
330
1F
100
AcDbEntity
  8
0
  6
Continuous
 62
     7
370
    25
100
AcDbLine
 10
0.1339041424
 20
0.1865192298
 30
0.0
 11
0.124733331
 21
0.1773484182
 31
0.0
  0
LINE
  5
D3
330
1F
100
AcDbEntity
  8
0
  6
Continuous
 62
     7
370
    25
100
AcDbLine
 10
0.1252101026
 20
0.1768720102
 30
0.0
 11
0.1343807323
 21
0.1860426398
 31
0.0
  0
LINE
  5
D4
330
1F
100
AcDbEntity
  8
0
  6
Continuous
 62
     7
370
    25
100
AcDbLine
 10
0.0739041422
 20
0.1865192298
 30
0.0
 11
0.0647333286
 21
0.1773484182
 31
0.0
  0
LINE
  5
D5
330
1F
100
AcDbEntity
  8
0
  6
Continuous
 62
     7
370
    25
100
AcDbLine
 10
0.0652101038
 20
0.1768720102
 30
0.0
 11
0.0743807314
 21
0.1860426398
 31
0.0
  0
LINE
  5
D6
330
1F
100
AcDbEntity
  8
0
  6
Continuous
 62
     7
370
    25
100
AcDbLine
 10
0.1343991171
 20
0.1860426398
 30
0.0
 11
0.1435699288
 21
0.1768718284
 31
0.0
  0
LINE
  5
D7
330
1F
100
AcDbEntity
  8
0
  6
Continuous
 62
     7
370
    25
100
AcDbLine
 10
0.1440463362
 20
0.1773486006
 30
0.0
 11
0.1352464553
 21
0.1861484815
 31
0.0
  0
LINE
  5
D8
330
1F
100
AcDbEntity
  8
0
  6
Continuous
 62
     7
370
    25
100
AcDbLine
 10
0.1351589233
 20
0.1862360135
 30
0.0
 11
0.134875707
 21
0.1865192298
 31
0.0
  0
LINE
  5
D9
330
1F
100
AcDbEntity
  8
0
  6
Continuous
 62
     7
370
    25
100
AcDbLine
 10
0.0743991182
 20
0.1860426398
 30
0.0
 11
0.083569927
 21
0.1768718284
 31
0.0
  0
LINE
  5
DA
330
1F
100
AcDbEntity
  8
0
  6
Continuous
 62
     7
370
    25
100
AcDbLine
 10
0.084046335
 20
0.1773486006
 30
0.0
 11
0.0748757075
 21
0.1865192298
 31
0.0
  0
LINE
  5
DB
330
1F
100
AcDbEntity
  8
0
  6
Continuous
 62
     7
370
    25
100
AcDbLine
 10
0.0647333286
 20
0.1957084262
 30
0.0
 11
0.0739041422
 21
0.1865376146
 31
0.0
  0
LINE
  5
DC
330
1F
100
AcDbEntity
  8
0
  6
Continuous
 62
     7
370
    25
100
AcDbLine
 10
0.0743807314
 20
0.1870142045
 30
0.0
 11
0.0652103995
 21
0.1961845385
 31
0.0
  0
LINE
  5
DD
330
1F
100
AcDbEntity
  8
0
  6
Continuous
 62
     7
370
    25
100
AcDbLine
 10
0.124733331
 20
0.1957084262
 30
0.0
 11
0.1339041424
 21
0.1865376146
 31
0.0
  0
LINE
  5
DE
330
1F
100
AcDbEntity
  8
0
  6
Continuous
 62
     7
370
    25
100
AcDbLine
 10
0.1343807323
 20
0.1870142045
 30
0.0
 11
0.1252103983
 21
0.1961845385
 31
0.0
  0
LINE
  5
DF
330
1F
100
AcDbEntity
  8
0
  6
Continuous
 62
     7
370
    25
100
AcDbLine
 10
0.083569927
 20
0.196185016
 30
0.0
 11
0.0743991182
 21
0.1870142045
 31
0.0
  0
LINE
  5
E0
330
1F
100
AcDbEntity
  8
0
  6
Continuous
 62
     7
370
    25
100
AcDbLine
 10
0.0748757075
 20
0.1865376146
 30
0.0
 11
0.0840460394
 21
0.1957079487
 31
0.0
  0
LINE
  5
E1
330
1F
100
AcDbEntity
  8
0
  6
Continuous
 62
     7
370
    25
100
AcDbLine
 10
0.1435699288
 20
0.196185016
 30
0.0
 11
0.1343991171
 21
0.1870142045
 31
0.0
  0
LINE
  5
E2
330
1F
100
AcDbEntity
  8
0
  6
Continuous
 62
     7
370
    25
100
AcDbLine
 10
0.134875707
 20
0.1865376146
 30
0.0
 11
0.1440460412
 21
0.1957079487
 31
0.0
  0
ARC
  5
E3
330
1F
100
AcDbEntity
  8
0
  6
Continuous
 62
     7
370
    25
100
AcDbCircle
 10
0.0814984799
 20
0.1625344413
 30
0.0
 40
0.0012847498759182
100
AcDbArc
 50
219.2102475589
 51
284.2904782522
  0
ARC
  5
E4
330
1F
100
AcDbEntity
  8
0
  6
Continuous
 62
     7
370
    25
100
AcDbCircle
 10
0.0820713867
 20
0.1618829089
 30
0.0
 40
0.0006455202960428
100
AcDbArc
 50
237.6328070336
 51
292.3689304164
  0
ARC
  5
E5
330
1F
100
AcDbEntity
  8
0
  6
Continuous
 62
     7
370
    25
100
AcDbCircle
 10
0.0813356042
 20
0.163838502
 30
0.0
 40
0.0027354408296391
100
AcDbArc
 50
290.7567946132
 51
326.9171575435
  0
ARC
  5
E6
330
1F
100
AcDbEntity
  8
0
  6
Continuous
 62
     7
370
    25
100
AcDbCircle
 10
0.0700453298
 20
0.1737220687
 30
0.0
 40
0.0014315800954056
100
AcDbArc
 50
220.1874599152
 51
280.5780579048
  0
LWPOLYLINE
  5
E7
330
1F
100
AcDbEntity
  8
0
  6
Continuous
 62
     7
370
    25
100
AcDbPolyline
 90
       23
 70
   128
 43
0.0
 10
0.0702284382
 20
0.1723597091
 10
0.0702283285
 20
0.1723594874
 10
0.0702315806
 20
0.1723573654
 10
0.0702476643
 20
0.1723478299
 10
0.0702735089
 20
0.1723328417
 10
0.0703001116
 20
0.1723185676
 10
0.0703257845
 20
0.1723065596
 10
0.070351734
 20
0.1722963303
 10
0.0703847073
 20
0.1722856527
 10
0.0704397581
 20
0.1722718733
 10
0.0704989288
 20
0.1722613018
 10
0.0705519674
 20
0.1722550934
 10
0.0706225155
 20
0.1722516435
 10
0.0706902359
 20
0.1722547215
 10
0.070735483
 20
0.1722611588
 10
0.0707820795
 20
0.1722709864
 10
0.0708272074
 20
0.1722829419
 10
0.0708524225
 20
0.1722907477
 10
0.0708616541
 20
0.1722938877
 10
0.0708682964
 20
0.1722963291
 10
0.0708721731
 20
0.1722979336
 10
0.070873637
 20
0.1722986787
 10
0.0708733652
 20
0.1722986119
  0
ARC
  5
E8
330
1F
100
AcDbEntity
  8
0
  6
Continuous
 62
     7
370
    25
100
AcDbCircle
 10
0.0699868596
 20
0.1747836792
 30
0.0
 40
0.002638941567581
100
AcDbArc
 50
289.2093509098
 51
326.1689623504
  0
ARC
  5
E9
330
1F
100
AcDbEntity
  8
0
  6
Continuous
 62
     7
370
    25
100
AcDbCircle
 10
0.0748745742
 20
0.1661781311
 30
0.0
 40
0.0010990095706246
100
AcDbArc
 50
215.0688567781
 51
290.2817831862
  0
LWPOLYLINE
  5
EA
330
1F
100
AcDbEntity
  8
0
  6
Continuous
 62
     7
370
    25
100
AcDbPolyline
 90
       22
 70
   128
 43
0.0
 10
0.0751449059
 20
0.1652033322
 10
0.0751454209
 20
0.1652028053
 10
0.0751581524
 20
0.1651947373
 10
0.0751822184
 20
0.1651802343
 10
0.0752097414
 20
0.1651654928
 10
0.0752396153
 20
0.1651520794
 10
0.075302615
 20
0.1651330083
 10
0.0753631256
 20
0.1651235693
 10
0.0754013823
 20
0.1651202386
 10
0.0754404114
 20
0.1651185506
 10
0.0754901455
 20
0.16511882
 10
0.0755526636
 20
0.1651229542
 10
0.0756162069
 20
0.1651323527
 10
0.0756669329
 20
0.1651450127
 10
0.0756834267
 20
0.1651502293
 10
0.075698633
 20
0.165155484
 10
0.0757127093
 20
0.1651607817
 10
0.0757255362
 20
0.1651660412
 10
0.0757364653
 20
0.1651708263
 10
0.0757435749
 20
0.1651739185
 10
0.0757463597
 20
0.165175063
 10
0.0757461498
 20
0.1651749843
  0
ARC
  5
EB
330
1F
100
AcDbEntity
  8
0
  6
Continuous
 62
     7
370
    25
100
AcDbCircle
 10
0.0747007967
 20
0.1676118783
 30
0.0
 40
0.0026506581067497
100
AcDbArc
 50
292.8103994405
 51
329.482578571
  0
ARC
  5
EC
330
1F
100
AcDbEntity
  8
0
  6
Continuous
 62
     7
370
    25
100
AcDbCircle
 10
0.070505672
 20
0.1629535208
 30
0.0
 40
0.0012034935853613
100
AcDbArc
 50
218.4376089572
 51
286.4976239895
  0
LWPOLYLINE
  5
ED
330
1F
100
AcDbEntity
  8
0
  6
Continuous
 62
     7
370
    25
100
AcDbPolyline
 90
       20
 70
   128
 43
0.0
 10
0.0707423065
 20
0.1618547886
 10
0.0707420872
 20
0.1618548792
 10
0.0707480524
 20
0.1618512052
 10
0.0707591007
 20
0.1618444412
 10
0.0707741068
 20
0.1618354791
 10
0.0707932757
 20
0.1618246811
 10
0.0708473108
 20
0.1617996114
 10
0.0708960674
 20
0.1617848652
 10
0.0709530018
 20
0.1617746323
 10
0.0710146282
 20
0.161768586
 10
0.0710963391
 20
0.1617669242
 10
0.0711654614
 20
0.1617712992
 10
0.0712286328
 20
0.1617813748
 10
0.0712914179
 20
0.16179892
 10
0.0713054369
 20
0.1618038028
 10
0.071315789
 20
0.1618077462
 10
0.0713194941
 20
0.1618092912
 10
0.0713221405
 20
0.1618105167
 10
0.0713236712
 20
0.1618113988
 10
0.0713239763
 20
0.1618118542
  0
ARC
  5
EE
330
1F
100
AcDbEntity
  8
0
  6
Continuous
 62
     7
370
    25
100
AcDbCircle
 10
0.0701476072
 20
0.1644818873
 30
0.0
 40
0.0029181948712386
100
AcDbArc
 50
293.6331013032
 51
327.2164704197
  0
ARC
  5
EF
330
1F
100
AcDbEntity
  8
0
  6
Continuous
 62
     7
370
    25
100
AcDbCircle
 10
0.0667432267
 20
0.1655319935
 30
0.0
 40
0.0012026642475056
100
AcDbArc
 50
218.4239896592
 51
286.5230613134
  0
LWPOLYLINE
  5
F0
330
1F
100
AcDbEntity
  8
0
  6
Continuous
 62
     7
370
    25
100
AcDbPolyline
 90
       20
 70
   128
 43
0.0
 10
0.0669799231
 20
0.1644342893
 10
0.0669797037
 20
0.1644343799
 10
0.0669856642
 20
0.1644307082
 10
0.0669967077
 20
0.1644239443
 10
0.0670117281
 20
0.1644149702
 10
0.0670309208
 20
0.1644041579
 10
0.0670850323
 20
0.164379062
 10
0.0671338366
 20
0.1643643206
 10
0.0671907805
 20
0.1643541091
 10
0.0672523926
 20
0.1643480938
 10
0.0673340891
 20
0.1643464654
 10
0.0674032019
 20
0.164350869
 10
0.0674663637
 20
0.1643609708
 10
0.0675290297
 20
0.1643785065
 10
0.0675430105
 20
0.1643833821
 10
0.0675533388
 20
0.1643873184
 10
0.0675570343
 20
0.164388861
 10
0.0675596808
 20
0.1643900889
 10
0.0675612162
 20
0.1643909734
 10
0.0675615309
 20
0.1643914335
  0
ARC
  5
F1
330
1F
100
AcDbEntity
  8
0
  6
Continuous
 62
     7
370
    25
100
AcDbCircle
 10
0.0663843037
 20
0.1670613273
 30
0.0
 40
0.0029184132506263
100
AcDbArc
 50
293.6488989997
 51
327.2289977808
  0
ARC
  5
F2
330
1F
100
AcDbEntity
  8
0
  6
Continuous
 62
     7
370
    25
100
AcDbCircle
 10
0.0807601158
 20
0.169720998
 30
0.0
 40
0.0012543664837826
100
AcDbArc
 50
218.5356030389
 51
285.128849629
  0
LWPOLYLINE
  5
F3
330
1F
100
AcDbEntity
  8
0
  6
Continuous
 62
     7
370
    25
100
AcDbPolyline
 90
       21
 70
   128
 43
0.0
 10
0.0810018156
 20
0.1685568636
 10
0.081001973
 20
0.1685563939
 10
0.0810060833
 20
0.1685537463
 10
0.0810242508
 20
0.1685428041
 10
0.0810482357
 20
0.1685290652
 10
0.0810729645
 20
0.1685164219
 10
0.0810980271
 20
0.1685055273
 10
0.0811277054
 20
0.1684952288
 10
0.0811787747
 20
0.16848257
 10
0.0812402437
 20
0.168472647
 10
0.08129858
 20
0.1684672254
 10
0.0813742445
 20
0.1684655481
 10
0.0814391182
 20
0.168469662
 10
0.0815046929
 20
0.1684808677
 10
0.0815434311
 20
0.1684911006
 10
0.0815787647
 20
0.1685022932
 10
0.0815905951
 20
0.1685065716
 10
0.0815948818
 20
0.1685082584
 10
0.0815980051
 20
0.1685096007
 10
0.0815998791
 20
0.1685105675
 10
0.0815992163
 20
0.168510732
  0
ARC
  5
F4
330
1F
100
AcDbEntity
  8
0
  6
Continuous
 62
     7
370
    25
100
AcDbCircle
 10
0.0806158932
 20
0.1710314748
 30
0.0
 40
0.0027064036266535
100
AcDbArc
 50
291.0008081066
 51
327.3435964446
  0
ARC
  5
F5
330
1F
100
AcDbEntity
  8
0
  6
Continuous
 62
     7
370
    25
100
AcDbCircle
 10
0.0741375672
 20
0.1712657221
 30
0.0
 40
0.0016894593803643
100
AcDbArc
 50
220.8642075164
 51
274.9205430203
  0
LWPOLYLINE
  5
F6
330
1F
100
AcDbEntity
  8
0
  6
Continuous
 62
     7
370
    25
100
AcDbPolyline
 90
       50
 70
   128
 43
0.0
 10
0.0742166947
 20
0.1696205192
 10
0.0742164038
 20
0.1696204453
 10
0.074219241
 20
0.1696184867
 10
0.0742246388
 20
0.1696152013
 10
0.0742523478
 20
0.1695987456
 10
0.074270458
 20
0.1695886355
 10
0.0742944477
 20
0.1695763701
 10
0.0743569992
 20
0.1695498341
 10
0.0744284962
 20
0.1695273429
 10
0.0745057486
 20
0.1695104199
 10
0.0745863722
 20
0.1695003753
 10
0.0746659086
 20
0.1694992822
 10
0.0747406338
 20
0.1695068961
 10
0.0748051594
 20
0.1695187991
 10
0.074833598
 20
0.1695253473
 10
0.074865155
 20
0.1695334166
 10
0.0749080752
 20
0.1695453482
 10
0.0749575995
 20
0.1695598071
 10
0.0750020407
 20
0.1695743793
 10
0.0750372217
 20
0.1695877355
 10
0.075064554
 20
0.1695993989
 10
0.075092058
 20
0.1696123641
 10
0.0751204251
 20
0.1696271139
 10
0.0751752327
 20
0.1696598786
 10
0.0752390192
 20
0.1697052568
 10
0.0753048752
 20
0.1697578841
 10
0.075362563
 20
0.1698051255
 10
0.0754025887
 20
0.1698364239
 10
0.0754403446
 20
0.1698634797
 10
0.0754773806
 20
0.1698868995
 10
0.075517721
 20
0.1699088674
 10
0.07557034
 20
0.1699342995
 10
0.0756189821
 20
0.169956004
 10
0.0756578158
 20
0.1699726802
 10
0.0756922053
 20
0.1699872559
 10
0.0757444809
 20
0.1700095111
 10
0.07580348
 20
0.1700355762
 10
0.075847926
 20
0.1700565642
 10
0.0758839129
 20
0.1700748675
 10
0.0759162377
 20
0.1700926464
 10
0.0759490584
 20
0.1701123577
 10
0.075990362
 20
0.1701402336
 10
0.0760371683
 20
0.1701774614
 10
0.0760782908
 20
0.170217505
 10
0.0761250256
 20
0.170277031
 10
0.0761541222
 20
0.1703281241
 10
0.076165962
 20
0.1703547578
 10
0.0761793802
 20
0.170392428
 10
0.0761920975
 20
0.1704431599
 10
0.0762010334
 20
0.1705096238
  0
LWPOLYLINE
  5
F7
330
1F
100
AcDbEntity
  8
0
  6
Continuous
 62
     7
370
    25
100
AcDbPolyline
 90
       44
 70
   128
 43
0.0
 10
0.078910198
 20
0.1729571312
 10
0.0790134047
 20
0.1728407353
 10
0.0790986345
 20
0.1727323287
 10
0.0791769407
 20
0.1726319557
 10
0.0792564057
 20
0.1725354021
 10
0.0793343018
 20
0.1724498754
 10
0.0793803642
 20
0.1724044781
 10
0.0794259928
 20
0.1723635679
 10
0.0794801424
 20
0.1723202985
 10
0.0795447157
 20
0.1722756975
 10
0.0796326254
 20
0.1722254663
 10
0.0797136973
 20
0.1721870464
 10
0.0797964428
 20
0.1721519988
 10
0.0798730038
 20
0.1721203058
 10
0.0799444912
 20
0.1720894664
 10
0.0800136898
 20
0.1720571774
 10
0.080084009
 20
0.1720208185
 10
0.0801635502
 20
0.1719744676
 10
0.080236573
 20
0.1719282275
 10
0.0802702997
 20
0.1719066172
 10
0.0803024815
 20
0.1718865066
 10
0.0803363321
 20
0.1718665581
 10
0.0803662394
 20
0.1718506532
 10
0.0803998278
 20
0.1718352705
 10
0.0804367445
 20
0.1718216329
 10
0.0804731367
 20
0.1718111091
 10
0.0805371378
 20
0.1717956
 10
0.0805991743
 20
0.171779291
 10
0.0806482933
 20
0.1717684906
 10
0.0807068489
 20
0.1717597132
 10
0.0807642649
 20
0.1717548078
 10
0.0808383034
 20
0.1717537933
 10
0.0809003161
 20
0.1717580085
 10
0.0809537266
 20
0.1717660814
 10
0.0810094069
 20
0.1717796951
 10
0.0810783909
 20
0.1718045598
 10
0.0811487196
 20
0.1718398636
 10
0.0812111519
 20
0.1718800932
 10
0.0812646149
 20
0.1719204062
 10
0.0813069294
 20
0.1719548219
 10
0.081342573
 20
0.171984108
 10
0.0813576506
 20
0.1719960957
 10
0.081367235
 20
0.1720034831
 10
0.0813697432
 20
0.1720055144
  0
ARC
  5
F8
330
1F
100
AcDbEntity
  8
0
  6
Continuous
 62
     7
370
    25
100
AcDbCircle
 10
0.0814111975
 20
0.1727307887
 30
0.0
 40
0.0007615612707987
100
AcDbArc
 50
263.8624506939
 51
341.291625038
  0
ARC
  5
F9
330
1F
100
AcDbEntity
  8
0
  6
Continuous
 62
     7
370
    25
100
AcDbCircle
 10
0.0691203337
 20
0.1725025621
 30
0.0
 40
0.0039633575639965
100
AcDbArc
 50
226.087518331
 51
253.3096163961
  0
LWPOLYLINE
  5
FA
330
1F
100
AcDbEntity
  8
0
  6
Continuous
 62
     7
370
    25
100
AcDbPolyline
 90
       16
 70
   128
 43
0.0
 10
0.0678896235
 20
0.1687574559
 10
0.0678893088
 20
0.1687575393
 10
0.0678901575
 20
0.1687568253
 10
0.0678920172
 20
0.168755545
 10
0.0678948353
 20
0.1687537306
 10
0.0678985546
 20
0.1687514167
 10
0.0679085587
 20
0.1687454181
 10
0.0679218004
 20
0.1687378019
 10
0.0679829119
 20
0.1687064152
 10
0.0680156182
 20
0.1686921316
 10
0.0680439423
 20
0.1686814218
 10
0.0680663536
 20
0.1686745494
 10
0.0680847643
 20
0.1686708074
 10
0.0681043719
 20
0.1686677497
 10
0.0681266926
 20
0.1686642414
 10
0.0681278656
 20
0.1686640614
  0
LWPOLYLINE
  5
FB
330
1F
100
AcDbEntity
  8
0
  6
Continuous
 62
     7
370
    25
100
AcDbPolyline
 90
       44
 70
   128
 43
0.0
 10
0.0682145355
 20
0.1686532193
 10
0.0682162903
 20
0.1686530417
 10
0.0682590244
 20
0.1686501663
 10
0.0683248757
 20
0.1686488753
 10
0.0683877323
 20
0.1686516565
 10
0.0684462498
 20
0.1686578839
 10
0.0685272501
 20
0.1686730247
 10
0.0685908697
 20
0.1686917275
 10
0.0686479471
 20
0.1687151068
 10
0.0687086533
 20
0.1687474363
 10
0.0687382887
 20
0.1687660211
 10
0.0687672423
 20
0.1687858492
 10
0.0687951039
 20
0.1688063532
 10
0.0688217209
 20
0.1688270383
 10
0.0688468311
 20
0.1688472276
 10
0.0688690661
 20
0.1688652628
 10
0.0689005421
 20
0.1688899081
 10
0.0689112709
 20
0.1688977128
 10
0.0689188812
 20
0.1689027994
 10
0.0689256476
 20
0.1689066892
 10
0.0689292572
 20
0.1689084297
 10
0.0689322947
 20
0.1689096814
 10
0.0689412497
 20
0.1689129048
 10
0.0689587639
 20
0.1689183467
 10
0.0689850043
 20
0.1689254122
 10
0.0690146349
 20
0.1689325362
 10
0.0690784691
 20
0.1689467221
 10
0.0691262768
 20
0.1689572054
 10
0.0691815613
 20
0.1689699023
 10
0.0692413328
 20
0.168985067
 10
0.069289708
 20
0.1689989477
 10
0.0693246124
 20
0.16901012
 10
0.0693610285
 20
0.1690230148
 10
0.0694064091
 20
0.1690411585
 10
0.0694571303
 20
0.1690647131
 10
0.0695022772
 20
0.1690893191
 10
0.0695581721
 20
0.1691261082
 10
0.0696080301
 20
0.1691673475
 10
0.0696550463
 20
0.1692177909
 10
0.0696956824
 20
0.1692776995
 10
0.0697133015
 20
0.169312449
 10
0.0697306679
 20
0.1693568092
 10
0.0697460411
 20
0.1694139045
 10
0.0697565315
 20
0.1694865971
  0
ARC
  5
FC
330
1F
100
AcDbEntity
  8
0
  6
Continuous
 62
     7
370
    25
100
AcDbCircle
 10
0.0819265002
 20
0.1669938646
 30
0.0
 40
0.0024110020412437
100
AcDbArc
 50
224.0871862524
 51
264.4803595272
  0
LWPOLYLINE
  5
FD
330
1F
100
AcDbEntity
  8
0
  6
Continuous
 62
     7
370
    25
100
AcDbPolyline
 90
       49
 70
   128
 43
0.0
 10
0.081605625
 20
0.1646471732
 10
0.0816055821
 20
0.1646471756
 10
0.0816083
 20
0.1646454662
 10
0.0816149042
 20
0.1646413797
 10
0.0816389034
 20
0.1646263784
 10
0.0816680477
 20
0.1646087688
 10
0.0816983221
 20
0.1645919722
 10
0.0817439364
 20
0.1645696729
 10
0.0817881535
 20
0.1645511406
 10
0.0818498085
 20
0.1645300191
 10
0.0819234465
 20
0.1645116656
 10
0.082005534
 20
0.1645008224
 10
0.0820835112
 20
0.1645001667
 10
0.0821585797
 20
0.1645059889
 10
0.0822213028
 20
0.1645148819
 10
0.0822766445
 20
0.1645252746
 10
0.0823468159
 20
0.1645418995
 10
0.0824240969
 20
0.1645662945
 10
0.0824942015
 20
0.1645967
 10
0.0825292776
 20
0.1646154659
 10
0.0825616835
 20
0.1646350282
 10
0.0825956677
 20
0.1646577781
 10
0.0826482914
 20
0.1646968763
 10
0.0827008055
 20
0.1647383469
 10
0.0827345322
 20
0.1647645848
 10
0.0827621697
 20
0.1647848862
 10
0.0827827881
 20
0.164798898
 10
0.0828050516
 20
0.1648125761
 10
0.0828369663
 20
0.1648290437
 10
0.0828720616
 20
0.164843704
 10
0.0828994559
 20
0.1648539704
 10
0.0829279087
 20
0.1648639768
 10
0.0829879044
 20
0.1648838251
 10
0.083044586
 20
0.1649020045
 10
0.0830963419
 20
0.1649189037
 10
0.0831655214
 20
0.1649431079
 10
0.0832296751
 20
0.1649684923
 10
0.0832867335
 20
0.164994654
 10
0.0833412121
 20
0.1650240105
 10
0.0833970116
 20
0.1650602787
 10
0.0834513519
 20
0.1651044171
 10
0.0834806584
 20
0.1651335734
 10
0.0835038517
 20
0.1651604956
 10
0.0835232971
 20
0.1651866882
 10
0.0835436152
 20
0.165219106
 10
0.0835678242
 20
0.1652685803
 10
0.0835837649
 20
0.165313155
 10
0.0835972737
 20
0.1653689521
 10
0.083605871
 20
0.1654379361
  0
LINE
  5
FE
330
1F
100
AcDbEntity
  8
0
  6
Continuous
 62
     7
370
    25
100
AcDbLine
 10
0.1435672752
 20
0.1768654221
 30
0.0
 11
0.1433666025
 21
0.1768654221
 31
0.0
  0
LINE
  5
FF
330
1F
100
AcDbEntity
  8
0
  6
Continuous
 62
     7
370
    25
100
AcDbLine
 10
0.125417708
 20
0.1768654221
 30
0.0
 11
0.1252125738
 21
0.1768654221
 31
0.0
  0
LINE
  5
100
330
1F
100
AcDbEntity
  8
0
  6
Continuous
 62
     7
370
    25
100
AcDbLine
 10
0.1252126978
 20
0.1761914223
 30
0.0
 11
0.1316336931
 21
0.1761914223
 31
0.0
  0
LINE
  5
101
330
1F
100
AcDbEntity
  8
0
  6
Continuous
 62
     7
370
    25
100
AcDbLine
 10
0.1371465423
 20
0.1761914223
 30
0.0
 11
0.1435671513
 21
0.1761914223
 31
0.0
  0
LINE
  5
102
330
1F
100
AcDbEntity
  8
0
  6
Continuous
 62
     7
370
    25
100
AcDbLine
 10
0.1291999249
 20
0.1361786144
 30
0.0
 11
0.1295799248
 21
0.1361786144
 31
0.0
  0
LINE
  5
103
330
1F
100
AcDbEntity
  8
0
  6
Continuous
 62
     7
370
    25
100
AcDbLine
 10
0.1392199246
 20
0.1361786144
 30
0.0
 11
0.1395999248
 21
0.1361786144
 31
0.0
  0
LINE
  5
104
330
1F
100
AcDbEntity
  8
0
  6
Continuous
 62
     7
370
    25
100
AcDbLine
 10
0.1295799248
 20
0.1369786137
 30
0.0
 11
0.1392199246
 21
0.1369786137
 31
0.0
  0
ARC
  5
105
330
1F
100
AcDbEntity
  8
0
  6
Continuous
 62
     7
370
    25
100
AcDbCircle
 10
0.1452846818
 20
0.1965284222
 30
0.0
 40
0.0001490747274042
100
AcDbArc
 50
27.9985229674
 51
69.9039032044
  0
ARC
  5
106
330
1F
100
AcDbEntity
  8
0
  6
Continuous
 62
     7
370
    25
100
AcDbCircle
 10
0.1452846818
 20
0.1965284222
 30
0.0
 40
0.0001490747274042
100
AcDbArc
 50
290.0960967956
 51
332.0014770327
  0
LINE
  5
107
330
1F
100
AcDbEntity
  8
0
  6
Continuous
 62
     7
370
    25
100
AcDbLine
 10
0.1453358964
 20
0.1966684228
 30
0.0
 11
0.1453282968
 21
0.1966684228
 31
0.0
  0
LINE
  5
108
330
1F
100
AcDbEntity
  8
0
  6
Continuous
 62
     7
370
    25
100
AcDbLine
 10
0.1453282968
 20
0.1963884222
 30
0.0
 11
0.1453358964
 21
0.1963884222
 31
0.0
  0
ARC
  5
109
330
1F
100
AcDbEntity
  8
0
  6
Continuous
 62
     7
370
    25
100
AcDbCircle
 10
0.1452846818
 20
0.1765284222
 30
0.0
 40
0.0001490747274042
100
AcDbArc
 50
27.9985229674
 51
69.9039032044
  0
ARC
  5
10A
330
1F
100
AcDbEntity
  8
0
  6
Continuous
 62
     7
370
    25
100
AcDbCircle
 10
0.1452846818
 20
0.1765284222
 30
0.0
 40
0.0001490747274042
100
AcDbArc
 50
290.0960967956
 51
332.0014770326
  0
LINE
  5
10B
330
1F
100
AcDbEntity
  8
0
  6
Continuous
 62
     7
370
    25
100
AcDbLine
 10
0.1453358964
 20
0.1766684222
 30
0.0
 11
0.1453282968
 21
0.1766684222
 31
0.0
  0
LINE
  5
10C
330
1F
100
AcDbEntity
  8
0
  6
Continuous
 62
     7
370
    25
100
AcDbLine
 10
0.1453282968
 20
0.1763884216
 30
0.0
 11
0.1453358964
 21
0.1763884216
 31
0.0
  0
LINE
  5
10D
330
1F
100
AcDbEntity
  8
0
  6
Continuous
 62
     7
370
    25
100
AcDbLine
 10
0.1349935127
 20
0.1862659136
 30
0.0
 11
0.1349868471
 21
0.1862657468
 31
0.0
  0
LINE
  5
10E
330
1F
100
AcDbEntity
  8
0
  6
Continuous
 62
     7
370
    25
100
AcDbLine
 10
0.0749812887
 20
0.1862536875
 30
0.0
 11
0.0749708508
 21
0.1862533526
 31
0.0
  0
LINE
  5
10F
330
1F
100
AcDbEntity
  8
0
  6
Continuous
 62
     7
370
    25
100
AcDbLine
 10
0.1352757057
 20
0.1859824211
 30
0.0
 11
0.1352839851
 21
0.1859907006
 31
0.0
  0
LINE
  5
110
330
1F
100
AcDbEntity
  8
0
  6
Continuous
 62
     7
370
    25
100
AcDbLine
 10
0.1350011424
 20
0.1862735433
 30
0.0
 11
0.1349928629
 21
0.1862652638
 31
0.0
  0
ARC
  5
111
330
1F
100
AcDbEntity
  8
0
  6
Continuous
 62
     7
370
    25
100
AcDbCircle
 10
0.1350188731
 20
0.1860084313
 30
0.0
 40
0.0002672222222222
100
AcDbArc
 50
58.061306983
 51
92.9567789174
  0
ARC
  5
112
330
1F
100
AcDbEntity
  8
0
  6
Continuous
 62
     7
370
    25
100
AcDbCircle
 10
0.1350188731
 20
0.1860084313
 30
0.0
 40
0.0002672222222222
100
AcDbArc
 50
357.0432210826
 51
32.1533582028
  0
LINE
  5
113
330
1F
100
AcDbEntity
  8
0
  6
Continuous
 62
     7
370
    25
100
AcDbLine
 10
0.0752595566
 20
0.1859662711
 30
0.0
 11
0.0752678345
 21
0.1859745506
 31
0.0
  0
LINE
  5
114
330
1F
100
AcDbEntity
  8
0
  6
Continuous
 62
     7
370
    25
100
AcDbLine
 10
0.0749849938
 20
0.1862573934
 30
0.0
 11
0.0749767111
 21
0.1862491138
 31
0.0
  0
ARC
  5
115
330
1F
100
AcDbEntity
  8
0
  6
Continuous
 62
     7
370
    25
100
AcDbCircle
 10
0.0750027212
 20
0.1859922794
 30
0.0
 40
0.0002672222222222
100
AcDbArc
 50
58.1350890508
 51
92.957626538
  0
ARC
  5
116
330
1F
100
AcDbEntity
  8
0
  6
Continuous
 62
     7
370
    25
100
AcDbCircle
 10
0.0750027212
 20
0.1859922794
 30
0.0
 40
0.0002672222222222
100
AcDbArc
 50
357.042373462
 51
32.0845462575
  0
LINE
  5
117
330
1F
100
AcDbEntity
  8
0
  6
Continuous
 62
     7
370
    25
100
AcDbLine
 10
0.0753031586
 20
0.1854779182
 30
0.0
 11
0.0752890156
 21
0.1854637763
 31
0.0
  0
LINE
  5
118
330
1F
100
AcDbEntity
  8
0
  6
Continuous
 62
     7
370
    25
100
AcDbLine
 10
0.0767782305
 20
0.1839745625
 30
0.0
 11
0.0767923735
 21
0.1839887043
 31
0.0
  0
LINE
  5
119
330
1F
100
AcDbEntity
  8
0
  6
Continuous
 62
     7
370
    25
100
AcDbLine
 10
0.0769679449
 20
0.1841060089
 30
0.0
 11
0.0769772528
 21
0.1841153187
 31
0.0
  0
LINE
  5
11A
330
1F
100
AcDbEntity
  8
0
  6
Continuous
 62
     7
370
    25
100
AcDbLine
 10
0.0754880379
 20
0.1856045327
 30
0.0
 11
0.0754815148
 21
0.1855980077
 31
0.0
  0
LINE
  5
11B
330
1F
100
AcDbEntity
  8
0
  6
Continuous
 62
     7
370
    25
100
AcDbLine
 10
0.1369837709
 20
0.1841218362
 30
0.0
 11
0.1369914914
 21
0.1841295567
 31
0.0
  0
LINE
  5
11C
330
1F
100
AcDbEntity
  8
0
  6
Continuous
 62
     7
370
    25
100
AcDbLine
 10
0.1355022776
 20
0.1856187706
 30
0.0
 11
0.1354982577
 21
0.1856147508
 31
0.0
  0
LINE
  5
11D
330
1F
100
AcDbEntity
  8
0
  6
Continuous
 62
     7
370
    25
100
AcDbLine
 10
0.1353173384
 20
0.1854920971
 30
0.0
 11
0.1353031967
 21
0.1854779555
 31
0.0
  0
LINE
  5
11E
330
1F
100
AcDbEntity
  8
0
  6
Continuous
 62
     7
370
    25
100
AcDbLine
 10
0.1367924107
 20
0.1839887416
 30
0.0
 11
0.1368065522
 21
0.1840028831
 31
0.0
  0
LINE
  5
11F
330
1F
100
AcDbEntity
  8
0
  6
Continuous
 62
     7
370
    25
100
AcDbLine
 10
0.1391778446
 20
0.1816314339
 30
0.0
 11
0.1393192605
 21
0.1817728501
 31
0.0
  0
LINE
  5
120
330
1F
100
AcDbEntity
  8
0
  6
Continuous
 62
     7
370
    25
100
AcDbLine
 10
0.0791636847
 20
0.1816172745
 30
0.0
 11
0.079305105
 21
0.1817586928
 31
0.0
  0
LINE
  5
121
330
1F
100
AcDbEntity
  8
0
  6
Continuous
 62
     7
370
    25
100
AcDbLine
 10
0.0540110872
 20
0.1865284222
 30
0.0
 11
0.0540205954
 21
0.1865513832
 31
0.0
  0
LINE
  5
122
330
1F
100
AcDbEntity
  8
0
  6
Continuous
 62
     7
370
    25
100
AcDbLine
 10
0.0570414684
 20
0.1938444071
 30
0.0
 11
0.0570509766
 21
0.1938673686
 31
0.0
  0
LINE
  5
123
330
1F
100
AcDbEntity
  8
0
  6
Continuous
 62
     7
370
    25
100
AcDbLine
 10
0.0570509766
 20
0.1938673686
 30
0.0
 11
0.0570969008
 21
0.1938214462
 31
0.0
  0
LINE
  5
124
330
1F
100
AcDbEntity
  8
0
  6
Continuous
 62
     7
370
    25
100
AcDbLine
 10
0.0540760325
 20
0.1865284222
 30
0.0
 11
0.0540110872
 21
0.1865284222
 31
0.0
  0
LINE
  5
125
330
1F
100
AcDbEntity
  8
0
  6
Continuous
 62
     7
370
    25
100
AcDbLine
 10
0.0547687624
 20
0.1865284222
 30
0.0
 11
0.0575867365
 21
0.1933316117
 31
0.0
  0
LINE
  5
126
330
1F
100
AcDbEntity
  8
0
  6
Continuous
 62
     7
370
    25
100
AcDbLine
 10
0.0575408123
 20
0.1933775335
 30
0.0
 11
0.0575867365
 21
0.1933316117
 31
0.0
  0
LINE
  5
127
330
1F
100
AcDbEntity
  8
0
  6
Continuous
 62
     7
370
    25
100
AcDbLine
 10
0.0547687624
 20
0.1865284222
 30
0.0
 11
0.0547038172
 21
0.1865284222
 31
0.0
  0
LINE
  5
128
330
1F
100
AcDbEntity
  8
0
  6
Continuous
 62
     7
370
    25
100
AcDbLine
 10
0.0570969008
 20
0.1938214462
 30
0.0
 11
0.0575408123
 21
0.1933775335
 31
0.0
  0
LINE
  5
129
330
1F
100
AcDbEntity
  8
0
  6
Continuous
 62
     7
370
    25
100
AcDbLine
 10
0.0547038172
 20
0.1865284222
 30
0.0
 11
0.0540760325
 21
0.1865284222
 31
0.0
  0
LINE
  5
12A
330
1F
100
AcDbEntity
  8
0
  6
Continuous
 62
     7
370
    25
100
AcDbLine
 10
0.0536695193
 20
0.1863600415
 30
0.0
 11
0.0540205954
 21
0.1865054612
 31
0.0
  0
LINE
  5
12B
330
1F
100
AcDbEntity
  8
0
  6
Continuous
 62
     7
370
    25
100
AcDbLine
 10
0.0566903923
 20
0.1790670174
 30
0.0
 11
0.0570414684
 21
0.1792124372
 31
0.0
  0
LINE
  5
12C
330
1F
100
AcDbEntity
  8
0
  6
Continuous
 62
     7
370
    25
100
AcDbLine
 10
0.0540205954
 20
0.1865054612
 30
0.0
 11
0.0570414684
 21
0.1792124372
 31
0.0
  0
LINE
  5
12D
330
1F
100
AcDbEntity
  8
0
  6
Continuous
 62
     7
370
    25
100
AcDbLine
 10
0.0536695193
 20
0.1863600415
 30
0.0
 11
0.0566903923
 21
0.1790670174
 31
0.0
  0
LINE
  5
12E
330
1F
100
AcDbEntity
  8
0
  6
Continuous
 62
     7
370
    25
100
AcDbLine
 10
0.0570969008
 20
0.1792353981
 30
0.0
 11
0.0570509766
 21
0.1791894757
 31
0.0
  0
LINE
  5
12F
330
1F
100
AcDbEntity
  8
0
  6
Continuous
 62
     7
370
    25
100
AcDbLine
 10
0.0570509766
 20
0.1791894757
 30
0.0
 11
0.0570414684
 21
0.1792124372
 31
0.0
  0
LINE
  5
130
330
1F
100
AcDbEntity
  8
0
  6
Continuous
 62
     7
370
    25
100
AcDbLine
 10
0.0540205954
 20
0.1865054612
 30
0.0
 11
0.0540110872
 21
0.1865284222
 31
0.0
  0
LINE
  5
131
330
1F
100
AcDbEntity
  8
0
  6
Continuous
 62
     7
370
    25
100
AcDbLine
 10
0.0540110872
 20
0.1865284222
 30
0.0
 11
0.0540760325
 21
0.1865284222
 31
0.0
  0
LINE
  5
132
330
1F
100
AcDbEntity
  8
0
  6
Continuous
 62
     7
370
    25
100
AcDbLine
 10
0.0575867365
 20
0.1797252327
 30
0.0
 11
0.0547687624
 21
0.1865284222
 31
0.0
  0
LINE
  5
133
330
1F
100
AcDbEntity
  8
0
  6
Continuous
 62
     7
370
    25
100
AcDbLine
 10
0.0575867365
 20
0.1797252327
 30
0.0
 11
0.0575408123
 21
0.1796793109
 31
0.0
  0
LINE
  5
134
330
1F
100
AcDbEntity
  8
0
  6
Continuous
 62
     7
370
    25
100
AcDbLine
 10
0.0547038172
 20
0.1865284222
 30
0.0
 11
0.0547687624
 21
0.1865284222
 31
0.0
  0
LINE
  5
135
330
1F
100
AcDbEntity
  8
0
  6
Continuous
 62
     7
370
    25
100
AcDbLine
 10
0.0575408123
 20
0.1796793109
 30
0.0
 11
0.0570969008
 21
0.1792353981
 31
0.0
  0
LINE
  5
136
330
1F
100
AcDbEntity
  8
0
  6
Continuous
 62
     7
370
    25
100
AcDbLine
 10
0.0633341644
 20
0.1761755853
 30
0.0
 11
0.0634795855
 21
0.1765266603
 31
0.0
  0
LINE
  5
137
330
1F
100
AcDbEntity
  8
0
  6
Continuous
 62
     7
370
    25
100
AcDbLine
 10
0.05692852
 20
0.1788288909
 30
0.0
 11
0.0570739411
 21
0.1791799652
 31
0.0
  0
LINE
  5
138
330
1F
100
AcDbEntity
  8
0
  6
Continuous
 62
     7
370
    25
100
AcDbLine
 10
0.0570739411
 20
0.1791799652
 30
0.0
 11
0.0634795855
 21
0.1765266603
 31
0.0
  0
LINE
  5
139
330
1F
100
AcDbEntity
  8
0
  6
Continuous
 62
     7
370
    25
100
AcDbLine
 10
0.05692852
 20
0.1788288909
 30
0.0
 11
0.0633341644
 21
0.1761755853
 31
0.0
  0
LINE
  5
13A
330
1F
100
AcDbEntity
  8
0
  6
Continuous
 62
     7
370
    25
100
AcDbLine
 10
0.0635009859
 20
0.1765177947
 30
0.0
 11
0.0634795855
 21
0.1765266603
 31
0.0
  0
LINE
  5
13B
330
1F
100
AcDbEntity
  8
0
  6
Continuous
 62
     7
370
    25
100
AcDbLine
 10
0.0570739411
 20
0.1791799652
 30
0.0
 11
0.0570509766
 21
0.1791894757
 31
0.0
  0
LINE
  5
13C
330
1F
100
AcDbEntity
  8
0
  6
Continuous
 62
     7
370
    25
100
AcDbLine
 10
0.0570509766
 20
0.1791894757
 30
0.0
 11
0.0570969008
 21
0.1792353981
 31
0.0
  0
LINE
  5
13D
330
1F
100
AcDbEntity
  8
0
  6
Continuous
 62
     7
370
    25
100
AcDbLine
 10
0.0637688683
 20
0.1771645098
 30
0.0
 11
0.0575867365
 21
0.1797252327
 31
0.0
  0
LINE
  5
13E
330
1F
100
AcDbEntity
  8
0
  6
Continuous
 62
     7
370
    25
100
AcDbLine
 10
0.0575408123
 20
0.1796793109
 30
0.0
 11
0.0575867365
 21
0.1797252327
 31
0.0
  0
LINE
  5
13F
330
1F
100
AcDbEntity
  8
0
  6
Continuous
 62
     7
370
    25
100
AcDbLine
 10
0.0575867365
 20
0.1933316117
 30
0.0
 11
0.0637688683
 21
0.1958923345
 31
0.0
  0
LINE
  5
140
330
1F
100
AcDbEntity
  8
0
  6
Continuous
 62
     7
370
    25
100
AcDbLine
 10
0.0575867365
 20
0.1933316117
 30
0.0
 11
0.0575408123
 21
0.1933775335
 31
0.0
  0
LINE
  5
141
330
1F
100
AcDbEntity
  8
0
  6
Continuous
 62
     7
370
    25
100
AcDbLine
 10
0.0570509766
 20
0.1938673686
 30
0.0
 11
0.0570739411
 21
0.1938768792
 31
0.0
  0
LINE
  5
142
330
1F
100
AcDbEntity
  8
0
  6
Continuous
 62
     7
370
    25
100
AcDbLine
 10
0.0634795855
 20
0.1965301841
 30
0.0
 11
0.0635009859
 21
0.1965390497
 31
0.0
  0
LINE
  5
143
330
1F
100
AcDbEntity
  8
0
  6
Continuous
 62
     7
370
    25
100
AcDbLine
 10
0.0570969008
 20
0.1938214462
 30
0.0
 11
0.0570509766
 21
0.1938673686
 31
0.0
  0
LWPOLYLINE
  5
144
330
1F
100
AcDbEntity
  8
0
  6
Continuous
 62
     7
370
    25
100
AcDbPolyline
 90
        3
 70
   128
 43
0.0
 10
0.0634205912
 20
0.1966726118
 10
0.0634327553
 20
0.1967387169
 10
0.0634562538
 20
0.1968261819
  0
LINE
  5
145
330
1F
100
AcDbEntity
  8
0
  6
Continuous
 62
     7
370
    25
100
AcDbLine
 10
0.0635899256
 20
0.1772386306
 30
0.0
 11
0.0635899256
 21
0.1958182138
 31
0.0
  0
LWPOLYLINE
  5
146
330
1F
100
AcDbEntity
  8
0
  6
Continuous
 62
     7
370
    25
100
AcDbPolyline
 90
        3
 70
   128
 43
0.0
 10
0.0634205912
 20
0.1763842326
 10
0.0634327553
 20
0.1763181275
 10
0.0634562538
 20
0.1762306624
  0
ARC
  5
147
330
1F
100
AcDbEntity
  8
0
  6
Continuous
 62
     7
370
    25
100
AcDbCircle
 10
0.0643899247
 20
0.1865284222
 30
0.0
 40
0.01034
100
AcDbArc
 50
142.101019255
 51
172.898980745
  0
ARC
  5
148
330
1F
100
AcDbEntity
  8
0
  6
Continuous
 62
     7
370
    25
100
AcDbCircle
 10
0.0643899247
 20
0.1865284222
 30
0.0
 40
0.01034
100
AcDbArc
 50
187.101019255
 51
217.898980745
  0
ARC
  5
149
330
1F
100
AcDbEntity
  8
0
  6
Continuous
 62
     7
370
    25
100
AcDbCircle
 10
0.0643899247
 20
0.1865284222
 30
0.0
 40
0.01034
100
AcDbArc
 50
232.1010192551
 51
262.8989807449
  0
LINE
  5
14A
330
1F
100
AcDbEntity
  8
0
  6
Continuous
 62
     7
370
    25
100
AcDbLine
 10
0.0633607529
 20
0.1762397676
 30
0.0
 11
0.0634562538
 21
0.1762306624
 31
0.0
  0
ARC
  5
14B
330
1F
100
AcDbEntity
  8
0
  6
Continuous
 62
     7
370
    25
100
AcDbCircle
 10
0.0643899247
 20
0.1865284222
 30
0.0
 40
0.01034
100
AcDbArc
 50
97.1010192551
 51
127.8989807449
  0
LINE
  5
14C
330
1F
100
AcDbEntity
  8
0
  6
Continuous
 62
     7
370
    25
100
AcDbLine
 10
0.0633607529
 20
0.1968170767
 30
0.0
 11
0.0634562538
 21
0.1968261819
 31
0.0
  0
LINE
  5
14D
330
1F
100
AcDbEntity
  8
0
  6
Continuous
 62
     7
370
    25
100
AcDbLine
 10
0.05692852
 20
0.1942279535
 30
0.0
 11
0.0570739411
 21
0.1938768792
 31
0.0
  0
LINE
  5
14E
330
1F
100
AcDbEntity
  8
0
  6
Continuous
 62
     7
370
    25
100
AcDbLine
 10
0.0633341644
 20
0.196881259
 30
0.0
 11
0.0634795855
 21
0.1965301841
 31
0.0
  0
LINE
  5
14F
330
1F
100
AcDbEntity
  8
0
  6
Continuous
 62
     7
370
    25
100
AcDbLine
 10
0.0570739411
 20
0.1938768792
 30
0.0
 11
0.0634795855
 21
0.1965301841
 31
0.0
  0
LINE
  5
150
330
1F
100
AcDbEntity
  8
0
  6
Continuous
 62
     7
370
    25
100
AcDbLine
 10
0.05692852
 20
0.1942279535
 30
0.0
 11
0.0633341644
 21
0.196881259
 31
0.0
  0
LINE
  5
151
330
1F
100
AcDbEntity
  8
0
  6
Continuous
 62
     7
370
    25
100
AcDbLine
 10
0.0536695193
 20
0.1866968029
 30
0.0
 11
0.0540205954
 21
0.1865513832
 31
0.0
  0
LINE
  5
152
330
1F
100
AcDbEntity
  8
0
  6
Continuous
 62
     7
370
    25
100
AcDbLine
 10
0.0566903923
 20
0.193989827
 30
0.0
 11
0.0570414684
 21
0.1938444071
 31
0.0
  0
LINE
  5
153
330
1F
100
AcDbEntity
  8
0
  6
Continuous
 62
     7
370
    25
100
AcDbLine
 10
0.0540205954
 20
0.1865513832
 30
0.0
 11
0.0570414684
 21
0.1938444071
 31
0.0
  0
LINE
  5
154
330
1F
100
AcDbEntity
  8
0
  6
Continuous
 62
     7
370
    25
100
AcDbLine
 10
0.0536695193
 20
0.1866968029
 30
0.0
 11
0.0566903923
 21
0.193989827
 31
0.0
  0
ARC
  5
155
330
1F
100
AcDbEntity
  8
0
  6
Continuous
 62
     7
370
    25
100
AcDbCircle
 10
0.1696729247
 20
0.1965284222
 30
0.0
 40
0.000337
100
AcDbArc
 50
270.0
 51
90.0
  0
ARC
  5
156
330
1F
100
AcDbEntity
  8
0
  6
Continuous
 62
     7
370
    25
100
AcDbCircle
 10
0.1696729247
 20
0.1765284222
 30
0.0
 40
0.000337
100
AcDbArc
 50
270.0
 51
90.0
  0
ARC
  5
157
330
1F
100
AcDbEntity
  8
0
  6
Continuous
 62
     7
370
    25
100
AcDbCircle
 10
0.1696729247
 20
0.1965284222
 30
0.0
 40
0.000337
100
AcDbArc
 50
270.0
 51
0.0
  0
ARC
  5
158
330
1F
100
AcDbEntity
  8
0
  6
Continuous
 62
     7
370
    25
100
AcDbCircle
 10
0.1696729247
 20
0.1965284222
 30
0.0
 40
0.000337
100
AcDbArc
 50
0.0
 51
90.0
  0
ARC
  5
159
330
1F
100
AcDbEntity
  8
0
  6
Continuous
 62
     7
370
    25
100
AcDbCircle
 10
0.1696729247
 20
0.1765284222
 30
0.0
 40
0.000337
100
AcDbArc
 50
270.0
 51
0.0
  0
ARC
  5
15A
330
1F
100
AcDbEntity
  8
0
  6
Continuous
 62
     7
370
    25
100
AcDbCircle
 10
0.1696729247
 20
0.1765284222
 30
0.0
 40
0.000337
100
AcDbArc
 50
0.0
 51
90.0
  0
ARC
  5
15B
330
1F
100
AcDbEntity
  8
0
  6
Continuous
 62
     7
370
    25
100
AcDbCircle
 10
0.1500599299
 20
0.1956107396
 30
0.0
 40
0.0006428469426134
100
AcDbArc
 50
64.5950804101
 51
115.4049195899
  0
ARC
  5
15C
330
1F
100
AcDbEntity
  8
0
  6
Continuous
 62
     7
370
    25
100
AcDbCircle
 10
0.1500596682
 20
0.1737185604
 30
0.0
 40
0.0031590262319448
100
AcDbArc
 50
84.9702165412
 51
95.0297834588
  0
ARC
  5
15D
330
1F
100
AcDbEntity
  8
0
  6
Continuous
 62
     7
370
    25
100
AcDbCircle
 10
0.157453681
 20
0.1633963962
 30
0.0
 40
0.0134765470722932
100
AcDbArc
 50
89.84155224
 51
91.914307387
  0
ARC
  5
15E
330
1F
100
AcDbEntity
  8
0
  6
Continuous
 62
     7
370
    25
100
AcDbCircle
 10
0.1594358425
 20
0.3077970184
 30
0.0
 40
0.1116320604698164
100
AcDbArc
 50
268.7523790065
 51
268.9999635336
  0
LINE
  5
15F
330
1F
100
AcDbEntity
  8
0
  6
Continuous
 62
     7
370
    25
100
AcDbLine
 10
0.1574889181
 20
0.1961816137
 30
0.0
 11
0.1574903725
 21
0.1961847674
 31
0.0
  0
LWPOLYLINE
  5
160
330
1F
100
AcDbEntity
  8
0
  6
Continuous
 62
     7
370
    25
100
AcDbPolyline
 90
       12
 70
   128
 43
0.0
 10
0.1634464095
 20
0.1768687736
 10
0.1634500383
 20
0.1768641894
 10
0.1634463857
 20
0.1768417745
 10
0.1634352778
 20
0.1768308037
 10
0.1634202169
 20
0.1768266773
 10
0.1633969877
 20
0.1768282627
 10
0.1633572624
 20
0.1768375044
 10
0.1632895206
 20
0.1768549501
 10
0.1632176707
 20
0.1768686866
 10
0.1631410263
 20
0.1768752682
 10
0.1630625938
 20
0.1768712115
 10
0.1630332635
 20
0.1768654221
  0
LWPOLYLINE
  5
161
330
1F
100
AcDbEntity
  8
0
  6
Continuous
 62
     7
370
    25
100
AcDbPolyline
 90
       13
 70
   128
 43
0.0
 10
0.1630351351
 20
0.1961914223
 10
0.1630688236
 20
0.1961848401
 10
0.1631321428
 20
0.1961814379
 10
0.1632168816
 20
0.1961880445
 10
0.1633022926
 20
0.1962049567
 10
0.163359413
 20
0.1962199079
 10
0.1633965491
 20
0.1962285077
 10
0.1634181784
 20
0.1962302923
 10
0.1634331225
 20
0.1962271064
 10
0.163443024
 20
0.1962198072
 10
0.163448293
 20
0.1962111723
 10
0.1634504531
 20
0.1961946248
 10
0.1634465693
 20
0.1961878418
  0
LWPOLYLINE
  5
162
330
1F
100
AcDbEntity
  8
0
  6
Continuous
 62
     7
370
    25
100
AcDbPolyline
 90
       12
 70
   128
 43
0.0
 10
0.1673044727
 20
0.1961914223
 10
0.1673387216
 20
0.1961848401
 10
0.1674013136
 20
0.1961814379
 10
0.1674826286
 20
0.1961880445
 10
0.1675615738
 20
0.1962049567
 10
0.167611749
 20
0.1962199079
 10
0.1676416562
 20
0.1962285077
 10
0.1676562689
 20
0.1962302923
 10
0.1676628993
 20
0.1962271064
 10
0.1676627777
 20
0.1962198072
 10
0.1676577042
 20
0.1962111723
 10
0.1676544879
 20
0.1962084704
  0
LWPOLYLINE
  5
163
330
1F
100
AcDbEntity
  8
0
  6
Continuous
 62
     7
370
    25
100
AcDbPolyline
 90
       11
 70
   128
 43
0.0
 10
0.1676530932
 20
0.1768480998
 10
0.1676604365
 20
0.1768417745
 10
0.1676633547
 20
0.1768308037
 10
0.1676574181
 20
0.1768266773
 10
0.1676419829
 20
0.1768282627
 10
0.1676099275
 20
0.1768375044
 10
0.1675500034
 20
0.1768549501
 10
0.1674833725
 20
0.1768686866
 10
0.1674099682
 20
0.1768752682
 10
0.1673324702
 20
0.1768712115
 10
0.1673026393
 20
0.1768654221
  0
LWPOLYLINE
  5
164
330
1F
100
AcDbEntity
  8
0
  6
Continuous
 62
     7
370
    25
100
AcDbPolyline
 90
        9
 70
   128
 43
0.0
 10
0.1696953605
 20
0.1768291401
 10
0.1696975969
 20
0.1768266773
 10
0.1696914123
 20
0.1768282627
 10
0.1696700524
 20
0.1768375044
 10
0.1696236084
 20
0.1768549501
 10
0.1695684884
 20
0.1768686866
 10
0.1695052527
 20
0.1768752682
 10
0.1694360088
 20
0.1768712115
 10
0.1694084929
 20
0.1768654221
  0
LWPOLYLINE
  5
165
330
1F
100
AcDbEntity
  8
0
  6
Continuous
 62
     7
370
    25
100
AcDbPolyline
 90
        9
 70
   128
 43
0.0
 10
0.1694101141
 20
0.1961914223
 10
0.1694416903
 20
0.1961848401
 10
0.1694976471
 20
0.1961814379
 10
0.169567859
 20
0.1961880445
 10
0.1696328853
 20
0.1962049567
 10
0.169671378
 20
0.1962199079
 10
0.1696912263
 20
0.1962285077
 10
0.1696974443
 20
0.1962302923
 10
0.1696957038
 20
0.1962278884
  0
LWPOLYLINE
  5
166
330
1F
100
AcDbEntity
  8
0
  6
Continuous
 62
     7
370
    25
100
AcDbPolyline
 90
       20
 70
   128
 43
0.0
 10
0.1348084032
 20
0.1858927915
 10
0.134806219
 20
0.1858946946
 10
0.1348093962
 20
0.1858912398
 10
0.1348175907
 20
0.1858828017
 10
0.1348299142
 20
0.1858702946
 10
0.1348450315
 20
0.1858550738
 10
0.1348613044
 20
0.1858387888
 10
0.1348769693
 20
0.1858232042
 10
0.1348903288
 20
0.185810009
 10
0.1348999352
 20
0.1858006331
 10
0.1349047474
 20
0.1857960923
 10
0.134904244
 20
0.185796879
 10
0.1348984796
 20
0.1858029076
 10
0.1348880788
 20
0.185813525
 10
0.1348741686
 20
0.1858275806
 10
0.1348582566
 20
0.1858435514
 10
0.1348420669
 20
0.1858597065
 10
0.1348273539
 20
0.1858742953
 10
0.1348157122
 20
0.185885737
 10
0.1348084032
 20
0.1858927915
  0
LWPOLYLINE
  5
167
330
1F
100
AcDbEntity
  8
0
  6
Continuous
 62
     7
370
    25
100
AcDbPolyline
 90
        3
 70
   128
 43
0.0
 10
0.134817961
 20
0.1859971794
 10
0.1348138265
 20
0.1860009344
 10
0.1348135468
 20
0.1860010939
  0
ARC
  5
168
330
1F
100
AcDbEntity
  8
0
  6
Continuous
 62
     7
370
    25
100
AcDbCircle
 10
0.1297530859
 20
0.1807517682
 30
0.0
 40
0.0072915909296384
100
AcDbArc
 50
43.8491414731
 51
46.0031630192
  0
LWPOLYLINE
  5
169
330
1F
100
AcDbEntity
  8
0
  6
Continuous
 62
     7
370
    25
100
AcDbPolyline
 90
        3
 70
   128
 43
0.0
 10
0.1348233348
 20
0.1860025532
 10
0.1348192003
 20
0.1860063082
 10
0.1348189229
 20
0.1860064709
  0
ARC
  5
16A
330
1F
100
AcDbEntity
  8
0
  6
Continuous
 62
     7
370
    25
100
AcDbCircle
 10
0.1297463867
 20
0.1807449528
 30
0.0
 40
0.0073087456684427
100
AcDbArc
 50
43.8524819039
 51
46.0014527839
  0
LINE
  5
16B
330
1F
100
AcDbEntity
  8
0
  6
Continuous
 62
     7
370
    25
100
AcDbLine
 10
0.1348436377
 20
0.1858566298
 30
0.0
 11
0.1348158866
 21
0.1858848975
 31
0.0
  0
LINE
  5
16C
330
1F
100
AcDbEntity
  8
0
  6
Continuous
 62
     7
370
    25
100
AcDbLine
 10
0.1348834458
 20
0.1858169852
 30
0.0
 11
0.1348436377
 21
0.1858566298
 31
0.0
  0
LINE
  5
16D
330
1F
100
AcDbEntity
  8
0
  6
Continuous
 62
     7
370
    25
100
AcDbLine
 10
0.134895503
 20
0.1858056083
 30
0.0
 11
0.1348834458
 21
0.1858169852
 31
0.0
  0
LINE
  5
16E
330
1F
100
AcDbEntity
  8
0
  6
Continuous
 62
     7
370
    25
100
AcDbLine
 10
0.1348677519
 20
0.1858338761
 30
0.0
 11
0.134895503
 21
0.1858056083
 31
0.0
  0
LINE
  5
16F
330
1F
100
AcDbEntity
  8
0
  6
Continuous
 62
     7
370
    25
100
AcDbLine
 10
0.1348279437
 20
0.1858735207
 30
0.0
 11
0.1348677519
 21
0.1858338761
 31
0.0
  0
LINE
  5
170
330
1F
100
AcDbEntity
  8
0
  6
Continuous
 62
     7
370
    25
100
AcDbLine
 10
0.1348158866
 20
0.1858848975
 30
0.0
 11
0.1348279437
 21
0.1858735207
 31
0.0
  0
LINE
  5
171
330
1F
100
AcDbEntity
  8
0
  6
Continuous
 62
     7
370
    25
100
AcDbLine
 10
0.1348838941
 20
0.1858174334
 30
0.0
 11
0.1348834458
 21
0.1858169852
 31
0.0
  0
LINE
  5
172
330
1F
100
AcDbEntity
  8
0
  6
Continuous
 62
     7
370
    25
100
AcDbLine
 10
0.1348442697
 20
0.1858572618
 30
0.0
 11
0.1348436377
 21
0.1858566298
 31
0.0
  0
LWPOLYLINE
  5
173
330
1F
100
AcDbEntity
  8
0
  6
Continuous
 62
     7
370
    25
100
AcDbPolyline
 90
       20
 70
   128
 43
0.0
 10
0.0748068283
 20
0.1858385525
 10
0.0747922657
 20
0.185853017
 10
0.0747808693
 20
0.1858642618
 10
0.0747738693
 20
0.1858710683
 10
0.0747720287
 20
0.1858726989
 10
0.074775543
 20
0.185868977
 10
0.0747840307
 20
0.1858603058
 10
0.0747965763
 20
0.1858476251
 10
0.0748118208
 20
0.1858323088
 10
0.0748281048
 20
0.185816017
 10
0.0748436735
 20
0.1858005149
 10
0.0748568295
 20
0.1857874826
 10
0.0748661564
 20
0.1857783321
 10
0.0748706387
 20
0.1857740552
 10
0.0748697947
 20
0.1857751153
 10
0.0748637055
 20
0.1857813975
 10
0.0748530434
 20
0.1857922211
 10
0.0748389576
 20
0.1858064132
 10
0.074822974
 20
0.1858224357
 10
0.0748068283
 20
0.1858385525
  0
ARC
  5
174
330
1F
100
AcDbEntity
  8
0
  6
Continuous
 62
     7
370
    25
100
AcDbCircle
 10
0.0746148158
 20
0.1857940505
 30
0.0
 40
0.0002476312448148
100
AcDbArc
 50
44.7004931989
 51
48.3720954001
  0
ARC
  5
175
330
1F
100
AcDbEntity
  8
0
  6
Continuous
 62
     7
370
    25
100
AcDbCircle
 10
0.0746494071
 20
0.1858317624
 30
0.0
 40
0.0002040522683089
100
AcDbArc
 50
45.0236448535
 51
48.4727770333
  0
LINE
  5
176
330
1F
100
AcDbEntity
  8
0
  6
Continuous
 62
     7
370
    25
100
AcDbLine
 10
0.0747824572
 20
0.1858621458
 30
0.0
 11
0.0747915075
 21
0.1858536165
 31
0.0
  0
LINE
  5
177
330
1F
100
AcDbEntity
  8
0
  6
Continuous
 62
     7
370
    25
100
AcDbLine
 10
0.0748124073
 20
0.1858318347
 30
0.0
 11
0.0747824572
 21
0.1858621458
 31
0.0
  0
LINE
  5
178
330
1F
100
AcDbEntity
  8
0
  6
Continuous
 62
     7
370
    25
100
AcDbLine
 10
0.0748514078
 20
0.1857929941
 30
0.0
 11
0.0748124073
 21
0.1858318347
 31
0.0
  0
LINE
  5
179
330
1F
100
AcDbEntity
  8
0
  6
Continuous
 62
     7
370
    25
100
AcDbLine
 10
0.0748604582
 20
0.1857844647
 30
0.0
 11
0.0748514078
 21
0.1857929941
 31
0.0
  0
LINE
  5
17A
330
1F
100
AcDbEntity
  8
0
  6
Continuous
 62
     7
370
    25
100
AcDbLine
 10
0.0748305081
 20
0.1858147758
 30
0.0
 11
0.0748604582
 21
0.1857844647
 31
0.0
  0
LINE
  5
17B
330
1F
100
AcDbEntity
  8
0
  6
Continuous
 62
     7
370
    25
100
AcDbLine
 10
0.0747915075
 20
0.1858536165
 30
0.0
 11
0.0748305081
 21
0.1858147758
 31
0.0
  0
LINE
  5
17C
330
1F
100
AcDbEntity
  8
0
  6
Continuous
 62
     7
370
    25
100
AcDbLine
 10
0.0748517225
 20
0.1857933076
 30
0.0
 11
0.0748514078
 21
0.1857929941
 31
0.0
  0
LINE
  5
17D
330
1F
100
AcDbEntity
  8
0
  6
Continuous
 62
     7
370
    25
100
AcDbLine
 10
0.0748128937
 20
0.1858323201
 30
0.0
 11
0.0748124073
 21
0.1858318347
 31
0.0
  0
LWPOLYLINE
  5
17E
330
1F
100
AcDbEntity
  8
0
  6
Continuous
 62
     7
370
    25
100
AcDbPolyline
 90
       20
 70
   128
 43
0.0
 10
0.1348191593
 20
0.1858508828
 10
0.134804582
 20
0.1858653315
 10
0.1347931586
 20
0.185876551
 10
0.134786127
 20
0.1858833257
 10
0.1347842495
 20
0.1858849215
 10
0.1347877292
 20
0.1858811654
 10
0.1347961893
 20
0.1858724643
 10
0.1348087129
 20
0.1858597614
 10
0.1348239428
 20
0.185844433
 10
0.1348402286
 20
0.1858281403
 10
0.1348558057
 20
0.1858126488
 10
0.1348689858
 20
0.1857996373
 10
0.1348783409
 20
0.1857905158
 10
0.134882857
 20
0.1857862727
 10
0.1348820448
 20
0.1857873678
 10
0.1348759924
 20
0.1857936824
 10
0.1348653555
 20
0.1858045324
 10
0.1348512869
 20
0.1858187419
 10
0.1348353111
 20
0.185834771
 10
0.1348191593
 20
0.1858508828
  0
ARC
  5
17F
330
1F
100
AcDbEntity
  8
0
  6
Continuous
 62
     7
370
    25
100
AcDbCircle
 10
0.1346559387
 20
0.1858329006
 30
0.0
 40
0.000208570582469
100
AcDbArc
 50
44.2967960211
 51
49.4476049397
  0
LWPOLYLINE
  5
180
330
1F
100
AcDbEntity
  8
0
  6
Continuous
 62
     7
370
    25
100
AcDbPolyline
 90
        3
 70
   128
 43
0.0
 10
0.1349895283
 20
0.1857933861
 10
0.1349892681
 20
0.1857937931
 10
0.1349885327
 20
0.1857946464
  0
ARC
  5
181
330
1F
100
AcDbEntity
  8
0
  6
Continuous
 62
     7
370
    25
100
AcDbCircle
 10
0.134682901
 20
0.1858631511
 30
0.0
 40
0.0001756374748563
100
AcDbArc
 50
44.6972608919
 51
49.5227203554
  0
LINE
  5
182
330
1F
100
AcDbEntity
  8
0
  6
Continuous
 62
     7
370
    25
100
AcDbLine
 10
0.134794659
 20
0.1858743481
 30
0.0
 11
0.1348037961
 21
0.1858659045
 31
0.0
  0
LINE
  5
183
330
1F
100
AcDbEntity
  8
0
  6
Continuous
 62
     7
370
    25
100
AcDbLine
 10
0.1348245503
 20
0.1858439776
 30
0.0
 11
0.134794659
 21
0.1858743481
 31
0.0
  0
LINE
  5
184
330
1F
100
AcDbEntity
  8
0
  6
Continuous
 62
     7
370
    25
100
AcDbLine
 10
0.1348635787
 20
0.1858051636
 30
0.0
 11
0.1348245503
 21
0.1858439776
 31
0.0
  0
LINE
  5
185
330
1F
100
AcDbEntity
  8
0
  6
Continuous
 62
     7
370
    25
100
AcDbLine
 10
0.1348727157
 20
0.18579672
 30
0.0
 11
0.1348635787
 21
0.1858051636
 31
0.0
  0
LINE
  5
186
330
1F
100
AcDbEntity
  8
0
  6
Continuous
 62
     7
370
    25
100
AcDbLine
 10
0.1348428244
 20
0.1858270905
 30
0.0
 11
0.1348727157
 21
0.18579672
 31
0.0
  0
LINE
  5
187
330
1F
100
AcDbEntity
  8
0
  6
Continuous
 62
     7
370
    25
100
AcDbLine
 10
0.1348037961
 20
0.1858659045
 30
0.0
 11
0.1348428244
 21
0.1858270905
 31
0.0
  0
LINE
  5
188
330
1F
100
AcDbEntity
  8
0
  6
Continuous
 62
     7
370
    25
100
AcDbLine
 10
0.1348639953
 20
0.1858055803
 30
0.0
 11
0.1348635787
 21
0.1858051636
 31
0.0
  0
LINE
  5
189
330
1F
100
AcDbEntity
  8
0
  6
Continuous
 62
     7
370
    25
100
AcDbLine
 10
0.1348251953
 20
0.1858446227
 30
0.0
 11
0.1348245503
 21
0.1858439776
 31
0.0
  0
LWPOLYLINE
  5
18A
330
1F
100
AcDbEntity
  8
0
  6
Continuous
 62
     7
370
    25
100
AcDbPolyline
 90
       20
 70
   128
 43
0.0
 10
0.074792218
 20
0.1858766063
 10
0.0747900675
 20
0.1858785442
 10
0.0747932814
 20
0.1858751238
 10
0.0748015068
 20
0.1858667158
 10
0.0748138521
 20
0.1858542314
 10
0.0748289822
 20
0.1858390235
 10
0.0748452566
 20
0.1858227399
 10
0.0748609112
 20
0.1858071454
 10
0.0748742483
 20
0.1857939299
 10
0.074883828
 20
0.1857845254
 10
0.0748886059
 20
0.1857799511
 10
0.0748880671
 20
0.1857807026
 10
0.0748822687
 20
0.1857866986
 10
0.0748718451
 20
0.1857972892
 10
0.0748579167
 20
0.1858113269
 10
0.0748419951
 20
0.1858272904
 10
0.0748258112
 20
0.1858434497
 10
0.0748111103
 20
0.1858580539
 10
0.0747994946
 20
0.1858695203
 10
0.074792218
 20
0.1858766063
  0
LWPOLYLINE
  5
18B
330
1F
100
AcDbEntity
  8
0
  6
Continuous
 62
     7
370
    25
100
AcDbPolyline
 90
        3
 70
   128
 43
0.0
 10
0.0748017452
 20
0.1859809645
 10
0.0747976587
 20
0.1859847665
 10
0.0747973917
 20
0.1859849416
  0
ARC
  5
18C
330
1F
100
AcDbEntity
  8
0
  6
Continuous
 62
     7
370
    25
100
AcDbCircle
 10
0.0680464943
 20
0.1790450791
 30
0.0
 40
0.0096819378926942
100
AcDbArc
 50
44.1337023711
 51
45.7558899465
  0
LWPOLYLINE
  5
18D
330
1F
100
AcDbEntity
  8
0
  6
Continuous
 62
     7
370
    25
100
AcDbPolyline
 90
        3
 70
   128
 43
0.0
 10
0.0748071192
 20
0.1859863385
 10
0.0748030327
 20
0.1859901404
 10
0.0748027704
 20
0.1859903173
  0
ARC
  5
18E
330
1F
100
AcDbEntity
  8
0
  6
Continuous
 62
     7
370
    25
100
AcDbCircle
 10
0.068046645
 20
0.1790451945
 30
0.0
 40
0.0096893493574199
100
AcDbArc
 50
44.134518081
 51
45.7554592911
  0
LINE
  5
18F
330
1F
100
AcDbEntity
  8
0
  6
Continuous
 62
     7
370
    25
100
AcDbLine
 10
0.074827566
 20
0.1858405593
 30
0.0
 11
0.0747997521
 21
0.1858687631
 31
0.0
  0
LINE
  5
190
330
1F
100
AcDbEntity
  8
0
  6
Continuous
 62
     7
370
    25
100
AcDbLine
 10
0.0748673533
 20
0.1858008945
 30
0.0
 11
0.074827566
 21
0.1858405593
 31
0.0
  0
LINE
  5
191
330
1F
100
AcDbEntity
  8
0
  6
Continuous
 62
     7
370
    25
100
AcDbLine
 10
0.0748793266
 20
0.1857894335
 30
0.0
 11
0.0748673533
 21
0.1858008945
 31
0.0
  0
LINE
  5
192
330
1F
100
AcDbEntity
  8
0
  6
Continuous
 62
     7
370
    25
100
AcDbLine
 10
0.0748515127
 20
0.1858176373
 30
0.0
 11
0.0748793266
 21
0.1857894335
 31
0.0
  0
LINE
  5
193
330
1F
100
AcDbEntity
  8
0
  6
Continuous
 62
     7
370
    25
100
AcDbLine
 10
0.0748117254
 20
0.1858573021
 30
0.0
 11
0.0748515127
 21
0.1858176373
 31
0.0
  0
LINE
  5
194
330
1F
100
AcDbEntity
  8
0
  6
Continuous
 62
     7
370
    25
100
AcDbLine
 10
0.0747997521
 20
0.1858687631
 30
0.0
 11
0.0748117254
 21
0.1858573021
 31
0.0
  0
LINE
  5
195
330
1F
100
AcDbEntity
  8
0
  6
Continuous
 62
     7
370
    25
100
AcDbLine
 10
0.0748676918
 20
0.1858012318
 30
0.0
 11
0.0748673533
 21
0.1858008945
 31
0.0
  0
LINE
  5
196
330
1F
100
AcDbEntity
  8
0
  6
Continuous
 62
     7
370
    25
100
AcDbLine
 10
0.0748280428
 20
0.185841035
 30
0.0
 11
0.074827566
 21
0.1858405593
 31
0.0
  0
LINE
  5
197
330
1F
100
AcDbEntity
  8
0
  6
Continuous
 62
     7
370
    25
100
AcDbLine
 10
0.1346928307
 20
0.1863807167
 30
0.0
 11
0.1347335918
 21
0.1863399557
 31
0.0
  0
LINE
  5
198
330
1F
100
AcDbEntity
  8
0
  6
Continuous
 62
     7
370
    25
100
AcDbLine
 10
0.1347365437
 20
0.1863429078
 30
0.0
 11
0.1346947443
 21
0.1863847072
 31
0.0
  0
LINE
  5
199
330
1F
100
AcDbEntity
  8
0
  6
Continuous
 62
     7
370
    25
100
AcDbLine
 10
0.1347079317
 20
0.1864168853
 30
0.0
 11
0.134755957
 21
0.1864649105
 31
0.0
  0
LINE
  5
19A
330
1F
100
AcDbEntity
  8
0
  6
Continuous
 62
     7
370
    25
100
AcDbLine
 10
0.1347621013
 20
0.1864587662
 30
0.0
 11
0.134755957
 21
0.1864649105
 31
0.0
  0
LINE
  5
19B
330
1F
100
AcDbEntity
  8
0
  6
Continuous
 62
     7
370
    25
100
AcDbLine
 10
0.0746847103
 20
0.1863651149
 30
0.0
 11
0.074721732
 21
0.1863280955
 31
0.0
  0
LINE
  5
19C
330
1F
100
AcDbEntity
  8
0
  6
Continuous
 62
     7
370
    25
100
AcDbLine
 10
0.074723954
 20
0.186330317
 30
0.0
 11
0.0746862839
 21
0.1863679856
 31
0.0
  0
LINE
  5
19D
330
1F
100
AcDbEntity
  8
0
  6
Continuous
 62
     7
370
    25
100
AcDbLine
 10
0.0747079323
 20
0.1864168853
 30
0.0
 11
0.0747433661
 21
0.1864523209
 31
0.0
  0
LINE
  5
19E
330
1F
100
AcDbEntity
  8
0
  6
Continuous
 62
     7
370
    25
100
AcDbLine
 10
0.0747495125
 20
0.1864461767
 30
0.0
 11
0.0747433661
 21
0.1864523209
 31
0.0
  0
LINE
  5
19F
330
1F
100
AcDbEntity
  8
0
  6
Continuous
 62
     7
370
    25
100
AcDbLine
 10
0.0746928833
 20
0.1863808205
 30
0.0
 11
0.0747336672
 21
0.1863400329
 31
0.0
  0
LINE
  5
1A0
330
1F
100
AcDbEntity
  8
0
  6
Continuous
 62
     7
370
    25
100
AcDbLine
 10
0.0747358893
 20
0.1863422544
 30
0.0
 11
0.0746943234
 21
0.1863838202
 31
0.0
  0
ARC
  5
1A1
330
1F
100
AcDbEntity
  8
0
  6
Continuous
 62
     7
370
    25
100
AcDbCircle
 10
0.0683891244
 20
0.1792975257
 30
0.0
 40
0.0095693872273153
100
AcDbArc
 50
43.906547504
 51
45.3435945139
  0
LINE
  5
1A2
330
1F
100
AcDbEntity
  8
0
  6
Continuous
 62
     7
370
    25
100
AcDbLine
 10
0.0747001742
 20
0.1863968395
 30
0.0
 11
0.0747614477
 21
0.186458114
 31
0.0
  0
LINE
  5
1A3
330
1F
100
AcDbEntity
  8
0
  6
Continuous
 62
     7
370
    25
100
AcDbLine
 10
0.0751150034
 20
0.1861045606
 30
0.0
 11
0.0747614477
 21
0.186458114
 31
0.0
  0
LINE
  5
1A4
330
1F
100
AcDbEntity
  8
0
  6
Continuous
 62
     7
370
    25
100
AcDbLine
 10
0.1347043045
 20
0.1864009694
 30
0.0
 11
0.1347494548
 21
0.1863558189
 31
0.0
  0
LINE
  5
1A5
330
1F
100
AcDbEntity
  8
0
  6
Continuous
 62
     7
370
    25
100
AcDbLine
 10
0.1347072564
 20
0.1864039214
 30
0.0
 11
0.1347043045
 21
0.1864009694
 31
0.0
  0
LINE
  5
1A6
330
1F
100
AcDbEntity
  8
0
  6
Continuous
 62
     7
370
    25
100
AcDbLine
 10
0.1347524069
 20
0.1863587709
 30
0.0
 11
0.1347072564
 21
0.1864039214
 31
0.0
  0
ARC
  5
1A7
330
1F
100
AcDbEntity
  8
0
  6
Continuous
 62
     7
370
    25
100
AcDbCircle
 10
0.130092896
 20
0.1810010925
 30
0.0
 40
0.0071834491433616
100
AcDbArc
 50
43.544458995
 51
45.4588800326
  0
LINE
  5
1A8
330
1F
100
AcDbEntity
  8
0
  6
Continuous
 62
     7
370
    25
100
AcDbLine
 10
0.1347072564
 20
0.1864039214
 30
0.0
 11
0.1347779645
 21
0.1864746294
 31
0.0
  0
LINE
  5
1A9
330
1F
100
AcDbEntity
  8
0
  6
Continuous
 62
     7
370
    25
100
AcDbLine
 10
0.1351315178
 20
0.186121076
 30
0.0
 11
0.1347779645
 21
0.1864746294
 31
0.0
  0
ARC
  5
1AA
330
1F
100
AcDbEntity
  8
0
  6
Continuous
 62
     7
370
    25
100
AcDbCircle
 10
0.0642956049
 20
0.176352949
 30
0.0
 40
0.0006899673543049
100
AcDbArc
 50
238.9683999587
 51
246.4693300666
  0
ARC
  5
1AB
330
1F
100
AcDbEntity
  8
0
  6
Continuous
 62
     7
370
    25
100
AcDbCircle
 10
0.0847972303
 20
0.1754793018
 30
0.0
 40
0.0002369184873996
100
AcDbArc
 50
107.6445023582
 51
114.3061909974
  0
ARC
  5
1AC
330
1F
100
AcDbEntity
  8
0
  6
Continuous
 62
     7
370
    25
100
AcDbCircle
 10
0.084390345
 20
0.1610480021
 30
0.0
 40
0.0003364305571494
100
AcDbArc
 50
177.8540705849
 51
1.8233408575
  0
ARC
  5
1AD
330
1F
100
AcDbEntity
  8
0
  6
Continuous
 62
     7
370
    25
100
AcDbCircle
 10
0.064390345
 20
0.1610480021
 30
0.0
 40
0.0003364305571494
100
AcDbArc
 50
177.8540705849
 51
1.8233408575
  0
LINE
  5
1AE
330
1F
100
AcDbEntity
  8
0
  6
Continuous
 62
     7
370
    25
100
AcDbLine
 10
0.0853899239
 20
0.1855284222
 30
0.0
 11
0.1233899246
 21
0.1855284222
 31
0.0
  0
LINE
  5
1AF
330
1F
100
AcDbEntity
  8
0
  6
Continuous
 62
     7
370
    25
100
AcDbLine
 10
0.1233899246
 20
0.1855284222
 30
0.0
 11
0.1233899246
 21
0.1856084222
 31
0.0
  0
LINE
  5
1B0
330
1F
100
AcDbEntity
  8
0
  6
Continuous
 62
     7
370
    25
100
AcDbLine
 10
0.0853899239
 20
0.1855284222
 30
0.0
 11
0.0853899239
 21
0.1856084222
 31
0.0
  0
LINE
  5
1B1
330
1F
100
AcDbEntity
  8
0
  6
Continuous
 62
     7
370
    25
100
AcDbLine
 10
0.1233899246
 20
0.1856084222
 30
0.0
 11
0.1233899246
 21
0.1874484222
 31
0.0
  0
LINE
  5
1B2
330
1F
100
AcDbEntity
  8
0
  6
Continuous
 62
     7
370
    25
100
AcDbLine
 10
0.0853899239
 20
0.1856084222
 30
0.0
 11
0.0853899239
 21
0.1874484222
 31
0.0
  0
LINE
  5
1B3
330
1F
100
AcDbEntity
  8
0
  6
Continuous
 62
     7
370
    25
100
AcDbLine
 10
0.0853899239
 20
0.1875284222
 30
0.0
 11
0.1233899246
 21
0.1875284222
 31
0.0
  0
LINE
  5
1B4
330
1F
100
AcDbEntity
  8
0
  6
Continuous
 62
     7
370
    25
100
AcDbLine
 10
0.1233899246
 20
0.1874484222
 30
0.0
 11
0.1233899246
 21
0.1875284222
 31
0.0
  0
LINE
  5
1B5
330
1F
100
AcDbEntity
  8
0
  6
Continuous
 62
     7
370
    25
100
AcDbLine
 10
0.0853899239
 20
0.1874484222
 30
0.0
 11
0.0853899239
 21
0.1875284222
 31
0.0
  0
LINE
  5
1B6
330
1F
100
AcDbEntity
  8
0
  6
Continuous
 62
     7
370
    25
100
AcDbLine
 10
0.1234899245
 20
0.1855404221
 30
0.0
 11
0.1233899246
 21
0.1855404221
 31
0.0
  0
LINE
  5
1B7
330
1F
100
AcDbEntity
  8
0
  6
Continuous
 62
     7
370
    25
100
AcDbLine
 10
0.1234899245
 20
0.1856004222
 30
0.0
 11
0.1234899245
 21
0.1855404221
 31
0.0
  0
LINE
  5
1B8
330
1F
100
AcDbEntity
  8
0
  6
Continuous
 62
     7
370
    25
100
AcDbLine
 10
0.1234899245
 20
0.1874564222
 30
0.0
 11
0.1234899245
 21
0.1856004222
 31
0.0
  0
LINE
  5
1B9
330
1F
100
AcDbEntity
  8
0
  6
Continuous
 62
     7
370
    25
100
AcDbLine
 10
0.1234899245
 20
0.1875164222
 30
0.0
 11
0.1233899246
 21
0.1875164222
 31
0.0
  0
LINE
  5
1BA
330
1F
100
AcDbEntity
  8
0
  6
Continuous
 62
     7
370
    25
100
AcDbLine
 10
0.1234899245
 20
0.1875164222
 30
0.0
 11
0.1234899245
 21
0.1874564222
 31
0.0
  0
LINE
  5
1BB
330
1F
100
AcDbEntity
  8
0
  6
Continuous
 62
     7
370
    25
100
AcDbLine
 10
0.0852899264
 20
0.1855404221
 30
0.0
 11
0.0853899239
 21
0.1855404221
 31
0.0
  0
LINE
  5
1BC
330
1F
100
AcDbEntity
  8
0
  6
Continuous
 62
     7
370
    25
100
AcDbLine
 10
0.0852899264
 20
0.1855404221
 30
0.0
 11
0.0852899264
 21
0.1856004222
 31
0.0
  0
LINE
  5
1BD
330
1F
100
AcDbEntity
  8
0
  6
Continuous
 62
     7
370
    25
100
AcDbLine
 10
0.0852899264
 20
0.1856004222
 30
0.0
 11
0.0852899264
 21
0.1874564222
 31
0.0
  0
LINE
  5
1BE
330
1F
100
AcDbEntity
  8
0
  6
Continuous
 62
     7
370
    25
100
AcDbLine
 10
0.0852899264
 20
0.1875164222
 30
0.0
 11
0.0853899239
 21
0.1875164222
 31
0.0
  0
LINE
  5
1BF
330
1F
100
AcDbEntity
  8
0
  6
Continuous
 62
     7
370
    25
100
AcDbLine
 10
0.0852899264
 20
0.1874564222
 30
0.0
 11
0.0852899264
 21
0.1875164222
 31
0.0
  0
CIRCLE
  5
1C0
330
1F
100
AcDbEntity
  8
0
  6
Continuous
 62
     7
370
    25
100
AcDbCircle
 10
0.0861951224
 20
0.1762139911
 30
0.0
 40
0.0001277218759822
  0
CIRCLE
  5
1C1
330
1F
100
AcDbEntity
  8
0
  6
Continuous
 62
     7
370
    25
100
AcDbCircle
 10
0.0913951222
 20
0.1762139911
 30
0.0
 40
0.0001277218759822
  0
CIRCLE
  5
1C2
330
1F
100
AcDbEntity
  8
0
  6
Continuous
 62
     7
370
    25
100
AcDbCircle
 10
0.0965951204
 20
0.1762139912
 30
0.0
 40
0.0001277217999075
  0
CIRCLE
  5
1C3
330
1F
100
AcDbEntity
  8
0
  6
Continuous
 62
     7
370
    25
100
AcDbCircle
 10
0.1017951202
 20
0.1762139912
 30
0.0
 40
0.0001277217999075
  0
CIRCLE
  5
1C4
330
1F
100
AcDbEntity
  8
0
  6
Continuous
 62
     7
370
    25
100
AcDbCircle
 10
0.1069951221
 20
0.1762139903
 30
0.0
 40
0.0001277209908714
  0
CIRCLE
  5
1C5
330
1F
100
AcDbEntity
  8
0
  6
Continuous
 62
     7
370
    25
100
AcDbCircle
 10
0.1121951219
 20
0.1762139903
 30
0.0
 40
0.0001277209908714
  0
CIRCLE
  5
1C6
330
1F
100
AcDbEntity
  8
0
  6
Continuous
 62
     7
370
    25
100
AcDbCircle
 10
0.1173951206
 20
0.1762139907
 30
0.0
 40
0.0001277214321916
  0
CIRCLE
  5
1C7
330
1F
100
AcDbEntity
  8
0
  6
Continuous
 62
     7
370
    25
100
AcDbCircle
 10
0.1225951215
 20
0.1762139903
 30
0.0
 40
0.0001277210276891
  0
ARC
  5
1C8
330
1F
100
AcDbEntity
  8
0
  6
Continuous
 62
     7
370
    25
100
AcDbCircle
 10
0.1121694802
 20
0.1762163103
 30
0.0
 40
0.0001085217382709
100
AcDbArc
 50
188.1818322937
 51
280.8588143794
  0
ARC
  5
1C9
330
1F
100
AcDbEntity
  8
0
  6
Continuous
 62
     7
370
    25
100
AcDbCircle
 10
0.112205887
 20
0.176223174
 30
0.0
 40
0.0001145597631733
100
AcDbArc
 50
261.9904895382
 51
347.1789088751
  0
ARC
  5
1CA
330
1F
100
AcDbEntity
  8
0
  6
Continuous
 62
     7
370
    25
100
AcDbCircle
 10
0.1173694846
 20
0.1762163182
 30
0.0
 40
0.0001085285932791
100
AcDbArc
 50
188.1855056546
 51
280.8556459752
  0
ARC
  5
1CB
330
1F
100
AcDbEntity
  8
0
  6
Continuous
 62
     7
370
    25
100
AcDbCircle
 10
0.1174058849
 20
0.1762231767
 30
0.0
 40
0.0001145622320427
100
AcDbArc
 50
261.9916247091
 51
347.1777737043
  0
ARC
  5
1CC
330
1F
100
AcDbEntity
  8
0
  6
Continuous
 62
     7
370
    25
100
AcDbCircle
 10
0.1225694826
 20
0.1762163142
 30
0.0
 40
0.0001085250213032
100
AcDbArc
 50
188.1836484753
 51
280.8569981978
  0
ARC
  5
1CD
330
1F
100
AcDbEntity
  8
0
  6
Continuous
 62
     7
370
    25
100
AcDbCircle
 10
0.1226058852
 20
0.176223176
 30
0.0
 40
0.0001145616093728
100
AcDbArc
 50
261.9913384159
 51
347.1780599975
  0
ARC
  5
1CE
330
1F
100
AcDbEntity
  8
0
  6
Continuous
 62
     7
370
    25
100
AcDbCircle
 10
0.1069694804
 20
0.1762163103
 30
0.0
 40
0.0001085217382709
100
AcDbArc
 50
188.1818322937
 51
280.8588143794
  0
ARC
  5
1CF
330
1F
100
AcDbEntity
  8
0
  6
Continuous
 62
     7
370
    25
100
AcDbCircle
 10
0.1070058844
 20
0.1762231781
 30
0.0
 40
0.0001145634557406
100
AcDbArc
 50
261.9921873319
 51
347.1772110813
  0
ARC
  5
1D0
330
1F
100
AcDbEntity
  8
0
  6
Continuous
 62
     7
370
    25
100
AcDbCircle
 10
0.0861694779
 20
0.1762163063
 30
0.0
 40
0.0001085179410889
100
AcDbArc
 50
188.1799689099
 51
280.8596678311
  0
ARC
  5
1D1
330
1F
100
AcDbEntity
  8
0
  6
Continuous
 62
     7
370
    25
100
AcDbCircle
 10
0.0862058857
 20
0.1762231768
 30
0.0
 40
0.000114562582899
100
AcDbArc
 50
261.9906192502
 51
347.1777791069
  0
ARC
  5
1D2
330
1F
100
AcDbEntity
  8
0
  6
Continuous
 62
     7
370
    25
100
AcDbCircle
 10
0.0913694843
 20
0.1762163156
 30
0.0
 40
0.0001085258395258
100
AcDbArc
 50
188.184338417
 51
280.855298324
  0
ARC
  5
1D3
330
1F
100
AcDbEntity
  8
0
  6
Continuous
 62
     7
370
    25
100
AcDbCircle
 10
0.0914058855
 20
0.1762231768
 30
0.0
 40
0.000114562582899
100
AcDbArc
 50
261.9906192502
 51
347.1777791069
  0
ARC
  5
1D4
330
1F
100
AcDbEntity
  8
0
  6
Continuous
 62
     7
370
    25
100
AcDbCircle
 10
0.1017694842
 20
0.1762163183
 30
0.0
 40
0.0001085288818987
100
AcDbArc
 50
188.1855466394
 51
280.8561099408
  0
ARC
  5
1D5
330
1F
100
AcDbEntity
  8
0
  6
Continuous
 62
     7
370
    25
100
AcDbCircle
 10
0.1018058836
 20
0.1762231795
 30
0.0
 40
0.0001145647011173
100
AcDbArc
 50
261.9927599047
 51
347.1766385086
  0
ARC
  5
1D6
330
1F
100
AcDbEntity
  8
0
  6
Continuous
 62
     7
370
    25
100
AcDbCircle
 10
0.0965694844
 20
0.1762163183
 30
0.0
 40
0.0001085288818987
100
AcDbArc
 50
188.1855466394
 51
280.8561099408
  0
ARC
  5
1D7
330
1F
100
AcDbEntity
  8
0
  6
Continuous
 62
     7
370
    25
100
AcDbCircle
 10
0.0966058838
 20
0.1762231795
 30
0.0
 40
0.0001145647011173
100
AcDbArc
 50
261.9927599047
 51
347.1766385086
  0
CIRCLE
  5
1D8
330
1F
100
AcDbEntity
  8
0
  6
Continuous
 62
     7
370
    25
100
AcDbCircle
 10
0.0861915889
 20
0.1968805096
 30
0.0
 40
0.0001238212228962
  0
CIRCLE
  5
1D9
330
1F
100
AcDbEntity
  8
0
  6
Continuous
 62
     7
370
    25
100
AcDbCircle
 10
0.0913915887
 20
0.1968805096
 30
0.0
 40
0.0001238212228962
  0
CIRCLE
  5
1DA
330
1F
100
AcDbEntity
  8
0
  6
Continuous
 62
     7
370
    25
100
AcDbCircle
 10
0.0965915863
 20
0.1968805099
 30
0.0
 40
0.0001238213797609
  0
CIRCLE
  5
1DB
330
1F
100
AcDbEntity
  8
0
  6
Continuous
 62
     7
370
    25
100
AcDbCircle
 10
0.1017915861
 20
0.1968805099
 30
0.0
 40
0.0001238213797609
  0
CIRCLE
  5
1DC
330
1F
100
AcDbEntity
  8
0
  6
Continuous
 62
     7
370
    25
100
AcDbCircle
 10
0.1069915883
 20
0.196880509
 30
0.0
 40
0.0001238205663629
  0
CIRCLE
  5
1DD
330
1F
100
AcDbEntity
  8
0
  6
Continuous
 62
     7
370
    25
100
AcDbCircle
 10
0.1121915881
 20
0.196880509
 30
0.0
 40
0.0001238205663629
  0
CIRCLE
  5
1DE
330
1F
100
AcDbEntity
  8
0
  6
Continuous
 62
     7
370
    25
100
AcDbCircle
 10
0.1173915868
 20
0.1968805095
 30
0.0
 40
0.0001238210164872
  0
CIRCLE
  5
1DF
330
1F
100
AcDbEntity
  8
0
  6
Continuous
 62
     7
370
    25
100
AcDbCircle
 10
0.1225915877
 20
0.1968805091
 30
0.0
 40
0.0001238206098063
  0
ARC
  5
1E0
330
1F
100
AcDbEntity
  8
0
  6
Continuous
 62
     7
370
    25
100
AcDbCircle
 10
0.086189342
 20
0.1968197298
 30
0.0
 40
0.0001347465376655
100
AcDbArc
 50
17.8184360181
 51
160.8281833013
  0
ARC
  5
1E1
330
1F
100
AcDbEntity
  8
0
  6
Continuous
 62
     7
370
    25
100
AcDbCircle
 10
0.0913893418
 20
0.1968197271
 30
0.0
 40
0.0001347473948076
100
AcDbArc
 50
17.8195255643
 51
160.8270937551
  0
ARC
  5
1E2
330
1F
100
AcDbEntity
  8
0
  6
Continuous
 62
     7
370
    25
100
AcDbCircle
 10
0.0965893404
 20
0.1968197259
 30
0.0
 40
0.0001347489057748
100
AcDbArc
 50
17.8198547663
 51
160.826777178
  0
ARC
  5
1E3
330
1F
100
AcDbEntity
  8
0
  6
Continuous
 62
     7
370
    25
100
AcDbCircle
 10
0.1017893402
 20
0.1968197261
 30
0.0
 40
0.0001347488244918
100
AcDbArc
 50
17.8197514507
 51
160.8268804937
  0
ARC
  5
1E4
330
1F
100
AcDbEntity
  8
0
  6
Continuous
 62
     7
370
    25
100
AcDbCircle
 10
0.10698934
 20
0.1968197261
 30
0.0
 40
0.0001347488244918
100
AcDbArc
 50
17.8197514507
 51
160.8268804937
  0
ARC
  5
1E5
330
1F
100
AcDbEntity
  8
0
  6
Continuous
 62
     7
370
    25
100
AcDbCircle
 10
0.1121893398
 20
0.1968197261
 30
0.0
 40
0.0001347488244918
100
AcDbArc
 50
17.8197514507
 51
160.8268804937
  0
ARC
  5
1E6
330
1F
100
AcDbEntity
  8
0
  6
Continuous
 62
     7
370
    25
100
AcDbCircle
 10
0.1173893408
 20
0.196819726
 30
0.0
 40
0.0001347488651341
100
AcDbArc
 50
17.8198031097
 51
160.8268288347
  0
ARC
  5
1E7
330
1F
100
AcDbEntity
  8
0
  6
Continuous
 62
     7
370
    25
100
AcDbCircle
 10
0.1225893406
 20
0.196819726
 30
0.0
 40
0.0001347488651341
100
AcDbArc
 50
17.8198031097
 51
160.8268288347
  0
LINE
  5
1E8
330
1F
100
AcDbEntity
  8
0
  6
Continuous
 62
     7
370
    25
100
AcDbLine
 10
0.1343474982
 20
0.1860758738
 30
0.0
 11
0.1339373763
 21
0.1864859958
 31
0.0
  0
LINE
  5
1E9
330
1F
100
AcDbEntity
  8
0
  6
Continuous
 62
     7
370
    25
100
AcDbLine
 10
0.1339373763
 20
0.1865708486
 30
0.0
 11
0.1343474982
 21
0.1869809705
 31
0.0
  0
LWPOLYLINE
  5
1EA
330
1F
100
AcDbEntity
  8
0
  6
Continuous
 62
     7
370
    25
100
AcDbPolyline
 90
        3
 70
   128
 43
0.0
 10
0.1343474982
 20
0.1869809705
 10
0.1343565905
 20
0.1869884323
 10
0.1343655583
 20
0.1869933736
  0
LWPOLYLINE
  5
1EB
330
1F
100
AcDbEntity
  8
0
  6
Continuous
 62
     7
370
    25
100
AcDbPolyline
 90
        3
 70
   128
 43
0.0
 10
0.1344142911
 20
0.1869933736
 10
0.1344232589
 20
0.1869884323
 10
0.1344323511
 20
0.1869809705
  0
LINE
  5
1EC
330
1F
100
AcDbEntity
  8
0
  6
Continuous
 62
     7
370
    25
100
AcDbLine
 10
0.1344323511
 20
0.1869809705
 30
0.0
 11
0.134842473
 21
0.1865708486
 31
0.0
  0
LWPOLYLINE
  5
1ED
330
1F
100
AcDbEntity
  8
0
  6
Continuous
 62
     7
370
    25
100
AcDbPolyline
 90
        3
 70
   128
 43
0.0
 10
0.134842473
 20
0.1865708486
 10
0.1348499348
 20
0.1865617564
 10
0.1348548762
 20
0.1865527886
  0
LWPOLYLINE
  5
1EE
330
1F
100
AcDbEntity
  8
0
  6
Continuous
 62
     7
370
    25
100
AcDbPolyline
 90
        3
 70
   128
 43
0.0
 10
0.1348548762
 20
0.1865040557
 10
0.1348499348
 20
0.186495088
 10
0.134842473
 20
0.1864859958
  0
LWPOLYLINE
  5
1EF
330
1F
100
AcDbEntity
  8
0
  6
Continuous
 62
     7
370
    25
100
AcDbPolyline
 90
        3
 70
   128
 43
0.0
 10
0.1344323511
 20
0.1860758738
 10
0.1344232589
 20
0.1860684121
 10
0.1344142911
 20
0.1860634707
  0
LWPOLYLINE
  5
1F0
330
1F
100
AcDbEntity
  8
0
  6
Continuous
 62
     7
370
    25
100
AcDbPolyline
 90
        3
 70
   128
 43
0.0
 10
0.1343655583
 20
0.1860634707
 10
0.1343565905
 20
0.1860684121
 10
0.1343474982
 20
0.1860758738
  0
LINE
  5
1F1
330
1F
100
AcDbEntity
  8
0
  6
Continuous
 62
     7
370
    25
100
AcDbLine
 10
0.134842473
 20
0.1864859958
 30
0.0
 11
0.1348045355
 21
0.1864480583
 31
0.0
  0
LINE
  5
1F2
330
1F
100
AcDbEntity
  8
0
  6
Continuous
 62
     7
370
    25
100
AcDbLine
 10
0.1347150123
 20
0.1863585351
 30
0.0
 11
0.1344323511
 21
0.1860758738
 31
0.0
  0
LWPOLYLINE
  5
1F3
330
1F
100
AcDbEntity
  8
0
  6
Continuous
 62
     7
370
    25
100
AcDbPolyline
 90
        3
 70
   128
 43
0.0
 10
0.1339373763
 20
0.1864859958
 10
0.1339299145
 20
0.186495088
 10
0.1339249731
 20
0.1865040557
  0
LWPOLYLINE
  5
1F4
330
1F
100
AcDbEntity
  8
0
  6
Continuous
 62
     7
370
    25
100
AcDbPolyline
 90
        3
 70
   128
 43
0.0
 10
0.1339249731
 20
0.1865527886
 10
0.1339299145
 20
0.1865617564
 10
0.1339373763
 20
0.1865708486
  0
LINE
  5
1F5
330
1F
100
AcDbEntity
  8
0
  6
Continuous
 62
     7
370
    25
100
AcDbLine
 10
0.0739373778
 20
0.1865708486
 30
0.0
 11
0.0743475006
 21
0.1869809705
 31
0.0
  0
LWPOLYLINE
  5
1F6
330
1F
100
AcDbEntity
  8
0
  6
Continuous
 62
     7
370
    25
100
AcDbPolyline
 90
        3
 70
   128
 43
0.0
 10
0.0743475006
 20
0.1869809705
 10
0.0743565891
 20
0.1869884323
 10
0.0743655585
 20
0.1869933736
  0
LWPOLYLINE
  5
1F7
330
1F
100
AcDbEntity
  8
0
  6
Continuous
 62
     7
370
    25
100
AcDbPolyline
 90
        3
 70
   128
 43
0.0
 10
0.0744142912
 20
0.1869933736
 10
0.0744232605
 20
0.1869884323
 10
0.074432349
 20
0.1869809705
  0
LINE
  5
1F8
330
1F
100
AcDbEntity
  8
0
  6
Continuous
 62
     7
370
    25
100
AcDbLine
 10
0.074432349
 20
0.1869809705
 30
0.0
 11
0.0748424719
 21
0.1865708486
 31
0.0
  0
LWPOLYLINE
  5
1F9
330
1F
100
AcDbEntity
  8
0
  6
Continuous
 62
     7
370
    25
100
AcDbPolyline
 90
        3
 70
   128
 43
0.0
 10
0.0748424719
 20
0.1865708486
 10
0.0748499344
 20
0.1865617564
 10
0.0748548744
 20
0.1865527886
  0
LWPOLYLINE
  5
1FA
330
1F
100
AcDbEntity
  8
0
  6
Continuous
 62
     7
370
    25
100
AcDbPolyline
 90
        3
 70
   128
 43
0.0
 10
0.0748548744
 20
0.1865040557
 10
0.0748499344
 20
0.186495088
 10
0.0748424719
 20
0.1864859958
  0
LINE
  5
1FB
330
1F
100
AcDbEntity
  8
0
  6
Continuous
 62
     7
370
    25
100
AcDbLine
 10
0.0748424719
 20
0.1864859958
 30
0.0
 11
0.0747880219
 21
0.1864315429
 31
0.0
  0
LINE
  5
1FC
330
1F
100
AcDbEntity
  8
0
  6
Continuous
 62
     7
370
    25
100
AcDbLine
 10
0.0747031544
 20
0.1863466749
 30
0.0
 11
0.074432349
 21
0.1860758738
 31
0.0
  0
LWPOLYLINE
  5
1FD
330
1F
100
AcDbEntity
  8
0
  6
Continuous
 62
     7
370
    25
100
AcDbPolyline
 90
        3
 70
   128
 43
0.0
 10
0.074432349
 20
0.1860758738
 10
0.0744232605
 20
0.1860684121
 10
0.0744142912
 20
0.1860634707
  0
LWPOLYLINE
  5
1FE
330
1F
100
AcDbEntity
  8
0
  6
Continuous
 62
     7
370
    25
100
AcDbPolyline
 90
        3
 70
   128
 43
0.0
 10
0.0743655585
 20
0.1860634707
 10
0.0743565891
 20
0.1860684121
 10
0.0743475006
 20
0.1860758738
  0
LINE
  5
1FF
330
1F
100
AcDbEntity
  8
0
  6
Continuous
 62
     7
370
    25
100
AcDbLine
 10
0.0743475006
 20
0.1860758738
 30
0.0
 11
0.0739373778
 21
0.1864859958
 31
0.0
  0
LWPOLYLINE
  5
200
330
1F
100
AcDbEntity
  8
0
  6
Continuous
 62
     7
370
    25
100
AcDbPolyline
 90
        3
 70
   128
 43
0.0
 10
0.0739373778
 20
0.1864859958
 10
0.0739299153
 20
0.186495088
 10
0.0739249752
 20
0.1865040557
  0
LWPOLYLINE
  5
201
330
1F
100
AcDbEntity
  8
0
  6
Continuous
 62
     7
370
    25
100
AcDbPolyline
 90
        3
 70
   128
 43
0.0
 10
0.0739249752
 20
0.1865527886
 10
0.0739299153
 20
0.1865617564
 10
0.0739373778
 20
0.1865708486
  0
CIRCLE
  5
202
330
1F
100
AcDbEntity
  8
0
  6
Continuous
 62
     7
370
    25
100
AcDbCircle
 10
0.0843899247
 20
0.1965284222
 30
0.0
 40
0.000889
  0
CIRCLE
  5
203
330
1F
100
AcDbEntity
  8
0
  6
Continuous
 62
     7
370
    25
100
AcDbCircle
 10
0.1443899247
 20
0.1965284222
 30
0.0
 40
0.000889
  0
CIRCLE
  5
204
330
1F
100
AcDbEntity
  8
0
  6
Continuous
 62
     7
370
    25
100
AcDbCircle
 10
0.1443899247
 20
0.1765284222
 30
0.0
 40
0.000889
  0
CIRCLE
  5
205
330
1F
100
AcDbEntity
  8
0
  6
Continuous
 62
     7
370
    25
100
AcDbCircle
 10
0.0843899247
 20
0.1765284222
 30
0.0
 40
0.000889
  0
CIRCLE
  5
206
330
1F
100
AcDbEntity
  8
0
  6
Continuous
 62
     7
370
    25
100
AcDbCircle
 10
0.1243899247
 20
0.1765284222
 30
0.0
 40
0.000889
  0
CIRCLE
  5
207
330
1F
100
AcDbEntity
  8
0
  6
Continuous
 62
     7
370
    25
100
AcDbCircle
 10
0.0643899247
 20
0.1765284222
 30
0.0
 40
0.000889
  0
CIRCLE
  5
208
330
1F
100
AcDbEntity
  8
0
  6
Continuous
 62
     7
370
    25
100
AcDbCircle
 10
0.1243899247
 20
0.1965284222
 30
0.0
 40
0.000889
  0
CIRCLE
  5
209
330
1F
100
AcDbEntity
  8
0
  6
Continuous
 62
     7
370
    25
100
AcDbCircle
 10
0.0643899247
 20
0.1965284222
 30
0.0
 40
0.000889
  0
CIRCLE
  5
20A
330
1F
100
AcDbEntity
  8
0
  6
Continuous
 62
     7
370
    25
100
AcDbCircle
 10
0.1243898682
 20
0.1965284197
 30
0.0
 40
0.0008849977542106
  0
CIRCLE
  5
20B
330
1F
100
AcDbEntity
  8
0
  6
Continuous
 62
     7
370
    25
100
AcDbCircle
 10
0.064389867
 20
0.1965284196
 30
0.0
 40
0.0008849977020947
  0
CIRCLE
  5
20C
330
1F
100
AcDbEntity
  8
0
  6
Continuous
 62
     7
370
    25
100
AcDbCircle
 10
0.1243898682
 20
0.1765284197
 30
0.0
 40
0.0008849977542105
  0
CIRCLE
  5
20D
330
1F
100
AcDbEntity
  8
0
  6
Continuous
 62
     7
370
    25
100
AcDbCircle
 10
0.064389867
 20
0.1765284196
 30
0.0
 40
0.0008849977020946
  0
CIRCLE
  5
20E
330
1F
100
AcDbEntity
  8
0
  6
Continuous
 62
     7
370
    25
100
AcDbCircle
 10
0.084389867
 20
0.1765284196
 30
0.0
 40
0.0008849977020947
  0
CIRCLE
  5
20F
330
1F
100
AcDbEntity
  8
0
  6
Continuous
 62
     7
370
    25
100
AcDbCircle
 10
0.1443898687
 20
0.1765284195
 30
0.0
 40
0.0008849975937838
  0
CIRCLE
  5
210
330
1F
100
AcDbEntity
  8
0
  6
Continuous
 62
     7
370
    25
100
AcDbCircle
 10
0.1443898687
 20
0.1965284195
 30
0.0
 40
0.0008849975937838
  0
CIRCLE
  5
211
330
1F
100
AcDbEntity
  8
0
  6
Continuous
 62
     7
370
    25
100
AcDbCircle
 10
0.084389867
 20
0.1965284196
 30
0.0
 40
0.0008849977020947
  0
CIRCLE
  5
212
330
1F
100
AcDbEntity
  8
0
  6
Continuous
 62
     7
370
    25
100
AcDbCircle
 10
0.1343899247
 20
0.1865284222
 30
0.0
 40
0.000337
  0
CIRCLE
  5
213
330
1F
100
AcDbEntity
  8
0
  6
Continuous
 62
     7
370
    25
100
AcDbCircle
 10
0.0743899247
 20
0.1865284222
 30
0.0
 40
0.000337
  0
LINE
  5
214
330
1F
100
AcDbEntity
  8
0
  6
Continuous
 62
     7
370
    25
100
AcDbLine
 10
0.0743899248
 20
0.1860391043
 30
0.0
 11
0.074700322
 21
0.1863495034
 31
0.0
  0
LINE
  5
215
330
1F
100
AcDbEntity
  8
0
  6
Continuous
 62
     7
370
    25
100
AcDbLine
 10
0.0747851895
 20
0.1864343713
 30
0.0
 11
0.0748792408
 21
0.1865284222
 31
0.0
  0
LINE
  5
216
330
1F
100
AcDbEntity
  8
0
  6
Continuous
 62
     7
370
    25
100
AcDbLine
 10
0.0743899248
 20
0.1870177401
 30
0.0
 11
0.0739006088
 21
0.1865284222
 31
0.0
  0
LINE
  5
217
330
1F
100
AcDbEntity
  8
0
  6
Continuous
 62
     7
370
    25
100
AcDbLine
 10
0.0739006088
 20
0.1865284222
 30
0.0
 11
0.0743899248
 21
0.1860391043
 31
0.0
  0
LINE
  5
218
330
1F
100
AcDbEntity
  8
0
  6
Continuous
 62
     7
370
    25
100
AcDbLine
 10
0.0748792408
 20
0.1865284222
 30
0.0
 11
0.0743899248
 21
0.1870177401
 31
0.0
  0
LINE
  5
219
330
1F
100
AcDbEntity
  8
0
  6
Continuous
 62
     7
370
    25
100
AcDbLine
 10
0.1343899247
 20
0.1870177401
 30
0.0
 11
0.1339006068
 21
0.1865284222
 31
0.0
  0
LINE
  5
21A
330
1F
100
AcDbEntity
  8
0
  6
Continuous
 62
     7
370
    25
100
AcDbLine
 10
0.1348792425
 20
0.1865284222
 30
0.0
 11
0.1343899247
 21
0.1870177401
 31
0.0
  0
LINE
  5
21B
330
1F
100
AcDbEntity
  8
0
  6
Continuous
 62
     7
370
    25
100
AcDbLine
 10
0.1343899247
 20
0.1860391043
 30
0.0
 11
0.1347121839
 21
0.1863613635
 31
0.0
  0
LINE
  5
21C
330
1F
100
AcDbEntity
  8
0
  6
Continuous
 62
     7
370
    25
100
AcDbLine
 10
0.1348017071
 20
0.1864508867
 30
0.0
 11
0.1348792425
 21
0.1865284222
 31
0.0
  0
LINE
  5
21D
330
1F
100
AcDbEntity
  8
0
  6
Continuous
 62
     7
370
    25
100
AcDbLine
 10
0.1339006068
 20
0.1865284222
 30
0.0
 11
0.1343899247
 21
0.1860391043
 31
0.0
  0
LINE
  5
21E
330
1F
100
AcDbEntity
  8
0
  6
Continuous
 62
     7
370
    25
100
AcDbLine
 10
0.1343474982
 20
0.1860758738
 30
0.0
 11
0.1343807323
 21
0.1860426398
 31
0.0
  0
LINE
  5
21F
330
1F
100
AcDbEntity
  8
0
  6
Continuous
 62
     7
370
    25
100
AcDbLine
 10
0.1339041424
 20
0.1865192298
 30
0.0
 11
0.1339373763
 21
0.1864859958
 31
0.0
  0
LINE
  5
220
330
1F
100
AcDbEntity
  8
0
  6
Continuous
 62
     7
370
    25
100
AcDbLine
 10
0.0743475006
 20
0.1860758738
 30
0.0
 11
0.0743807314
 21
0.1860426398
 31
0.0
  0
LINE
  5
221
330
1F
100
AcDbEntity
  8
0
  6
Continuous
 62
     7
370
    25
100
AcDbLine
 10
0.0739041422
 20
0.1865192298
 30
0.0
 11
0.0739373778
 21
0.1864859958
 31
0.0
  0
LINE
  5
222
330
1F
100
AcDbEntity
  8
0
  6
Continuous
 62
     7
370
    25
100
AcDbLine
 10
0.134842473
 20
0.1864859958
 30
0.0
 11
0.134875707
 21
0.1865192298
 31
0.0
  0
LINE
  5
223
330
1F
100
AcDbEntity
  8
0
  6
Continuous
 62
     7
370
    25
100
AcDbLine
 10
0.1343991171
 20
0.1860426398
 30
0.0
 11
0.1344323511
 21
0.1860758738
 31
0.0
  0
LINE
  5
224
330
1F
100
AcDbEntity
  8
0
  6
Continuous
 62
     7
370
    25
100
AcDbLine
 10
0.0748424719
 20
0.1864859958
 30
0.0
 11
0.0748757075
 21
0.1865192298
 31
0.0
  0
LINE
  5
225
330
1F
100
AcDbEntity
  8
0
  6
Continuous
 62
     7
370
    25
100
AcDbLine
 10
0.0743991182
 20
0.1860426398
 30
0.0
 11
0.074432349
 21
0.1860758738
 31
0.0
  0
LINE
  5
226
330
1F
100
AcDbEntity
  8
0
  6
Continuous
 62
     7
370
    25
100
AcDbLine
 10
0.0743807314
 20
0.1870142045
 30
0.0
 11
0.0743475006
 21
0.1869809705
 31
0.0
  0
LINE
  5
227
330
1F
100
AcDbEntity
  8
0
  6
Continuous
 62
     7
370
    25
100
AcDbLine
 10
0.0739373778
 20
0.1865708486
 30
0.0
 11
0.0739041422
 21
0.1865376146
 31
0.0
  0
LINE
  5
228
330
1F
100
AcDbEntity
  8
0
  6
Continuous
 62
     7
370
    25
100
AcDbLine
 10
0.1343807323
 20
0.1870142045
 30
0.0
 11
0.1343474982
 21
0.1869809705
 31
0.0
  0
LINE
  5
229
330
1F
100
AcDbEntity
  8
0
  6
Continuous
 62
     7
370
    25
100
AcDbLine
 10
0.1339373763
 20
0.1865708486
 30
0.0
 11
0.1339041424
 21
0.1865376146
 31
0.0
  0
LINE
  5
22A
330
1F
100
AcDbEntity
  8
0
  6
Continuous
 62
     7
370
    25
100
AcDbLine
 10
0.0748757075
 20
0.1865376146
 30
0.0
 11
0.0748424719
 21
0.1865708486
 31
0.0
  0
LINE
  5
22B
330
1F
100
AcDbEntity
  8
0
  6
Continuous
 62
     7
370
    25
100
AcDbLine
 10
0.074432349
 20
0.1869809705
 30
0.0
 11
0.0743991182
 21
0.1870142045
 31
0.0
  0
LINE
  5
22C
330
1F
100
AcDbEntity
  8
0
  6
Continuous
 62
     7
370
    25
100
AcDbLine
 10
0.134875707
 20
0.1865376146
 30
0.0
 11
0.134842473
 21
0.1865708486
 31
0.0
  0
LINE
  5
22D
330
1F
100
AcDbEntity
  8
0
  6
Continuous
 62
     7
370
    25
100
AcDbLine
 10
0.1344323511
 20
0.1869809705
 30
0.0
 11
0.1343991171
 21
0.1870142045
 31
0.0
  0
LINE
  5
22E
330
1F
100
AcDbEntity
  8
0
  6
Continuous
 62
     7
370
    25
100
AcDbLine
 10
0.1252165149
 20
0.1961784219
 30
0.0
 11
0.1252855228
 21
0.1961784219
 31
0.0
  0
LINE
  5
22F
330
1F
100
AcDbEntity
  8
0
  6
Continuous
 62
     7
370
    25
100
AcDbLine
 10
0.1434963284
 20
0.1961784219
 30
0.0
 11
0.1435633348
 21
0.1961784219
 31
0.0
  0
LINE
  5
230
330
1F
100
AcDbEntity
  8
0
  6
Continuous
 62
     7
370
    25
100
AcDbLine
 10
0.1252071284
 20
0.1968784218
 30
0.0
 11
0.1252884195
 21
0.1968784218
 31
0.0
  0
LINE
  5
231
330
1F
100
AcDbEntity
  8
0
  6
Continuous
 62
     7
370
    25
100
AcDbLine
 10
0.1434884189
 20
0.1968784218
 30
0.0
 11
0.1435727213
 21
0.1968784218
 31
0.0
  0
LINE
  5
232
330
1F
100
AcDbEntity
  8
0
  6
Continuous
 62
     7
370
    25
100
AcDbLine
 10
0.0652165125
 20
0.1961784219
 30
0.0
 11
0.065285239
 21
0.1961784219
 31
0.0
  0
LINE
  5
233
330
1F
100
AcDbEntity
  8
0
  6
Continuous
 62
     7
370
    25
100
AcDbLine
 10
0.0834961889
 20
0.1961784219
 30
0.0
 11
0.0835633324
 21
0.1961784219
 31
0.0
  0
LINE
  5
234
330
1F
100
AcDbEntity
  8
0
  6
Continuous
 62
     7
370
    25
100
AcDbLine
 10
0.0652071284
 20
0.1968784218
 30
0.0
 11
0.0652942322
 21
0.1968784218
 31
0.0
  0
LINE
  5
235
330
1F
100
AcDbEntity
  8
0
  6
Continuous
 62
     7
370
    25
100
AcDbLine
 10
0.0834942291
 20
0.1968784218
 30
0.0
 11
0.0835727213
 21
0.1968784218
 31
0.0
  0
LINE
  5
236
330
1F
100
AcDbEntity
  8
0
  6
Continuous
 62
     7
370
    25
100
AcDbLine
 10
0.0640399264
 20
0.1773456251
 30
0.0
 11
0.0640399264
 21
0.1775084221
 31
0.0
  0
LINE
  5
237
330
1F
100
AcDbEntity
  8
0
  6
Continuous
 62
     7
370
    25
100
AcDbLine
 10
0.0640399264
 20
0.1955484223
 30
0.0
 11
0.0640399264
 21
0.1957112193
 31
0.0
  0
LINE
  5
238
330
1F
100
AcDbEntity
  8
0
  6
Continuous
 62
     7
370
    25
100
AcDbLine
 10
0.0647399233
 20
0.1773550122
 30
0.0
 11
0.0647399233
 21
0.1774239605
 31
0.0
  0
LINE
  5
239
330
1F
100
AcDbEntity
  8
0
  6
Continuous
 62
     7
370
    25
100
AcDbLine
 10
0.0647399233
 20
0.1956349092
 30
0.0
 11
0.0647399233
 21
0.1957018321
 31
0.0
  0
LINE
  5
23A
330
1F
100
AcDbEntity
  8
0
  6
Continuous
 62
     7
370
    25
100
AcDbLine
 10
0.1247399245
 20
0.1773550122
 30
0.0
 11
0.1247399245
 21
0.1774244189
 31
0.0
  0
LINE
  5
23B
330
1F
100
AcDbEntity
  8
0
  6
Continuous
 62
     7
370
    25
100
AcDbLine
 10
0.1247399245
 20
0.1956352162
 30
0.0
 11
0.1247399245
 21
0.1957018321
 31
0.0
  0
LINE
  5
23C
330
1F
100
AcDbEntity
  8
0
  6
Continuous
 62
     7
370
    25
100
AcDbLine
 10
0.1240399252
 20
0.1773456251
 30
0.0
 11
0.1240399252
 21
0.1775084221
 31
0.0
  0
LINE
  5
23D
330
1F
100
AcDbEntity
  8
0
  6
Continuous
 62
     7
370
    25
100
AcDbLine
 10
0.1240399252
 20
0.1955484223
 30
0.0
 11
0.1240399252
 21
0.1957112193
 31
0.0
  0
LINE
  5
23E
330
1F
100
AcDbEntity
  8
0
  6
Continuous
 62
     7
370
    25
100
AcDbLine
 10
0.1447399245
 20
0.1957112193
 30
0.0
 11
0.1447399245
 21
0.1955484223
 31
0.0
  0
LINE
  5
23F
330
1F
100
AcDbEntity
  8
0
  6
Continuous
 62
     7
370
    25
100
AcDbLine
 10
0.1447399245
 20
0.1775084221
 30
0.0
 11
0.1447399245
 21
0.1773456251
 31
0.0
  0
LINE
  5
240
330
1F
100
AcDbEntity
  8
0
  6
Continuous
 62
     7
370
    25
100
AcDbLine
 10
0.1440399246
 20
0.1957018321
 30
0.0
 11
0.1440399246
 21
0.1956348258
 31
0.0
  0
LINE
  5
241
330
1F
100
AcDbEntity
  8
0
  6
Continuous
 62
     7
370
    25
100
AcDbLine
 10
0.1440399246
 20
0.1774240207
 30
0.0
 11
0.1440399246
 21
0.1773550122
 31
0.0
  0
LINE
  5
242
330
1F
100
AcDbEntity
  8
0
  6
Continuous
 62
     7
370
    25
100
AcDbLine
 10
0.0847399233
 20
0.1957112193
 30
0.0
 11
0.0847399233
 21
0.1955484223
 31
0.0
  0
LINE
  5
243
330
1F
100
AcDbEntity
  8
0
  6
Continuous
 62
     7
370
    25
100
AcDbLine
 10
0.0847399233
 20
0.1775084221
 30
0.0
 11
0.0847399233
 21
0.1773456251
 31
0.0
  0
LINE
  5
244
330
1F
100
AcDbEntity
  8
0
  6
Continuous
 62
     7
370
    25
100
AcDbLine
 10
0.0840399264
 20
0.1957018321
 30
0.0
 11
0.0840399264
 21
0.1956346875
 31
0.0
  0
LINE
  5
245
330
1F
100
AcDbEntity
  8
0
  6
Continuous
 62
     7
370
    25
100
AcDbLine
 10
0.0840399264
 20
0.1774237352
 30
0.0
 11
0.0840399264
 21
0.1773550122
 31
0.0
  0
LINE
  5
246
330
1F
100
AcDbEntity
  8
0
  6
Continuous
 62
     7
370
    25
100
AcDbLine
 10
0.0835727213
 20
0.1761784225
 30
0.0
 11
0.0834099243
 21
0.1761784225
 31
0.0
  0
LINE
  5
247
330
1F
100
AcDbEntity
  8
0
  6
Continuous
 62
     7
370
    25
100
AcDbLine
 10
0.0653699253
 20
0.1761784225
 30
0.0
 11
0.0652071284
 21
0.1761784225
 31
0.0
  0
LINE
  5
248
330
1F
100
AcDbEntity
  8
0
  6
Continuous
 62
     7
370
    25
100
AcDbLine
 10
0.0835633324
 20
0.1768784224
 30
0.0
 11
0.0834745548
 21
0.1768784224
 31
0.0
  0
LINE
  5
249
330
1F
100
AcDbEntity
  8
0
  6
Continuous
 62
     7
370
    25
100
AcDbLine
 10
0.0653052948
 20
0.1768784224
 30
0.0
 11
0.0652165125
 21
0.1768784224
 31
0.0
  0
CIRCLE
  5
24A
330
1F
100
AcDbEntity
  8
0
  6
Continuous
 62
     7
370
    25
100
AcDbCircle
 10
0.0743899247
 20
0.1865284222
 30
0.0
 40
0.000335
  0
CIRCLE
  5
24B
330
1F
100
AcDbEntity
  8
0
  6
Continuous
 62
     7
370
    25
100
AcDbCircle
 10
0.1343899247
 20
0.1865284222
 30
0.0
 40
0.000335
  0
LINE
  5
24C
330
1F
100
AcDbEntity
  8
0
  6
Continuous
 62
     7
370
    25
100
AcDbLine
 10
0.1256834005
 20
0.1968784218
 30
0.0
 11
0.1301636348
 21
0.1968784218
 31
0.0
  0
LINE
  5
24D
330
1F
100
AcDbEntity
  8
0
  6
Continuous
 62
     7
370
    25
100
AcDbLine
 10
0.1386149023
 20
0.1968784218
 30
0.0
 11
0.143093438
 21
0.1968784218
 31
0.0
  0
LINE
  5
24E
330
1F
100
AcDbEntity
  8
0
  6
Continuous
 62
     7
370
    25
100
AcDbLine
 10
0.1256834005
 20
0.1971184223
 30
0.0
 11
0.143093438
 21
0.1971184223
 31
0.0
  0
LINE
  5
24F
330
1F
100
AcDbEntity
  8
0
  6
Continuous
 62
     7
370
    25
100
AcDbLine
 10
0.1252884195
 20
0.1968784218
 30
0.0
 11
0.1252884195
 21
0.1971184223
 31
0.0
  0
LINE
  5
250
330
1F
100
AcDbEntity
  8
0
  6
Continuous
 62
     7
370
    25
100
AcDbLine
 10
0.1252884195
 20
0.1968784218
 30
0.0
 11
0.1256834005
 21
0.1968784218
 31
0.0
  0
LINE
  5
251
330
1F
100
AcDbEntity
  8
0
  6
Continuous
 62
     7
370
    25
100
AcDbLine
 10
0.1252884195
 20
0.1971184223
 30
0.0
 11
0.1256834005
 21
0.1971184223
 31
0.0
  0
LINE
  5
252
330
1F
100
AcDbEntity
  8
0
  6
Continuous
 62
     7
370
    25
100
AcDbLine
 10
0.1434884189
 20
0.1968784218
 30
0.0
 11
0.1434884189
 21
0.1971184223
 31
0.0
  0
LINE
  5
253
330
1F
100
AcDbEntity
  8
0
  6
Continuous
 62
     7
370
    25
100
AcDbLine
 10
0.1434884189
 20
0.1968784218
 30
0.0
 11
0.143093438
 21
0.1968784218
 31
0.0
  0
LINE
  5
254
330
1F
100
AcDbEntity
  8
0
  6
Continuous
 62
     7
370
    25
100
AcDbLine
 10
0.1434884189
 20
0.1971184223
 30
0.0
 11
0.143093438
 21
0.1971184223
 31
0.0
  0
LINE
  5
255
330
1F
100
AcDbEntity
  8
0
  6
Continuous
 62
     7
370
    25
100
AcDbLine
 10
0.0656892107
 20
0.1971184223
 30
0.0
 11
0.0830992506
 21
0.1971184223
 31
0.0
  0
LINE
  5
256
330
1F
100
AcDbEntity
  8
0
  6
Continuous
 62
     7
370
    25
100
AcDbLine
 10
0.0656892107
 20
0.1968784218
 30
0.0
 11
0.0701647375
 21
0.1968784218
 31
0.0
  0
LINE
  5
257
330
1F
100
AcDbEntity
  8
0
  6
Continuous
 62
     7
370
    25
100
AcDbLine
 10
0.0786145828
 20
0.1968784218
 30
0.0
 11
0.0830992506
 21
0.1968784218
 31
0.0
  0
LINE
  5
258
330
1F
100
AcDbEntity
  8
0
  6
Continuous
 62
     7
370
    25
100
AcDbLine
 10
0.0652942322
 20
0.1968784218
 30
0.0
 11
0.0652942322
 21
0.1971184223
 31
0.0
  0
LINE
  5
259
330
1F
100
AcDbEntity
  8
0
  6
Continuous
 62
     7
370
    25
100
AcDbLine
 10
0.0652942322
 20
0.1971184223
 30
0.0
 11
0.0656892107
 21
0.1971184223
 31
0.0
  0
LINE
  5
25A
330
1F
100
AcDbEntity
  8
0
  6
Continuous
 62
     7
370
    25
100
AcDbLine
 10
0.0652942322
 20
0.1968784218
 30
0.0
 11
0.0656892107
 21
0.1968784218
 31
0.0
  0
LINE
  5
25B
330
1F
100
AcDbEntity
  8
0
  6
Continuous
 62
     7
370
    25
100
AcDbLine
 10
0.0834942291
 20
0.1968784218
 30
0.0
 11
0.0834942291
 21
0.1971184223
 31
0.0
  0
LINE
  5
25C
330
1F
100
AcDbEntity
  8
0
  6
Continuous
 62
     7
370
    25
100
AcDbLine
 10
0.0834942291
 20
0.1971184223
 30
0.0
 11
0.0830992506
 21
0.1971184223
 31
0.0
  0
LINE
  5
25D
330
1F
100
AcDbEntity
  8
0
  6
Continuous
 62
     7
370
    25
100
AcDbLine
 10
0.0834942291
 20
0.1968784218
 30
0.0
 11
0.0830992506
 21
0.1968784218
 31
0.0
  0
LWPOLYLINE
  5
25E
330
1F
100
AcDbEntity
  8
0
  6
Continuous
 62
     7
370
    25
100
AcDbPolyline
 90
       33
 70
   128
 43
0.0
 10
0.0823253153
 20
0.1614051264
 10
0.08230422
 20
0.1614243453
 10
0.0822760389
 20
0.1614411371
 10
0.082241845
 20
0.1614548557
 10
0.0822029541
 20
0.1614649766
 10
0.0821608589
 20
0.1614711087
 10
0.0821171854
 20
0.1614730185
 10
0.0820736025
 20
0.1614706295
 10
0.0820317887
 20
0.1614640349
 10
0.0819933508
 20
0.1614534896
 10
0.0819597719
 20
0.1614393991
 10
0.08193233
 20
0.1614222997
 10
0.0819120882
 20
0.1614028543
 10
0.081899824
 20
0.1613818091
 10
0.0818960093
 20
0.1613599699
 10
0.0819007872
 20
0.1613381808
 10
0.0819139717
 20
0.1613172739
 10
0.0819350622
 20
0.161298055
 10
0.0819632481
 20
0.1612812632
 10
0.0819974421
 20
0.1612675446
 10
0.0820363329
 20
0.1612574237
 10
0.0820784281
 20
0.1612512916
 10
0.0821221016
 20
0.1612493842
 10
0.0821656845
 20
0.1612517708
 10
0.0822074984
 20
0.1612583655
 10
0.0822459315
 20
0.1612689107
 10
0.0822795151
 20
0.1612830036
 10
0.0823069571
 20
0.1613001006
 10
0.082327194
 20
0.161319546
 10
0.0823394583
 20
0.1613405913
 10
0.0823432778
 20
0.1613624304
 10
0.0823384998
 20
0.1613842219
 10
0.0823253153
 20
0.1614051264
  0
LWPOLYLINE
  5
25F
330
1F
100
AcDbEntity
  8
0
  6
Continuous
 62
     7
370
    25
100
AcDbPolyline
 90
       24
 70
   128
 43
0.0
 10
0.0813024519
 20
0.162417466
 10
0.0812394188
 20
0.1623799818
 10
0.0811691044
 20
0.162336871
 10
0.0810998724
 20
0.1622985142
 10
0.0810228012
 20
0.1622646659
 10
0.0809345911
 20
0.1622381657
 10
0.0808618115
 20
0.1622231668
 10
0.0807838772
 20
0.1622102945
 10
0.0807047079
 20
0.1621982139
 10
0.0806283663
 20
0.1621854489
 10
0.080558605
 20
0.1621706432
 10
0.0805054472
 20
0.1621551889
 10
0.0804593561
 20
0.1621360629
 10
0.0804222677
 20
0.1621127837
 10
0.0803931139
 20
0.1620845073
 10
0.0803727959
 20
0.1620529764
 10
0.080360441
 20
0.162018575
 10
0.0803555964
 20
0.1619695776
 10
0.0803631066
 20
0.1619184082
 10
0.0803819845
 20
0.1618668311
 10
0.0804111765
 20
0.1618166488
 10
0.0804496573
 20
0.1617695683
 10
0.0804963444
 20
0.1617273467
 10
0.0805033014
 20
0.1617225474
  0
LWPOLYLINE
  5
260
330
1F
100
AcDbEntity
  8
0
  6
Continuous
 62
     7
370
    25
100
AcDbPolyline
 90
       26
 70
   128
 43
0.0
 10
0.0836270426
 20
0.1623453587
 10
0.0836284874
 20
0.1623523896
 10
0.0836236427
 20
0.1624216073
 10
0.0835954092
 20
0.1624903672
 10
0.0835643814
 20
0.1625340384
 10
0.0835240887
 20
0.1625746124
 10
0.0834753273
 20
0.1626106613
 10
0.0834336088
 20
0.1626340573
 10
0.0833874653
 20
0.1626542848
 10
0.0833376167
 20
0.1626713436
 10
0.0832828758
 20
0.1626858228
 10
0.0832086752
 20
0.1627001231
 10
0.0831267737
 20
0.1627105683
 10
0.0830371712
 20
0.1627171605
 10
0.0829011057
 20
0.1627199762
 10
0.0827598141
 20
0.1627161616
 10
0.0826159809
 20
0.1627071612
 10
0.0824722908
 20
0.1626944249
 10
0.0823313902
 20
0.1626793759
 10
0.0821948717
 20
0.1626625937
 10
0.0820176361
 20
0.1626364272
 10
0.0818531941
 20
0.162606036
 10
0.0816998671
 20
0.1625702589
 10
0.0815542029
 20
0.1625269287
 10
0.0814218233
 20
0.162476353
 10
0.0813024519
 20
0.162417466
  0
LWPOLYLINE
  5
261
330
1F
100
AcDbEntity
  8
0
  6
Continuous
 62
     7
370
    25
100
AcDbPolyline
 90
       33
 70
   128
 43
0.0
 10
0.0708555029
 20
0.1723997741
 10
0.0708390997
 20
0.1724201029
 10
0.0708150767
 20
0.1724384421
 10
0.0707843636
 20
0.1724540847
 10
0.0707481335
 20
0.17246643
 10
0.0707077835
 20
0.1724750047
 10
0.0706648634
 20
0.1724794799
 10
0.070621023
 20
0.1724796813
 10
0.0705779455
 20
0.172475602
 10
0.0705372904
 20
0.1724674004
 10
0.0705006121
 20
0.1724553888
 10
0.0704693268
 20
0.1724400311
 10
0.0704446362
 20
0.1724219173
 10
0.0704274843
 20
0.1724017423
 10
0.0704185389
 20
0.1723802822
 10
0.0704181336
 20
0.172358362
 10
0.0704262922
 20
0.1723368233
 10
0.0704426954
 20
0.1723164945
 10
0.0704667185
 20
0.1722981566
 10
0.0704974316
 20
0.1722825139
 10
0.0705336617
 20
0.1722701674
 10
0.0705740116
 20
0.1722615927
 10
0.0706169317
 20
0.1722571188
 10
0.0706607721
 20
0.1722569173
 10
0.0707038496
 20
0.1722609954
 10
0.0707445048
 20
0.1722691982
 10
0.0707811831
 20
0.1722812086
 10
0.0708124684
 20
0.1722965663
 10
0.070837159
 20
0.1723146802
 10
0.0708543108
 20
0.1723348551
 10
0.070863261
 20
0.1723563152
 10
0.0708636616
 20
0.1723782354
 10
0.0708555029
 20
0.1723997741
  0
LWPOLYLINE
  5
262
330
1F
100
AcDbEntity
  8
0
  6
Continuous
 62
     7
370
    25
100
AcDbPolyline
 90
       25
 70
   128
 43
0.0
 10
0.069874358
 20
0.1734714859
 10
0.0698029087
 20
0.1734379845
 10
0.0697229098
 20
0.1733993285
 10
0.0696450995
 20
0.1733653277
 10
0.0695605705
 20
0.1733362668
 10
0.0694667195
 20
0.1733151596
 10
0.0693909071
 20
0.1733045631
 10
0.0693104838
 20
0.1732963842
 10
0.0692290114
 20
0.1732890623
 10
0.0691501902
 20
0.1732808953
 10
0.0690774201
 20
0.1732703119
 10
0.0690209864
 20
0.1732581049
 10
0.0689706944
 20
0.173241834
 10
0.0689283703
 20
0.1732209068
 10
0.068892741
 20
0.1731945508
 10
0.0688651179
 20
0.1731644397
 10
0.0688447235
 20
0.1731310099
 10
0.0688283442
 20
0.1730826395
 10
0.0688237141
 20
0.1730313855
 10
0.0688302801
 20
0.1729790538
 10
0.0688474129
 20
0.1729275005
 10
0.068874502
 20
0.1728784757
 10
0.0689108942
 20
0.1728337949
 10
0.0689439724
 20
0.1728041309
 10
0.0689521216
 20
0.1727986234
  0
LWPOLYLINE
  5
263
330
1F
100
AcDbEntity
  8
0
  6
Continuous
 62
     7
370
    25
100
AcDbPolyline
 90
       25
 70
   128
 43
0.0
 10
0.072176256
 20
0.1733144324
 10
0.0721802853
 20
0.1733385389
 10
0.0721684883
 20
0.173408485
 10
0.0721479891
 20
0.173453682
 10
0.0721175669
 20
0.1734963506
 10
0.0720776604
 20
0.173535028
 10
0.0720417593
 20
0.1735607224
 10
0.0720007132
 20
0.1735835355
 10
0.0719552468
 20
0.1736034184
 10
0.0719043062
 20
0.173621028
 10
0.0718340014
 20
0.173639608
 10
0.0717551373
 20
0.1736548155
 10
0.0716677235
 20
0.173666653
 10
0.0715332745
 20
0.1736774843
 10
0.0713920735
 20
0.1736820381
 10
0.0712471197
 20
0.1736815935
 10
0.0711014269
 20
0.1736774319
 10
0.0709579561
 20
0.1736708074
 10
0.0708184288
 20
0.1736622041
 10
0.0706362532
 20
0.1736466854
 10
0.0704657839
 20
0.1736262172
 10
0.0703050802
 20
0.1735997432
 10
0.0701502035
 20
0.1735653167
 10
0.0700067995
 20
0.1735229128
 10
0.069874358
 20
0.1734714859
  0
LWPOLYLINE
  5
264
330
1F
100
AcDbEntity
  8
0
  6
Continuous
 62
     7
370
    25
100
AcDbPolyline
 90
       33
 70
   128
 43
0.0
 10
0.075711789
 20
0.1652949613
 10
0.0756861971
 20
0.1653127568
 10
0.0756541441
 20
0.1653277152
 10
0.0756168745
 20
0.1653392618
 10
0.0755758188
 20
0.1653469484
 10
0.0755325506
 20
0.1653504842
 10
0.0754887341
 20
0.1653497308
 10
0.0754460524
 20
0.1653447168
 10
0.0754061459
 20
0.1653356379
 10
0.07537055
 20
0.1653228396
 10
0.0753406332
 20
0.1653068154
 10
0.0753175448
 20
0.1652881807
 10
0.0753021668
 20
0.1652676504
 10
0.0752951
 20
0.1652460163
 10
0.0752966068
 20
0.165224108
 10
0.07530663
 20
0.1652027672
 10
0.0753247927
 20
0.1651828139
 10
0.0753503893
 20
0.1651650184
 10
0.0753824375
 20
0.1651500576
 10
0.0754197071
 20
0.1651385134
 10
0.0754607676
 20
0.1651308268
 10
0.0755040358
 20
0.165127291
 10
0.0755478523
 20
0.1651280444
 10
0.075590534
 20
0.1651330584
 10
0.0756304358
 20
0.1651421374
 10
0.0756660317
 20
0.1651549357
 10
0.0756959484
 20
0.1651709598
 10
0.0757190417
 20
0.1651895946
 10
0.0757344149
 20
0.1652101248
 10
0.0757414864
 20
0.1652317589
 10
0.0757399796
 20
0.1652536672
 10
0.0757299517
 20
0.165275008
 10
0.075711789
 20
0.1652949613
  0
LWPOLYLINE
  5
265
330
1F
100
AcDbEntity
  8
0
  6
Continuous
 62
     7
370
    25
100
AcDbPolyline
 90
       23
 70
   128
 43
0.0
 10
0.0746609972
 20
0.1662442034
 10
0.0746075152
 20
0.1662031716
 10
0.0745481775
 20
0.1661561173
 10
0.0744887541
 20
0.1661138456
 10
0.0744204615
 20
0.1660755747
 10
0.0743393324
 20
0.1660439199
 10
0.0742707251
 20
0.1660246199
 10
0.0741964911
 20
0.16600712
 10
0.0741208361
 20
0.1659903258
 10
0.0740481518
 20
0.1659730285
 10
0.0739824961
 20
0.1659541028
 10
0.0739334772
 20
0.1659355395
 10
0.0738923643
 20
0.16591376
 10
0.0738611983
 20
0.1658884018
 10
0.0738391159
 20
0.1658585685
 10
0.0738265942
 20
0.1658260363
 10
0.0738226698
 20
0.1657911413
 10
0.0738297508
 20
0.1657422107
 10
0.0738496111
 20
0.1656918758
 10
0.0738808582
 20
0.1656418222
 10
0.0739220045
 20
0.1655937808
 10
0.0739716194
 20
0.1655493801
 10
0.0739752672
 20
0.1655468624
  0
LWPOLYLINE
  5
266
330
1F
100
AcDbEntity
  8
0
  6
Continuous
 62
     7
370
    25
100
AcDbPolyline
 90
       27
 70
   128
 43
0.0
 10
0.076983466
 20
0.1662658661
 10
0.0769869517
 20
0.1662866395
 10
0.0769856451
 20
0.1663206356
 10
0.0769640539
 20
0.1663890474
 10
0.0769193505
 20
0.1664555877
 10
0.0768779562
 20
0.1664970558
 10
0.0768281267
 20
0.1665348869
 10
0.0767709826
 20
0.1665677136
 10
0.0767238949
 20
0.1665884071
 10
0.0766731833
 20
0.1666056889
 10
0.0766195725
 20
0.1666196006
 10
0.0765617226
 20
0.1666306537
 10
0.0764845989
 20
0.1666403478
 10
0.076400771
 20
0.1666457503
 10
0.0763102291
 20
0.1666468614
 10
0.0761744879
 20
0.1666414087
 10
0.0760351656
 20
0.1666290539
 10
0.0758945749
 20
0.166611399
 10
0.0757550333
 20
0.1665900462
 10
0.07561882
 20
0.1665665644
 10
0.0754873799
 20
0.1665416294
 10
0.0753177975
 20
0.1665049093
 10
0.0751619385
 20
0.166464774
 10
0.07501842
 20
0.1664199632
 10
0.074884343
 20
0.1663681214
 10
0.0747652004
 20
0.1663098925
 10
0.0746609972
 20
0.1662442034
  0
LWPOLYLINE
  5
267
330
1F
100
AcDbEntity
  8
0
  6
Continuous
 62
     7
370
    25
100
AcDbPolyline
 90
       33
 70
   128
 43
0.0
 10
0.0713204477
 20
0.1619395798
 10
0.0712959335
 20
0.1619577544
 10
0.0712648009
 20
0.1619731873
 10
0.0712282417
 20
0.1619852894
 10
0.0711876629
 20
0.1619935911
 10
0.0711446284
 20
0.1619977754
 10
0.0711007879
 20
0.1619976824
 10
0.0710578249
 20
0.1619933146
 10
0.0710173891
 20
0.1619848388
 10
0.0709810398
 20
0.1619725817
 10
0.0709501694
 20
0.1619570153
 10
0.0709259699
 20
0.1619387358
 10
0.0709093664
 20
0.1619184487
 10
0.0709009932
 20
0.1618969291
 10
0.0709011839
 20
0.1618750089
 10
0.0709099196
 20
0.1618535274
 10
0.0709268711
 20
0.1618333095
 10
0.0709513853
 20
0.1618151348
 10
0.070982518
 20
0.161799702
 10
0.0710190724
 20
0.1617875999
 10
0.0710596512
 20
0.1617792981
 10
0.0711026858
 20
0.1617751139
 10
0.0711465309
 20
0.1617752069
 10
0.071189494
 20
0.1617795747
 10
0.071229925
 20
0.1617880505
 10
0.0712662743
 20
0.1618003076
 10
0.0712971447
 20
0.1618158739
 10
0.071321349
 20
0.1618341535
 10
0.0713379524
 20
0.1618544405
 10
0.0713463209
 20
0.1618759602
 10
0.071346135
 20
0.1618978804
 10
0.0713373993
 20
0.1619193619
 10
0.0713204477
 20
0.1619395798
  0
LWPOLYLINE
  5
268
330
1F
100
AcDbEntity
  8
0
  6
Continuous
 62
     7
370
    25
100
AcDbPolyline
 90
       23
 70
   128
 43
0.0
 10
0.0702751396
 20
0.1629046004
 10
0.0702192114
 20
0.1628643935
 10
0.0701570652
 20
0.1628182548
 10
0.0700951288
 20
0.1627768963
 10
0.0700245617
 20
0.1627396696
 10
0.0699415587
 20
0.1627092522
 10
0.0698718212
 20
0.1626909917
 10
0.0697965668
 20
0.1626746171
 10
0.0697199343
 20
0.1626589721
 10
0.0696462439
 20
0.1626427763
 10
0.0695794771
 20
0.1626248449
 10
0.0695293663
 20
0.1626070302
 10
0.0694869564
 20
0.1625858777
 10
0.0694542788
 20
0.1625610011
 10
0.0694304083
 20
0.1625315135
 10
0.0694159363
 20
0.1624991863
 10
0.0694099138
 20
0.1624643653
 10
0.0694140433
 20
0.1624153488
 10
0.0694308661
 20
0.1623647373
 10
0.0694590853
 20
0.1623142379
 10
0.0694973181
 20
0.1622655981
 10
0.0695442389
 20
0.1622204703
 10
0.069563403
 20
0.1622063606
  0
LWPOLYLINE
  5
269
330
1F
100
AcDbEntity
  8
0
  6
Continuous
 62
     7
370
    25
100
AcDbPolyline
 90
       27
 70
   128
 43
0.0
 10
0.0726002596
 20
0.1629017919
 10
0.0726025961
 20
0.1629120081
 10
0.0726033352
 20
0.1629460066
 10
0.0725858734
 20
0.1630147117
 10
0.0725451992
 20
0.1630818957
 10
0.0725063179
 20
0.163123967
 10
0.0724587916
 20
0.1631625312
 10
0.0724036453
 20
0.1631962054
 10
0.0723578308
 20
0.1632175964
 10
0.0723081825
 20
0.1632356351
 10
0.07225543
 20
0.1632503455
 10
0.0721982716
 20
0.1632622665
 10
0.0721217678
 20
0.1632731169
 10
0.0720383022
 20
0.1632797783
 10
0.0719478701
 20
0.1632822507
 10
0.071811857
 20
0.1632788437
 10
0.0716718577
 20
0.1632685941
 10
0.0715302656
 20
0.1632530635
 10
0.0713895033
 20
0.1632338184
 10
0.0712519406
 20
0.1632123988
 10
0.0711190556
 20
0.1631894534
 10
0.070947337
 20
0.1631553047
 10
0.0707891319
 20
0.1631175297
 10
0.0706429861
 20
0.1630749028
 10
0.070505843
 20
0.163025102
 10
0.0703832529
 20
0.1629686945
 10
0.0702751396
 20
0.1629046004
  0
LWPOLYLINE
  5
26A
330
1F
100
AcDbEntity
  8
0
  6
Continuous
 62
     7
370
    25
100
AcDbPolyline
 90
       33
 70
   128
 43
0.0
 10
0.0675578831
 20
0.1645192116
 10
0.0675333403
 20
0.1645373767
 10
0.0675021837
 20
0.1645527976
 10
0.0674656056
 20
0.1645648854
 10
0.0674250124
 20
0.1645731705
 10
0.0673819731
 20
0.164577338
 10
0.0673381279
 20
0.164577226
 10
0.0672951744
 20
0.1645728391
 10
0.0672547529
 20
0.1645643466
 10
0.0672184227
 20
0.1645520752
 10
0.0671875809
 20
0.1645364969
 10
0.06716341
 20
0.1645182078
 10
0.0671468352
 20
0.1644979137
 10
0.0671385048
 20
0.1644763916
 10
0.0671387242
 20
0.164454469
 10
0.067147498
 20
0.1644329923
 10
0.0671644829
 20
0.1644127815
 10
0.0671890257
 20
0.1643946164
 10
0.0672201822
 20
0.1643791955
 10
0.0672567604
 20
0.1643671101
 10
0.0672973536
 20
0.164358825
 10
0.0673403977
 20
0.1643546575
 10
0.0673842381
 20
0.1643547695
 10
0.0674271963
 20
0.164359154
 10
0.067467613
 20
0.1643676465
 10
0.0675039433
 20
0.1643799179
 10
0.0675347851
 20
0.1643954986
 10
0.067558956
 20
0.1644137853
 10
0.0675755308
 20
0.1644340819
 10
0.0675838659
 20
0.1644556039
 10
0.0675836418
 20
0.1644775241
 10
0.067574868
 20
0.1644990032
 10
0.0675578831
 20
0.1645192116
  0
LWPOLYLINE
  5
26B
330
1F
100
AcDbEntity
  8
0
  6
Continuous
 62
     7
370
    25
100
AcDbPolyline
 90
       23
 70
   128
 43
0.0
 10
0.0665124129
 20
0.1654838055
 10
0.0664565514
 20
0.1654435771
 10
0.0663944815
 20
0.1653974121
 10
0.0663326119
 20
0.1653560274
 10
0.0662621067
 20
0.1653187721
 10
0.0661791561
 20
0.1652883189
 10
0.0661094521
 20
0.1652700322
 10
0.0660342215
 20
0.1652536266
 10
0.0659576128
 20
0.1652379482
 10
0.0658839462
 20
0.1652217215
 10
0.0658172129
 20
0.1652037662
 10
0.0657671307
 20
0.1651859277
 10
0.0657247589
 20
0.1651647585
 10
0.0656921194
 20
0.16513987
 10
0.0656682966
 20
0.1651103705
 10
0.0656538771
 20
0.1650780385
 10
0.0656479119
 20
0.1650432151
 10
0.0656521223
 20
0.164994201
 10
0.0656690262
 20
0.1649435967
 10
0.0656973313
 20
0.1648931068
 10
0.0657356451
 20
0.1648444837
 10
0.0657826374
 20
0.1647993749
 10
0.0658014105
 20
0.1647855776
  0
LWPOLYLINE
  5
26C
330
1F
100
AcDbEntity
  8
0
  6
Continuous
 62
     7
370
    25
100
AcDbPolyline
 90
       27
 70
   128
 43
0.0
 10
0.0688374708
 20
0.1654816502
 10
0.0688398598
 20
0.1654921668
 10
0.0688405417
 20
0.1655261653
 10
0.0688229654
 20
0.1655948656
 10
0.0687821816
 20
0.1656620305
 10
0.0687432335
 20
0.1657040876
 10
0.0686956404
 20
0.1657426327
 10
0.0686404417
 20
0.1657762831
 10
0.0685945891
 20
0.1657976549
 10
0.0685449122
 20
0.1658156722
 10
0.0684921358
 20
0.1658303636
 10
0.0684349631
 20
0.1658422583
 10
0.0683584402
 20
0.1658530777
 10
0.0682749603
 20
0.1658597057
 10
0.0681845234
 20
0.1658621424
 10
0.0680485199
 20
0.1658586782
 10
0.0679085348
 20
0.1658483713
 10
0.0677669714
 20
0.1658327811
 10
0.0676262377
 20
0.1658134812
 10
0.0674887083
 20
0.1657920044
 10
0.0673558615
 20
0.1657690042
 10
0.0671842049
 20
0.1657347839
 10
0.0670260618
 20
0.1656969469
 10
0.0668799828
 20
0.1656542581
 10
0.0667429207
 20
0.1656044
 10
0.0666204212
 20
0.1655479425
 10
0.0665124129
 20
0.1654838055
  0
LWPOLYLINE
  5
26D
330
1F
100
AcDbEntity
  8
0
  6
Continuous
 62
     7
370
    25
100
AcDbPolyline
 90
       33
 70
   128
 43
0.0
 10
0.0815942429
 20
0.1686284273
 10
0.0815727804
 20
0.1686475425
 10
0.0815442703
 20
0.1686641961
 10
0.0815098093
 20
0.168677749
 10
0.081470723
 20
0.1686876803
 10
0.0814285134
 20
0.1686936074
 10
0.0813848017
 20
0.1686953037
 10
0.0813412712
 20
0.1686927038
 10
0.0812995861
 20
0.1686859077
 10
0.0812613581
 20
0.1686751764
 10
0.081228051
 20
0.1686609214
 10
0.0812009428
 20
0.1686436909
 10
0.0811810826
 20
0.1686241489
 10
0.0811692284
 20
0.1686030441
 10
0.0811658333
 20
0.1685811883
 10
0.0811710356
 20
0.1685594218
 10
0.0811846255
 20
0.1685385805
 10
0.0812060927
 20
0.1685194653
 10
0.081234598
 20
0.1685028117
 10
0.081269059
 20
0.1684892588
 10
0.0813081453
 20
0.1684793275
 10
0.081350355
 20
0.1684734004
 10
0.0813940666
 20
0.1684717041
 10
0.0814375971
 20
0.168474304
 10
0.0814792822
 20
0.1684811001
 10
0.0815175102
 20
0.1684918314
 10
0.0815508173
 20
0.1685060864
 10
0.0815779255
 20
0.1685233157
 10
0.0815977858
 20
0.1685428589
 10
0.0816096399
 20
0.1685639637
 10
0.081613035
 20
0.1685858195
 10
0.0816078375
 20
0.168607586
 10
0.0815942429
 20
0.1686284273
  0
LWPOLYLINE
  5
26E
330
1F
100
AcDbEntity
  8
0
  6
Continuous
 62
     7
370
    25
100
AcDbPolyline
 90
       24
 70
   128
 43
0.0
 10
0.08056859
 20
0.1696357923
 10
0.0805062864
 20
0.169598003
 10
0.0804368113
 20
0.1695545548
 10
0.0803683279
 20
0.1695158618
 10
0.0802919148
 20
0.1694816416
 10
0.0802042244
 20
0.1694547134
 10
0.0801317404
 20
0.1694393616
 10
0.0800540636
 20
0.1694261139
 10
0.0799751328
 20
0.1694136482
 10
0.0798990391
 20
0.1694005149
 10
0.0798295735
 20
0.1693853706
 10
0.0797767161
 20
0.1693696588
 10
0.0797309969
 20
0.1693503099
 10
0.0796943663
 20
0.1693268507
 10
0.0796657561
 20
0.1692984348
 10
0.0796460531
 20
0.1692668062
 10
0.0796343659
 20
0.1692323475
 10
0.0796304749
 20
0.1691833275
 10
0.0796389816
 20
0.1691321986
 10
0.0796588562
 20
0.1690807133
 10
0.0796890209
 20
0.1690306764
 10
0.0797284125
 20
0.1689837843
 10
0.0797759197
 20
0.1689417928
 10
0.0797790621
 20
0.1689396697
  0
LWPOLYLINE
  5
26F
330
1F
100
AcDbEntity
  8
0
  6
Continuous
 62
     7
370
    25
100
AcDbPolyline
 90
       26
 70
   128
 43
0.0
 10
0.0828937481
 20
0.1695710962
 10
0.0828957747
 20
0.1695820122
 10
0.0828895901
 20
0.1696512037
 10
0.0828600214
 20
0.1697198229
 10
0.0828281449
 20
0.1697633415
 10
0.0827870701
 20
0.1698037177
 10
0.0827376078
 20
0.1698395281
 10
0.0826954363
 20
0.1698627203
 10
0.0826489018
 20
0.1698827236
 10
0.082598729
 20
0.1698995405
 10
0.0825437067
 20
0.1699137526
 10
0.0824692295
 20
0.1699276906
 10
0.0823871325
 20
0.1699377375
 10
0.082297406
 20
0.1699438947
 10
0.0821612929
 20
0.1699460512
 10
0.0820200823
 20
0.1699415498
 10
0.0818764303
 20
0.169931851
 10
0.081732993
 20
0.1699184185
 10
0.0815923927
 20
0.1699026864
 10
0.0814562033
 20
0.1698852413
 10
0.0812794827
 20
0.1698582166
 10
0.0811156414
 20
0.1698270279
 10
0.0809630202
 20
0.1697905081
 10
0.0808181999
 20
0.1697464722
 10
0.0806868075
 20
0.1696952575
 10
0.08056859
 20
0.1696357923
  0
LWPOLYLINE
  5
270
330
1F
100
AcDbEntity
  8
0
  6
Continuous
 62
     7
370
    25
100
AcDbPolyline
 90
       33
 70
   128
 43
0.0
 10
0.0748595999
 20
0.1696276003
 10
0.0748501156
 20
0.1696490031
 10
0.0748324631
 20
0.1696690684
 10
0.0748073195
 20
0.1696870261
 10
0.0747756527
 20
0.1697021871
 10
0.074738674
 20
0.1697139674
 10
0.0746978138
 20
0.1697219139
 10
0.074654641
 20
0.1697257226
 10
0.0746108053
 20
0.1697252458
 10
0.0745680044
 20
0.1697205036
 10
0.0745278738
 20
0.1697116762
 10
0.0744919537
 20
0.1696991044
 10
0.0744616364
 20
0.169683271
 10
0.0744380758
 20
0.1696647828
 10
0.0744221829
 20
0.1696443527
 10
0.074414563
 20
0.1696227651
 10
0.0744155167
 20
0.1696008485
 10
0.074425001
 20
0.1695794469
 10
0.0744426535
 20
0.1695593815
 10
0.0744678019
 20
0.1695414227
 10
0.0744994686
 20
0.1695262628
 10
0.0745364426
 20
0.1695144826
 10
0.0745773028
 20
0.1695065361
 10
0.0746204804
 20
0.1695027273
 10
0.0746643112
 20
0.169503203
 10
0.0747071169
 20
0.1695079463
 10
0.0747472475
 20
0.1695167726
 10
0.0747831629
 20
0.1695293456
 10
0.074813485
 20
0.169545179
 10
0.0748370455
 20
0.1695636659
 10
0.0748529385
 20
0.169584096
 10
0.0748605536
 20
0.1696056848
 10
0.0748595999
 20
0.1696276003
  0
LWPOLYLINE
  5
271
330
1F
100
AcDbEntity
  8
0
  6
Continuous
 62
     7
370
    25
100
AcDbPolyline
 90
       26
 70
   128
 43
0.0
 10
0.0739595936
 20
0.1707772868
 10
0.0738780878
 20
0.1707501262
 10
0.0737864445
 20
0.1707185858
 10
0.0736984966
 20
0.1706914538
 10
0.0736055563
 20
0.1706697493
 10
0.0735060356
 20
0.1706566589
 10
0.0734277676
 20
0.1706524485
 10
0.0733457421
 20
0.1706510037
 10
0.0732629774
 20
0.1706504887
 10
0.0731825398
 20
0.1706489235
 10
0.0731072806
 20
0.170644477
 10
0.0730475901
 20
0.1706370824
 10
0.0729926298
 20
0.1706251746
 10
0.0729439924
 20
0.1706080168
 10
0.0729001663
 20
0.1705849546
 10
0.0728630064
 20
0.1705575293
 10
0.0728318785
 20
0.1705262344
 10
0.0727997921
 20
0.170479874
 10
0.0727783487
 20
0.1704297012
 10
0.0727675865
 20
0.1703775423
 10
0.0727675055
 20
0.1703252822
 10
0.0727780817
 20
0.1702746957
 10
0.0727992628
 20
0.1702276283
 10
0.0728221176
 20
0.1701956468
 10
0.0728509329
 20
0.1701673811
 10
0.0728606556
 20
0.1701607292
  0
LWPOLYLINE
  5
272
330
1F
100
AcDbEntity
  8
0
  6
Continuous
 62
     7
370
    25
100
AcDbPolyline
 90
       24
 70
   128
 43
0.0
 10
0.0761989401
 20
0.1705096131
 10
0.0762016533
 20
0.1705262583
 10
0.0761963223
 20
0.170572527
 10
0.0761803625
 20
0.1706171172
 10
0.0761537407
 20
0.170658552
 10
0.0761267899
 20
0.1706868523
 10
0.0760938214
 20
0.1707127326
 10
0.0760555218
 20
0.1707360869
 10
0.0760110806
 20
0.1707576507
 10
0.075947852
 20
0.1707817655
 10
0.0758750771
 20
0.1708032601
 10
0.0757927511
 20
0.1708221322
 10
0.0756637047
 20
0.1708438867
 10
0.0755259274
 20
0.1708600038
 10
0.0753828095
 20
0.1708715003
 10
0.0752377318
 20
0.1708793908
 10
0.0750940417
 20
0.1708846694
 10
0.0749535845
 20
0.1708876711
 10
0.0747687863
 20
0.1708873647
 10
0.0745939015
 20
0.1708812111
 10
0.0744266747
 20
0.1708683305
 10
0.0742625712
 20
0.1708471256
 10
0.0741071604
 20
0.1708171075
 10
0.0739595936
 20
0.1707772868
  0
LWPOLYLINE
  5
273
330
1F
100
AcDbEntity
  8
0
  6
Continuous
 62
     7
370
    25
100
AcDbPolyline
 90
       33
 70
   128
 43
0.0
 10
0.0808829926
 20
0.1718260854
 10
0.0809010885
 20
0.1718460529
 10
0.0809110401
 20
0.1718674021
 10
0.0809124754
 20
0.1718893116
 10
0.0809053324
 20
0.1719109398
 10
0.0808898924
 20
0.1719314569
 10
0.0808667372
 20
0.1719500726
 10
0.080836768
 20
0.1719660717
 10
0.0808011292
 20
0.1719788402
 10
0.0807611941
 20
0.1719878882
 10
0.0807184981
 20
0.1719928651
 10
0.0806746815
 20
0.1719935828
 10
0.0806314228
 20
0.1719900125
 10
0.080590391
 20
0.1719822901
 10
0.0805531595
 20
0.1719707137
 10
0.080521159
 20
0.1719557291
 10
0.0804956196
 20
0.1719379097
 10
0.0804775284
 20
0.1719179433
 10
0.080467572
 20
0.1718965941
 10
0.0804661368
 20
0.1718746846
 10
0.0804732798
 20
0.1718530553
 10
0.0804887245
 20
0.1718325394
 10
0.080511875
 20
0.1718139237
 10
0.0805418442
 20
0.1717979246
 10
0.080577483
 20
0.1717851549
 10
0.0806174181
 20
0.1717761081
 10
0.0806601141
 20
0.1717711299
 10
0.0807039354
 20
0.1717704135
 10
0.0807471893
 20
0.1717739838
 10
0.080788226
 20
0.1717817062
 10
0.0808254574
 20
0.1717932814
 10
0.0808574532
 20
0.1718082672
 10
0.0808829926
 20
0.1718260854
  0
LWPOLYLINE
  5
274
330
1F
100
AcDbEntity
  8
0
  6
Continuous
 62
     7
370
    25
100
AcDbPolyline
 90
       28
 70
   128
 43
0.0
 10
0.0805033777
 20
0.1731890433
 10
0.0804055784
 20
0.1731917661
 10
0.0802944182
 20
0.1731940263
 10
0.0801915024
 20
0.1731987053
 10
0.0800911043
 20
0.1732092243
 10
0.079995775
 20
0.1732286077
 10
0.0799281119
 20
0.1732487195
 10
0.0798607586
 20
0.1732721704
 10
0.0797939251
 20
0.1732965892
 10
0.0797276972
 20
0.173319469
 10
0.0796621559
 20
0.1733384889
 10
0.0796055315
 20
0.1733504801
 10
0.0795472716
 20
0.1733574408
 10
0.0794877766
 20
0.1733583074
 10
0.0794250391
 20
0.173353005
 10
0.079362397
 20
0.173342213
 10
0.0792999457
 20
0.1733265155
 10
0.0792186402
 20
0.1732990521
 10
0.0791412781
 20
0.1732653468
 10
0.0790700768
 20
0.1732268494
 10
0.0790073059
 20
0.1731850641
 10
0.0789550589
 20
0.1731414228
 10
0.0789155243
 20
0.1730974155
 10
0.0788954304
 20
0.1730649739
 10
0.0788845633
 20
0.173033716
 10
0.0788838289
 20
0.1730042523
 10
0.0788940571
 20
0.1729771596
 10
0.0789109848
 20
0.1729572218
  0
ARC
  5
275
330
1F
100
AcDbEntity
  8
0
  6
Continuous
 62
     7
370
    25
100
AcDbCircle
 10
0.0807017651
 20
0.1714106027
 30
0.0
 40
0.0017894716088982
100
AcDbArc
 50
36.9589582794
 51
96.3651040021
  0
LWPOLYLINE
  5
276
330
1F
100
AcDbEntity
  8
0
  6
Continuous
 62
     7
370
    25
100
AcDbPolyline
 90
       33
 70
   128
 43
0.0
 10
0.0684387348
 20
0.1687323969
 10
0.0684471558
 20
0.1687539106
 10
0.0684470175
 20
0.168775832
 10
0.0684383295
 20
0.1687973183
 10
0.0684214256
 20
0.1688175445
 10
0.0683969496
 20
0.1688357335
 10
0.068365855
 20
0.1688511854
 10
0.0683293245
 20
0.1688633066
 10
0.0682887648
 20
0.1688716322
 10
0.0682457398
 20
0.1688758414
 10
0.0682018946
 20
0.1688757723
 10
0.068158922
 20
0.1688714283
 10
0.0681184719
 20
0.1688629752
 10
0.068082094
 20
0.1688507395
 10
0.0680511902
 20
0.1688351899
 10
0.068026943
 20
0.1688169246
 10
0.0680102966
 20
0.1687966459
 10
0.0680018757
 20
0.1687751322
 10
0.068002014
 20
0.1687532108
 10
0.068010702
 20
0.1687317246
 10
0.0680276058
 20
0.1687114983
 10
0.0680520771
 20
0.1686933094
 10
0.0680831764
 20
0.1686778575
 10
0.0681197069
 20
0.1686657363
 10
0.0681602667
 20
0.1686574107
 10
0.0682032917
 20
0.1686532014
 10
0.0682471369
 20
0.1686532705
 10
0.0682901095
 20
0.1686576145
 10
0.0683305596
 20
0.1686660677
 10
0.0683669375
 20
0.1686783033
 10
0.0683978413
 20
0.168693853
 10
0.0684220884
 20
0.1687121182
 10
0.0684387348
 20
0.1687323969
  0
LWPOLYLINE
  5
277
330
1F
100
AcDbEntity
  8
0
  6
Continuous
 62
     7
370
    25
100
AcDbPolyline
 90
       27
 70
   128
 43
0.0
 10
0.0678405903
 20
0.1700383347
 10
0.0677441643
 20
0.1700297325
 10
0.0676349447
 20
0.1700191396
 10
0.0675326393
 20
0.1700118511
 10
0.0674300907
 20
0.1700105351
 10
0.0673284052
 20
0.1700184291
 10
0.0672532986
 20
0.1700302165
 10
0.067176957
 20
0.170045287
 10
0.0671006821
 20
0.1700613611
 10
0.0670256994
 20
0.1700760048
 10
0.066953163
 20
0.1700869721
 10
0.0668925379
 20
0.1700921267
 10
0.0668326424
 20
0.170092197
 10
0.0667743395
 20
0.1700861936
 10
0.0667157314
 20
0.1700738149
 10
0.0666597365
 20
0.170056104
 10
0.0666061829
 20
0.1700336414
 10
0.0665397022
 20
0.1699975603
 10
0.0664799307
 20
0.1699558585
 10
0.0664283608
 20
0.1699102014
 10
0.066386504
 20
0.169862315
 10
0.066355748
 20
0.1698138338
 10
0.0663375281
 20
0.1697664576
 10
0.0663329075
 20
0.1697325736
 10
0.0663367174
 20
0.1697009056
 10
0.0663495634
 20
0.1696721476
 10
0.0663716171
 20
0.1696473783
  0
ARC
  5
278
330
1F
100
AcDbEntity
  8
0
  6
Continuous
 62
     7
370
    25
100
AcDbCircle
 10
0.0683116091
 20
0.1680729798
 30
0.0
 40
0.0020210092345993
100
AcDbArc
 50
44.3840182601
 51
103.4773631795
  0
LWPOLYLINE
  5
279
330
1F
100
AcDbEntity
  8
0
  6
Continuous
 62
     7
370
    25
100
AcDbPolyline
 90
       33
 70
   128
 43
0.0
 10
0.0822619532
 20
0.1646067875
 10
0.082260928
 20
0.1646287029
 10
0.0822513722
 20
0.1646500962
 10
0.0822336529
 20
0.1646701472
 10
0.0822084521
 20
0.1646880859
 10
0.0821767328
 20
0.1647032207
 10
0.0821397207
 20
0.1647149699
 10
0.0820988367
 20
0.164722883
 10
0.0820556448
 20
0.1647266572
 10
0.0820118139
 20
0.1647261446
 10
0.0819690273
 20
0.1647213667
 10
0.0819289253
 20
0.1647125071
 10
0.0818930481
 20
0.1646999066
 10
0.0818627785
 20
0.164684047
 10
0.08183928
 20
0.164665541
 10
0.0818234537
 20
0.1646450966
 10
0.0818159054
 20
0.164623503
 10
0.0818169306
 20
0.1646015876
 10
0.0818264864
 20
0.1645801943
 10
0.0818442057
 20
0.1645601433
 10
0.0818694065
 20
0.1645422047
 10
0.0819011257
 20
0.1645270699
 10
0.0819381378
 20
0.1645153206
 10
0.0819790266
 20
0.1645074075
 10
0.0820222138
 20
0.1645036333
 10
0.0820660446
 20
0.1645041459
 10
0.0821088312
 20
0.1645089238
 10
0.0821489332
 20
0.1645177835
 10
0.0821848105
 20
0.1645303839
 10
0.0822150801
 20
0.1645462435
 10
0.0822385786
 20
0.1645647495
 10
0.0822544048
 20
0.1645851939
 10
0.0822619532
 20
0.1646067875
  0
LWPOLYLINE
  5
27A
330
1F
100
AcDbEntity
  8
0
  6
Continuous
 62
     7
370
    25
100
AcDbPolyline
 90
       27
 70
   128
 43
0.0
 10
0.0814887236
 20
0.1658381837
 10
0.0813982437
 20
0.1658194225
 10
0.0812961291
 20
0.1657973426
 10
0.0811993454
 20
0.1657792323
 10
0.081099758
 20
0.1657669299
 10
0.080997052
 20
0.1657637137
 10
0.0809186361
 20
0.1657671564
 10
0.0808376024
 20
0.1657736724
 10
0.0807562016
 20
0.1657811754
 10
0.0806766794
 20
0.165787422
 10
0.0806011198
 20
0.1657903402
 10
0.0805396984
 20
0.1657888597
 10
0.0804811714
 20
0.1657824939
 10
0.080426812
 20
0.1657703655
 10
0.0803748892
 20
0.1657519787
 10
0.0803278158
 20
0.1657286661
 10
0.0802851675
 20
0.1657009762
 10
0.0802357481
 20
0.1656585949
 10
0.0801952933
 20
0.1656114452
 10
0.0801645468
 20
0.165561313
 10
0.0801442478
 20
0.1655100482
 10
0.0801350496
 20
0.1654593962
 10
0.080137615
 20
0.1654111689
 10
0.080147662
 20
0.1653775805
 10
0.080164995
 20
0.1653470605
 10
0.0801899002
 20
0.1653203552
 10
0.0801953839
 20
0.1653166335
  0
ARC
  5
27B
330
1F
100
AcDbEntity
  8
0
  6
Continuous
 62
     7
370
    25
100
AcDbCircle
 10
0.0822040926
 20
0.1638276391
 30
0.0
 40
0.0021340202868704
100
AcDbArc
 50
48.9855991753
 51
109.5859950635
  0
LINE
  5
27C
330
1F
100
AcDbEntity
  8
0
  6
Continuous
 62
     7
370
    25
100
AcDbLine
 10
0.0640899227
 20
0.1749512237
 30
0.0
 11
0.0640899227
 21
0.1746221345
 31
0.0
  0
ARC
  5
27D
330
1F
100
AcDbEntity
  8
0
  6
Continuous
 62
     7
370
    25
100
AcDbCircle
 10
0.0645774291
 20
0.1747262121
 30
0.0
 40
0.0005369289127201
100
AcDbArc
 50
77.9057199318
 51
155.2240181476
  0
ARC
  5
27E
330
1F
100
AcDbEntity
  8
0
  6
Continuous
 62
     7
370
    25
100
AcDbCircle
 10
0.0645774291
 20
0.1743971229
 30
0.0
 40
0.0005369289127201
100
AcDbArc
 50
77.9057199318
 51
155.2240181476
  0
LINE
  5
27F
330
1F
100
AcDbEntity
  8
0
  6
Continuous
 62
     7
370
    25
100
AcDbLine
 10
0.0840899227
 20
0.1752512234
 30
0.0
 11
0.0646899269
 21
0.1752512234
 31
0.0
  0
LINE
  5
280
330
1F
100
AcDbEntity
  8
0
  6
Continuous
 62
     7
370
    25
100
AcDbLine
 10
0.0840899227
 20
0.1749221342
 30
0.0
 11
0.0646899269
 21
0.1749221342
 31
0.0
  0
ARC
  5
281
330
1F
100
AcDbEntity
  8
0
  6
Continuous
 62
     7
370
    25
100
AcDbCircle
 10
0.0842024206
 20
0.1743971229
 30
0.0
 40
0.00053692891272
100
AcDbArc
 50
24.7759818524
 51
102.0942800682
  0
LINE
  5
282
330
1F
100
AcDbEntity
  8
0
  6
Continuous
 62
     7
370
    25
100
AcDbLine
 10
0.0846899269
 20
0.1684221345
 30
0.0
 11
0.0846899269
 21
0.1746221345
 31
0.0
  0
LINE
  5
283
330
1F
100
AcDbEntity
  8
0
  6
Continuous
 62
     7
370
    25
100
AcDbLine
 10
0.0846899269
 20
0.1684221345
 30
0.0
 11
0.084123473
 21
0.1684221345
 31
0.0
  0
LWPOLYLINE
  5
284
330
1F
100
AcDbEntity
  8
0
  6
Continuous
 62
     7
370
    25
100
AcDbPolyline
 90
       54
 70
   128
 43
0.0
 10
0.084123473
 20
0.1684221345
 10
0.0841006039
 20
0.1683734851
 10
0.0840535401
 20
0.1683259874
 10
0.083983507
 20
0.1682798105
 10
0.0838912962
 20
0.1682348281
 10
0.0837773321
 20
0.1681908744
 10
0.0836418722
 20
0.1681478673
 10
0.0834851692
 20
0.1681057578
 10
0.0833075045
 20
0.1680645674
 10
0.083079233
 20
0.1680186694
 10
0.0828246449
 20
0.167974115
 10
0.0825444458
 20
0.1679310053
 10
0.0822394226
 20
0.1678894537
 10
0.081910486
 20
0.1678495734
 10
0.0815586565
 20
0.1678114753
 10
0.0811849735
 20
0.1677752715
 10
0.0807418249
 20
0.1677371054
 10
0.0802743433
 20
0.1677015882
 10
0.0797843216
 20
0.1676688533
 10
0.0792735861
 20
0.1676390308
 10
0.0787441252
 20
0.1676122277
 10
0.078197975
 20
0.1675885444
 10
0.0776371906
 20
0.1675680774
 10
0.0768462132
 20
0.1675453203
 10
0.0760374258
 20
0.1675289446
 10
0.0752166699
 20
0.1675190752
 10
0.0743899248
 20
0.1675157743
 10
0.0736882065
 20
0.1675181513
 10
0.0729901455
 20
0.1675252634
 10
0.072299404
 20
0.1675370758
 10
0.0716195915
 20
0.1675535315
 10
0.0709542368
 20
0.1675745361
 10
0.0703068445
 20
0.1675999897
 10
0.06981297
 20
0.1676230221
 10
0.0693338345
 20
0.1676486414
 10
0.0688710068
 20
0.1676767688
 10
0.0684259794
 20
0.1677073174
 10
0.0680001448
 20
0.1677401858
 10
0.0675948761
 20
0.1677752715
 10
0.0672211931
 20
0.1678114753
 10
0.0668693636
 20
0.1678495734
 10
0.066540427
 20
0.1678894537
 10
0.0662354038
 20
0.1679310053
 10
0.0659552048
 20
0.167974115
 10
0.0657006167
 20
0.1680186694
 10
0.0654723452
 20
0.1680645674
 10
0.0652946804
 20
0.1681057578
 10
0.0651379774
 20
0.1681478673
 10
0.0650025175
 20
0.1681908744
 10
0.0648885534
 20
0.1682348281
 10
0.0647963427
 20
0.1682798105
 10
0.0647263096
 20
0.1683259874
 10
0.0646792458
 20
0.1683734851
 10
0.0646563767
 20
0.1684221345
  0
LINE
  5
285
330
1F
100
AcDbEntity
  8
0
  6
Continuous
 62
     7
370
    25
100
AcDbLine
 10
0.0646563767
 20
0.1684221345
 30
0.0
 11
0.0640899227
 21
0.1684221345
 31
0.0
  0
LINE
  5
286
330
1F
100
AcDbEntity
  8
0
  6
Continuous
 62
     7
370
    25
100
AcDbLine
 10
0.0640899227
 20
0.1746221345
 30
0.0
 11
0.0640899227
 21
0.1684221345
 31
0.0
  0
ARC
  5
287
330
1F
100
AcDbEntity
  8
0
  6
Continuous
 62
     7
370
    25
100
AcDbCircle
 10
0.0842024206
 20
0.1747262121
 30
0.0
 40
0.00053692891272
100
AcDbArc
 50
24.7759818524
 51
102.0942800682
  0
LINE
  5
288
330
1F
100
AcDbEntity
  8
0
  6
Continuous
 62
     7
370
    25
100
AcDbLine
 10
0.0846899269
 20
0.1749512237
 30
0.0
 11
0.0846899269
 21
0.1746221345
 31
0.0
  0
LINE
  5
289
330
1F
100
AcDbEntity
  8
0
  6
Continuous
 62
     7
370
    25
100
AcDbLine
 10
0.0846899269
 20
0.1619221347
 30
0.0
 11
0.0846899269
 21
0.1684221345
 31
0.0
  0
ARC
  5
28A
330
1F
100
AcDbEntity
  8
0
  6
Continuous
 62
     7
370
    25
100
AcDbCircle
 10
0.0842024217
 20
0.162147144
 30
0.0
 40
0.0005369269076028
100
AcDbArc
 50
257.9055487618
 51
335.2241893175
  0
LINE
  5
28B
330
1F
100
AcDbEntity
  8
0
  6
Continuous
 62
     7
370
    25
100
AcDbLine
 10
0.0840899227
 20
0.161622135
 30
0.0
 11
0.082870755
 21
0.161622135
 31
0.0
  0
LINE
  5
28C
330
1F
100
AcDbEntity
  8
0
  6
Continuous
 62
     7
370
    25
100
AcDbLine
 10
0.0806020163
 20
0.161622135
 30
0.0
 11
0.0646899269
 21
0.161622135
 31
0.0
  0
ARC
  5
28D
330
1F
100
AcDbEntity
  8
0
  6
Continuous
 62
     7
370
    25
100
AcDbCircle
 10
0.0645774279
 20
0.162147144
 30
0.0
 40
0.0005369269076028
100
AcDbArc
 50
204.7758106825
 51
282.0944512382
  0
LINE
  5
28E
330
1F
100
AcDbEntity
  8
0
  6
Continuous
 62
     7
370
    25
100
AcDbLine
 10
0.0640899227
 20
0.1684221345
 30
0.0
 11
0.0640899227
 21
0.1619221347
 31
0.0
  0
LWPOLYLINE
  5
28F
330
1F
100
AcDbEntity
  8
0
  6
Continuous
 62
     7
370
    25
100
AcDbPolyline
 90
       54
 70
   128
 43
0.0
 10
0.084123473
 20
0.1684221345
 10
0.0841006039
 20
0.1683734851
 10
0.0840535401
 20
0.1683259874
 10
0.083983507
 20
0.1682798105
 10
0.0838912962
 20
0.1682348281
 10
0.0837773321
 20
0.1681908744
 10
0.0836418722
 20
0.1681478673
 10
0.0834851692
 20
0.1681057578
 10
0.0833075045
 20
0.1680645674
 10
0.083079233
 20
0.1680186694
 10
0.0828246449
 20
0.167974115
 10
0.0825444458
 20
0.1679310053
 10
0.0822394226
 20
0.1678894537
 10
0.081910486
 20
0.1678495734
 10
0.0815586565
 20
0.1678114753
 10
0.0811849735
 20
0.1677752715
 10
0.0807418249
 20
0.1677371054
 10
0.0802743433
 20
0.1677015882
 10
0.0797843216
 20
0.1676688533
 10
0.0792735861
 20
0.1676390308
 10
0.0787441252
 20
0.1676122277
 10
0.078197975
 20
0.1675885444
 10
0.0776371906
 20
0.1675680774
 10
0.0768462132
 20
0.1675453203
 10
0.0760374258
 20
0.1675289446
 10
0.0752166699
 20
0.1675190752
 10
0.0743899248
 20
0.1675157743
 10
0.0736882065
 20
0.1675181513
 10
0.0729901455
 20
0.1675252634
 10
0.072299404
 20
0.1675370758
 10
0.0716195915
 20
0.1675535315
 10
0.0709542368
 20
0.1675745361
 10
0.0703068445
 20
0.1675999897
 10
0.06981297
 20
0.1676230221
 10
0.0693338345
 20
0.1676486414
 10
0.0688710068
 20
0.1676767688
 10
0.0684259794
 20
0.1677073174
 10
0.0680001448
 20
0.1677401858
 10
0.0675948761
 20
0.1677752715
 10
0.0672211931
 20
0.1678114753
 10
0.0668693636
 20
0.1678495734
 10
0.066540427
 20
0.1678894537
 10
0.0662354038
 20
0.1679310053
 10
0.0659552048
 20
0.167974115
 10
0.0657006167
 20
0.1680186694
 10
0.0654723452
 20
0.1680645674
 10
0.0652946804
 20
0.1681057578
 10
0.0651379774
 20
0.1681478673
 10
0.0650025175
 20
0.1681908744
 10
0.0648885534
 20
0.1682348281
 10
0.0647963427
 20
0.1682798105
 10
0.0647263096
 20
0.1683259874
 10
0.0646792458
 20
0.1683734851
 10
0.0646563767
 20
0.1684221345
  0
LINE
  5
290
330
1F
100
AcDbEntity
  8
0
  6
Continuous
 62
     7
370
    25
100
AcDbLine
 10
0.1252867602
 20
0.1962803906
 30
0.0
 11
0.1252854417
 21
0.1961717414
 31
0.0
  0
LINE
  5
291
330
1F
100
AcDbEntity
  8
0
  6
Continuous
 62
     7
370
    25
100
AcDbLine
 10
0.1252867602
 20
0.1962803906
 30
0.0
 11
0.1344203327
 21
0.1872028179
 31
0.0
  0
LINE
  5
292
330
1F
100
AcDbEntity
  8
0
  6
Continuous
 62
     7
370
    25
100
AcDbLine
 10
0.1344203327
 20
0.1872028179
 30
0.0
 11
0.1344190146
 21
0.1870941685
 31
0.0
  0
LINE
  5
293
330
1F
100
AcDbEntity
  8
0
  6
Continuous
 62
     7
370
    25
100
AcDbLine
 10
0.1252854417
 20
0.1961717414
 30
0.0
 11
0.1344190146
 21
0.1870941685
 31
0.0
  0
LINE
  5
294
330
1F
100
AcDbEntity
  8
0
  6
Continuous
 62
     7
370
    25
100
AcDbLine
 10
0.1344203327
 20
0.1872028179
 30
0.0
 11
0.143497561
 21
0.196280046
 31
0.0
  0
ARC
  5
295
330
1F
100
AcDbEntity
  8
0
  6
Continuous
 62
     7
370
    25
100
AcDbCircle
 10
0.1343911376
 20
0.1422037378
 30
0.0
 40
0.0548377065971335
100
AcDbArc
 50
80.4411041348
 51
99.5567280038
  0
LINE
  5
296
330
1F
100
AcDbEntity
  8
0
  6
Continuous
 62
     7
370
    25
100
AcDbLine
 10
0.143497561
 20
0.196280046
 30
0.0
 11
0.1434962432
 21
0.1961713969
 31
0.0
  0
LINE
  5
297
330
1F
100
AcDbEntity
  8
0
  6
Continuous
 62
     7
370
    25
100
AcDbLine
 10
0.1344190146
 20
0.1870941685
 30
0.0
 11
0.1434962432
 21
0.1961713969
 31
0.0
  0
LINE
  5
298
330
1F
100
AcDbEntity
  8
0
  6
Continuous
 62
     7
370
    25
100
AcDbLine
 10
0.1350643203
 20
0.1865588303
 30
0.0
 11
0.134955671
 21
0.1865575121
 31
0.0
  0
LINE
  5
299
330
1F
100
AcDbEntity
  8
0
  6
Continuous
 62
     7
370
    25
100
AcDbLine
 10
0.1350643203
 20
0.1865588303
 30
0.0
 11
0.1441418932
 21
0.1774252575
 31
0.0
  0
LINE
  5
29A
330
1F
100
AcDbEntity
  8
0
  6
Continuous
 62
     7
370
    25
100
AcDbLine
 10
0.1441418932
 20
0.1774252575
 30
0.0
 11
0.1440332441
 21
0.1774239396
 31
0.0
  0
LINE
  5
29B
330
1F
100
AcDbEntity
  8
0
  6
Continuous
 62
     7
370
    25
100
AcDbLine
 10
0.134955671
 20
0.1865575121
 30
0.0
 11
0.1440332441
 21
0.1774239396
 31
0.0
  0
LINE
  5
29C
330
1F
100
AcDbEntity
  8
0
  6
Continuous
 62
     7
370
    25
100
AcDbLine
 10
0.1441415487
 20
0.195636059
 30
0.0
 11
0.1350643203
 21
0.1865588303
 31
0.0
  0
ARC
  5
29D
330
1F
100
AcDbEntity
  8
0
  6
Continuous
 62
     7
370
    25
100
AcDbCircle
 10
0.0900634186
 20
0.1865296352
 30
0.0
 40
0.0548395032139446
100
AcDbArc
 50
350.4435877444
 51
9.5585801169
  0
LINE
  5
29E
330
1F
100
AcDbEntity
  8
0
  6
Continuous
 62
     7
370
    25
100
AcDbLine
 10
0.1441415487
 20
0.195636059
 30
0.0
 11
0.1440328996
 21
0.1956347405
 31
0.0
  0
LINE
  5
29F
330
1F
100
AcDbEntity
  8
0
  6
Continuous
 62
     7
370
    25
100
AcDbLine
 10
0.1440328996
 20
0.1956347405
 30
0.0
 11
0.134955671
 21
0.1865575121
 31
0.0
  0
LINE
  5
2A0
330
1F
100
AcDbEntity
  8
0
  6
Continuous
 62
     7
370
    25
100
AcDbLine
 10
0.1252858065
 20
0.176887648
 30
0.0
 11
0.1344190348
 21
0.1860208761
 31
0.0
  0
LINE
  5
2A1
330
1F
100
AcDbEntity
  8
0
  6
Continuous
 62
     7
370
    25
100
AcDbLine
 10
0.1344190348
 20
0.1860208761
 30
0.0
 11
0.143496608
 21
0.1768873035
 31
0.0
  0
ARC
  5
2A2
330
1F
100
AcDbEntity
  8
0
  6
Continuous
 62
     7
370
    25
100
AcDbCircle
 10
0.1343922239
 20
0.2306285626
 30
0.0
 40
0.0545069971666872
100
AcDbArc
 50
260.3825648547
 51
279.6152672839
  0
LINE
  5
2A3
330
1F
100
AcDbEntity
  8
0
  6
Continuous
 62
     7
370
    25
100
AcDbLine
 10
0.1252850662
 20
0.1769469743
 30
0.0
 11
0.1252858065
 21
0.176887648
 31
0.0
  0
LINE
  5
2A4
330
1F
100
AcDbEntity
  8
0
  6
Continuous
 62
     7
370
    25
100
AcDbLine
 10
0.134418478
 20
0.1860655299
 30
0.0
 11
0.1344185215
 21
0.1860620442
 31
0.0
  0
LINE
  5
2A5
330
1F
100
AcDbEntity
  8
0
  6
Continuous
 62
     7
370
    25
100
AcDbLine
 10
0.1344190116
 20
0.1860227453
 30
0.0
 11
0.1344190348
 21
0.1860208761
 31
0.0
  0
LINE
  5
2A6
330
1F
100
AcDbEntity
  8
0
  6
Continuous
 62
     7
370
    25
100
AcDbLine
 10
0.1343570998
 20
0.1860662723
 30
0.0
 11
0.1343582006
 21
0.186067373
 31
0.0
  0
LINE
  5
2A7
330
1F
100
AcDbEntity
  8
0
  6
Continuous
 62
     7
370
    25
100
AcDbLine
 10
0.1434958772
 20
0.1769458794
 30
0.0
 11
0.143496608
 21
0.1768873035
 31
0.0
  0
LINE
  5
2A8
330
1F
100
AcDbEntity
  8
0
  6
Continuous
 62
     7
370
    25
100
AcDbLine
 10
0.1337763695
 20
0.1865588546
 30
0.0
 11
0.1246427963
 21
0.1956364273
 31
0.0
  0
LINE
  5
2A9
330
1F
100
AcDbEntity
  8
0
  6
Continuous
 62
     7
370
    25
100
AcDbLine
 10
0.1246431409
 20
0.1774256265
 30
0.0
 11
0.1337763695
 21
0.1865588546
 31
0.0
  0
ARC
  5
2AA
330
1F
100
AcDbEntity
  8
0
  6
Continuous
 62
     7
370
    25
100
AcDbCircle
 10
0.1783841047
 20
0.1865320436
 30
0.0
 40
0.0545070456835569
100
AcDbArc
 50
170.3847416747
 51
189.6174261868
  0
LINE
  5
2AB
330
1F
100
AcDbEntity
  8
0
  6
Continuous
 62
     7
370
    25
100
AcDbLine
 10
0.1246431409
 20
0.1774256265
 30
0.0
 11
0.1247491501
 21
0.1774243038
 31
0.0
  0
LINE
  5
2AC
330
1F
100
AcDbEntity
  8
0
  6
Continuous
 62
     7
370
    25
100
AcDbLine
 10
0.1337763695
 20
0.1865588546
 30
0.0
 11
0.1338823786
 21
0.1865575324
 31
0.0
  0
LINE
  5
2AD
330
1F
100
AcDbEntity
  8
0
  6
Continuous
 62
     7
370
    25
100
AcDbLine
 10
0.1247491501
 20
0.1774243038
 30
0.0
 11
0.1338823786
 21
0.1865575324
 31
0.0
  0
LINE
  5
2AE
330
1F
100
AcDbEntity
  8
0
  6
Continuous
 62
     7
370
    25
100
AcDbLine
 10
0.1246427963
 20
0.1956364273
 30
0.0
 11
0.1247488056
 21
0.1956351053
 31
0.0
  0
LINE
  5
2AF
330
1F
100
AcDbEntity
  8
0
  6
Continuous
 62
     7
370
    25
100
AcDbLine
 10
0.1338823786
 20
0.1865575324
 30
0.0
 11
0.1247488056
 21
0.1956351053
 31
0.0
  0
LINE
  5
2B0
330
1F
100
AcDbEntity
  8
0
  6
Continuous
 62
     7
370
    25
100
AcDbLine
 10
0.0737688349
 20
0.1865513209
 30
0.0
 11
0.0646421908
 21
0.195635823
 31
0.0
  0
LINE
  5
2B1
330
1F
100
AcDbEntity
  8
0
  6
Continuous
 62
     7
370
    25
100
AcDbLine
 10
0.0646423863
 20
0.1774248725
 30
0.0
 11
0.0737688349
 21
0.1865513209
 31
0.0
  0
ARC
  5
2B2
330
1F
100
AcDbEntity
  8
0
  6
Continuous
 62
     7
370
    25
100
AcDbCircle
 10
0.1184254551
 20
0.1865309251
 30
0.0
 40
0.0545484984503778
100
AcDbArc
 50
170.3915701711
 51
189.6096600239
  0
LINE
  5
2B3
330
1F
100
AcDbEntity
  8
0
  6
Continuous
 62
     7
370
    25
100
AcDbLine
 10
0.0646423863
 20
0.1774248725
 30
0.0
 11
0.0647487257
 21
0.1774238783
 31
0.0
  0
LINE
  5
2B4
330
1F
100
AcDbEntity
  8
0
  6
Continuous
 62
     7
370
    25
100
AcDbLine
 10
0.0737688349
 20
0.1865513209
 30
0.0
 11
0.0738751743
 21
0.1865503263
 31
0.0
  0
LINE
  5
2B5
330
1F
100
AcDbEntity
  8
0
  6
Continuous
 62
     7
370
    25
100
AcDbLine
 10
0.0647487257
 20
0.1774238783
 30
0.0
 11
0.0738751743
 21
0.1865503263
 31
0.0
  0
LINE
  5
2B6
330
1F
100
AcDbEntity
  8
0
  6
Continuous
 62
     7
370
    25
100
AcDbLine
 10
0.0646421908
 20
0.195635823
 30
0.0
 11
0.0647485302
 21
0.1956348287
 31
0.0
  0
LINE
  5
2B7
330
1F
100
AcDbEntity
  8
0
  6
Continuous
 62
     7
370
    25
100
AcDbLine
 10
0.0738751743
 20
0.1865503263
 30
0.0
 11
0.0647485302
 21
0.1956348287
 31
0.0
  0
LINE
  5
2B8
330
1F
100
AcDbEntity
  8
0
  6
Continuous
 62
     7
370
    25
100
AcDbLine
 10
0.0652861641
 20
0.1962797969
 30
0.0
 11
0.0652851723
 21
0.1961714732
 31
0.0
  0
LINE
  5
2B9
330
1F
100
AcDbEntity
  8
0
  6
Continuous
 62
     7
370
    25
100
AcDbLine
 10
0.0652861641
 20
0.1962797969
 30
0.0
 11
0.0744128082
 21
0.1871952947
 31
0.0
  0
LINE
  5
2BA
330
1F
100
AcDbEntity
  8
0
  6
Continuous
 62
     7
370
    25
100
AcDbLine
 10
0.0744128082
 20
0.1871952947
 30
0.0
 11
0.0744118164
 21
0.1870869711
 31
0.0
  0
LINE
  5
2BB
330
1F
100
AcDbEntity
  8
0
  6
Continuous
 62
     7
370
    25
100
AcDbLine
 10
0.0652851723
 20
0.1961714732
 30
0.0
 11
0.0744118164
 21
0.1870869711
 31
0.0
  0
LINE
  5
2BC
330
1F
100
AcDbEntity
  8
0
  6
Continuous
 62
     7
370
    25
100
AcDbLine
 10
0.0744128082
 20
0.1871952947
 30
0.0
 11
0.0834971188
 21
0.196279602
 31
0.0
  0
ARC
  5
2BD
330
1F
100
AcDbEntity
  8
0
  6
Continuous
 62
     7
370
    25
100
AcDbCircle
 10
0.0743910631
 20
0.1422443131
 30
0.0
 40
0.0547971960480848
100
AcDbArc
 50
80.434361048
 51
99.5644125079
  0
LINE
  5
2BE
330
1F
100
AcDbEntity
  8
0
  6
Continuous
 62
     7
370
    25
100
AcDbLine
 10
0.0834971188
 20
0.196279602
 30
0.0
 11
0.083496127
 21
0.1961712783
 31
0.0
  0
LINE
  5
2BF
330
1F
100
AcDbEntity
  8
0
  6
Continuous
 62
     7
370
    25
100
AcDbLine
 10
0.0744118164
 20
0.1870869711
 30
0.0
 11
0.083496127
 21
0.1961712783
 31
0.0
  0
LINE
  5
2C0
330
1F
100
AcDbEntity
  8
0
  6
Continuous
 62
     7
370
    25
100
AcDbLine
 10
0.0652853821
 20
0.1768872219
 30
0.0
 11
0.0744118307
 21
0.18601367
 31
0.0
  0
LINE
  5
2C1
330
1F
100
AcDbEntity
  8
0
  6
Continuous
 62
     7
370
    25
100
AcDbLine
 10
0.0744118307
 20
0.18601367
 30
0.0
 11
0.083496332
 21
0.176887027
 31
0.0
  0
ARC
  5
2C2
330
1F
100
AcDbEntity
  8
0
  6
Continuous
 62
     7
370
    25
100
AcDbCircle
 10
0.0743914327
 20
0.2306701186
 30
0.0
 40
0.054548328480198
100
AcDbArc
 50
260.3903119436
 51
279.608461612
  0
LINE
  5
2C3
330
1F
100
AcDbEntity
  8
0
  6
Continuous
 62
     7
370
    25
100
AcDbLine
 10
0.0652848242
 20
0.1769467312
 30
0.0
 11
0.0652853821
 21
0.1768872219
 31
0.0
  0
LINE
  5
2C4
330
1F
100
AcDbEntity
  8
0
  6
Continuous
 62
     7
370
    25
100
AcDbLine
 10
0.074411392
 20
0.1860605698
 30
0.0
 11
0.0744114445
 21
0.1860549653
 31
0.0
  0
LINE
  5
2C5
330
1F
100
AcDbEntity
  8
0
  6
Continuous
 62
     7
370
    25
100
AcDbLine
 10
0.0744116734
 20
0.1860300816
 30
0.0
 11
0.0744118307
 21
0.18601367
 31
0.0
  0
LINE
  5
2C6
330
1F
100
AcDbEntity
  8
0
  6
Continuous
 62
     7
370
    25
100
AcDbLine
 10
0.0743570994
 20
0.1860662723
 30
0.0
 11
0.0743582009
 21
0.186067373
 31
0.0
  0
LINE
  5
2C7
330
1F
100
AcDbEntity
  8
0
  6
Continuous
 62
     7
370
    25
100
AcDbLine
 10
0.0834957789
 20
0.1769459772
 30
0.0
 11
0.083496332
 21
0.176887027
 31
0.0
  0
LINE
  5
2C8
330
1F
100
AcDbEntity
  8
0
  6
Continuous
 62
     7
370
    25
100
AcDbLine
 10
0.0750567959
 20
0.1865513071
 30
0.0
 11
0.0749484728
 21
0.1865503148
 31
0.0
  0
LINE
  5
2C9
330
1F
100
AcDbEntity
  8
0
  6
Continuous
 62
     7
370
    25
100
AcDbLine
 10
0.0750567959
 20
0.1865513071
 30
0.0
 11
0.0841412972
 21
0.1774246638
 31
0.0
  0
LINE
  5
2CA
330
1F
100
AcDbEntity
  8
0
  6
Continuous
 62
     7
370
    25
100
AcDbLine
 10
0.0841412972
 20
0.1774246638
 30
0.0
 11
0.0840329741
 21
0.1774236714
 31
0.0
  0
LINE
  5
2CB
330
1F
100
AcDbEntity
  8
0
  6
Continuous
 62
     7
370
    25
100
AcDbLine
 10
0.0749484728
 20
0.1865503148
 30
0.0
 11
0.0840329741
 21
0.1774236714
 31
0.0
  0
LINE
  5
2CC
330
1F
100
AcDbEntity
  8
0
  6
Continuous
 62
     7
370
    25
100
AcDbLine
 10
0.0841411064
 20
0.1956356143
 30
0.0
 11
0.0750567959
 21
0.1865513071
 31
0.0
  0
ARC
  5
2CD
330
1F
100
AcDbEntity
  8
0
  6
Continuous
 62
     7
370
    25
100
AcDbCircle
 10
0.0301044351
 20
0.1865295731
 30
0.0
 40
0.0547985568817418
100
AcDbArc
 50
350.4358163406
 51
9.5653838497
  0
LINE
  5
2CE
330
1F
100
AcDbEntity
  8
0
  6
Continuous
 62
     7
370
    25
100
AcDbLine
 10
0.0841411064
 20
0.1956356143
 30
0.0
 11
0.0840327786
 21
0.1956346219
 31
0.0
  0
LINE
  5
2CF
330
1F
100
AcDbEntity
  8
0
  6
Continuous
 62
     7
370
    25
100
AcDbLine
 10
0.0840327786
 20
0.1956346219
 30
0.0
 11
0.0749484728
 21
0.1865503148
 31
0.0
  0
LINE
  5
2D0
330
1F
100
AcDbEntity
  8
0
  6
Continuous
 62
     7
370
    25
100
AcDbLine
 10
0.1452166198
 20
0.1969784217
 30
0.0
 11
0.1451715456
 21
0.1969519668
 31
0.0
  0
ARC
  5
2D1
330
1F
100
AcDbEntity
  8
0
  6
Continuous
 62
     7
370
    25
100
AcDbCircle
 10
0.1444499151
 20
0.196528419
 30
0.0
 40
0.0008890099023092
100
AcDbArc
 50
0.0075785935
 51
30.4099903788
  0
LINE
  5
2D2
330
1F
100
AcDbEntity
  8
0
  6
Continuous
 62
     7
370
    25
100
AcDbLine
 10
0.1452166198
 20
0.196078422
 30
0.0
 11
0.1451715456
 21
0.1961048775
 31
0.0
  0
ARC
  5
2D3
330
1F
100
AcDbEntity
  8
0
  6
Continuous
 62
     7
370
    25
100
AcDbCircle
 10
0.1444499043
 20
0.1965284277
 30
0.0
 40
0.0008890206868367
100
AcDbArc
 50
329.590198666
 51
0.0070221512
  0
LINE
  5
2D4
330
1F
100
AcDbEntity
  8
0
  6
Continuous
 62
     7
370
    25
100
AcDbLine
 10
0.1452166198
 20
0.1769784223
 30
0.0
 11
0.1451715456
 21
0.1769519668
 31
0.0
  0
ARC
  5
2D5
330
1F
100
AcDbEntity
  8
0
  6
Continuous
 62
     7
370
    25
100
AcDbCircle
 10
0.1444499107
 20
0.1765284185
 30
0.0
 40
0.0008890142285089
100
AcDbArc
 50
0.0028133854
 51
30.4099137458
  0
LINE
  5
2D6
330
1F
100
AcDbEntity
  8
0
  6
Continuous
 62
     7
370
    25
100
AcDbLine
 10
0.1452166198
 20
0.1760784226
 30
0.0
 11
0.1451715456
 21
0.1761048775
 31
0.0
  0
ARC
  5
2D7
330
1F
100
AcDbEntity
  8
0
  6
Continuous
 62
     7
370
    25
100
AcDbCircle
 10
0.1444499216
 20
0.1765284235
 30
0.0
 40
0.0008890033135794
100
AcDbArc
 50
329.5898950931
 51
0.0024869755
  0
LINE
  5
2D8
330
1F
100
AcDbEntity
  8
0
  6
Continuous
 62
     7
370
    25
100
AcDbLine
 10
0.143250523
 20
0.1761784225
 30
0.0
 11
0.1396893264
 21
0.1761784225
 31
0.0
  0
LINE
  5
2D9
330
1F
100
AcDbEntity
  8
0
  6
Continuous
 62
     7
370
    25
100
AcDbLine
 10
0.143250523
 20
0.1757984226
 30
0.0
 11
0.1396893264
 21
0.1757984226
 31
0.0
  0
LINE
  5
2DA
330
1F
100
AcDbEntity
  8
0
  6
Continuous
 62
     7
370
    25
100
AcDbLine
 10
0.1395199246
 20
0.1757984226
 30
0.0
 11
0.1395199246
 21
0.1761784225
 31
0.0
  0
LINE
  5
2DB
330
1F
100
AcDbEntity
  8
0
  6
Continuous
 62
     7
370
    25
100
AcDbLine
 10
0.1396893264
 20
0.1761784225
 30
0.0
 11
0.1395199246
 21
0.1761784225
 31
0.0
  0
LINE
  5
2DC
330
1F
100
AcDbEntity
  8
0
  6
Continuous
 62
     7
370
    25
100
AcDbLine
 10
0.1396893264
 20
0.1757984226
 30
0.0
 11
0.1395199246
 21
0.1757984226
 31
0.0
  0
LINE
  5
2DD
330
1F
100
AcDbEntity
  8
0
  6
Continuous
 62
     7
370
    25
100
AcDbLine
 10
0.1434199248
 20
0.1757984226
 30
0.0
 11
0.1434199248
 21
0.1761784225
 31
0.0
  0
LINE
  5
2DE
330
1F
100
AcDbEntity
  8
0
  6
Continuous
 62
     7
370
    25
100
AcDbLine
 10
0.1434199248
 20
0.1761784225
 30
0.0
 11
0.143250523
 21
0.1761784225
 31
0.0
  0
LINE
  5
2DF
330
1F
100
AcDbEntity
  8
0
  6
Continuous
 62
     7
370
    25
100
AcDbLine
 10
0.1434199248
 20
0.1757984226
 30
0.0
 11
0.143250523
 21
0.1757984226
 31
0.0
  0
LINE
  5
2E0
330
1F
100
AcDbEntity
  8
0
  6
Continuous
 62
     7
370
    25
100
AcDbLine
 10
0.1290905229
 20
0.1761784225
 30
0.0
 11
0.125529326
 21
0.1761784225
 31
0.0
  0
LINE
  5
2E1
330
1F
100
AcDbEntity
  8
0
  6
Continuous
 62
     7
370
    25
100
AcDbLine
 10
0.1290905229
 20
0.1757984226
 30
0.0
 11
0.125529326
 21
0.1757984226
 31
0.0
  0
LINE
  5
2E2
330
1F
100
AcDbEntity
  8
0
  6
Continuous
 62
     7
370
    25
100
AcDbLine
 10
0.1253599249
 20
0.1757984226
 30
0.0
 11
0.1253599249
 21
0.1761784225
 31
0.0
  0
LINE
  5
2E3
330
1F
100
AcDbEntity
  8
0
  6
Continuous
 62
     7
370
    25
100
AcDbLine
 10
0.125529326
 20
0.1761784225
 30
0.0
 11
0.1253599249
 21
0.1761784225
 31
0.0
  0
LINE
  5
2E4
330
1F
100
AcDbEntity
  8
0
  6
Continuous
 62
     7
370
    25
100
AcDbLine
 10
0.125529326
 20
0.1757984226
 30
0.0
 11
0.1253599249
 21
0.1757984226
 31
0.0
  0
LINE
  5
2E5
330
1F
100
AcDbEntity
  8
0
  6
Continuous
 62
     7
370
    25
100
AcDbLine
 10
0.1292599247
 20
0.1757984226
 30
0.0
 11
0.1292599247
 21
0.1761784225
 31
0.0
  0
LINE
  5
2E6
330
1F
100
AcDbEntity
  8
0
  6
Continuous
 62
     7
370
    25
100
AcDbLine
 10
0.1292599247
 20
0.1761784225
 30
0.0
 11
0.1290905229
 21
0.1761784225
 31
0.0
  0
LINE
  5
2E7
330
1F
100
AcDbEntity
  8
0
  6
Continuous
 62
     7
370
    25
100
AcDbLine
 10
0.1292599247
 20
0.1757984226
 30
0.0
 11
0.1290905229
 21
0.1757984226
 31
0.0
  0
ARC
  5
2E8
330
1F
100
AcDbEntity
  8
0
  6
Continuous
 62
     7
370
    25
100
AcDbCircle
 10
0.1401599247
 20
0.1762384222
 30
0.0
 40
0.00006
100
AcDbArc
 50
270.0
 51
308.4332063409
  0
ARC
  5
2E9
330
1F
100
AcDbEntity
  8
0
  6
Continuous
 62
     7
370
    25
100
AcDbCircle
 10
0.1395799247
 20
0.1762384222
 30
0.0
 40
0.00006
100
AcDbArc
 50
231.5667936591
 51
270.0
  0
ARC
  5
2EA
330
1F
100
AcDbEntity
  8
0
  6
Continuous
 62
     7
370
    25
100
AcDbCircle
 10
0.1286199247
 20
0.1762384222
 30
0.0
 40
0.00006
100
AcDbArc
 50
231.5667936591
 51
270.0
  0
ARC
  5
2EB
330
1F
100
AcDbEntity
  8
0
  6
Continuous
 62
     7
370
    25
100
AcDbCircle
 10
0.1291999247
 20
0.1762384222
 30
0.0
 40
0.00006
100
AcDbArc
 50
270.0
 51
308.4332063409
  0
LINE
  5
2EC
330
1F
100
AcDbEntity
  8
0
  6
Continuous
 62
     7
370
    25
100
AcDbLine
 10
0.1253403161
 20
0.1768784224
 30
0.0
 11
0.1252165149
 21
0.1768784224
 31
0.0
  0
LINE
  5
2ED
330
1F
100
AcDbEntity
  8
0
  6
Continuous
 62
     7
370
    25
100
AcDbLine
 10
0.1253599249
 20
0.1761784225
 30
0.0
 11
0.1252071284
 21
0.1761784225
 31
0.0
  0
LINE
  5
2EE
330
1F
100
AcDbEntity
  8
0
  6
Continuous
 62
     7
370
    25
100
AcDbLine
 10
0.1434199248
 20
0.1761784225
 30
0.0
 11
0.1435727213
 21
0.1761784225
 31
0.0
  0
LINE
  5
2EF
330
1F
100
AcDbEntity
  8
0
  6
Continuous
 62
     7
370
    25
100
AcDbLine
 10
0.1434440736
 20
0.1768784224
 30
0.0
 11
0.1435633348
 21
0.1768784224
 31
0.0
  0
LINE
  5
2F0
330
1F
100
AcDbEntity
  8
0
  6
Continuous
 62
     7
370
    25
100
AcDbLine
 10
0.1291999249
 20
0.1706585675
 30
0.0
 11
0.1291999249
 21
0.1757984226
 31
0.0
  0
LINE
  5
2F1
330
1F
100
AcDbEntity
  8
0
  6
Continuous
 62
     7
370
    25
100
AcDbLine
 10
0.1295799248
 20
0.1706585675
 30
0.0
 11
0.1295799248
 21
0.1761914223
 31
0.0
  0
LINE
  5
2F2
330
1F
100
AcDbEntity
  8
0
  6
Continuous
 62
     7
370
    25
100
AcDbLine
 10
0.1291999249
 20
0.1706585675
 30
0.0
 11
0.1291999249
 21
0.1513240927
 31
0.0
  0
LINE
  5
2F3
330
1F
100
AcDbEntity
  8
0
  6
Continuous
 62
     7
370
    25
100
AcDbLine
 10
0.1295799248
 20
0.1706585675
 30
0.0
 11
0.1295799248
 21
0.1513240927
 31
0.0
  0
LINE
  5
2F4
330
1F
100
AcDbEntity
  8
0
  6
Continuous
 62
     7
370
    25
100
AcDbLine
 10
0.1295799248
 20
0.1377946823
 30
0.0
 11
0.1291999249
 21
0.1377946823
 31
0.0
  0
LINE
  5
2F5
330
1F
100
AcDbEntity
  8
0
  6
Continuous
 62
     7
370
    25
100
AcDbLine
 10
0.1291999249
 20
0.1513240927
 30
0.0
 11
0.1291999249
 21
0.1377946823
 31
0.0
  0
LINE
  5
2F6
330
1F
100
AcDbEntity
  8
0
  6
Continuous
 62
     7
370
    25
100
AcDbLine
 10
0.1295799248
 20
0.1513240927
 30
0.0
 11
0.1295799248
 21
0.1377946823
 31
0.0
  0
LINE
  5
2F7
330
1F
100
AcDbEntity
  8
0
  6
Continuous
 62
     7
370
    25
100
AcDbLine
 10
0.1291999249
 20
0.1377946823
 30
0.0
 11
0.1291999249
 21
0.1361786144
 31
0.0
  0
LINE
  5
2F8
330
1F
100
AcDbEntity
  8
0
  6
Continuous
 62
     7
370
    25
100
AcDbLine
 10
0.1295799248
 20
0.1377946823
 30
0.0
 11
0.1295799248
 21
0.1361786144
 31
0.0
  0
LINE
  5
2F9
330
1F
100
AcDbEntity
  8
0
  6
Continuous
 62
     7
370
    25
100
AcDbLine
 10
0.1395999248
 20
0.1706585675
 30
0.0
 11
0.1395999248
 21
0.1757984226
 31
0.0
  0
LINE
  5
2FA
330
1F
100
AcDbEntity
  8
0
  6
Continuous
 62
     7
370
    25
100
AcDbLine
 10
0.1392199246
 20
0.1706585675
 30
0.0
 11
0.1392199246
 21
0.1761914223
 31
0.0
  0
LINE
  5
2FB
330
1F
100
AcDbEntity
  8
0
  6
Continuous
 62
     7
370
    25
100
AcDbLine
 10
0.1395999248
 20
0.1706585675
 30
0.0
 11
0.1395999248
 21
0.1513240927
 31
0.0
  0
LINE
  5
2FC
330
1F
100
AcDbEntity
  8
0
  6
Continuous
 62
     7
370
    25
100
AcDbLine
 10
0.1392199246
 20
0.1706585675
 30
0.0
 11
0.1392199246
 21
0.1513240927
 31
0.0
  0
LINE
  5
2FD
330
1F
100
AcDbEntity
  8
0
  6
Continuous
 62
     7
370
    25
100
AcDbLine
 10
0.1395999248
 20
0.1377946823
 30
0.0
 11
0.1392199246
 21
0.1377946823
 31
0.0
  0
LINE
  5
2FE
330
1F
100
AcDbEntity
  8
0
  6
Continuous
 62
     7
370
    25
100
AcDbLine
 10
0.1395999248
 20
0.1513240927
 30
0.0
 11
0.1395999248
 21
0.1377946823
 31
0.0
  0
LINE
  5
2FF
330
1F
100
AcDbEntity
  8
0
  6
Continuous
 62
     7
370
    25
100
AcDbLine
 10
0.1392199246
 20
0.1513240927
 30
0.0
 11
0.1392199246
 21
0.1377946823
 31
0.0
  0
LINE
  5
300
330
1F
100
AcDbEntity
  8
0
  6
Continuous
 62
     7
370
    25
100
AcDbLine
 10
0.1395999248
 20
0.1377946823
 30
0.0
 11
0.1395999248
 21
0.1361786144
 31
0.0
  0
LINE
  5
301
330
1F
100
AcDbEntity
  8
0
  6
Continuous
 62
     7
370
    25
100
AcDbLine
 10
0.1392199246
 20
0.1377946823
 30
0.0
 11
0.1392199246
 21
0.1361786144
 31
0.0
  0
LWPOLYLINE
  5
302
330
1F
100
AcDbEntity
  8
0
  6
Continuous
 62
     7
370
    25
100
AcDbPolyline
 90
       20
 70
   128
 43
0.0
 10
0.1454170136
 20
0.1964951389
 10
0.1454171012
 20
0.1965169376
 10
0.1454171006
 20
0.1965399807
 10
0.145417013
 20
0.1965617722
 10
0.1454168467
 20
0.196579948
 10
0.1454166202
 20
0.1965925413
 10
0.1454163579
 20
0.1965981858
 10
0.1454160885
 20
0.1965962713
 10
0.1454158412
 20
0.1965870028
 10
0.1454156421
 20
0.1965713876
 10
0.1454155133
 20
0.1965511161
 10
0.1454154692
 20
0.1965283846
 10
0.1454155139
 20
0.1965056574
 10
0.1454156427
 20
0.1964853978
 10
0.1454158418
 20
0.1964697998
 10
0.1454160891
 20
0.1964605551
 10
0.1454163591
 20
0.1964586645
 10
0.1454166208
 20
0.1964643335
 10
0.1454168473
 20
0.196476947
 10
0.1454170136
 20
0.1964951389
  0
ARC
  5
303
330
1F
100
AcDbEntity
  8
0
  6
Continuous
 62
     7
370
    25
100
AcDbCircle
 10
0.1462981858
 20
0.1966187707
 30
0.0
 40
0.0009635628016477
100
AcDbArc
 50
177.0463996497
 51
180.1006422367
  0
ARC
  5
304
330
1F
100
AcDbEntity
  8
0
  6
Continuous
 62
     7
370
    25
100
AcDbCircle
 10
0.1459425593
 20
0.1964307988
 30
0.0
 40
0.0006081345057064
100
AcDbArc
 50
178.7040754234
 51
183.9956625085
  0
LINE
  5
305
330
1F
100
AcDbEntity
  8
0
  6
Continuous
 62
     7
370
    25
100
AcDbLine
 10
0.145416613
 20
0.1965792137
 30
0.0
 11
0.1454169677
 21
0.1965300446
 31
0.0
  0
LINE
  5
306
330
1F
100
AcDbEntity
  8
0
  6
Continuous
 62
     7
370
    25
100
AcDbLine
 10
0.1454159353
 20
0.1965775912
 30
0.0
 11
0.145416613
 21
0.1965792137
 31
0.0
  0
LINE
  5
307
330
1F
100
AcDbEntity
  8
0
  6
Continuous
 62
     7
370
    25
100
AcDbLine
 10
0.1454156135
 20
0.1965268003
 30
0.0
 11
0.1454159353
 21
0.1965775912
 31
0.0
  0
LINE
  5
308
330
1F
100
AcDbEntity
  8
0
  6
Continuous
 62
     7
370
    25
100
AcDbLine
 10
0.1454159687
 20
0.1964776307
 30
0.0
 11
0.1454156135
 21
0.1965268003
 31
0.0
  0
LINE
  5
309
330
1F
100
AcDbEntity
  8
0
  6
Continuous
 62
     7
370
    25
100
AcDbLine
 10
0.1454166458
 20
0.1964792531
 30
0.0
 11
0.1454159687
 21
0.1964776307
 31
0.0
  0
LINE
  5
30A
330
1F
100
AcDbEntity
  8
0
  6
Continuous
 62
     7
370
    25
100
AcDbLine
 10
0.1454169677
 20
0.1965300446
 30
0.0
 11
0.1454166458
 21
0.1964792531
 31
0.0
  0
LINE
  5
30B
330
1F
100
AcDbEntity
  8
0
  6
Continuous
 62
     7
370
    25
100
AcDbLine
 10
0.1454159568
 20
0.1964792531
 30
0.0
 11
0.1454166458
 21
0.1964792531
 31
0.0
  0
LINE
  5
30C
330
1F
100
AcDbEntity
  8
0
  6
Continuous
 62
     7
370
    25
100
AcDbLine
 10
0.1454156337
 20
0.1965300446
 30
0.0
 11
0.1454169677
 21
0.1965300446
 31
0.0
  0
LWPOLYLINE
  5
30D
330
1F
100
AcDbEntity
  8
0
  6
Continuous
 62
     7
370
    25
100
AcDbPolyline
 90
       20
 70
   128
 43
0.0
 10
0.1454168705
 20
0.1764788395
 10
0.1454170279
 20
0.1764975696
 10
0.145417106
 20
0.1765196436
 10
0.1454170952
 20
0.1765426689
 10
0.1454169969
 20
0.1765641498
 10
0.1454168229
 20
0.17658176
 10
0.1454165904
 20
0.1765935897
 10
0.1454163258
 20
0.1765983575
 10
0.1454160575
 20
0.1765955465
 10
0.1454158143
 20
0.176585462
 10
0.145415623
 20
0.1765691959
 10
0.1454155038
 20
0.1765485119
 10
0.1454154698
 20
0.1765256506
 10
0.1454155247
 20
0.176503089
 10
0.1454156629
 20
0.176483274
 10
0.1454158692
 20
0.1764683502
 10
0.1454161207
 20
0.1764599364
 10
0.1454163907
 20
0.1764589446
 10
0.14541665
 20
0.1764654821
 10
0.1454168705
 20
0.1764788395
  0
ARC
  5
30E
330
1F
100
AcDbEntity
  8
0
  6
Continuous
 62
     7
370
    25
100
AcDbCircle
 10
0.1461734303
 20
0.1766216707
 30
0.0
 40
0.0008388311057864
100
AcDbArc
 50
176.8051005762
 51
180.3701237256
  0
ARC
  5
30F
330
1F
100
AcDbEntity
  8
0
  6
Continuous
 62
     7
370
    25
100
AcDbCircle
 10
0.1460671856
 20
0.1764336415
 30
0.0
 40
0.0007326792314956
100
AcDbArc
 50
179.1693804368
 51
183.538274116
  0
LWPOLYLINE
  5
310
330
1F
100
AcDbEntity
  8
0
  6
Continuous
 62
     7
370
    25
100
AcDbPolyline
 90
        3
 70
   128
 43
0.0
 10
0.1453282968
 20
0.1766684222
 10
0.1453281156
 20
0.1766675686
 10
0.1453278683
 20
0.1766635811
  0
LINE
  5
311
330
1F
100
AcDbEntity
  8
0
  6
Continuous
 62
     7
370
    25
100
AcDbLine
 10
0.1454167704
 20
0.1765691763
 30
0.0
 11
0.145416945
 21
0.1765133827
 31
0.0
  0
LINE
  5
312
330
1F
100
AcDbEntity
  8
0
  6
Continuous
 62
     7
370
    25
100
AcDbLine
 10
0.1454161165
 20
0.1765842157
 30
0.0
 11
0.1454167704
 21
0.1765691763
 31
0.0
  0
LINE
  5
313
330
1F
100
AcDbEntity
  8
0
  6
Continuous
 62
     7
370
    25
100
AcDbLine
 10
0.1454156367
 20
0.1765434616
 30
0.0
 11
0.1454161165
 21
0.1765842157
 31
0.0
  0
LINE
  5
314
330
1F
100
AcDbEntity
  8
0
  6
Continuous
 62
     7
370
    25
100
AcDbLine
 10
0.1454158108
 20
0.1764876681
 30
0.0
 11
0.1454156367
 21
0.1765434616
 31
0.0
  0
LINE
  5
315
330
1F
100
AcDbEntity
  8
0
  6
Continuous
 62
     7
370
    25
100
AcDbLine
 10
0.1454164646
 20
0.1764726287
 30
0.0
 11
0.1454158108
 21
0.1764876681
 31
0.0
  0
LINE
  5
316
330
1F
100
AcDbEntity
  8
0
  6
Continuous
 62
     7
370
    25
100
AcDbLine
 10
0.145416945
 20
0.1765133827
 30
0.0
 11
0.1454164646
 21
0.1764726287
 31
0.0
  0
LINE
  5
317
330
1F
100
AcDbEntity
  8
0
  6
Continuous
 62
     7
370
    25
100
AcDbLine
 10
0.1454159395
 20
0.1765691763
 30
0.0
 11
0.1454167704
 21
0.1765691763
 31
0.0
  0
LINE
  5
318
330
1F
100
AcDbEntity
  8
0
  6
Continuous
 62
     7
370
    25
100
AcDbLine
 10
0.1454157303
 20
0.1765133827
 30
0.0
 11
0.145416945
 21
0.1765133827
 31
0.0
  0
ARC
  5
319
330
1F
100
AcDbEntity
  8
0
  6
Continuous
 62
     7
370
    25
100
AcDbCircle
 10
0.1351400213
 20
0.1858691026
 30
0.0
 40
0.0001767804880895
100
AcDbArc
 50
39.8673783965
 51
45.4211266499
  0
ARC
  5
31A
330
1F
100
AcDbEntity
  8
0
  6
Continuous
 62
     7
370
    25
100
AcDbCircle
 10
0.1274841218
 20
0.1784624877
 30
0.0
 40
0.0108288738504063
100
AcDbArc
 50
44.3732864735
 51
46.1001454742
  0
ARC
  5
31B
330
1F
100
AcDbEntity
  8
0
  6
Continuous
 62
     7
370
    25
100
AcDbCircle
 10
0.1292896845
 20
0.1802792423
 30
0.0
 40
0.0082796373817976
100
AcDbArc
 50
43.6158505264
 51
46.3841532468
  0
ARC
  5
31C
330
1F
100
AcDbEntity
  8
0
  6
Continuous
 62
     7
370
    25
100
AcDbCircle
 10
0.129353157
 20
0.1803426151
 30
0.0
 40
0.0081939465249081
100
AcDbArc
 50
43.6126659235
 51
46.3883189361
  0
ARC
  5
31D
330
1F
100
AcDbEntity
  8
0
  6
Continuous
 62
     7
370
    25
100
AcDbCircle
 10
0.1351234676
 20
0.1861759671
 30
0.0
 40
0.0000697191409081
100
AcDbArc
 50
32.8204246043
 51
58.8470815278
  0
ARC
  5
31E
330
1F
100
AcDbEntity
  8
0
  6
Continuous
 62
     7
370
    25
100
AcDbCircle
 10
0.1350197681
 20
0.1860082445
 30
0.0
 40
0.0002618637749343
100
AcDbArc
 50
38.2827547876
 51
51.70224921
  0
ARC
  5
31F
330
1F
100
AcDbEntity
  8
0
  6
Continuous
 62
     7
370
    25
100
AcDbCircle
 10
0.1351918057
 20
0.1861172433
 30
0.0
 40
0.000062908602654
100
AcDbArc
 50
30.4049231463
 51
57.8072202518
  0
ARC
  5
320
330
1F
100
AcDbEntity
  8
0
  6
Continuous
 62
     7
370
    25
100
AcDbCircle
 10
0.07508052
 20
0.1858097418
 30
0.0
 40
0.0002378140242925
100
AcDbArc
 50
41.1627686611
 51
45.3110956937
  0
ARC
  5
321
330
1F
100
AcDbEntity
  8
0
  6
Continuous
 62
     7
370
    25
100
AcDbCircle
 10
0.0655349784
 20
0.1765169925
 30
0.0
 40
0.0135595169980571
100
AcDbArc
 50
44.4913864279
 51
45.8676801867
  0
ARC
  5
322
330
1F
100
AcDbEntity
  8
0
  6
Continuous
 62
     7
370
    25
100
AcDbCircle
 10
0.0673482272
 20
0.1783378399
 30
0.0
 40
0.0110017967042578
100
AcDbArc
 50
43.9581730746
 51
46.0414231935
  0
ARC
  5
323
330
1F
100
AcDbEntity
  8
0
  6
Continuous
 62
     7
370
    25
100
AcDbCircle
 10
0.0674283852
 20
0.1784178045
 30
0.0
 40
0.0108925789362889
100
AcDbArc
 50
43.956566423
 51
46.0444678677
  0
ARC
  5
324
330
1F
100
AcDbEntity
  8
0
  6
Continuous
 62
     7
370
    25
100
AcDbCircle
 10
0.0751070572
 20
0.1861598962
 30
0.0
 40
0.0000697862169102
100
AcDbArc
 50
32.6293498867
 51
58.6305044035
  0
ARC
  5
325
330
1F
100
AcDbEntity
  8
0
  6
Continuous
 62
     7
370
    25
100
AcDbCircle
 10
0.0750033723
 20
0.185991843
 30
0.0
 40
0.0002621020082433
100
AcDbArc
 50
38.2897271001
 51
51.6967071743
  0
ARC
  5
326
330
1F
100
AcDbEntity
  8
0
  6
Continuous
 62
     7
370
    25
100
AcDbCircle
 10
0.0751757427
 20
0.1861008443
 30
0.0
 40
0.0000629647717364
100
AcDbArc
 50
30.640558827
 51
58.0171681235
  0
LWPOLYLINE
  5
327
330
1F
100
AcDbEntity
  8
0
  6
Continuous
 62
     7
370
    25
100
AcDbPolyline
 90
       25
 70
   128
 43
0.0
 10
0.0762479017
 20
0.184508613
 10
0.0762384461
 20
0.1845184048
 10
0.0762241696
 20
0.1845329849
 10
0.0762056206
 20
0.1845517928
 10
0.0761835144
 20
0.1845741061
 10
0.0761587046
 20
0.1845990671
 10
0.0761321352
 20
0.1846257164
 10
0.0761048315
 20
0.1846530303
 10
0.0760778473
 20
0.1846799588
 10
0.0760522125
 20
0.1847054672
 10
0.0760289143
 20
0.1847285751
 10
0.076008849
 20
0.1847483946
 10
0.0759927891
 20
0.184764164
 10
0.0759813498
 20
0.1847752773
 10
0.0759749745
 20
0.1847813075
 10
0.0759739016
 20
0.1847820228
 10
0.075978174
 20
0.1847773955
 10
0.0759876297
 20
0.1847676038
 10
0.0760019062
 20
0.1847530238
 10
0.0760204552
 20
0.1847342158
 10
0.0760425614
 20
0.1847119025
 10
0.076067376
 20
0.1846869416
 10
0.0760939406
 20
0.1846602922
 10
0.0761212443
 20
0.1846329784
 10
0.0761482285
 20
0.1846060499
  0
LINE
  5
328
330
1F
100
AcDbEntity
  8
0
  6
Continuous
 62
     7
370
    25
100
AcDbLine
 10
0.0761482285
 20
0.1846060499
 30
0.0
 11
0.0767296694
 21
0.1840266472
 31
0.0
  0
LWPOLYLINE
  5
329
330
1F
100
AcDbEntity
  8
0
  6
Continuous
 62
     7
370
    25
100
AcDbPolyline
 90
       37
 70
   128
 43
0.0
 10
0.0754006241
 20
0.1853469814
 10
0.0754348515
 20
0.1853120992
 10
0.0754730938
 20
0.1852732375
 10
0.0755150984
 20
0.1852306567
 10
0.0755605839
 20
0.1851846431
 10
0.0756092451
 20
0.185135505
 10
0.0756607531
 20
0.1850835727
 10
0.0757147644
 20
0.1850291946
 10
0.0757709168
 20
0.1849727354
 10
0.0758288286
 20
0.1849145746
 10
0.0758881186
 20
0.1848551021
 10
0.075948386
 20
0.1847947172
 10
0.0760092257
 20
0.1847338253
 10
0.0760702274
 20
0.184672835
 10
0.0761309813
 20
0.1846121556
 10
0.0761910866
 20
0.1845521946
 10
0.0762501333
 20
0.1844933542
 10
0.0763077257
 20
0.1844360296
 10
0.0763634775
 20
0.1843806053
 10
0.0764170168
 20
0.1843274535
 10
0.0764679859
 20
0.1842769308
 10
0.076516032
 20
0.1842293763
 10
0.0765608452
 20
0.1841851094
 10
0.0766021202
 20
0.1841444268
 10
0.0766395806
 20
0.184107602
 10
0.0766729687
 20
0.1840748821
 10
0.0767020701
 20
0.1840464864
 10
0.0767266844
 20
0.1840226057
 10
0.0767466448
 20
0.1840034004
 10
0.0767618225
 20
0.1839889991
 10
0.0767721079
 20
0.1839794987
 10
0.0767774389
 20
0.1839749631
 10
0.0767777823
 20
0.1839754223
 10
0.0767731236
 20
0.1839808735
 10
0.0767635058
 20
0.1839912798
 10
0.0767489908
 20
0.184006572
 10
0.0767296694
 20
0.1840266472
  0
LINE
  5
32A
330
1F
100
AcDbEntity
  8
0
  6
Continuous
 62
     7
370
    25
100
AcDbLine
 10
0.0758193491
 20
0.1849297258
 30
0.0
 11
0.0754006241
 21
0.1853469814
 31
0.0
  0
LWPOLYLINE
  5
32B
330
1F
100
AcDbEntity
  8
0
  6
Continuous
 62
     7
370
    25
100
AcDbPolyline
 90
       25
 70
   128
 43
0.0
 10
0.0758193491
 20
0.1849297258
 10
0.0758288048
 20
0.1849199339
 10
0.0758430813
 20
0.184905354
 10
0.0758616255
 20
0.1848865459
 10
0.0758837317
 20
0.1848642328
 10
0.0759085463
 20
0.1848392717
 10
0.0759351156
 20
0.1848126223
 10
0.0759624146
 20
0.1847853085
 10
0.0759894036
 20
0.18475838
 10
0.0760150383
 20
0.1847328717
 10
0.0760383318
 20
0.1847097638
 10
0.0760583971
 20
0.1846899442
 10
0.076074457
 20
0.1846741747
 10
0.0760858963
 20
0.1846630614
 10
0.0760922764
 20
0.1846570312
 10
0.0760933493
 20
0.184656316
 10
0.0760890721
 20
0.1846609432
 10
0.0760796164
 20
0.1846707349
 10
0.0760653399
 20
0.184685315
 10
0.0760467957
 20
0.1847041229
 10
0.0760246895
 20
0.1847264362
 10
0.0759998749
 20
0.1847513972
 10
0.0759733055
 20
0.1847780466
 10
0.0759460066
 20
0.1848053604
 10
0.0759190176
 20
0.1848322889
  0
LINE
  5
32C
330
1F
100
AcDbEntity
  8
0
  6
Continuous
 62
     7
370
    25
100
AcDbLine
 10
0.0759190176
 20
0.1848322889
 30
0.0
 11
0.0753375815
 21
0.1854116917
 31
0.0
  0
LWPOLYLINE
  5
32D
330
1F
100
AcDbEntity
  8
0
  6
Continuous
 62
     7
370
    25
100
AcDbPolyline
 90
       37
 70
   128
 43
0.0
 10
0.076666622
 20
0.1840913574
 10
0.0766323994
 20
0.1841262395
 10
0.076594157
 20
0.1841651014
 10
0.0765521525
 20
0.1842076821
 10
0.076506667
 20
0.1842536958
 10
0.0764580057
 20
0.1843028338
 10
0.0764064978
 20
0.1843547661
 10
0.0763524864
 20
0.1844091443
 10
0.0762963341
 20
0.1844656033
 10
0.0762384175
 20
0.1845237642
 10
0.0761791275
 20
0.1845832368
 10
0.0761188601
 20
0.1846436217
 10
0.0760580252
 20
0.1847045135
 10
0.0759970234
 20
0.1847655038
 10
0.0759362648
 20
0.1848261831
 10
0.0758761643
 20
0.1848861442
 10
0.0758171175
 20
0.1849449846
 10
0.0757595251
 20
0.1850023092
 10
0.0757037686
 20
0.1850577334
 10
0.0756502293
 20
0.1851108853
 10
0.0755992649
 20
0.185161408
 10
0.075551214
 20
0.1852089625
 10
0.0755064009
 20
0.1852532295
 10
0.0754651306
 20
0.1852939119
 10
0.0754276703
 20
0.1853307367
 10
0.0753942774
 20
0.1853634568
 10
0.0753651808
 20
0.1853918524
 10
0.0753405665
 20
0.185415733
 10
0.0753206061
 20
0.1854349385
 10
0.0753054283
 20
0.1854493397
 10
0.0752951382
 20
0.1854588401
 10
0.0752898071
 20
0.1854633758
 10
0.0752894686
 20
0.1854629166
 10
0.0752941225
 20
0.1854574654
 10
0.0753037451
 20
0.1854470588
 10
0.07531826
 20
0.1854317667
 10
0.0753375815
 20
0.1854116917
  0
LINE
  5
32E
330
1F
100
AcDbEntity
  8
0
  6
Continuous
 62
     7
370
    25
100
AcDbLine
 10
0.0762479017
 20
0.184508613
 30
0.0
 11
0.076666622
 21
0.1840913574
 31
0.0
  0
LINE
  5
32F
330
1F
100
AcDbEntity
  8
0
  6
Continuous
 62
     7
370
    25
100
AcDbLine
 10
0.076666622
 20
0.1840913574
 30
0.0
 11
0.076680765
 21
0.1841054992
 31
0.0
  0
ARC
  5
330
330
1F
100
AcDbEntity
  8
0
  6
Continuous
 62
     7
370
    25
100
AcDbCircle
 10
0.0216391695
 20
0.1302334768
 30
0.0
 40
0.0770179981206833
100
AcDbArc
 50
44.384750722
 51
45.8314038853
  0
LINE
  5
331
330
1F
100
AcDbEntity
  8
0
  6
Continuous
 62
     7
370
    25
100
AcDbLine
 10
0.0767296694
 20
0.1840266472
 30
0.0
 11
0.0767438124
 21
0.184040789
 31
0.0
  0
LINE
  5
332
330
1F
100
AcDbEntity
  8
0
  6
Continuous
 62
     7
370
    25
100
AcDbLine
 10
0.0766798208
 20
0.1841045549
 30
0.0
 11
0.0767438124
 21
0.184040789
 31
0.0
  0
LINE
  5
333
330
1F
100
AcDbEntity
  8
0
  6
Continuous
 62
     7
370
    25
100
AcDbLine
 10
0.0754006241
 20
0.1853469814
 30
0.0
 11
0.0754015682
 21
0.1853479257
 31
0.0
  0
ARC
  5
334
330
1F
100
AcDbEntity
  8
0
  6
Continuous
 62
     7
370
    25
100
AcDbCircle
 10
0.0761903218
 20
0.1834760618
 30
0.0
 40
0.0007907392286104
100
AcDbArc
 50
40.414149011
 51
45.5757272415
  0
LINE
  5
335
330
1F
100
AcDbEntity
  8
0
  6
Continuous
 62
     7
370
    25
100
AcDbLine
 10
0.0758193491
 20
0.1849297258
 30
0.0
 11
0.0758202933
 21
0.1849306702
 31
0.0
  0
LINE
  5
336
330
1F
100
AcDbEntity
  8
0
  6
Continuous
 62
     7
370
    25
100
AcDbLine
 10
0.0757911585
 20
0.1853092258
 30
0.0
 11
0.0757801674
 21
0.1852982357
 31
0.0
  0
ARC
  5
337
330
1F
100
AcDbEntity
  8
0
  6
Continuous
 62
     7
370
    25
100
AcDbCircle
 10
0.0277966169
 20
0.1364426336
 30
0.0
 40
0.0684939402822952
100
AcDbArc
 50
44.1080095929
 51
45.5158257557
  0
LINE
  5
338
330
1F
100
AcDbEntity
  8
0
  6
Continuous
 62
     7
370
    25
100
AcDbLine
 10
0.0756851385
 20
0.1854139926
 30
0.0
 11
0.0756749724
 21
0.1854038257
 31
0.0
  0
ARC
  5
339
330
1F
100
AcDbEntity
  8
0
  6
Continuous
 62
     7
370
    25
100
AcDbCircle
 10
0.0719278407
 20
0.1817245384
 30
0.0
 40
0.0052658674604232
100
AcDbArc
 50
44.478021524
 51
47.4611935134
  0
LINE
  5
33A
330
1F
100
AcDbEntity
  8
0
  6
Continuous
 62
     7
370
    25
100
AcDbLine
 10
0.0757900284
 20
0.1853080966
 30
0.0
 11
0.0756851385
 21
0.1854139926
 31
0.0
  0
LINE
  5
33B
330
1F
100
AcDbEntity
  8
0
  6
Continuous
 62
     7
370
    25
100
AcDbLine
 10
0.1358066798
 20
0.1853247481
 30
0.0
 11
0.1357967266
 21
0.1853147948
 31
0.0
  0
ARC
  5
33C
330
1F
100
AcDbEntity
  8
0
  6
Continuous
 62
     7
370
    25
100
AcDbCircle
 10
0.099790864
 20
0.1484368607
 30
0.0
 40
0.0515543909920399
100
AcDbArc
 50
43.8149012001
 51
45.685337417
  0
LINE
  5
33D
330
1F
100
AcDbEntity
  8
0
  6
Continuous
 62
     7
370
    25
100
AcDbLine
 10
0.1357004552
 20
0.1854293091
 30
0.0
 11
0.1356915956
 21
0.1854204495
 31
0.0
  0
ARC
  5
33E
330
1F
100
AcDbEntity
  8
0
  6
Continuous
 62
     7
370
    25
100
AcDbCircle
 10
0.1328585323
 20
0.1826550222
 30
0.0
 40
0.0039715479689221
100
AcDbArc
 50
44.3100200093
 51
48.2661580654
  0
LINE
  5
33F
330
1F
100
AcDbEntity
  8
0
  6
Continuous
 62
     7
370
    25
100
AcDbLine
 10
0.1358051794
 20
0.1853232476
 30
0.0
 11
0.1357004552
 21
0.1854293091
 31
0.0
  0
LWPOLYLINE
  5
340
330
1F
100
AcDbEntity
  8
0
  6
Continuous
 62
     7
370
    25
100
AcDbPolyline
 90
       25
 70
   128
 43
0.0
 10
0.136262693
 20
0.184523404
 10
0.136253291
 20
0.1845332509
 10
0.1362390647
 20
0.1845478808
 10
0.1362205606
 20
0.1845667318
 10
0.13619849
 20
0.1845890793
 10
0.1361737009
 20
0.1846140645
 10
0.136147146
 20
0.1846407273
 10
0.1361198459
 20
0.184668043
 10
0.1360928495
 20
0.1846949618
 10
0.1360671945
 20
0.1847204495
 10
0.1360438666
 20
0.1847435265
 10
0.1360237624
 20
0.1847633057
 10
0.1360076544
 20
0.1847790273
 10
0.1359961618
 20
0.1847900871
 10
0.135989726
 20
0.18479606
 10
0.1359885945
 20
0.1847967165
 10
0.1359928108
 20
0.1847920313
 10
0.1360022128
 20
0.1847821845
 10
0.1360164391
 20
0.1847675545
 10
0.1360349432
 20
0.1847487036
 10
0.1360570138
 20
0.1847263561
 10
0.1360818029
 20
0.1847013708
 10
0.1361083578
 20
0.184674708
 10
0.1361356579
 20
0.1846473924
 10
0.1361626543
 20
0.1846204735
  0
LINE
  5
341
330
1F
100
AcDbEntity
  8
0
  6
Continuous
 62
     7
370
    25
100
AcDbLine
 10
0.1361626543
 20
0.1846204735
 30
0.0
 11
0.1367444277
 21
0.1840414054
 31
0.0
  0
LWPOLYLINE
  5
342
330
1F
100
AcDbEntity
  8
0
  6
Continuous
 62
     7
370
    25
100
AcDbPolyline
 90
       37
 70
   128
 43
0.0
 10
0.1354139516
 20
0.1853603076
 10
0.1354480675
 20
0.1853253172
 10
0.1354862087
 20
0.1852863536
 10
0.1355281192
 20
0.1852436783
 10
0.1355735179
 20
0.1851975777
 10
0.1356220999
 20
0.1851483613
 10
0.1356735392
 20
0.1850963593
 10
0.1357274905
 20
0.1850419208
 10
0.1357835918
 20
0.1849854113
 10
0.1358414664
 20
0.1849272099
 10
0.1359007259
 20
0.1848677073
 10
0.1359609726
 20
0.1848073029
 10
0.1360218021
 20
0.1847464021
 10
0.1360828061
 20
0.1846854138
 10
0.1361435752
 20
0.1846247471
 10
0.1362037014
 20
0.1845648094
 10
0.1362627813
 20
0.1845060029
 10
0.1363204183
 20
0.1844487224
 10
0.1363762256
 20
0.1843933522
 10
0.1364298285
 20
0.184340264
 10
0.1364808672
 20
0.1842898142
 10
0.1365289993
 20
0.1842423413
 10
0.1365739017
 20
0.1841981641
 10
0.1366152729
 20
0.1841575789
 10
0.1366528354
 20
0.1841208583
 10
0.1366863369
 20
0.1840882486
 10
0.1367155526
 20
0.1840599688
 10
0.1367402865
 20
0.1840362086
 10
0.1367603726
 20
0.1840171277
 10
0.1367756759
 20
0.1840028539
 10
0.1367860938
 20
0.1839934828
 10
0.1367915564
 20
0.183989078
 10
0.136792027
 20
0.1839896684
 10
0.1367875024
 20
0.1839952507
 10
0.136778013
 20
0.1840057867
 10
0.1367636226
 20
0.1840212061
 10
0.1367444277
 20
0.1840414054
  0
LINE
  5
343
330
1F
100
AcDbEntity
  8
0
  6
Continuous
 62
     7
370
    25
100
AcDbLine
 10
0.1358329144
 20
0.184943293
 30
0.0
 11
0.1354139516
 21
0.1853603076
 31
0.0
  0
LWPOLYLINE
  5
344
330
1F
100
AcDbEntity
  8
0
  6
Continuous
 62
     7
370
    25
100
AcDbPolyline
 90
       25
 70
   128
 43
0.0
 10
0.1358329144
 20
0.184943293
 10
0.1358423164
 20
0.1849334461
 10
0.1358565427
 20
0.1849188162
 10
0.1358750468
 20
0.1848999653
 10
0.1358971174
 20
0.1848776177
 10
0.1359219065
 20
0.1848526325
 10
0.1359484614
 20
0.1848259699
 10
0.1359757615
 20
0.1847986541
 10
0.1360027579
 20
0.1847717352
 10
0.1360284129
 20
0.1847462475
 10
0.1360517408
 20
0.1847231706
 10
0.136071845
 20
0.1847033913
 10
0.136087953
 20
0.1846876697
 10
0.1360994456
 20
0.1846766099
 10
0.1361058814
 20
0.184670637
 10
0.1361070129
 20
0.1846699806
 10
0.1361027966
 20
0.1846746657
 10
0.1360933946
 20
0.1846845126
 10
0.1360791683
 20
0.1846991425
 10
0.1360606642
 20
0.1847179935
 10
0.1360385936
 20
0.1847403409
 10
0.1360138045
 20
0.1847653262
 10
0.1359872496
 20
0.184791989
 10
0.1359599495
 20
0.1848193047
 10
0.1359329531
 20
0.1848462235
  0
LINE
  5
345
330
1F
100
AcDbEntity
  8
0
  6
Continuous
 62
     7
370
    25
100
AcDbLine
 10
0.1359329531
 20
0.1848462235
 30
0.0
 11
0.1353511797
 21
0.1854252916
 31
0.0
  0
LWPOLYLINE
  5
346
330
1F
100
AcDbEntity
  8
0
  6
Continuous
 62
     7
370
    25
100
AcDbPolyline
 90
       37
 70
   128
 43
0.0
 10
0.1366816558
 20
0.1841063895
 10
0.13664754
 20
0.1841413798
 10
0.1366093988
 20
0.1841803434
 10
0.1365674882
 20
0.1842230187
 10
0.1365220895
 20
0.1842691193
 10
0.1364735075
 20
0.1843183357
 10
0.1364220682
 20
0.1843703378
 10
0.1363681169
 20
0.1844247762
 10
0.1363120156
 20
0.1844812858
 10
0.136254141
 20
0.1845394872
 10
0.1361948815
 20
0.1845989897
 10
0.1361346348
 20
0.1846593941
 10
0.1360738053
 20
0.1847202949
 10
0.1360128013
 20
0.1847812832
 10
0.1359520322
 20
0.1848419499
 10
0.135891906
 20
0.1849018876
 10
0.1358328261
 20
0.1849606941
 10
0.1357751891
 20
0.1850179746
 10
0.1357193818
 20
0.1850733448
 10
0.135665779
 20
0.185126433
 10
0.1356147402
 20
0.1851768828
 10
0.1355666081
 20
0.1852243557
 10
0.1355217057
 20
0.185268533
 10
0.1354803345
 20
0.1853091181
 10
0.135442772
 20
0.1853458388
 10
0.1354092705
 20
0.1853784485
 10
0.1353800548
 20
0.1854067283
 10
0.1353553208
 20
0.1854304885
 10
0.1353352348
 20
0.1854495695
 10
0.1353199315
 20
0.1854638433
 10
0.1353095136
 20
0.1854732142
 10
0.135304051
 20
0.185477619
 10
0.1353035804
 20
0.1854770285
 10
0.135308105
 20
0.1854714465
 10
0.1353175944
 20
0.1854609103
 10
0.1353319848
 20
0.1854454909
 10
0.1353511797
 20
0.1854252916
  0
LINE
  5
347
330
1F
100
AcDbEntity
  8
0
  6
Continuous
 62
     7
370
    25
100
AcDbLine
 10
0.136262693
 20
0.184523404
 30
0.0
 11
0.1366816558
 21
0.1841063895
 31
0.0
  0
LINE
  5
348
330
1F
100
AcDbEntity
  8
0
  6
Continuous
 62
     7
370
    25
100
AcDbLine
 10
0.1366816558
 20
0.1841063895
 30
0.0
 11
0.1366957974
 21
0.1841205312
 31
0.0
  0
ARC
  5
349
330
1F
100
AcDbEntity
  8
0
  6
Continuous
 62
     7
370
    25
100
AcDbCircle
 10
0.0951122117
 20
0.1437064337
 30
0.0
 40
0.0579870147350885
100
AcDbArc
 50
44.1828769486
 51
46.1043541361
  0
LINE
  5
34A
330
1F
100
AcDbEntity
  8
0
  6
Continuous
 62
     7
370
    25
100
AcDbLine
 10
0.1367444277
 20
0.1840414054
 30
0.0
 11
0.1367585692
 21
0.1840555471
 31
0.0
  0
LINE
  5
34B
330
1F
100
AcDbEntity
  8
0
  6
Continuous
 62
     7
370
    25
100
AcDbLine
 10
0.1366945424
 20
0.184119276
 30
0.0
 11
0.1367585692
 21
0.1840555471
 31
0.0
  0
LINE
  5
34C
330
1F
100
AcDbEntity
  8
0
  6
Continuous
 62
     7
370
    25
100
AcDbLine
 10
0.1354139516
 20
0.1853603076
 30
0.0
 11
0.1354152066
 21
0.1853615625
 31
0.0
  0
ARC
  5
34D
330
1F
100
AcDbEntity
  8
0
  6
Continuous
 62
     7
370
    25
100
AcDbCircle
 10
0.1363435512
 20
0.1836292264
 30
0.0
 40
0.0005949699847171
100
AcDbArc
 50
38.9046432326
 51
45.7696721635
  0
LINE
  5
34E
330
1F
100
AcDbEntity
  8
0
  6
Continuous
 62
     7
370
    25
100
AcDbLine
 10
0.1358329144
 20
0.184943293
 30
0.0
 11
0.1358341694
 21
0.184944548
 31
0.0
  0
LINE
  5
34F
330
1F
100
AcDbEntity
  8
0
  6
Continuous
 62
     7
370
    25
100
AcDbLine
 10
0.1347698779
 20
0.1860156963
 30
0.0
 11
0.134792926
 21
0.1859927625
 31
0.0
  0
LINE
  5
350
330
1F
100
AcDbEntity
  8
0
  6
Continuous
 62
     7
370
    25
100
AcDbLine
 10
0.1349914078
 20
0.1857952646
 30
0.0
 11
0.1353067385
 21
0.1854814973
 31
0.0
  0
LINE
  5
351
330
1F
100
AcDbEntity
  8
0
  6
Continuous
 62
     7
370
    25
100
AcDbLine
 10
0.1367996531
 20
0.1839959841
 30
0.0
 11
0.139074092
 21
0.1817328211
 31
0.0
  0
ARC
  5
352
330
1F
100
AcDbEntity
  8
0
  6
Continuous
 62
     7
370
    25
100
AcDbCircle
 10
0.1404664818
 20
0.1918171461
 30
0.0
 40
0.00813068965972
100
AcDbArc
 50
223.7257749643
 51
225.5224415401
  0
LINE
  5
353
330
1F
100
AcDbEntity
  8
0
  6
Continuous
 62
     7
370
    25
100
AcDbLine
 10
0.1346121268
 20
0.1862184907
 30
0.0
 11
0.1345907879
 21
0.1861971518
 31
0.0
  0
ARC
  5
354
330
1F
100
AcDbEntity
  8
0
  6
Continuous
 62
     7
370
    25
100
AcDbCircle
 10
0.1294152934
 20
0.1807715479
 30
0.0
 40
0.0075283639111112
100
AcDbArc
 50
44.4056723647
 51
46.3460992138
  0
LINE
  5
355
330
1F
100
AcDbEntity
  8
0
  6
Continuous
 62
     7
370
    25
100
AcDbLine
 10
0.1390764574
 20
0.1817351865
 30
0.0
 11
0.1347935822
 21
0.1860394006
 31
0.0
  0
LWPOLYLINE
  5
356
330
1F
100
AcDbEntity
  8
0
  6
Continuous
 62
     7
370
    25
100
AcDbPolyline
 90
       14
 70
   128
 43
0.0
 10
0.139074092
 20
0.1817328211
 10
0.1391002775
 20
0.1817068156
 10
0.1391239469
 20
0.1816834127
 10
0.1391441668
 20
0.1816635346
 10
0.1391601406
 20
0.1816479647
 10
0.139171239
 20
0.1816373166
 10
0.1391770242
 20
0.1816320103
 10
0.1391772683
 20
0.1816322544
 10
0.139171962
 20
0.1816380396
 10
0.1391613139
 20
0.1816491377
 10
0.139145744
 20
0.1816651117
 10
0.1391258658
 20
0.1816853317
 10
0.139102463
 20
0.1817090007
 10
0.1390764574
 20
0.1817351865
  0
LINE
  5
357
330
1F
100
AcDbEntity
  8
0
  6
Continuous
 62
     7
370
    25
100
AcDbLine
 10
0.1346121268
 20
0.1862184907
 30
0.0
 11
0.1347535427
 21
0.1863599067
 31
0.0
  0
ARC
  5
358
330
1F
100
AcDbEntity
  8
0
  6
Continuous
 62
     7
370
    25
100
AcDbCircle
 10
0.1295573523
 20
0.1809136132
 30
0.0
 40
0.0075274502154938
100
AcDbArc
 50
44.4055661471
 51
46.346228955
  0
LINE
  5
359
330
1F
100
AcDbEntity
  8
0
  6
Continuous
 62
     7
370
    25
100
AcDbLine
 10
0.1392178733
 20
0.1818766024
 30
0.0
 11
0.1349349982
 21
0.1861808166
 31
0.0
  0
ARC
  5
35A
330
1F
100
AcDbEntity
  8
0
  6
Continuous
 62
     7
370
    25
100
AcDbCircle
 10
0.1363784429
 20
0.1790004848
 30
0.0
 40
0.0040415860484487
100
AcDbArc
 50
43.3111320859
 51
45.3677675153
  0
LINE
  5
35B
330
1F
100
AcDbEntity
  8
0
  6
Continuous
 62
     7
370
    25
100
AcDbLine
 10
0.0747586535
 20
0.18600447
 30
0.0
 11
0.0747816847
 21
0.1859815221
 31
0.0
  0
LINE
  5
35C
330
1F
100
AcDbEntity
  8
0
  6
Continuous
 62
     7
370
    25
100
AcDbLine
 10
0.0749823282
 20
0.1857816266
 30
0.0
 11
0.0752951811
 21
0.1854699416
 31
0.0
  0
LINE
  5
35D
330
1F
100
AcDbEntity
  8
0
  6
Continuous
 62
     7
370
    25
100
AcDbLine
 10
0.0767871807
 20
0.1839835125
 30
0.0
 11
0.0790602253
 21
0.1817189544
 31
0.0
  0
ARC
  5
35E
330
1F
100
AcDbEntity
  8
0
  6
Continuous
 62
     7
370
    25
100
AcDbCircle
 10
0.0823647062
 20
0.1937153265
 30
0.0
 40
0.0108309439252016
100
AcDbArc
 50
224.0433151385
 51
225.3920320677
  0
LINE
  5
35F
330
1F
100
AcDbEntity
  8
0
  6
Continuous
 62
     7
370
    25
100
AcDbLine
 10
0.0745953272
 20
0.1862016908
 30
0.0
 11
0.0745792673
 21
0.1861856328
 31
0.0
  0
ARC
  5
360
330
1F
100
AcDbEntity
  8
0
  6
Continuous
 62
     7
370
    25
100
AcDbCircle
 10
0.0676504281
 20
0.1790068181
 30
0.0
 40
0.0099998908363975
100
AcDbArc
 50
44.5520276912
 51
46.0128123264
  0
LINE
  5
361
330
1F
100
AcDbEntity
  8
0
  6
Continuous
 62
     7
370
    25
100
AcDbLine
 10
0.0790620039
 20
0.1817207345
 30
0.0
 11
0.0747764872
 21
0.186022308
 31
0.0
  0
LWPOLYLINE
  5
362
330
1F
100
AcDbEntity
  8
0
  6
Continuous
 62
     7
370
    25
100
AcDbPolyline
 90
       14
 70
   128
 43
0.0
 10
0.0790602253
 20
0.1817189544
 10
0.0790863894
 20
0.1816929265
 10
0.0791100262
 20
0.1816694906
 10
0.0791302012
 20
0.1816495701
 10
0.0791461275
 20
0.1816339504
 10
0.0791571711
 20
0.1816232466
 10
0.0791628931
 20
0.181617881
 10
0.0791630791
 20
0.1816180646
 10
0.0791577147
 20
0.1816237908
 10
0.0791470097
 20
0.1816348332
 10
0.0791313885
 20
0.1816507571
 10
0.079111471
 20
0.1816709348
 10
0.0790880345
 20
0.181694571
 10
0.0790620039
 20
0.1817207345
  0
LINE
  5
363
330
1F
100
AcDbEntity
  8
0
  6
Continuous
 62
     7
370
    25
100
AcDbLine
 10
0.0745953272
 20
0.1862016908
 30
0.0
 11
0.0747367428
 21
0.1863431091
 31
0.0
  0
ARC
  5
364
330
1F
100
AcDbEntity
  8
0
  6
Continuous
 62
     7
370
    25
100
AcDbCircle
 10
0.0678167627
 20
0.1791732143
 30
0.0
 40
0.0099646131704586
100
AcDbArc
 50
44.550182996
 51
46.0161590804
  0
LINE
  5
365
330
1F
100
AcDbEntity
  8
0
  6
Continuous
 62
     7
370
    25
100
AcDbLine
 10
0.0792034243
 20
0.1818621528
 30
0.0
 11
0.0749179075
 21
0.1861637263
 31
0.0
  0
ARC
  5
366
330
1F
100
AcDbEntity
  8
0
  6
Continuous
 62
     7
370
    25
100
AcDbCircle
 10
0.0754056072
 20
0.1780279506
 30
0.0
 40
0.0053967139137596
100
AcDbArc
 50
43.7330136971
 51
45.2731512179
  0
LINE
  5
367
330
1F
100
AcDbEntity
  8
0
  6
Continuous
 62
     7
370
    25
100
AcDbLine
 10
0.0643899248
 20
0.1955484223
 30
0.0
 11
0.0638899229
 21
0.1955484223
 31
0.0
  0
ARC
  5
368
330
1F
100
AcDbEntity
  8
0
  6
Continuous
 62
     7
370
    25
100
AcDbCircle
 10
0.0843899247
 20
0.1965284222
 30
0.0
 40
0.00098
100
AcDbArc
 50
255.8760290045
 51
270.0
  0
LINE
  5
369
330
1F
100
AcDbEntity
  8
0
  6
Continuous
 62
     7
370
    25
100
AcDbLine
 10
0.0840193461
 20
0.1956211888
 30
0.0
 11
0.0839775179
 21
0.1956394231
 31
0.0
  0
LINE
  5
36A
330
1F
100
AcDbEntity
  8
0
  6
Continuous
 62
     7
370
    25
100
AcDbLine
 10
0.0835009239
 20
0.1961160135
 30
0.0
 11
0.0834826897
 21
0.1961578452
 31
0.0
  0
ARC
  5
36B
330
1F
100
AcDbEntity
  8
0
  6
Continuous
 62
     7
370
    25
100
AcDbCircle
 10
0.0843899247
 20
0.1965284222
 30
0.0
 40
0.00098
100
AcDbArc
 50
180.0
 51
194.1239709955
  0
LINE
  5
36C
330
1F
100
AcDbEntity
  8
0
  6
Continuous
 62
     7
370
    25
100
AcDbLine
 10
0.0851899241
 20
0.1778084224
 30
0.0
 11
0.0851899241
 21
0.195248422
 31
0.0
  0
ARC
  5
36D
330
1F
100
AcDbEntity
  8
0
  6
Continuous
 62
     7
370
    25
100
AcDbCircle
 10
0.0843899247
 20
0.1765284222
 30
0.0
 40
0.00098
100
AcDbArc
 50
158.745433217
 51
180.0
  0
LINE
  5
36E
330
1F
100
AcDbEntity
  8
0
  6
Continuous
 62
     7
370
    25
100
AcDbLine
 10
0.0834959315
 20
0.1769298869
 30
0.0
 11
0.0835009239
 21
0.1769408309
 31
0.0
  0
LINE
  5
36F
330
1F
100
AcDbEntity
  8
0
  6
Continuous
 62
     7
370
    25
100
AcDbLine
 10
0.0839775179
 20
0.1774174213
 30
0.0
 11
0.0840205572
 21
0.1774361485
 31
0.0
  0
ARC
  5
370
330
1F
100
AcDbEntity
  8
0
  6
Continuous
 62
     7
370
    25
100
AcDbCircle
 10
0.0843899247
 20
0.1765284222
 30
0.0
 40
0.00098
100
AcDbArc
 50
90.0
 51
104.1475544396
  0
LINE
  5
371
330
1F
100
AcDbEntity
  8
0
  6
Continuous
 62
     7
370
    25
100
AcDbLine
 10
0.0834099243
 20
0.1765284222
 30
0.0
 11
0.0834099243
 21
0.1760284227
 31
0.0
  0
LINE
  5
372
330
1F
100
AcDbEntity
  8
0
  6
Continuous
 62
     7
370
    25
100
AcDbLine
 10
0.0643899248
 20
0.1775084221
 30
0.0
 11
0.0638899229
 21
0.1775084221
 31
0.0
  0
ARC
  5
373
330
1F
100
AcDbEntity
  8
0
  6
Continuous
 62
     7
370
    25
100
AcDbCircle
 10
0.0638899247
 20
0.1952484222
 30
0.0
 40
0.0003
100
AcDbArc
 50
90.0
 51
180.0
  0
LINE
  5
374
330
1F
100
AcDbEntity
  8
0
  6
Continuous
 62
     7
370
    25
100
AcDbLine
 10
0.0834099243
 20
0.1965284222
 30
0.0
 11
0.0834099243
 21
0.1968784218
 31
0.0
  0
LINE
  5
375
330
1F
100
AcDbEntity
  8
0
  6
Continuous
 62
     7
370
    25
100
AcDbLine
 10
0.0635899256
 20
0.195248422
 30
0.0
 11
0.0635899256
 21
0.1778084224
 31
0.0
  0
ARC
  5
376
330
1F
100
AcDbEntity
  8
0
  6
Continuous
 62
     7
370
    25
100
AcDbCircle
 10
0.0643899247
 20
0.1765284222
 30
0.0
 40
0.00098
100
AcDbArc
 50
75.6110701483
 51
90.0
  0
LINE
  5
377
330
1F
100
AcDbEntity
  8
0
  6
Continuous
 62
     7
370
    25
100
AcDbLine
 10
0.0647605036
 20
0.1774356555
 30
0.0
 11
0.0648023318
 21
0.1774174213
 31
0.0
  0
LINE
  5
378
330
1F
100
AcDbEntity
  8
0
  6
Continuous
 62
     7
370
    25
100
AcDbLine
 10
0.0652789257
 20
0.1769408309
 30
0.0
 11
0.0652850054
 21
0.1769274622
 31
0.0
  0
ARC
  5
379
330
1F
100
AcDbEntity
  8
0
  6
Continuous
 62
     7
370
    25
100
AcDbCircle
 10
0.0643899247
 20
0.1765284222
 30
0.0
 40
0.00098
100
AcDbArc
 50
0.0
 51
21.2886339933
  0
ARC
  5
37A
330
1F
100
AcDbEntity
  8
0
  6
Continuous
 62
     7
370
    25
100
AcDbCircle
 10
0.0848899247
 20
0.1952484222
 30
0.0
 40
0.0003
100
AcDbArc
 50
0.0
 51
90.0
  0
LINE
  5
37B
330
1F
100
AcDbEntity
  8
0
  6
Continuous
 62
     7
370
    25
100
AcDbLine
 10
0.0843899248
 20
0.1775084221
 30
0.0
 11
0.0848899267
 21
0.1775084221
 31
0.0
  0
LINE
  5
37C
330
1F
100
AcDbEntity
  8
0
  6
Continuous
 62
     7
370
    25
100
AcDbLine
 10
0.083109927
 20
0.1757284217
 30
0.0
 11
0.0656699227
 21
0.1757284217
 31
0.0
  0
LINE
  5
37D
330
1F
100
AcDbEntity
  8
0
  6
Continuous
 62
     7
370
    25
100
AcDbLine
 10
0.0653699253
 20
0.1965284222
 30
0.0
 11
0.0653699253
 21
0.1968784218
 31
0.0
  0
ARC
  5
37E
330
1F
100
AcDbEntity
  8
0
  6
Continuous
 62
     7
370
    25
100
AcDbCircle
 10
0.0656699247
 20
0.1970284222
 30
0.0
 40
0.0003
100
AcDbArc
 50
90.0
 51
162.5423968763
  0
ARC
  5
37F
330
1F
100
AcDbEntity
  8
0
  6
Continuous
 62
     7
370
    25
100
AcDbCircle
 10
0.0643899247
 20
0.1965284222
 30
0.0
 40
0.00098
100
AcDbArc
 50
345.8524455604
 51
0.0
  0
LINE
  5
380
330
1F
100
AcDbEntity
  8
0
  6
Continuous
 62
     7
370
    25
100
AcDbLine
 10
0.0652976511
 20
0.196159054
 30
0.0
 11
0.0652789257
 21
0.1961160135
 31
0.0
  0
LINE
  5
381
330
1F
100
AcDbEntity
  8
0
  6
Continuous
 62
     7
370
    25
100
AcDbLine
 10
0.0648023318
 20
0.1956394231
 30
0.0
 11
0.0647617291
 21
0.1956216907
 31
0.0
  0
ARC
  5
382
330
1F
100
AcDbEntity
  8
0
  6
Continuous
 62
     7
370
    25
100
AcDbCircle
 10
0.0643899247
 20
0.1965284222
 30
0.0
 40
0.00098
100
AcDbArc
 50
270.0
 51
284.3362267403
  0
ARC
  5
383
330
1F
100
AcDbEntity
  8
0
  6
Continuous
 62
     7
370
    25
100
AcDbCircle
 10
0.0638899247
 20
0.1778084222
 30
0.0
 40
0.0003
100
AcDbArc
 50
180.0
 51
270.0
  0
ARC
  5
384
330
1F
100
AcDbEntity
  8
0
  6
Continuous
 62
     7
370
    25
100
AcDbCircle
 10
0.0848899247
 20
0.1778084222
 30
0.0
 40
0.0003
100
AcDbArc
 50
270.0
 51
0.0
  0
ARC
  5
385
330
1F
100
AcDbEntity
  8
0
  6
Continuous
 62
     7
370
    25
100
AcDbCircle
 10
0.0831099247
 20
0.1970284222
 30
0.0
 40
0.0003
100
AcDbArc
 50
17.4576031237
 51
90.0
  0
ARC
  5
386
330
1F
100
AcDbEntity
  8
0
  6
Continuous
 62
     7
370
    25
100
AcDbCircle
 10
0.0656699247
 20
0.1760284222
 30
0.0
 40
0.0003
100
AcDbArc
 50
180.0
 51
270.0
  0
LINE
  5
387
330
1F
100
AcDbEntity
  8
0
  6
Continuous
 62
     7
370
    25
100
AcDbLine
 10
0.0843899248
 20
0.1955484223
 30
0.0
 11
0.0848899267
 21
0.1955484223
 31
0.0
  0
LINE
  5
388
330
1F
100
AcDbEntity
  8
0
  6
Continuous
 62
     7
370
    25
100
AcDbLine
 10
0.0656699227
 20
0.1973284226
 30
0.0
 11
0.083109927
 21
0.1973284226
 31
0.0
  0
LINE
  5
389
330
1F
100
AcDbEntity
  8
0
  6
Continuous
 62
     7
370
    25
100
AcDbLine
 10
0.0653699253
 20
0.1765284222
 30
0.0
 11
0.0653699253
 21
0.1760284227
 31
0.0
  0
ARC
  5
38A
330
1F
100
AcDbEntity
  8
0
  6
Continuous
 62
     7
370
    25
100
AcDbCircle
 10
0.0831099247
 20
0.1760284222
 30
0.0
 40
0.0003
100
AcDbArc
 50
270.0
 51
0.0
  0
ARC
  5
38B
330
1F
100
AcDbEntity
  8
0
  6
Continuous
 62
     7
370
    25
100
AcDbCircle
 10
0.1243899247
 20
0.1965284222
 30
0.0
 40
0.00098
100
AcDbArc
 50
345.8831610439
 51
0.0
  0
LINE
  5
38C
330
1F
100
AcDbEntity
  8
0
  6
Continuous
 62
     7
370
    25
100
AcDbLine
 10
0.1252978109
 20
0.196159448
 30
0.0
 11
0.1252789233
 21
0.1961160135
 31
0.0
  0
LINE
  5
38D
330
1F
100
AcDbEntity
  8
0
  6
Continuous
 62
     7
370
    25
100
AcDbLine
 10
0.1248023329
 20
0.1956394231
 30
0.0
 11
0.1247621356
 21
0.1956218576
 31
0.0
  0
ARC
  5
38E
330
1F
100
AcDbEntity
  8
0
  6
Continuous
 62
     7
370
    25
100
AcDbCircle
 10
0.1243899247
 20
0.1965284222
 30
0.0
 40
0.00098
100
AcDbArc
 50
270.0
 51
284.3675621716
  0
LINE
  5
38F
330
1F
100
AcDbEntity
  8
0
  6
Continuous
 62
     7
370
    25
100
AcDbLine
 10
0.125669925
 20
0.1973284226
 30
0.0
 11
0.1431099246
 21
0.1973284226
 31
0.0
  0
ARC
  5
390
330
1F
100
AcDbEntity
  8
0
  6
Continuous
 62
     7
370
    25
100
AcDbCircle
 10
0.1431099247
 20
0.1970284222
 30
0.0
 40
0.0003
100
AcDbArc
 50
17.4576031237
 51
90.0
  0
ARC
  5
391
330
1F
100
AcDbEntity
  8
0
  6
Continuous
 62
     7
370
    25
100
AcDbCircle
 10
0.1443899247
 20
0.1965284222
 30
0.0
 40
0.00098
100
AcDbArc
 50
255.9081601935
 51
270.0
  0
LINE
  5
392
330
1F
100
AcDbEntity
  8
0
  6
Continuous
 62
     7
370
    25
100
AcDbLine
 10
0.1440193473
 20
0.1956211888
 30
0.0
 11
0.1439775155
 21
0.1956394231
 31
0.0
  0
LINE
  5
393
330
1F
100
AcDbEntity
  8
0
  6
Continuous
 62
     7
370
    25
100
AcDbLine
 10
0.1435009257
 20
0.1961160135
 30
0.0
 11
0.1434826915
 21
0.1961578452
 31
0.0
  0
ARC
  5
394
330
1F
100
AcDbEntity
  8
0
  6
Continuous
 62
     7
370
    25
100
AcDbCircle
 10
0.1443899247
 20
0.1965284222
 30
0.0
 40
0.00098
100
AcDbArc
 50
180.0
 51
194.0918398065
  0
ARC
  5
395
330
1F
100
AcDbEntity
  8
0
  6
Continuous
 62
     7
370
    25
100
AcDbCircle
 10
0.1448899247
 20
0.1952484222
 30
0.0
 40
0.0003
100
AcDbArc
 50
0.0
 51
90.0
  0
LINE
  5
396
330
1F
100
AcDbEntity
  8
0
  6
Continuous
 62
     7
370
    25
100
AcDbLine
 10
0.1451899247
 20
0.1778084224
 30
0.0
 11
0.1451899247
 21
0.195248422
 31
0.0
  0
LINE
  5
397
330
1F
100
AcDbEntity
  8
0
  6
Continuous
 62
     7
370
    25
100
AcDbLine
 10
0.1431099246
 20
0.1757284217
 30
0.0
 11
0.1395999248
 21
0.1757284217
 31
0.0
  0
LINE
  5
398
330
1F
100
AcDbEntity
  8
0
  6
Continuous
 62
     7
370
    25
100
AcDbLine
 10
0.1392199246
 20
0.1757284217
 30
0.0
 11
0.1295799248
 21
0.1757284217
 31
0.0
  0
LINE
  5
399
330
1F
100
AcDbEntity
  8
0
  6
Continuous
 62
     7
370
    25
100
AcDbLine
 10
0.1291999249
 20
0.1757284217
 30
0.0
 11
0.125669925
 21
0.1757284217
 31
0.0
  0
ARC
  5
39A
330
1F
100
AcDbEntity
  8
0
  6
Continuous
 62
     7
370
    25
100
AcDbCircle
 10
0.1256699247
 20
0.1760284222
 30
0.0
 40
0.0003
100
AcDbArc
 50
230.0554948102
 51
270.0
  0
ARC
  5
39B
330
1F
100
AcDbEntity
  8
0
  6
Continuous
 62
     7
370
    25
100
AcDbCircle
 10
0.1243899247
 20
0.1765284222
 30
0.0
 40
0.00098
100
AcDbArc
 50
75.5560128703
 51
90.0
  0
LINE
  5
39C
330
1F
100
AcDbEntity
  8
0
  6
Continuous
 62
     7
370
    25
100
AcDbLine
 10
0.1247605024
 20
0.1774356555
 30
0.0
 11
0.1248023329
 21
0.1774174213
 31
0.0
  0
LINE
  5
39D
330
1F
100
AcDbEntity
  8
0
  6
Continuous
 62
     7
370
    25
100
AcDbLine
 10
0.1252789233
 20
0.1769408309
 30
0.0
 11
0.1252853189
 21
0.1769267553
 31
0.0
  0
LINE
  5
39E
330
1F
100
AcDbEntity
  8
0
  6
Continuous
 62
     7
370
    25
100
AcDbLine
 10
0.1253028463
 20
0.1768847578
 30
0.0
 11
0.1253052936
 21
0.1768784224
 31
0.0
  0
LINE
  5
39F
330
1F
100
AcDbEntity
  8
0
  6
Continuous
 62
     7
370
    25
100
AcDbLine
 10
0.1235899244
 20
0.195248422
 30
0.0
 11
0.1235899244
 21
0.1778084224
 31
0.0
  0
LINE
  5
3A0
330
1F
100
AcDbEntity
  8
0
  6
Continuous
 62
     7
370
    25
100
AcDbLine
 10
0.1443899248
 20
0.1955484223
 30
0.0
 11
0.1448899249
 21
0.1955484223
 31
0.0
  0
LINE
  5
3A1
330
1F
100
AcDbEntity
  8
0
  6
Continuous
 62
     7
370
    25
100
AcDbLine
 10
0.1243899248
 20
0.1955484223
 30
0.0
 11
0.1238899241
 21
0.1955484223
 31
0.0
  0
LINE
  5
3A2
330
1F
100
AcDbEntity
  8
0
  6
Continuous
 62
     7
370
    25
100
AcDbLine
 10
0.1253699241
 20
0.1965284222
 30
0.0
 11
0.1253699241
 21
0.1968784218
 31
0.0
  0
LINE
  5
3A3
330
1F
100
AcDbEntity
  8
0
  6
Continuous
 62
     7
370
    25
100
AcDbLine
 10
0.1434099249
 20
0.1965284222
 30
0.0
 11
0.1434099249
 21
0.1968784218
 31
0.0
  0
ARC
  5
3A4
330
1F
100
AcDbEntity
  8
0
  6
Continuous
 62
     7
370
    25
100
AcDbCircle
 10
0.1256699247
 20
0.1970284222
 30
0.0
 40
0.0003
100
AcDbArc
 50
90.0
 51
162.5423968763
  0
LINE
  5
3A5
330
1F
100
AcDbEntity
  8
0
  6
Continuous
 62
     7
370
    25
100
AcDbLine
 10
0.143474556
 20
0.1768784224
 30
0.0
 11
0.1434766803
 21
0.1768839281
 31
0.0
  0
LINE
  5
3A6
330
1F
100
AcDbEntity
  8
0
  6
Continuous
 62
     7
370
    25
100
AcDbLine
 10
0.1434960727
 20
0.176930204
 30
0.0
 11
0.1435009257
 21
0.1769408309
 31
0.0
  0
LINE
  5
3A7
330
1F
100
AcDbEntity
  8
0
  6
Continuous
 62
     7
370
    25
100
AcDbLine
 10
0.1439775155
 20
0.1774174213
 30
0.0
 11
0.14402095
 21
0.1774363088
 31
0.0
  0
ARC
  5
3A8
330
1F
100
AcDbEntity
  8
0
  6
Continuous
 62
     7
370
    25
100
AcDbCircle
 10
0.1443899247
 20
0.1765284222
 30
0.0
 40
0.00098
100
AcDbArc
 50
90.0
 51
104.1168389561
  0
ARC
  5
3A9
330
1F
100
AcDbEntity
  8
0
  6
Continuous
 62
     7
370
    25
100
AcDbCircle
 10
0.1238899247
 20
0.1778084222
 30
0.0
 40
0.0003
100
AcDbArc
 50
180.0
 51
270.0
  0
LINE
  5
3AA
330
1F
100
AcDbEntity
  8
0
  6
Continuous
 62
     7
370
    25
100
AcDbLine
 10
0.1243899248
 20
0.1775084221
 30
0.0
 11
0.1238899241
 21
0.1775084221
 31
0.0
  0
ARC
  5
3AB
330
1F
100
AcDbEntity
  8
0
  6
Continuous
 62
     7
370
    25
100
AcDbCircle
 10
0.1431099247
 20
0.1760284222
 30
0.0
 40
0.0003
100
AcDbArc
 50
270.0
 51
309.9445051898
  0
ARC
  5
3AC
330
1F
100
AcDbEntity
  8
0
  6
Continuous
 62
     7
370
    25
100
AcDbCircle
 10
0.1238899247
 20
0.1952484222
 30
0.0
 40
0.0003
100
AcDbArc
 50
90.0
 51
180.0
  0
LINE
  5
3AD
330
1F
100
AcDbEntity
  8
0
  6
Continuous
 62
     7
370
    25
100
AcDbLine
 10
0.1443899248
 20
0.1775084221
 30
0.0
 11
0.1448899249
 21
0.1775084221
 31
0.0
  0
ARC
  5
3AE
330
1F
100
AcDbEntity
  8
0
  6
Continuous
 62
     7
370
    25
100
AcDbCircle
 10
0.1448899247
 20
0.1778084222
 30
0.0
 40
0.0003
100
AcDbArc
 50
270.0
 51
0.0
  0
LINE
  5
3AF
330
1F
100
AcDbEntity
  8
0
  6
Continuous
 62
     7
370
    18
100
AcDbLine
 10
0.1697529247
 20
0.2265284222
 30
0.0
 11
0.0643899247
 21
0.2265284222
 31
0.0
  0
LINE
  5
3B0
330
1F
100
AcDbEntity
  8
0
  6
Continuous
 62
     7
370
    18
100
AcDbLine
 10
0.1093999247
 20
0.1309950873
 30
0.0
 11
0.0632183175
 21
0.1309950873
 31
0.0
  0
LINE
  5
3B1
330
1F
100
AcDbEntity
  8
0
  6
Continuous
 62
     7
370
    18
100
AcDbLine
 10
0.1093999247
 20
0.111418918
 30
0.0
 11
0.1093999247
 21
0.1309950873
 31
0.0
  0
LINE
  5
3B2
330
1F
100
AcDbEntity
  8
0
  6
Continuous
 62
     7
370
    18
100
AcDbLine
 10
0.1293999247
 20
0.0978764311
 30
0.0
 11
0.1393999247
 21
0.0978764311
 31
0.0
  0
LINE
  5
3B3
330
1F
100
AcDbEntity
  8
0
  6
Continuous
 62
     7
370
    18
100
AcDbLine
 10
0.1593999247
 20
0.111418918
 30
0.0
 11
0.1593999247
 21
0.1465269794
 31
0.0
  0
LINE
  5
3B4
330
1F
100
AcDbEntity
  8
0
  6
Continuous
 62
     7
370
    18
100
AcDbLine
 10
0.1593999247
 20
0.1465269794
 30
0.0
 11
0.1693999247
 21
0.1465269794
 31
0.0
  0
LINE
  5
3B5
330
1F
100
AcDbEntity
  8
0
  6
Continuous
 62
     7
370
    18
100
AcDbLine
 10
0.1997529247
 20
0.1760688781
 30
0.0
 11
0.1997529247
 21
0.1965284222
 31
0.0
  0
ARC
  5
3B6
330
1F
100
AcDbEntity
  8
0
  6
Continuous
 62
     7
370
    18
100
AcDbCircle
 10
0.0643899247
 20
0.1965284222
 30
0.0
 40
0.03
100
AcDbArc
 50
90.0
 51
147.8822285705
  0
ARC
  5
3B7
330
1F
100
AcDbEntity
  8
0
  6
Continuous
 62
     7
370
    18
100
AcDbCircle
 10
0.054034646
 20
0.1865284222
 30
0.0
 40
0.03
100
AcDbArc
 50
120.1179068913
 51
226.6701228541
  0
ARC
  5
3B8
330
1F
100
AcDbEntity
  8
0
  6
Continuous
 62
     7
370
    18
100
AcDbCircle
 10
0.0632183175
 20
0.1609950873
 30
0.0
 40
0.03
100
AcDbArc
 50
172.8945350033
 51
270.0
  0
ARC
  5
3B9
330
1F
100
AcDbEntity
  8
0
  6
Continuous
 62
     7
370
    18
100
AcDbCircle
 10
0.1293999247
 20
0.1194160108
 30
0.0
 40
0.0215395796914873
100
AcDbArc
 50
201.7942293779
 51
270.0
  0
ARC
  5
3BA
330
1F
100
AcDbEntity
  8
0
  6
Continuous
 62
     7
370
    18
100
AcDbCircle
 10
0.1393999247
 20
0.1194160108
 30
0.0
 40
0.0215395796914865
100
AcDbArc
 50
270.0
 51
338.2057706221
  0
ARC
  5
3BB
330
1F
100
AcDbEntity
  8
0
  6
Continuous
 62
     7
370
    18
100
AcDbCircle
 10
0.1697529247
 20
0.1765284222
 30
0.0
 40
0.0300035194726969
100
AcDbArc
 50
269.3258831911
 51
0.8775958789
  0
ARC
  5
3BC
330
1F
100
AcDbEntity
  8
0
  6
Continuous
 62
     7
370
    18
100
AcDbCircle
 10
0.1697529247
 20
0.1965284222
 30
0.0
 40
0.0299999999999999
100
AcDbArc
 50
0.0
 51
90.0
  0
ENDSEC
  0
SECTION
  2
OBJECTS
  0
DICTIONARY
  5
C
330
0
100
AcDbDictionary
281
     1
  3
ACAD_DETAILVIEWSTYLE
350
3C5
  3
ACAD_GROUP
350
D
  3
ACAD_LAYOUT
350
1A
  3
ACAD_MATERIAL
350
43
  3
ACAD_MLEADERSTYLE
350
6B
  3
ACAD_MLINESTYLE
350
17
  3
ACAD_PLOTSETTINGS
350
19
  3
ACAD_PLOTSTYLENAME
350
E
  3
ACAD_SCALELIST
350
47
  3
ACAD_SECTIONVIEWSTYLE
350
3C6
  3
ACAD_TABLESTYLE
350
69
  3
ACAD_VISUALSTYLE
350
2A
  3
ACDB_RECOMPOSE_DATA
350
3C2
  3
AcDbVariableDictionary
350
3BD
  0
SUN
  5
6D
330
29
100
AcDbSun
 90
        1
290
     0
 63
     7
421
 16777215
 40
1.0
291
     1
 91
  2455826
 92
 54000000
292
     0
 70
     2
 71
   256
280
     1
  0
DICTIONARY
  5
3C5
102
{ACAD_REACTORS
330
C
102
}
330
C
100
AcDbDictionary
281
     1
  0
DICTIONARY
  5
D
102
{ACAD_REACTORS
330
C
102
}
330
C
100
AcDbDictionary
281
     1
  0
DICTIONARY
  5
1A
102
{ACAD_REACTORS
330
C
102
}
330
C
100
AcDbDictionary
281
     1
  3
Layout1
350
1E
  3
Layout2
350
26
  3
Model
350
22
  0
DICTIONARY
  5
43
102
{ACAD_REACTORS
330
C
102
}
330
C
100
AcDbDictionary
281
     1
  3
ByBlock
350
45
  3
ByLayer
350
44
  3
Global
350
46
  0
DICTIONARY
  5
6B
102
{ACAD_REACTORS
330
C
102
}
330
C
100
AcDbDictionary
281
     1
  3
Standard
350
6C
  0
DICTIONARY
  5
17
102
{ACAD_REACTORS
330
C
102
}
330
C
100
AcDbDictionary
281
     1
  3
Standard
350
18
  0
DICTIONARY
  5
19
102
{ACAD_REACTORS
330
C
102
}
330
C
100
AcDbDictionary
281
     1
  0
ACDBDICTIONARYWDFLT
  5
E
102
{ACAD_REACTORS
330
C
102
}
330
C
100
AcDbDictionary
281
     1
  3
Normal
350
F
100
AcDbDictionaryWithDefault
340
F
  0
DICTIONARY
  5
47
102
{ACAD_REACTORS
330
C
102
}
330
C
100
AcDbDictionary
281
     1
  3
A0
350
48
  3
A1
350
49
  3
A2
350
4A
  3
A3
350
4B
  3
A4
350
4C
  3
A5
350
4D
  3
A6
350
4E
  3
A7
350
4F
  3
A8
350
50
  3
A9
350
51
  3
B0
350
52
  3
B1
350
53
  3
B2
350
54
  3
B3
350
55
  3
B4
350
56
  3
B5
350
57
  3
B6
350
58
  3
B7
350
59
  3
B8
350
5A
  3
B9
350
5B
  3
C0
350
5C
  3
C1
350
5D
  3
C2
350
5E
  3
C3
350
5F
  3
C4
350
60
  3
C5
350
61
  3
C6
350
62
  3
C7
350
63
  3
C8
350
64
  3
C9
350
65
  3
D0
350
66
  3
D1
350
67
  3
D2
350
68
  0
DICTIONARY
  5
3C6
102
{ACAD_REACTORS
330
C
102
}
330
C
100
AcDbDictionary
281
     1
  0
DICTIONARY
  5
69
102
{ACAD_REACTORS
330
C
102
}
330
C
100
AcDbDictionary
281
     1
  3
Standard
350
6A
  0
DICTIONARY
  5
2A
102
{ACAD_REACTORS
330
C
102
}
330
C
100
AcDbDictionary
281
     1
  3
2dWireframe
350
2F
  3
Basic
350
32
  3
Brighten
350
36
  3
ColorChange
350
3A
  3
Conceptual
350
34
  3
Dim
350
35
  3
EdgeColorOff
350
3D
  3
Facepattern
350
39
  3
Flat
350
2B
  3
FlatWithEdges
350
2C
  3
Gouraud
350
2D
  3
GouraudWithEdges
350
2E
  3
Hidden
350
31
  3
JitterOff
350
3B
  3
Linepattern
350
38
  3
OverhangOff
350
3C
  3
Realistic
350
33
  3
Shaded
350
42
  3
Shaded with edges
350
41
  3
Shades of Gray
350
3E
  3
Sketchy
350
3F
  3
Thicken
350
37
  3
Wireframe
350
30
  3
X-Ray
350
40
  0
XRECORD
  5
3C2
102
{ACAD_REACTORS
330
C
102
}
330
C
100
AcDbXrecord
280
     1
 90
        1
330
6A
  0
DICTIONARY
  5
3BD
102
{ACAD_REACTORS
330
C
102
}
330
C
100
AcDbDictionary
281
     1
  3
CANNOSCALE
350
3BE
  3
CMLEADERSTYLE
350
3C4
  3
CTABLESTYLE
350
3C3
  0
LAYOUT
  5
1E
102
{ACAD_REACTORS
330
1A
102
}
330
1A
100
AcDbPlotSettings
  1

  2
none_device
  4

  6

 40
0.0
 41
0.0
 42
0.0
 43
0.0
 44
0.0
 45
0.0
 46
0.0
 47
0.0
 48
0.0
 49
0.0
140
0.0
141
0.0
142
1.0
143
1.0
 70
   688
 72
     1
 73
     0
 74
     5
  7

 75
    16
 76
     0
 77
     2
 78
   300
147
1.0
148
0.0
149
0.0
100
AcDbLayout
  1
Layout1
 70
     1
 71
     1
 10
0.0
 20
0.0
 11
420.0
 21
297.0
 12
0.0
 22
0.0
 32
0.0
 14
1.0000000000E+20
 24
1.0000000000E+20
 34
1.0000000000E+20
 15
-1.0000000000E+20
 25
-1.0000000000E+20
 35
-1.0000000000E+20
146
0.0
 13
0.0
 23
0.0
 33
0.0
 16
1.0
 26
0.0
 36
0.0
 17
0.0
 27
1.0
 37
0.0
 76
     0
330
1B
  0
LAYOUT
  5
26
102
{ACAD_REACTORS
330
1A
102
}
330
1A
100
AcDbPlotSettings
  1

  2
none_device
  4

  6

 40
0.0
 41
0.0
 42
0.0
 43
0.0
 44
0.0
 45
0.0
 46
0.0
 47
0.0
 48
0.0
 49
0.0
140
0.0
141
0.0
142
1.0
143
1.0
 70
   688
 72
     1
 73
     0
 74
     5
  7

 75
    16
 76
     0
 77
     2
 78
   300
147
1.0
148
0.0
149
0.0
100
AcDbLayout
  1
Layout2
 70
     1
 71
     2
 10
0.0
 20
0.0
 11
0.0
 21
0.0
 12
0.0
 22
0.0
 32
0.0
 14
0.0
 24
0.0
 34
0.0
 15
0.0
 25
0.0
 35
0.0
146
0.0
 13
0.0
 23
0.0
 33
0.0
 16
1.0
 26
0.0
 36
0.0
 17
0.0
 27
1.0
 37
0.0
 76
     0
330
23
  0
LAYOUT
  5
22
102
{ACAD_REACTORS
330
1A
102
}
330
1A
100
AcDbPlotSettings
  1

  2
none_device
  4
Letter_(8.50_x_11.00_Inches)
  6

 40
6.35
 41
6.35
 42
6.35000508
 43
6.35000508
 44
215.9
 45
279.4
 46
0.0
 47
0.0
 48
0.0
 49
0.0
140
0.0
141
0.0
142
1.0
143
1.0
 70
  1712
 72
     1
 73
     0
 74
     0
  7

 75
     0
 76
     0
 77
     2
 78
   300
147
1.0
148
0.0
149
0.0
100
AcDbLayout
  1
Model
 70
     1
 71
     0
 10
0.0
 20
0.0
 11
0.21
 21
0.297
 12
0.0
 22
0.0
 32
0.0
 14
0.0
 24
0.0
 34
0.0
 15
0.21
 25
0.297
 35
0.0
146
0.0
 13
0.0
 23
0.0
 33
0.0
 16
1.0
 26
0.0
 36
0.0
 17
0.0
 27
1.0
 37
0.0
 76
     0
330
1F
331
29
  0
MATERIAL
  5
45
102
{ACAD_REACTORS
330
43
102
}
330
43
100
AcDbMaterial
  1
ByBlock
 72
     1
 94
      127
  0
MATERIAL
  5
44
102
{ACAD_REACTORS
330
43
102
}
330
43
100
AcDbMaterial
  1
ByLayer
 72
     1
 94
      127
  0
MATERIAL
  5
46
102
{ACAD_REACTORS
330
43
102
}
330
43
100
AcDbMaterial
  1
Global
 72
     1
 94
      127
  0
MLEADERSTYLE
  5
6C
102
{ACAD_REACTORS
330
6B
102
}
330
6B
100
AcDbMLeaderStyle
170
     2
171
     1
172
     0
 90
        2
 40
0.0
 41
0.0
173
     1
 91
-1056964608
340
14
 92
       -2
290
     1
 42
2.0
291
     1
 43
8.0
  3
Standard
341
0
 44
4.0
300

342
11
174
     1
178
     6
175
     1
176
     0
 93
-1056964608
 45
4.0
292
     0
297
     0
 46
4.0
343
0
 94
-1056964608
 47
1.0
 49
1.0
140
1.0
293
     1
141
0.0
294
     1
177
     0
142
1.0
295
     0
296
     0
143
3.75
1001
ACAD_MLEADERVER
1070
     2
  0
MLINESTYLE
  5
18
102
{ACAD_REACTORS
330
17
102
}
330
17
100
AcDbMlineStyle
  2
Standard
 70
     0
  3

 62
   256
 51
90.0
 52
90.0
 71
     2
 49
0.5
 62
   256
  6
BYLAYER
 49
-0.5
 62
   256
  6
BYLAYER
  0
ACDBPLACEHOLDER
  5
F
102
{ACAD_REACTORS
330
E
102
}
330
E
  0
SCALE
  5
48
102
{ACAD_REACTORS
330
47
102
}
330
47
100
AcDbScale
 70
     0
300
1:1
140
1.0
141
1.0
290
     1
  0
SCALE
  5
49
102
{ACAD_REACTORS
330
47
102
}
330
47
100
AcDbScale
 70
     0
300
1:2
140
1.0
141
2.0
290
     0
  0
SCALE
  5
4A
102
{ACAD_REACTORS
330
47
102
}
330
47
100
AcDbScale
 70
     0
300
1:4
140
1.0
141
4.0
290
     0
  0
SCALE
  5
4B
102
{ACAD_REACTORS
330
47
102
}
330
47
100
AcDbScale
 70
     0
300
1:5
140
1.0
141
5.0
290
     0
  0
SCALE
  5
4C
102
{ACAD_REACTORS
330
47
102
}
330
47
100
AcDbScale
 70
     0
300
1:8
140
1.0
141
8.0
290
     0
  0
SCALE
  5
4D
102
{ACAD_REACTORS
330
47
102
}
330
47
100
AcDbScale
 70
     0
300
1:10
140
1.0
141
10.0
290
     0
  0
SCALE
  5
4E
102
{ACAD_REACTORS
330
47
102
}
330
47
100
AcDbScale
 70
     0
300
1:16
140
1.0
141
16.0
290
     0
  0
SCALE
  5
4F
102
{ACAD_REACTORS
330
47
102
}
330
47
100
AcDbScale
 70
     0
300
1:20
140
1.0
141
20.0
290
     0
  0
SCALE
  5
50
102
{ACAD_REACTORS
330
47
102
}
330
47
100
AcDbScale
 70
     0
300
1:30
140
1.0
141
30.0
290
     0
  0
SCALE
  5
51
102
{ACAD_REACTORS
330
47
102
}
330
47
100
AcDbScale
 70
     0
300
1:40
140
1.0
141
40.0
290
     0
  0
SCALE
  5
52
102
{ACAD_REACTORS
330
47
102
}
330
47
100
AcDbScale
 70
     0
300
1:50
140
1.0
141
50.0
290
     0
  0
SCALE
  5
53
102
{ACAD_REACTORS
330
47
102
}
330
47
100
AcDbScale
 70
     0
300
1:100
140
1.0
141
100.0
290
     0
  0
SCALE
  5
54
102
{ACAD_REACTORS
330
47
102
}
330
47
100
AcDbScale
 70
     0
300
2:1
140
2.0
141
1.0
290
     0
  0
SCALE
  5
55
102
{ACAD_REACTORS
330
47
102
}
330
47
100
AcDbScale
 70
     0
300
4:1
140
4.0
141
1.0
290
     0
  0
SCALE
  5
56
102
{ACAD_REACTORS
330
47
102
}
330
47
100
AcDbScale
 70
     0
300
8:1
140
8.0
141
1.0
290
     0
  0
SCALE
  5
57
102
{ACAD_REACTORS
330
47
102
}
330
47
100
AcDbScale
 70
     0
300
10:1
140
10.0
141
1.0
290
     0
  0
SCALE
  5
58
102
{ACAD_REACTORS
330
47
102
}
330
47
100
AcDbScale
 70
     0
300
100:1
140
100.0
141
1.0
290
     0
  0
SCALE
  5
59
102
{ACAD_REACTORS
330
47
102
}
330
47
100
AcDbScale
 70
     0
300
1/128" = 1'-0"
140
0.0078125
141
12.0
290
     0
  0
SCALE
  5
5A
102
{ACAD_REACTORS
330
47
102
}
330
47
100
AcDbScale
 70
     0
300
1/64" = 1'-0"
140
0.015625
141
12.0
290
     0
  0
SCALE
  5
5B
102
{ACAD_REACTORS
330
47
102
}
330
47
100
AcDbScale
 70
     0
300
1/32" = 1'-0"
140
0.03125
141
12.0
290
     0
  0
SCALE
  5
5C
102
{ACAD_REACTORS
330
47
102
}
330
47
100
AcDbScale
 70
     0
300
1/16" = 1'-0"
140
0.0625
141
12.0
290
     0
  0
SCALE
  5
5D
102
{ACAD_REACTORS
330
47
102
}
330
47
100
AcDbScale
 70
     0
300
3/32" = 1'-0"
140
0.09375
141
12.0
290
     0
  0
SCALE
  5
5E
102
{ACAD_REACTORS
330
47
102
}
330
47
100
AcDbScale
 70
     0
300
1/8" = 1'-0"
140
0.125
141
12.0
290
     0
  0
SCALE
  5
5F
102
{ACAD_REACTORS
330
47
102
}
330
47
100
AcDbScale
 70
     0
300
3/16" = 1'-0"
140
0.1875
141
12.0
290
     0
  0
SCALE
  5
60
102
{ACAD_REACTORS
330
47
102
}
330
47
100
AcDbScale
 70
     0
300
1/4" = 1'-0"
140
0.25
141
12.0
290
     0
  0
SCALE
  5
61
102
{ACAD_REACTORS
330
47
102
}
330
47
100
AcDbScale
 70
     0
300
3/8" = 1'-0"
140
0.375
141
12.0
290
     0
  0
SCALE
  5
62
102
{ACAD_REACTORS
330
47
102
}
330
47
100
AcDbScale
 70
     0
300
1/2" = 1'-0"
140
0.5
141
12.0
290
     0
  0
SCALE
  5
63
102
{ACAD_REACTORS
330
47
102
}
330
47
100
AcDbScale
 70
     0
300
3/4" = 1'-0"
140
0.75
141
12.0
290
     0
  0
SCALE
  5
64
102
{ACAD_REACTORS
330
47
102
}
330
47
100
AcDbScale
 70
     0
300
1" = 1'-0"
140
1.0
141
12.0
290
     0
  0
SCALE
  5
65
102
{ACAD_REACTORS
330
47
102
}
330
47
100
AcDbScale
 70
     0
300
1-1/2" = 1'-0"
140
1.5
141
12.0
290
     0
  0
SCALE
  5
66
102
{ACAD_REACTORS
330
47
102
}
330
47
100
AcDbScale
 70
     0
300
3" = 1'-0"
140
3.0
141
12.0
290
     0
  0
SCALE
  5
67
102
{ACAD_REACTORS
330
47
102
}
330
47
100
AcDbScale
 70
     0
300
6" = 1'-0"
140
6.0
141
12.0
290
     0
  0
SCALE
  5
68
102
{ACAD_REACTORS
330
47
102
}
330
47
100
AcDbScale
 70
     0
300
1'-0" = 1'-0"
140
12.0
141
12.0
290
     0
  0
TABLESTYLE
  5
6A
102
{ACAD_REACTORS
330
69
102
}
102
{ACAD_XDICTIONARY
360
3BF
102
}
330
69
100
AcDbTableStyle
  3
Standard
 70
     0
 71
     0
 40
0.06
 41
0.06
280
     0
281
     0
  7
Standard
140
4.5
170
     2
 62
     0
 63
   257
283
     0
 90
        4
 91
        0
  1

274
    -2
284
     1
 64
     0
275
    -2
285
     1
 65
     0
276
    -2
286
     1
 66
     0
277
    -2
287
     1
 67
     0
278
    -2
288
     1
 68
     0
279
    -2
289
     1
 69
     0
  7
Standard
140
6.0
170
     5
 62
     0
 63
   257
283
     0
 90
        4
 91
        0
  1

274
    -2
284
     1
 64
     0
275
    -2
285
     1
 65
     0
276
    -2
286
     1
 66
     0
277
    -2
287
     1
 67
     0
278
    -2
288
     1
 68
     0
279
    -2
289
     1
 69
     0
  7
Standard
140
4.5
170
     5
 62
     0
 63
   257
283
     0
 90
        4
 91
        0
  1

274
    -2
284
     1
 64
     0
275
    -2
285
     1
 65
     0
276
    -2
286
     1
 66
     0
277
    -2
287
     1
 67
     0
278
    -2
288
     1
 68
     0
279
    -2
289
     1
 69
     0
  0
VISUALSTYLE
  5
2F
102
{ACAD_REACTORS
330
2A
102
}
330
2A
100
AcDbVisualStyle
  2
2dWireframe
 70
     4
 71
     0
 72
     2
 73
     0
 90
        0
 40
0.6
 41
30.0
 62
     5
 63
     7
421
 16777215
 74
     1
 91
        4
 64
     7
 65
   257
 75
     1
175
     1
 42
1.0
 92
        0
 66
   257
 43
1.0
 76
     1
 77
     6
 78
     2
 67
     7
 79
     5
170
     0
171
     0
290
     0
174
     0
 93
        1
 44
0.0
173
     0
291
     0
 45
0.0
  0
VISUALSTYLE
  5
32
102
{ACAD_REACTORS
330
2A
102
}
330
2A
100
AcDbVisualStyle
  2
Basic
 70
     7
 71
     1
 72
     0
 73
     1
 90
        0
 40
0.6
 41
30.0
 62
     5
 63
     7
421
 16777215
 74
     0
 91
        4
 64
     7
 65
   257
 75
     1
175
     1
 42
1.0
 92
        8
 66
     7
 43
1.0
 76
     1
 77
     6
 78
     2
 67
     7
 79
     5
170
     0
171
     0
290
     0
174
     0
 93
        1
 44
0.0
173
     0
291
     1
 45
0.0
  0
VISUALSTYLE
  5
36
102
{ACAD_REACTORS
330
2A
102
}
330
2A
100
AcDbVisualStyle
  2
Brighten
 70
    12
 71
     2
 72
     2
 73
     0
 90
        0
 40
0.6
 41
30.0
 62
     5
 63
     7
421
 16777215
 74
     1
 91
        4
 64
     7
 65
   257
 75
     1
175
     1
 42
1.0
 92
        8
 66
     7
 43
1.0
 76
     1
 77
     6
 78
     2
 67
     7
 79
     5
170
     0
171
     0
290
     0
174
     0
 93
        1
 44
50.0
173
     0
291
     1
 45
0.0
  0
VISUALSTYLE
  5
3A
102
{ACAD_REACTORS
330
2A
102
}
330
2A
100
AcDbVisualStyle
  2
ColorChange
 70
    16
 71
     2
 72
     2
 73
     3
 90
        0
 40
0.6
 41
30.0
 62
     5
 63
     8
421
  8421504
 74
     1
 91
        4
 64
     7
 65
   257
 75
     1
175
     1
 42
1.0
 92
        8
 66
     8
424
  8421504
 43
1.0
 76
     1
 77
     6
 78
     2
 67
     7
 79
     5
170
     0
171
     0
290
     0
174
     0
 93
        1
 44
0.0
173
     0
291
     1
 45
0.0
  0
VISUALSTYLE
  5
34
102
{ACAD_REACTORS
330
2A
102
}
330
2A
100
AcDbVisualStyle
  2
Conceptual
 70
     9
 71
     3
 72
     2
 73
     0
 90
        0
 40
0.6
 41
30.0
 62
     5
 63
     7
421
 16777215
 74
     2
 91
        2
 64
     7
 65
   257
 75
     1
175
     1
 42
179.0
 92
        8
 66
     7
 43
1.0
 76
     1
 77
     6
 78
     2
 67
     7
 79
     3
170
     0
171
     0
290
     0
174
     0
 93
        1
 44
0.0
173
     0
291
     0
 45
0.0
  0
VISUALSTYLE
  5
35
102
{ACAD_REACTORS
330
2A
102
}
330
2A
100
AcDbVisualStyle
  2
Dim
 70
    11
 71
     2
 72
     2
 73
     0
 90
        0
 40
0.6
 41
30.0
 62
     5
 63
     7
421
 16777215
 74
     1
 91
        4
 64
     7
 65
   257
 75
     1
175
     1
 42
1.0
 92
        8
 66
     7
 43
1.0
 76
     1
 77
     6
 78
     2
 67
     7
 79
     5
170
     0
171
     0
290
     0
174
     0
 93
        1
 44
-50.0
173
     0
291
     1
 45
0.0
  0
VISUALSTYLE
  5
3D
102
{ACAD_REACTORS
330
2A
102
}
330
2A
100
AcDbVisualStyle
  2
EdgeColorOff
 70
    22
 71
     2
 72
     2
 73
     0
 90
        0
 40
0.6
 41
30.0
 62
     5
 63
     7
421
 16777215
 74
     1
 91
        4
 64
     7
 65
   257
 75
     1
175
     1
 42
1.0
 92
        8
 66
     7
 43
1.0
 76
     1
 77
     6
 78
     2
 67
     7
 79
     5
170
     0
171
     0
290
     0
174
     0
 93
        1
 44
0.0
173
     0
291
     1
 45
0.0
  0
VISUALSTYLE
  5
39
102
{ACAD_REACTORS
330
2A
102
}
330
2A
100
AcDbVisualStyle
  2
Facepattern
 70
    15
 71
     2
 72
     2
 73
     0
 90
        0
 40
0.6
 41
30.0
 62
     5
 63
     7
421
 16777215
 74
     1
 91
        4
 64
     7
 65
   257
 75
     1
175
     1
 42
1.0
 92
        8
 66
     7
 43
1.0
 76
     1
 77
     6
 78
     2
 67
     7
 79
     5
170
     0
171
     0
290
     0
174
     0
 93
        1
 44
0.0
173
     0
291
     1
 45
0.0
  0
VISUALSTYLE
  5
2B
102
{ACAD_REACTORS
330
2A
102
}
330
2A
100
AcDbVisualStyle
  2
Flat
 70
     0
 71
     2
 72
     1
 73
     1
 90
        2
 40
0.6
 41
30.0
 62
     5
 63
     7
421
 16777215
 74
     0
 91
        0
 64
     7
 65
   257
 75
     1
175
     1
 42
1.0
 92
        8
 66
     7
 43
1.0
 76
     1
 77
     6
 78
     2
 67
     7
 79
     5
170
     0
171
     0
290
     0
174
     0
 93
       13
 44
0.0
173
     0
291
     1
 45
0.0
  0
VISUALSTYLE
  5
2C
102
{ACAD_REACTORS
330
2A
102
}
330
2A
100
AcDbVisualStyle
  2
FlatWithEdges
 70
     1
 71
     2
 72
     1
 73
     1
 90
        2
 40
0.6
 41
30.0
 62
     5
 63
     7
421
 16777215
 74
     1
 91
        0
 64
     7
 65
   257
 75
     1
175
     1
 42
1.0
 92
        0
 66
   257
 43
1.0
 76
     1
 77
     6
 78
     2
 67
     7
 79
     5
170
     0
171
     0
290
     0
174
     0
 93
       13
 44
0.0
173
     0
291
     1
 45
0.0
  0
VISUALSTYLE
  5
2D
102
{ACAD_REACTORS
330
2A
102
}
330
2A
100
AcDbVisualStyle
  2
Gouraud
 70
     2
 71
     2
 72
     2
 73
     1
 90
        2
 40
0.6
 41
30.0
 62
     5
 63
     7
421
 16777215
 74
     0
 91
        0
 64
     7
 65
   257
 75
     1
175
     1
 42
1.0
 92
        0
 66
     7
 43
1.0
 76
     1
 77
     6
 78
     2
 67
     7
 79
     5
170
     0
171
     0
290
     0
174
     0
 93
       13
 44
0.0
173
     0
291
     1
 45
0.0
  0
VISUALSTYLE
  5
2E
102
{ACAD_REACTORS
330
2A
102
}
330
2A
100
AcDbVisualStyle
  2
GouraudWithEdges
 70
     3
 71
     2
 72
     2
 73
     1
 90
        2
 40
0.6
 41
30.0
 62
     5
 63
     7
421
 16777215
 74
     1
 91
        0
 64
     7
 65
   257
 75
     1
175
     1
 42
1.0
 92
        0
 66
   257
 43
1.0
 76
     1
 77
     6
 78
     2
 67
     7
 79
     5
170
     0
171
     0
290
     0
174
     0
 93
       13
 44
0.0
173
     0
291
     1
 45
0.0
  0
VISUALSTYLE
  5
31
102
{ACAD_REACTORS
330
2A
102
}
330
2A
100
AcDbVisualStyle
  2
Hidden
 70
     6
 71
     1
 72
     2
 73
     2
 90
        0
 40
0.6
 41
30.0
 62
     5
 63
     7
421
 16777215
 74
     2
 91
        2
 64
     7
 65
   257
 75
     2
175
     1
 42
40.0
 92
        0
 66
   257
 43
1.0
 76
     1
 77
     6
 78
     2
 67
     7
 79
     3
170
     0
171
     0
290
     0
174
     0
 93
        1
 44
0.0
173
     0
291
     0
 45
0.0
  0
VISUALSTYLE
  5
3B
102
{ACAD_REACTORS
330
2A
102
}
330
2A
100
AcDbVisualStyle
  2
JitterOff
 70
    20
 71
     2
 72
     2
 73
     0
 90
        0
 40
0.6
 41
30.0
 62
     5
 63
     7
421
 16777215
 74
     1
 91
        4
 64
     7
 65
   257
 75
     1
175
     1
 42
1.0
 92
       10
 66
     7
 43
1.0
 76
     1
 77
     6
 78
     2
 67
     7
 79
     5
170
     0
171
     0
290
     0
174
     0
 93
        1
 44
0.0
173
     0
291
     1
 45
0.0
  0
VISUALSTYLE
  5
38
102
{ACAD_REACTORS
330
2A
102
}
330
2A
100
AcDbVisualStyle
  2
Linepattern
 70
    14
 71
     2
 72
     2
 73
     0
 90
        0
 40
0.6
 41
30.0
 62
     5
 63
     7
421
 16777215
 74
     1
 91
        4
 64
     7
 65
   257
 75
     7
175
     7
 42
1.0
 92
        8
 66
     7
 43
1.0
 76
     1
 77
     6
 78
     2
 67
     7
 79
     5
170
     0
171
     0
290
     0
174
     0
 93
        1
 44
0.0
173
     0
291
     1
 45
0.0
  0
VISUALSTYLE
  5
3C
102
{ACAD_REACTORS
330
2A
102
}
330
2A
100
AcDbVisualStyle
  2
OverhangOff
 70
    21
 71
     2
 72
     2
 73
     0
 90
        0
 40
0.6
 41
30.0
 62
     5
 63
     7
421
 16777215
 74
     1
 91
        4
 64
     7
 65
   257
 75
     1
175
     1
 42
1.0
 92
        9
 66
     7
 43
1.0
 76
     1
 77
     6
 78
     2
 67
     7
 79
     5
170
     0
171
     0
290
     0
174
     0
 93
        1
 44
0.0
173
     0
291
     1
 45
0.0
  0
VISUALSTYLE
  5
33
102
{ACAD_REACTORS
330
2A
102
}
330
2A
100
AcDbVisualStyle
  2
Realistic
 70
     8
 71
     2
 72
     3
 73
     0
 90
        2
 40
0.6
 41
30.0
 62
     5
 63
     7
421
 16777215
 74
     0
 91
        0
 64
     7
 65
   257
 75
     1
175
     1
 42
1.0
 92
        8
 66
   257
 43
1.0
 76
     1
 77
     6
 78
     2
 67
     7
 79
     3
170
     0
171
     0
290
     0
174
     0
 93
       13
 44
0.0
173
     0
291
     0
 45
0.0
  0
VISUALSTYLE
  5
42
102
{ACAD_REACTORS
330
2A
102
}
330
2A
100
AcDbVisualStyle
  2
Shaded
 70
    27
 71
     2
 72
     2
 73
     1
 90
        2
 40
0.6
 41
30.0
 62
     5
 63
     7
421
 16777215
 74
     0
 91
        4
 64
     7
 65
   257
 75
     1
175
     1
 42
1.0
 92
        8
 66
   257
 43
1.0
 76
     1
 77
     6
 78
     2
 67
     8
425
  7895160
 79
     3
170
     0
171
     0
290
     0
174
     0
 93
        5
 44
0.0
173
     0
291
     0
 45
0.0
  0
VISUALSTYLE
  5
41
102
{ACAD_REACTORS
330
2A
102
}
330
2A
100
AcDbVisualStyle
  2
Shaded with edges
 70
    26
 71
     2
 72
     2
 73
     1
 90
        2
 40
0.6
 41
30.0
 62
     5
 63
     7
421
 16777215
 74
     1
 91
       10
 64
     7
 65
   257
 75
     2
175
     1
 42
1.0
 92
        8
 66
   257
 43
1.0
 76
     1
 77
     6
 78
     2
 67
     7
 79
     3
170
     0
171
     0
290
     0
174
     0
 93
        5
 44
0.0
173
     0
291
     0
 45
0.0
  0
VISUALSTYLE
  5
3E
102
{ACAD_REACTORS
330
2A
102
}
330
2A
100
AcDbVisualStyle
  2
Shades of Gray
 70
    23
 71
     2
 72
     2
 73
     3
 90
        0
 40
0.6
 41
30.0
 62
     5
 63
     7
421
 16777215
 74
     2
 91
        2
 64
     7
 65
     7
 75
     1
175
     1
 42
40.0
 92
        8
 66
     7
 43
1.0
 76
     1
 77
     6
 78
     2
 67
     7
 79
     3
170
     0
171
     0
290
     0
174
     0
 93
        1
 44
0.0
173
     0
291
     0
 45
0.0
  0
VISUALSTYLE
  5
3F
102
{ACAD_REACTORS
330
2A
102
}
330
2A
100
AcDbVisualStyle
  2
Sketchy
 70
    24
 71
     1
 72
     2
 73
     2
 90
        0
 40
0.6
 41
30.0
 62
     5
 63
     7
421
 16777215
 74
     2
 91
        2
 64
     7
 65
     7
 75
     1
175
     1
 42
40.0
 92
       11
 66
     7
 43
1.0
 76
     1
 77
     6
 78
     2
 67
     7
 79
     6
170
     0
171
     0
290
     0
174
     0
 93
        1
 44
0.0
173
     0
291
     0
 45
0.0
  0
VISUALSTYLE
  5
37
102
{ACAD_REACTORS
330
2A
102
}
330
2A
100
AcDbVisualStyle
  2
Thicken
 70
    13
 71
     2
 72
     2
 73
     0
 90
        0
 40
0.6
 41
30.0
 62
     5
 63
     7
421
 16777215
 74
     1
 91
        4
 64
     7
 65
   257
 75
     1
175
     1
 42
1.0
 92
       12
 66
     7
 43
1.0
 76
     1
 77
     6
 78
     2
 67
     7
 79
     5
170
     0
171
     0
290
     0
174
     0
 93
        1
 44
0.0
173
     0
291
     1
 45
0.0
  0
VISUALSTYLE
  5
30
102
{ACAD_REACTORS
330
2A
102
}
330
2A
100
AcDbVisualStyle
  2
Wireframe
 70
     5
 71
     0
 72
     2
 73
     0
 90
        0
 40
0.6
 41
30.0
 62
     5
 63
     7
421
 16777215
 74
     1
 91
        4
 64
     7
 65
   257
 75
     1
175
     1
 42
1.0
 92
        0
 66
   257
 43
1.0
 76
     1
 77
     6
 78
     2
 67
     7
 79
     3
170
     0
171
     0
290
     0
174
     0
 93
        1
 44
0.0
173
     0
291
     0
 45
0.0
  0
VISUALSTYLE
  5
40
102
{ACAD_REACTORS
330
2A
102
}
330
2A
100
AcDbVisualStyle
  2
X-Ray
 70
    25
 71
     2
 72
     2
 73
     1
 90
        1
 40
0.5
 41
30.0
 62
     5
 63
     7
421
 16777215
 74
     1
 91
        0
 64
     7
 65
   257
 75
     1
175
     1
 42
1.0
 92
        8
 66
     7
 43
1.0
 76
     1
 77
     6
 78
     2
 67
     7
 79
     3
170
     0
171
     0
290
     0
174
     0
 93
       13
 44
0.0
173
     0
291
     0
 45
0.0
  0
DICTIONARYVAR
  5
3BE
102
{ACAD_REACTORS
330
3BD
102
}
330
3BD
100
DictionaryVariables
280
     0
  1
1:1
  0
DICTIONARYVAR
  5
3C4
102
{ACAD_REACTORS
330
3BD
102
}
330
3BD
100
DictionaryVariables
280
     0
  1
Standard
  0
DICTIONARYVAR
  5
3C3
102
{ACAD_REACTORS
330
3BD
102
}
330
3BD
100
DictionaryVariables
280
     0
  1
Standard
  0
DICTIONARY
  5
3BF
330
6A
100
AcDbDictionary
280
     1
281
     1
  3
ACAD_ROUNDTRIP_2008_TABLESTYLE_CELLSTYLEMAP
360
3C0
  0
CELLSTYLEMAP
  5
3C0
102
{ACAD_REACTORS
330
3BF
102
}
330
3BF
100
AcDbCellStyleMap
 90
        3
300
CELLSTYLE
  1
TABLEFORMAT_BEGIN
 90
        5
170
     1
 91
        0
 92
    32768
 62
   257
 93
        1
300
CONTENTFORMAT
  1
CONTENTFORMAT_BEGIN
 90
        0
 91
        0
 92
        4
 93
        0
300

 40
0.0
140
1.0
 94
        5
 62
     0
340
11
144
6.0
309
CONTENTFORMAT_END
171
     1
301
MARGIN
  1
CELLMARGIN_BEGIN
 40
1.5
 40
1.5
 40
1.5
 40
1.5
 40
1.5
 40
1.5
309
CELLMARGIN_END
 94
        6
 95
        1
302
GRIDFORMAT
  1
GRIDFORMAT_BEGIN
 90
        0
 91
        1
 62
     0
 92
       -2
340
14
 93
        0
 40
0.045
309
GRIDFORMAT_END
 95
        2
302
GRIDFORMAT
  1
GRIDFORMAT_BEGIN
 90
        0
 91
        1
 62
     0
 92
       -2
340
14
 93
        0
 40
0.045
309
GRIDFORMAT_END
 95
        4
302
GRIDFORMAT
  1
GRIDFORMAT_BEGIN
 90
        0
 91
        1
 62
     0
 92
       -2
340
14
 93
        0
 40
0.045
309
GRIDFORMAT_END
 95
        8
302
GRIDFORMAT
  1
GRIDFORMAT_BEGIN
 90
        0
 91
        1
 62
     0
 92
       -2
340
14
 93
        0
 40
0.045
309
GRIDFORMAT_END
 95
       16
302
GRIDFORMAT
  1
GRIDFORMAT_BEGIN
 90
        0
 91
        1
 62
     0
 92
       -2
340
14
 93
        0
 40
0.045
309
GRIDFORMAT_END
 95
       32
302
GRIDFORMAT
  1
GRIDFORMAT_BEGIN
 90
        0
 91
        1
 62
     0
 92
       -2
340
14
 93
        0
 40
0.045
309
GRIDFORMAT_END
309
TABLEFORMAT_END
  1
CELLSTYLE_BEGIN
 90
        1
 91
        1
300
_TITLE
309
CELLSTYLE_END
300
CELLSTYLE
  1
TABLEFORMAT_BEGIN
 90
        5
170
     1
 91
        0
 92
        0
 62
   257
 93
        1
300
CONTENTFORMAT
  1
CONTENTFORMAT_BEGIN
 90
        0
 91
        0
 92
        4
 93
        0
300

 40
0.0
140
1.0
 94
        5
 62
     0
340
11
144
4.5
309
CONTENTFORMAT_END
171
     1
301
MARGIN
  1
CELLMARGIN_BEGIN
 40
1.5
 40
1.5
 40
1.5
 40
1.5
 40
1.5
 40
1.5
309
CELLMARGIN_END
 94
        6
 95
        1
302
GRIDFORMAT
  1
GRIDFORMAT_BEGIN
 90
        0
 91
        1
 62
     0
 92
       -2
340
14
 93
        0
 40
0.045
309
GRIDFORMAT_END
 95
        2
302
GRIDFORMAT
  1
GRIDFORMAT_BEGIN
 90
        0
 91
        1
 62
     0
 92
       -2
340
14
 93
        0
 40
0.045
309
GRIDFORMAT_END
 95
        4
302
GRIDFORMAT
  1
GRIDFORMAT_BEGIN
 90
        0
 91
        1
 62
     0
 92
       -2
340
14
 93
        0
 40
0.045
309
GRIDFORMAT_END
 95
        8
302
GRIDFORMAT
  1
GRIDFORMAT_BEGIN
 90
        0
 91
        1
 62
     0
 92
       -2
340
14
 93
        0
 40
0.045
309
GRIDFORMAT_END
 95
       16
302
GRIDFORMAT
  1
GRIDFORMAT_BEGIN
 90
        0
 91
        1
 62
     0
 92
       -2
340
14
 93
        0
 40
0.045
309
GRIDFORMAT_END
 95
       32
302
GRIDFORMAT
  1
GRIDFORMAT_BEGIN
 90
        0
 91
        1
 62
     0
 92
       -2
340
14
 93
        0
 40
0.045
309
GRIDFORMAT_END
309
TABLEFORMAT_END
  1
CELLSTYLE_BEGIN
 90
        2
 91
        1
300
_HEADER
309
CELLSTYLE_END
300
CELLSTYLE
  1
TABLEFORMAT_BEGIN
 90
        5
170
     1
 91
        0
 92
        0
 62
   257
 93
        1
300
CONTENTFORMAT
  1
CONTENTFORMAT_BEGIN
 90
        0
 91
        0
 92
        4
 93
        0
300

 40
0.0
140
1.0
 94
        2
 62
     0
340
11
144
4.5
309
CONTENTFORMAT_END
171
     1
301
MARGIN
  1
CELLMARGIN_BEGIN
 40
1.5
 40
1.5
 40
1.5
 40
1.5
 40
1.5
 40
1.5
309
CELLMARGIN_END
 94
        6
 95
        1
302
GRIDFORMAT
  1
GRIDFORMAT_BEGIN
 90
        0
 91
        1
 62
     0
 92
       -2
340
14
 93
        0
 40
0.045
309
GRIDFORMAT_END
 95
        2
302
GRIDFORMAT
  1
GRIDFORMAT_BEGIN
 90
        0
 91
        1
 62
     0
 92
       -2
340
14
 93
        0
 40
0.045
309
GRIDFORMAT_END
 95
        4
302
GRIDFORMAT
  1
GRIDFORMAT_BEGIN
 90
        0
 91
        1
 62
     0
 92
       -2
340
14
 93
        0
 40
0.045
309
GRIDFORMAT_END
 95
        8
302
GRIDFORMAT
  1
GRIDFORMAT_BEGIN
 90
        0
 91
        1
 62
     0
 92
       -2
340
14
 93
        0
 40
0.045
309
GRIDFORMAT_END
 95
       16
302
GRIDFORMAT
  1
GRIDFORMAT_BEGIN
 90
        0
 91
        1
 62
     0
 92
       -2
340
14
 93
        0
 40
0.045
309
GRIDFORMAT_END
 95
       32
302
GRIDFORMAT
  1
GRIDFORMAT_BEGIN
 90
        0
 91
        1
 62
     0
 92
       -2
340
14
 93
        0
 40
0.045
309
GRIDFORMAT_END
309
TABLEFORMAT_END
  1
CELLSTYLE_BEGIN
 90
        3
 91
        2
300
_DATA
309
CELLSTYLE_END
  0
ENDSEC
  0
EOF
