  0
SECTION
  2
HEADER
  9
$ACADVER
  1
AC1021
  9
$ACADMAINTVER
 70
    25
  9
$DWGCODEPAGE
  3
ANSI_1250
  9
$INSBASE
 10
0.0
 20
0.0
 30
0.0
  9
$EXTMIN
 10
0.0
 20
0.0
 30
0.0
  9
$EXTMAX
 10
0.21
 20
0.297
 30
0.0
  9
$LIMMIN
 10
0.0
 20
0.0
  9
$LIMMAX
 10
0.21
 20
0.297
  9
$ORTHOMODE
 70
     0
  9
$REGENMODE
 70
     1
  9
$FILLMODE
 70
     1
  9
$QTEXTMODE
 70
     0
  9
$MIRRTEXT
 70
     1
  9
$LTSCALE
 40
1.0
  9
$ATTMODE
 70
     1
  9
$TEXTSIZE
 40
0.0035
  9
$TRACEWID
 40
1.0
  9
$TEXTSTYLE
  7
Standard
  9
$CLAYER
  8
0
  9
$CELTYPE
  6
ByLayer
  9
$CECOLOR
 62
   256
  9
$CELTSCALE
 40
1.0
  9
$DISPSILH
 70
     0
  9
$DIMSCALE
 40
1.0
  9
$DIMASZ
 40
0.003302
  9
$DIMEXO
 40
0.001
  9
$DIMDLI
 40
3.75
  9
$DIMRND
 40
0.0
  9
$DIMDLE
 40
0.0
  9
$DIMEXE
 40
0.001
  9
$DIMTP
 40
0.0
  9
$DIMTM
 40
0.0
  9
$DIMTXT
 40
0.0035
  9
$DIMCEN
 40
2.5
  9
$DIMTSZ
 40
0.0
  9
$DIMTOL
 70
     0
  9
$DIMLIM
 70
     0
  9
$DIMTIH
 70
     1
  9
$DIMTOH
 70
     1
  9
$DIMSE1
 70
     0
  9
$DIMSE2
 70
     0
  9
$DIMTAD
 70
     1
  9
$DIMZIN
 70
     0
  9
$DIMBLK
  1

  9
$DIMASO
 70
     1
  9
$DIMSHO
 70
     1
  9
$DIMPOST
  1

  9
$DIMAPOST
  1

  9
$DIMALT
 70
     0
  9
$DIMALTD
 70
     3
  9
$DIMALTF
 40
39.3700787402
  9
$DIMLFAC
 40
50.0
  9
$DIMTOFL
 70
     1
  9
$DIMTVP
 40
0.0
  9
$DIMTIX
 70
     0
  9
$DIMSOXD
 70
     0
  9
$DIMSAH
 70
     0
  9
$DIMBLK1
  1

  9
$DIMBLK2
  1

  9
$DIMSTYLE
  2
ISO-25
  9
$DIMCLRD
 70
     0
  9
$DIMCLRE
 70
     0
  9
$DIMCLRT
 70
     0
  9
$DIMTFAC
 40
1.0
  9
$DIMGAP
 40
0.001524
  9
$DIMJUST
 70
     0
  9
$DIMSD1
 70
     0
  9
$DIMSD2
 70
     0
  9
$DIMTOLJ
 70
     0
  9
$DIMTZIN
 70
     0
  9
$DIMALTZ
 70
     0
  9
$DIMALTTZ
 70
     0
  9
$DIMUPT
 70
     0
  9
$DIMDEC
 70
     2
  9
$DIMTDEC
 70
     2
  9
$DIMALTU
 70
     2
  9
$DIMALTTD
 70
     3
  9
$DIMTXSTY
  7
Standard
  9
$DIMAUNIT
 70
     0
  9
$DIMADEC
 70
     2
  9
$DIMALTRND
 40
0.0
  9
$DIMAZIN
 70
     0
  9
$DIMDSEP
 70
    44
  9
$DIMATFIT
 70
     3
  9
$DIMFRAC
 70
     0
  9
$DIMLDRBLK
  1

  9
$DIMLUNIT
 70
     2
  9
$DIMLWD
 70
    -2
  9
$DIMLWE
 70
    -2
  9
$DIMTMOVE
 70
     0
  9
$DIMFXL
 40
1.0
  9
$DIMFXLON
 70
     0
  9
$DIMJOGANG
 40
0.7853981634
  9
$DIMTFILL
 70
     0
  9
$DIMTFILLCLR
 70
     0
  9
$DIMARCSYM
 70
     0
  9
$DIMLTYPE
  6

  9
$DIMLTEX1
  6

  9
$DIMLTEX2
  6

  9
$LUNITS
 70
     2
  9
$LUPREC
 70
     2
  9
$SKETCHINC
 40
1.0
  9
$FILLETRAD
 40
10.0
  9
$AUNITS
 70
     0
  9
$AUPREC
 70
     2
  9
$MENU
  1
.
  9
$ELEVATION
 40
0.0
  9
$PELEVATION
 40
0.0
  9
$THICKNESS
 40
0.0
  9
$LIMCHECK
 70
     0
  9
$CHAMFERA
 40
0.0
  9
$CHAMFERB
 40
0.0
  9
$CHAMFERC
 40
0.0
  9
$CHAMFERD
 40
0.0
  9
$SKPOLY
 70
     0
  9
$TDCREATE
 40
2458074.530102963
  9
$TDUCREATE
 40
2458074.488436296
  9
$TDUPDATE
 40
2458074.530103565
  9
$TDUUPDATE
 40
2458074.488436898
  9
$TDINDWG
 40
0.0000000116
  9
$TDUSRTIMER
 40
0.0000000116
  9
$USRTIMER
 70
     1
  9
$ANGBASE
 50
0.0
  9
$ANGDIR
 70
     0
  9
$PDMODE
 70
     0
  9
$PDSIZE
 40
-1.0
  9
$PLINEWID
 40
0.0
  9
$SPLFRAME
 70
     0
  9
$SPLINETYPE
 70
     6
  9
$SPLINESEGS
 70
     8
  9
$HANDSEED
  5
55D
  9
$SURFTAB1
 70
     6
  9
$SURFTAB2
 70
     6
  9
$SURFTYPE
 70
     6
  9
$SURFU
 70
     6
  9
$SURFV
 70
     6
  9
$UCSBASE
  2

  9
$UCSNAME
  2

  9
$UCSORG
 10
0.0
 20
0.0
 30
0.0
  9
$UCSXDIR
 10
1.0
 20
0.0
 30
0.0
  9
$UCSYDIR
 10
0.0
 20
1.0
 30
0.0
  9
$UCSORTHOREF
  2

  9
$UCSORTHOVIEW
 70
     0
  9
$UCSORGTOP
 10
0.0
 20
0.0
 30
0.0
  9
$UCSORGBOTTOM
 10
0.0
 20
0.0
 30
0.0
  9
$UCSORGLEFT
 10
0.0
 20
0.0
 30
0.0
  9
$UCSORGRIGHT
 10
0.0
 20
0.0
 30
0.0
  9
$UCSORGFRONT
 10
0.0
 20
0.0
 30
0.0
  9
$UCSORGBACK
 10
0.0
 20
0.0
 30
0.0
  9
$PUCSBASE
  2

  9
$PUCSNAME
  2

  9
$PUCSORG
 10
0.0
 20
0.0
 30
0.0
  9
$PUCSXDIR
 10
1.0
 20
0.0
 30
0.0
  9
$PUCSYDIR
 10
0.0
 20
1.0
 30
0.0
  9
$PUCSORTHOREF
  2

  9
$PUCSORTHOVIEW
 70
     0
  9
$PUCSORGTOP
 10
0.0
 20
0.0
 30
0.0
  9
$PUCSORGBOTTOM
 10
0.0
 20
0.0
 30
0.0
  9
$PUCSORGLEFT
 10
0.0
 20
0.0
 30
0.0
  9
$PUCSORGRIGHT
 10
0.0
 20
0.0
 30
0.0
  9
$PUCSORGFRONT
 10
0.0
 20
0.0
 30
0.0
  9
$PUCSORGBACK
 10
0.0
 20
0.0
 30
0.0
  9
$USERI1
 70
     0
  9
$USERI2
 70
     0
  9
$USERI3
 70
     0
  9
$USERI4
 70
     0
  9
$USERI5
 70
     0
  9
$USERR1
 40
0.0
  9
$USERR2
 40
0.0
  9
$USERR3
 40
0.0
  9
$USERR4
 40
0.0
  9
$USERR5
 40
0.0
  9
$WORLDVIEW
 70
     1
  9
$SHADEDGE
 70
     3
  9
$SHADEDIF
 70
    70
  9
$TILEMODE
 70
     1
  9
$MAXACTVP
 70
    64
  9
$PINSBASE
 10
0.0
 20
0.0
 30
0.0
  9
$PLIMCHECK
 70
     0
  9
$PEXTMIN
 10
1.0000000000E+20
 20
1.0000000000E+20
 30
1.0000000000E+20
  9
$PEXTMAX
 10
-1.0000000000E+20
 20
-1.0000000000E+20
 30
-1.0000000000E+20
  9
$PLIMMIN
 10
0.0
 20
0.0
  9
$PLIMMAX
 10
420.0
 20
297.0
  9
$UNITMODE
 70
     0
  9
$VISRETAIN
 70
     1
  9
$PLINEGEN
 70
     0
  9
$PSLTSCALE
 70
     1
  9
$TREEDEPTH
 70
  3020
  9
$CMLSTYLE
  2
Standard
  9
$CMLJUST
 70
     0
  9
$CMLSCALE
 40
20.0
  9
$PROXYGRAPHICS
 70
     1
  9
$MEASUREMENT
 70
     1
  9
$CELWEIGHT
370
    -1
  9
$ENDCAPS
280
     0
  9
$JOINSTYLE
280
     0
  9
$LWDISPLAY
290
     1
  9
$INSUNITS
 70
     4
  9
$HYPERLINKBASE
  1

  9
$STYLESHEET
  1

  9
$XEDIT
290
     1
  9
$CEPSNTYPE
380
     0
  9
$PSTYLEMODE
290
     1
  9
$FINGERPRINTGUID
  2
{F177A2B2-95F2-4E16-9D78-E9722E739163}
  9
$VERSIONGUID
  2
{FAEB1C32-E019-11D5-929B-00C0DF256EC4}
  9
$EXTNAMES
290
     1
  9
$PSVPSCALE
 40
0.0
  9
$OLESTARTUP
290
     0
  9
$SORTENTS
280
   127
  9
$INDEXCTL
280
     0
  9
$HIDETEXT
280
     1
  9
$XCLIPFRAME
290
     0
  9
$HALOGAP
280
     0
  9
$OBSCOLOR
 70
   257
  9
$OBSLTYPE
280
     0
  9
$INTERSECTIONDISPLAY
280
     0
  9
$INTERSECTIONCOLOR
 70
   257
  9
$DIMASSOC
280
     2
  9
$PROJECTNAME
  1

  9
$CAMERADISPLAY
290
     0
  9
$LENSLENGTH
 40
50.0
  9
$CAMERAHEIGHT
 40
0.0
  9
$STEPSPERSEC
 40
2.0
  9
$STEPSIZE
 40
6.0
  9
$3DDWFPREC
 40
2.0
  9
$PSOLWIDTH
 40
5.0
  9
$PSOLHEIGHT
 40
80.0
  9
$LOFTANG1
 40
1.5707963268
  9
$LOFTANG2
 40
1.5707963268
  9
$LOFTMAG1
 40
0.0
  9
$LOFTMAG2
 40
0.0
  9
$LOFTPARAM
 70
     7
  9
$LOFTNORMALS
280
     1
  9
$LATITUDE
 40
37.795
  9
$LONGITUDE
 40
-122.394
  9
$NORTHDIRECTION
 40
0.0
  9
$TIMEZONE
 70
 -8000
  9
$LIGHTGLYPHDISPLAY
280
     1
  9
$TILEMODELIGHTSYNCH
280
     1
  9
$CMATERIAL
347
44
  9
$SOLIDHIST
280
     0
  9
$SHOWHIST
280
     1
  9
$DWFFRAME
280
     2
  9
$DGNFRAME
280
     2
  9
$REALWORLDSCALE
290
     1
  9
$INTERFERECOLOR
 62
   256
  9
$CSHADOW
280
     0
  9
$SHADOWPLANELOCATION
 40
0.0
  0
ENDSEC
  0
SECTION
  2
CLASSES
  0
CLASS
  1
ACDBDICTIONARYWDFLT
  2
AcDbDictionaryWithDefault
  3
ObjectDBX Classes
 90
        0
 91
        4
280
     0
281
     0
  0
CLASS
  1
VISUALSTYLE
  2
AcDbVisualStyle
  3
ObjectDBX Classes
 90
     4095
 91
        4
280
     0
281
     0
  0
CLASS
  1
MATERIAL
  2
AcDbMaterial
  3
ObjectDBX Classes
 90
     1153
 91
        4
280
     0
281
     0
  0
CLASS
  1
SCALE
  2
AcDbScale
  3
ObjectDBX Classes
 90
     1153
 91
        4
280
     0
281
     0
  0
CLASS
  1
TABLESTYLE
  2
AcDbTableStyle
  3
ObjectDBX Classes
 90
     4095
 91
        4
280
     0
281
     0
  0
CLASS
  1
MLEADERSTYLE
  2
AcDbMLeaderStyle
  3
ACDB_MLEADERSTYLE_CLASS
 90
     4095
 91
        4
280
     0
281
     0
  0
CLASS
  1
SUN
  2
AcDbSun
  3
SCENEOE
 90
     1153
 91
        4
280
     0
281
     0
  0
CLASS
  1
DICTIONARYVAR
  2
AcDbDictionaryVar
  3
ObjectDBX Classes
 90
        0
 91
        4
280
     0
281
     0
  0
CLASS
  1
CELLSTYLEMAP
  2
AcDbCellStyleMap
  3
ObjectDBX Classes
 90
     1152
 91
        4
280
     0
281
     0
  0
ENDSEC
  0
SECTION
  2
TABLES
  0
TABLE
  2
VPORT
  5
8
330
0
100
AcDbSymbolTable
 70
     1
  0
VPORT
  5
29
330
8
100
AcDbSymbolTableRecord
100
AcDbViewportTableRecord
  2
*Active
 70
     0
 10
0.0
 20
0.0
 11
1.0
 21
1.0
 12
0.105
 22
0.1485
 13
0.0
 23
0.0
 14
10.0
 24
10.0
 15
10.0
 25
10.0
 16
0.0
 26
0.0
 36
1.0
 17
0.0
 27
0.0
 37
0.0
 40
0.297
 41
0.7070707071
 42
50.0
 43
0.0
 44
0.0
 50
0.0
 51
0.0
 71
     0
 72
  2000
 73
     1
 74
     3
 75
     0
 76
     0
 77
     0
 78
     0
281
     0
 65
     1
110
0.0
120
0.0
130
0.0
111
1.0
121
0.0
131
0.0
112
0.0
122
1.0
132
0.0
 79
     0
146
0.0
 60
     3
 61
     5
292
     1
282
     1
141
0.0
142
0.0
 63
   250
361
6D
  0
ENDTAB
  0
TABLE
  2
LTYPE
  5
5
330
0
100
AcDbSymbolTable
 70
     6
  0
LTYPE
  5
14
330
5
100
AcDbSymbolTableRecord
100
AcDbLinetypeTableRecord
  2
ByBlock
 70
     0
  3

 72
    65
 73
     0
 40
0.0
  0
LTYPE
  5
15
330
5
100
AcDbSymbolTableRecord
100
AcDbLinetypeTableRecord
  2
ByLayer
 70
     0
  3

 72
    65
 73
     0
 40
0.0
  0
LTYPE
  5
16
330
5
100
AcDbSymbolTableRecord
100
AcDbLinetypeTableRecord
  2
Continuous
 70
     0
  3
Solid line
 72
    65
 73
     0
 40
0.0
  0
LTYPE
  5
6E
330
5
100
AcDbSymbolTableRecord
100
AcDbLinetypeTableRecord
  2
HIDDEN
 70
     0
  3
Hidden __ __ __ __ __ __ __ __ __ __ __ __ __ __
 72
    65
 73
     2
 40
0.001905
 49
0.00127
 74
     0
 49
-0.000635
 74
     0
  0
LTYPE
  5
6F
330
5
100
AcDbSymbolTableRecord
100
AcDbLinetypeTableRecord
  2
PHANTOM
 70
     0
  3
Phantom ______  __  __  ______  __  __  ______
 72
    65
 73
     6
 40
0.0127
 49
0.00635
 74
     0
 49
-0.00127
 74
     0
 49
0.00127
 74
     0
 49
-0.00127
 74
     0
 49
0.00127
 74
     0
 49
-0.00127
 74
     0
  0
LTYPE
  5
70
330
5
100
AcDbSymbolTableRecord
100
AcDbLinetypeTableRecord
  2
CENTER
 70
     0
  3
Center ____ _ ____ _ ____ _ ____ _ ____ _ ____
 72
    65
 73
     4
 40
0.01016
 49
0.00635
 74
     0
 49
-0.00127
 74
     0
 49
0.00127
 74
     0
 49
-0.00127
 74
     0
  0
LTYPE
  5
71
330
5
100
AcDbSymbolTableRecord
100
AcDbLinetypeTableRecord
  2
CENTERX2
 70
     0
  3
Center (2x) ________  __  ________  __  _____
 72
    65
 73
     4
 40
0.02032
 49
0.0127
 74
     0
 49
-0.00254
 74
     0
 49
0.00254
 74
     0
 49
-0.00254
 74
     0
  0
LTYPE
  5
72
330
5
100
AcDbSymbolTableRecord
100
AcDbLinetypeTableRecord
  2
DOT2
 70
     0
  3
Dot (.5x) ........................................
 72
    65
 73
     2
 40
0.000635
 49
0.0
 74
     0
 49
-0.000635
 74
     0
  0
ENDTAB
  0
TABLE
  2
LAYER
  5
2
330
0
100
AcDbSymbolTable
 70
     1
  0
LAYER
  5
10
330
2
100
AcDbSymbolTableRecord
100
AcDbLayerTableRecord
  2
0
 70
     0
 62
     7
  6
Continuous
370
    -3
390
F
347
46
  0
ENDTAB
  0
TABLE
  2
STYLE
  5
3
330
0
100
AcDbSymbolTable
 70
     1
  0
STYLE
  5
11
330
3
100
AcDbSymbolTableRecord
100
AcDbTextStyleTableRecord
  2
Standard
 70
     0
 40
0.0
 41
1.0
 50
0.0
 71
     0
 42
0.0035
  3
txt
  4

  0
ENDTAB
  0
TABLE
  2
VIEW
  5
6
330
0
100
AcDbSymbolTable
 70
     0
  0
ENDTAB
  0
TABLE
  2
UCS
  5
7
330
0
100
AcDbSymbolTable
 70
     0
  0
ENDTAB
  0
TABLE
  2
APPID
  5
9
330
0
100
AcDbSymbolTable
 70
     2
  0
APPID
  5
12
330
9
100
AcDbSymbolTableRecord
100
AcDbRegAppTableRecord
  2
ACAD
 70
     0
  0
APPID
  5
557
330
9
100
AcDbSymbolTableRecord
100
AcDbRegAppTableRecord
  2
ACAD_MLEADERVER
 70
     0
  0
ENDTAB
  0
TABLE
  2
DIMSTYLE
  5
A
330
0
100
AcDbSymbolTable
 70
     1
100
AcDbDimStyleTable
  0
DIMSTYLE
105
27
330
A
100
AcDbSymbolTableRecord
100
AcDbDimStyleTableRecord
  2
ISO-25
 70
     0
 41
2.5
 42
0.625
 43
3.75
 44
1.25
 73
     0
 74
     0
 77
     1
 78
     8
140
2.5
141
2.5
143
0.0393700787
147
0.625
171
     3
172
     1
178
     0
271
     2
272
     2
274
     3
278
    44
283
     0
284
     8
340
11
  0
ENDTAB
  0
TABLE
  2
BLOCK_RECORD
  5
1
330
0
100
AcDbSymbolTable
 70
     1
  0
BLOCK_RECORD
  5
1F
330
1
100
AcDbSymbolTableRecord
100
AcDbBlockTableRecord
  2
*Model_Space
340
22
 70
     0
280
     1
281
     0
  0
BLOCK_RECORD
  5
1B
330
1
100
AcDbSymbolTableRecord
100
AcDbBlockTableRecord
  2
*Paper_Space
340
1E
 70
     0
280
     1
281
     0
  0
BLOCK_RECORD
  5
23
330
1
100
AcDbSymbolTableRecord
100
AcDbBlockTableRecord
  2
*Paper_Space0
340
26
 70
     0
280
     1
281
     0
  0
ENDTAB
  0
ENDSEC
  0
SECTION
  2
BLOCKS
  0
BLOCK
  5
20
330
1F
100
AcDbEntity
  8
0
100
AcDbBlockBegin
  2
*Model_Space
 70
     0
 10
0.0
 20
0.0
 30
0.0
  3
*Model_Space
  1

  0
ENDBLK
  5
21
330
1F
100
AcDbEntity
  8
0
100
AcDbBlockEnd
  0
BLOCK
  5
1C
330
1B
100
AcDbEntity
 67
     1
  8
0
100
AcDbBlockBegin
  2
*Paper_Space
 70
     0
 10
0.0
 20
0.0
 30
0.0
  3
*Paper_Space
  1

  0
ENDBLK
  5
1D
330
1B
100
AcDbEntity
 67
     1
  8
0
100
AcDbBlockEnd
  0
BLOCK
  5
24
330
23
100
AcDbEntity
  8
0
100
AcDbBlockBegin
  2
*Paper_Space0
 70
     0
 10
0.0
 20
0.0
 30
0.0
  3
*Paper_Space0
  1

  0
ENDBLK
  5
25
330
23
100
AcDbEntity
  8
0
100
AcDbBlockEnd
  0
ENDSEC
  0
SECTION
  2
ENTITIES
  0
LINE
  5
73
330
1F
100
AcDbEntity
  8
0
  6
Continuous
 62
     7
370
    25
100
AcDbLine
 10
0.0522307634
 20
0.16932162
 30
0.0
 11
0.0551257219
 21
0.16932162
 31
0.0
  0
LINE
  5
74
330
1F
100
AcDbEntity
  8
0
  6
Continuous
 62
     7
370
    25
100
AcDbLine
 10
0.0565711416
 20
0.16932162
 30
0.0
 11
0.0576041162
 21
0.16932162
 31
0.0
  0
LINE
  5
75
330
1F
100
AcDbEntity
  8
0
  6
Continuous
 62
     7
370
    25
100
AcDbLine
 10
0.0576041162
 20
0.17109962
 30
0.0
 11
0.0565711416
 21
0.17109962
 31
0.0
  0
LINE
  5
76
330
1F
100
AcDbEntity
  8
0
  6
Continuous
 62
     7
370
    25
100
AcDbLine
 10
0.0551257219
 20
0.17109962
 30
0.0
 11
0.0522307634
 21
0.17109962
 31
0.0
  0
LINE
  5
77
330
1F
100
AcDbEntity
  8
0
  6
Continuous
 62
     7
370
    25
100
AcDbLine
 10
0.0548846053
 20
0.17021062
 30
0.0
 11
0.0725624639
 21
0.1795288991
 31
0.0
  0
LINE
  5
78
330
1F
100
AcDbEntity
  8
0
  6
Continuous
 62
     7
370
    25
100
AcDbLine
 10
0.0722481607
 20
0.1801251285
 30
0.0
 11
0.0540756546
 21
0.1705461129
 31
0.0
  0
LINE
  5
79
330
1F
100
AcDbEntity
  8
0
  6
Continuous
 62
     7
370
    25
100
AcDbLine
 10
0.0540785138
 20
0.17054762
 30
0.0
 11
0.0535982046
 21
0.17054762
 31
0.0
  0
LINE
  5
7A
330
1F
100
AcDbEntity
  8
0
  6
Continuous
 62
     7
370
    25
100
AcDbLine
 10
0.0535982875
 20
0.16987362
 30
0.0
 11
0.0540785138
 21
0.16987362
 31
0.0
  0
LINE
  5
7B
330
1F
100
AcDbEntity
  8
0
  6
Continuous
 62
     7
370
    25
100
AcDbLine
 10
0.0725624639
 20
0.1608923409
 30
0.0
 11
0.0548846053
 21
0.17021062
 31
0.0
  0
LINE
  5
7C
330
1F
100
AcDbEntity
  8
0
  6
Continuous
 62
     7
370
    25
100
AcDbLine
 10
0.0540756546
 20
0.1698751271
 30
0.0
 11
0.0722479954
 21
0.1602961987
 31
0.0
  0
LINE
  5
7D
330
1F
100
AcDbEntity
  8
0
  6
Continuous
 62
     7
370
    25
100
AcDbLine
 10
0.056997047
 20
0.17054762
 30
0.0
 11
0.0566794763
 21
0.17054762
 31
0.0
  0
LINE
  5
7E
330
1F
100
AcDbEntity
  8
0
  6
Continuous
 62
     7
370
    25
100
AcDbLine
 10
0.0566795592
 20
0.16987362
 30
0.0
 11
0.056997047
 21
0.16987362
 31
0.0
  0
LINE
  5
7F
330
1F
100
AcDbEntity
  8
0
  6
Continuous
 62
     7
370
    25
100
AcDbLine
 10
0.0522307634
 20
0.17109562
 30
0.0
 11
0.0522223172
 21
0.17109562
 31
0.0
  0
LINE
  5
80
330
1F
100
AcDbEntity
  8
0
  6
Continuous
 62
     7
370
    25
100
AcDbLine
 10
0.0522223172
 20
0.16932562
 30
0.0
 11
0.0522307634
 21
0.16932562
 31
0.0
  0
LINE
  5
81
330
1F
100
AcDbEntity
  8
0
  6
Continuous
 62
     7
370
    25
100
AcDbLine
 10
0.0960700579
 20
0.17092362
 30
0.0
 11
0.1004713577
 21
0.17092362
 31
0.0
  0
LINE
  5
82
330
1F
100
AcDbEntity
  8
0
  6
Continuous
 62
     7
370
    25
100
AcDbLine
 10
0.1008053577
 20
0.17092362
 30
0.0
 11
0.1054713577
 21
0.17092362
 31
0.0
  0
LINE
  5
83
330
1F
100
AcDbEntity
  8
0
  6
Continuous
 62
     7
370
    25
100
AcDbLine
 10
0.1058053577
 20
0.17092362
 30
0.0
 11
0.1104713577
 21
0.17092362
 31
0.0
  0
LINE
  5
84
330
1F
100
AcDbEntity
  8
0
  6
Continuous
 62
     7
370
    25
100
AcDbLine
 10
0.1108053577
 20
0.17092362
 30
0.0
 11
0.1154713577
 21
0.17092362
 31
0.0
  0
LINE
  5
85
330
1F
100
AcDbEntity
  8
0
  6
Continuous
 62
     7
370
    25
100
AcDbLine
 10
0.1158053577
 20
0.17092362
 30
0.0
 11
0.1204713577
 21
0.17092362
 31
0.0
  0
LINE
  5
86
330
1F
100
AcDbEntity
  8
0
  6
Continuous
 62
     7
370
    25
100
AcDbLine
 10
0.1208053577
 20
0.17092362
 30
0.0
 11
0.1254713577
 21
0.17092362
 31
0.0
  0
LINE
  5
87
330
1F
100
AcDbEntity
  8
0
  6
Continuous
 62
     7
370
    25
100
AcDbLine
 10
0.1258053577
 20
0.17092362
 30
0.0
 11
0.1301960579
 21
0.17092362
 31
0.0
  0
LINE
  5
88
330
1F
100
AcDbEntity
  8
0
  6
Continuous
 62
     7
370
    25
100
AcDbLine
 10
0.1301960579
 20
0.17125762
 30
0.0
 11
0.1258053577
 21
0.17125762
 31
0.0
  0
LINE
  5
89
330
1F
100
AcDbEntity
  8
0
  6
Continuous
 62
     7
370
    25
100
AcDbLine
 10
0.1254713577
 20
0.17125762
 30
0.0
 11
0.1208053577
 21
0.17125762
 31
0.0
  0
LINE
  5
8A
330
1F
100
AcDbEntity
  8
0
  6
Continuous
 62
     7
370
    25
100
AcDbLine
 10
0.1204713577
 20
0.17125762
 30
0.0
 11
0.1158053577
 21
0.17125762
 31
0.0
  0
LINE
  5
8B
330
1F
100
AcDbEntity
  8
0
  6
Continuous
 62
     7
370
    25
100
AcDbLine
 10
0.1154713577
 20
0.17125762
 30
0.0
 11
0.1108053577
 21
0.17125762
 31
0.0
  0
LINE
  5
8C
330
1F
100
AcDbEntity
  8
0
  6
Continuous
 62
     7
370
    25
100
AcDbLine
 10
0.1104713577
 20
0.17125762
 30
0.0
 11
0.1058053577
 21
0.17125762
 31
0.0
  0
LINE
  5
8D
330
1F
100
AcDbEntity
  8
0
  6
Continuous
 62
     7
370
    25
100
AcDbLine
 10
0.1054713577
 20
0.17125762
 30
0.0
 11
0.1008053577
 21
0.17125762
 31
0.0
  0
LINE
  5
8E
330
1F
100
AcDbEntity
  8
0
  6
Continuous
 62
     7
370
    25
100
AcDbLine
 10
0.1004713577
 20
0.17125762
 30
0.0
 11
0.0960700579
 21
0.17125762
 31
0.0
  0
LINE
  5
8F
330
1F
100
AcDbEntity
  8
0
  6
Continuous
 62
     7
370
    25
100
AcDbLine
 10
0.0960700579
 20
0.17268362
 30
0.0
 11
0.1004713577
 21
0.17268362
 31
0.0
  0
LINE
  5
90
330
1F
100
AcDbEntity
  8
0
  6
Continuous
 62
     7
370
    25
100
AcDbLine
 10
0.1008053577
 20
0.17268362
 30
0.0
 11
0.1054713577
 21
0.17268362
 31
0.0
  0
LINE
  5
91
330
1F
100
AcDbEntity
  8
0
  6
Continuous
 62
     7
370
    25
100
AcDbLine
 10
0.1058053577
 20
0.17268362
 30
0.0
 11
0.1104713577
 21
0.17268362
 31
0.0
  0
LINE
  5
92
330
1F
100
AcDbEntity
  8
0
  6
Continuous
 62
     7
370
    25
100
AcDbLine
 10
0.1108053577
 20
0.17268362
 30
0.0
 11
0.1154713577
 21
0.17268362
 31
0.0
  0
LINE
  5
93
330
1F
100
AcDbEntity
  8
0
  6
Continuous
 62
     7
370
    25
100
AcDbLine
 10
0.1158053577
 20
0.17268362
 30
0.0
 11
0.1204713577
 21
0.17268362
 31
0.0
  0
LINE
  5
94
330
1F
100
AcDbEntity
  8
0
  6
Continuous
 62
     7
370
    25
100
AcDbLine
 10
0.1208053577
 20
0.17268362
 30
0.0
 11
0.1254713577
 21
0.17268362
 31
0.0
  0
LINE
  5
95
330
1F
100
AcDbEntity
  8
0
  6
Continuous
 62
     7
370
    25
100
AcDbLine
 10
0.1258053577
 20
0.17268362
 30
0.0
 11
0.1301960579
 21
0.17268362
 31
0.0
  0
LINE
  5
96
330
1F
100
AcDbEntity
  8
0
  6
Continuous
 62
     7
370
    25
100
AcDbLine
 10
0.1301960579
 20
0.17301762
 30
0.0
 11
0.1258053577
 21
0.17301762
 31
0.0
  0
LINE
  5
97
330
1F
100
AcDbEntity
  8
0
  6
Continuous
 62
     7
370
    25
100
AcDbLine
 10
0.1254713577
 20
0.17301762
 30
0.0
 11
0.1208053577
 21
0.17301762
 31
0.0
  0
LINE
  5
98
330
1F
100
AcDbEntity
  8
0
  6
Continuous
 62
     7
370
    25
100
AcDbLine
 10
0.1204713577
 20
0.17301762
 30
0.0
 11
0.1158053577
 21
0.17301762
 31
0.0
  0
LINE
  5
99
330
1F
100
AcDbEntity
  8
0
  6
Continuous
 62
     7
370
    25
100
AcDbLine
 10
0.1154713577
 20
0.17301762
 30
0.0
 11
0.1108053577
 21
0.17301762
 31
0.0
  0
LINE
  5
9A
330
1F
100
AcDbEntity
  8
0
  6
Continuous
 62
     7
370
    25
100
AcDbLine
 10
0.1104713577
 20
0.17301762
 30
0.0
 11
0.1058053577
 21
0.17301762
 31
0.0
  0
LINE
  5
9B
330
1F
100
AcDbEntity
  8
0
  6
Continuous
 62
     7
370
    25
100
AcDbLine
 10
0.1054713577
 20
0.17301762
 30
0.0
 11
0.1008053577
 21
0.17301762
 31
0.0
  0
LINE
  5
9C
330
1F
100
AcDbEntity
  8
0
  6
Continuous
 62
     7
370
    25
100
AcDbLine
 10
0.1004713577
 20
0.17301762
 30
0.0
 11
0.0960700579
 21
0.17301762
 31
0.0
  0
LINE
  5
9D
330
1F
100
AcDbEntity
  8
0
  6
Continuous
 62
     7
370
    25
100
AcDbLine
 10
0.0960700579
 20
0.16740362
 30
0.0
 11
0.1004713577
 21
0.16740362
 31
0.0
  0
LINE
  5
9E
330
1F
100
AcDbEntity
  8
0
  6
Continuous
 62
     7
370
    25
100
AcDbLine
 10
0.1008053577
 20
0.16740362
 30
0.0
 11
0.1054713577
 21
0.16740362
 31
0.0
  0
LINE
  5
9F
330
1F
100
AcDbEntity
  8
0
  6
Continuous
 62
     7
370
    25
100
AcDbLine
 10
0.1058053577
 20
0.16740362
 30
0.0
 11
0.1104713577
 21
0.16740362
 31
0.0
  0
LINE
  5
A0
330
1F
100
AcDbEntity
  8
0
  6
Continuous
 62
     7
370
    25
100
AcDbLine
 10
0.1108053577
 20
0.16740362
 30
0.0
 11
0.1154713577
 21
0.16740362
 31
0.0
  0
LINE
  5
A1
330
1F
100
AcDbEntity
  8
0
  6
Continuous
 62
     7
370
    25
100
AcDbLine
 10
0.1158053577
 20
0.16740362
 30
0.0
 11
0.1204713577
 21
0.16740362
 31
0.0
  0
LINE
  5
A2
330
1F
100
AcDbEntity
  8
0
  6
Continuous
 62
     7
370
    25
100
AcDbLine
 10
0.1208053577
 20
0.16740362
 30
0.0
 11
0.1254713577
 21
0.16740362
 31
0.0
  0
LINE
  5
A3
330
1F
100
AcDbEntity
  8
0
  6
Continuous
 62
     7
370
    25
100
AcDbLine
 10
0.1258053577
 20
0.16740362
 30
0.0
 11
0.1301960579
 21
0.16740362
 31
0.0
  0
LINE
  5
A4
330
1F
100
AcDbEntity
  8
0
  6
Continuous
 62
     7
370
    25
100
AcDbLine
 10
0.1301960579
 20
0.16773762
 30
0.0
 11
0.1258053577
 21
0.16773762
 31
0.0
  0
LINE
  5
A5
330
1F
100
AcDbEntity
  8
0
  6
Continuous
 62
     7
370
    25
100
AcDbLine
 10
0.1254713577
 20
0.16773762
 30
0.0
 11
0.1208053577
 21
0.16773762
 31
0.0
  0
LINE
  5
A6
330
1F
100
AcDbEntity
  8
0
  6
Continuous
 62
     7
370
    25
100
AcDbLine
 10
0.1204713577
 20
0.16773762
 30
0.0
 11
0.1158053577
 21
0.16773762
 31
0.0
  0
LINE
  5
A7
330
1F
100
AcDbEntity
  8
0
  6
Continuous
 62
     7
370
    25
100
AcDbLine
 10
0.1154713577
 20
0.16773762
 30
0.0
 11
0.1108053577
 21
0.16773762
 31
0.0
  0
LINE
  5
A8
330
1F
100
AcDbEntity
  8
0
  6
Continuous
 62
     7
370
    25
100
AcDbLine
 10
0.1104713577
 20
0.16773762
 30
0.0
 11
0.1058053577
 21
0.16773762
 31
0.0
  0
LINE
  5
A9
330
1F
100
AcDbEntity
  8
0
  6
Continuous
 62
     7
370
    25
100
AcDbLine
 10
0.1054713577
 20
0.16773762
 30
0.0
 11
0.1008053577
 21
0.16773762
 31
0.0
  0
LINE
  5
AA
330
1F
100
AcDbEntity
  8
0
  6
Continuous
 62
     7
370
    25
100
AcDbLine
 10
0.1004713577
 20
0.16773762
 30
0.0
 11
0.0960700579
 21
0.16773762
 31
0.0
  0
LINE
  5
AB
330
1F
100
AcDbEntity
  8
0
  6
Continuous
 62
     7
370
    25
100
AcDbLine
 10
0.0960700579
 20
0.17796362
 30
0.0
 11
0.0971409853
 21
0.17796362
 31
0.0
  0
LINE
  5
AC
330
1F
100
AcDbEntity
  8
0
  6
Continuous
 62
     7
370
    25
100
AcDbLine
 10
0.097423828
 20
0.17796362
 30
0.0
 11
0.1004713577
 21
0.17796362
 31
0.0
  0
LINE
  5
AD
330
1F
100
AcDbEntity
  8
0
  6
Continuous
 62
     7
370
    25
100
AcDbLine
 10
0.1008053577
 20
0.17796362
 30
0.0
 11
0.1054713577
 21
0.17796362
 31
0.0
  0
LINE
  5
AE
330
1F
100
AcDbEntity
  8
0
  6
Continuous
 62
     7
370
    25
100
AcDbLine
 10
0.1058053577
 20
0.17796362
 30
0.0
 11
0.1104713577
 21
0.17796362
 31
0.0
  0
LINE
  5
AF
330
1F
100
AcDbEntity
  8
0
  6
Continuous
 62
     7
370
    25
100
AcDbLine
 10
0.1108053577
 20
0.17796362
 30
0.0
 11
0.1154713577
 21
0.17796362
 31
0.0
  0
LINE
  5
B0
330
1F
100
AcDbEntity
  8
0
  6
Continuous
 62
     7
370
    25
100
AcDbLine
 10
0.1158053577
 20
0.17796362
 30
0.0
 11
0.1204713577
 21
0.17796362
 31
0.0
  0
LINE
  5
B1
330
1F
100
AcDbEntity
  8
0
  6
Continuous
 62
     7
370
    25
100
AcDbLine
 10
0.1208053577
 20
0.17796362
 30
0.0
 11
0.1254713577
 21
0.17796362
 31
0.0
  0
LINE
  5
B2
330
1F
100
AcDbEntity
  8
0
  6
Continuous
 62
     7
370
    25
100
AcDbLine
 10
0.1258053577
 20
0.17796362
 30
0.0
 11
0.1301960579
 21
0.17796362
 31
0.0
  0
LINE
  5
B3
330
1F
100
AcDbEntity
  8
0
  6
Continuous
 62
     7
370
    25
100
AcDbLine
 10
0.1301960579
 20
0.17829762
 30
0.0
 11
0.1258053577
 21
0.17829762
 31
0.0
  0
LINE
  5
B4
330
1F
100
AcDbEntity
  8
0
  6
Continuous
 62
     7
370
    25
100
AcDbLine
 10
0.1254713577
 20
0.17829762
 30
0.0
 11
0.1208053577
 21
0.17829762
 31
0.0
  0
LINE
  5
B5
330
1F
100
AcDbEntity
  8
0
  6
Continuous
 62
     7
370
    25
100
AcDbLine
 10
0.1204713577
 20
0.17829762
 30
0.0
 11
0.1158053577
 21
0.17829762
 31
0.0
  0
LINE
  5
B6
330
1F
100
AcDbEntity
  8
0
  6
Continuous
 62
     7
370
    25
100
AcDbLine
 10
0.1154713577
 20
0.17829762
 30
0.0
 11
0.1108053577
 21
0.17829762
 31
0.0
  0
LINE
  5
B7
330
1F
100
AcDbEntity
  8
0
  6
Continuous
 62
     7
370
    25
100
AcDbLine
 10
0.1104713577
 20
0.17829762
 30
0.0
 11
0.1058053577
 21
0.17829762
 31
0.0
  0
LINE
  5
B8
330
1F
100
AcDbEntity
  8
0
  6
Continuous
 62
     7
370
    25
100
AcDbLine
 10
0.1054713577
 20
0.17829762
 30
0.0
 11
0.1008053577
 21
0.17829762
 31
0.0
  0
LINE
  5
B9
330
1F
100
AcDbEntity
  8
0
  6
Continuous
 62
     7
370
    25
100
AcDbLine
 10
0.1004713577
 20
0.17829762
 30
0.0
 11
0.097089828
 21
0.17829762
 31
0.0
  0
LINE
  5
BA
330
1F
100
AcDbEntity
  8
0
  6
Continuous
 62
     7
370
    25
100
AcDbLine
 10
0.0968069853
 20
0.17829762
 30
0.0
 11
0.0960700579
 21
0.17829762
 31
0.0
  0
LINE
  5
BB
330
1F
100
AcDbEntity
  8
0
  6
Continuous
 62
     7
370
    25
100
AcDbLine
 10
0.0960700579
 20
0.17620362
 30
0.0
 11
0.1004713577
 21
0.17620362
 31
0.0
  0
LINE
  5
BC
330
1F
100
AcDbEntity
  8
0
  6
Continuous
 62
     7
370
    25
100
AcDbLine
 10
0.1008053577
 20
0.17620362
 30
0.0
 11
0.1054713577
 21
0.17620362
 31
0.0
  0
LINE
  5
BD
330
1F
100
AcDbEntity
  8
0
  6
Continuous
 62
     7
370
    25
100
AcDbLine
 10
0.1058053577
 20
0.17620362
 30
0.0
 11
0.1104713577
 21
0.17620362
 31
0.0
  0
LINE
  5
BE
330
1F
100
AcDbEntity
  8
0
  6
Continuous
 62
     7
370
    25
100
AcDbLine
 10
0.1108053577
 20
0.17620362
 30
0.0
 11
0.1154713577
 21
0.17620362
 31
0.0
  0
LINE
  5
BF
330
1F
100
AcDbEntity
  8
0
  6
Continuous
 62
     7
370
    25
100
AcDbLine
 10
0.1158053577
 20
0.17620362
 30
0.0
 11
0.1204713577
 21
0.17620362
 31
0.0
  0
LINE
  5
C0
330
1F
100
AcDbEntity
  8
0
  6
Continuous
 62
     7
370
    25
100
AcDbLine
 10
0.1208053577
 20
0.17620362
 30
0.0
 11
0.1254713577
 21
0.17620362
 31
0.0
  0
LINE
  5
C1
330
1F
100
AcDbEntity
  8
0
  6
Continuous
 62
     7
370
    25
100
AcDbLine
 10
0.1258053577
 20
0.17620362
 30
0.0
 11
0.1301960579
 21
0.17620362
 31
0.0
  0
LINE
  5
C2
330
1F
100
AcDbEntity
  8
0
  6
Continuous
 62
     7
370
    25
100
AcDbLine
 10
0.1301960579
 20
0.17653762
 30
0.0
 11
0.1258053577
 21
0.17653762
 31
0.0
  0
LINE
  5
C3
330
1F
100
AcDbEntity
  8
0
  6
Continuous
 62
     7
370
    25
100
AcDbLine
 10
0.1254713577
 20
0.17653762
 30
0.0
 11
0.1208053577
 21
0.17653762
 31
0.0
  0
LINE
  5
C4
330
1F
100
AcDbEntity
  8
0
  6
Continuous
 62
     7
370
    25
100
AcDbLine
 10
0.1204713577
 20
0.17653762
 30
0.0
 11
0.1158053577
 21
0.17653762
 31
0.0
  0
LINE
  5
C5
330
1F
100
AcDbEntity
  8
0
  6
Continuous
 62
     7
370
    25
100
AcDbLine
 10
0.1154713577
 20
0.17653762
 30
0.0
 11
0.1108053577
 21
0.17653762
 31
0.0
  0
LINE
  5
C6
330
1F
100
AcDbEntity
  8
0
  6
Continuous
 62
     7
370
    25
100
AcDbLine
 10
0.1104713577
 20
0.17653762
 30
0.0
 11
0.1058053577
 21
0.17653762
 31
0.0
  0
LINE
  5
C7
330
1F
100
AcDbEntity
  8
0
  6
Continuous
 62
     7
370
    25
100
AcDbLine
 10
0.1054713577
 20
0.17653762
 30
0.0
 11
0.1008053577
 21
0.17653762
 31
0.0
  0
LINE
  5
C8
330
1F
100
AcDbEntity
  8
0
  6
Continuous
 62
     7
370
    25
100
AcDbLine
 10
0.1004713577
 20
0.17653762
 30
0.0
 11
0.098849828
 21
0.17653762
 31
0.0
  0
LINE
  5
C9
330
1F
100
AcDbEntity
  8
0
  6
Continuous
 62
     7
370
    25
100
AcDbLine
 10
0.0985669853
 20
0.17653762
 30
0.0
 11
0.0960700579
 21
0.17653762
 31
0.0
  0
LINE
  5
CA
330
1F
100
AcDbEntity
  8
0
  6
Continuous
 62
     7
370
    25
100
AcDbLine
 10
0.0960700579
 20
0.17444362
 30
0.0
 11
0.1004713577
 21
0.17444362
 31
0.0
  0
LINE
  5
CB
330
1F
100
AcDbEntity
  8
0
  6
Continuous
 62
     7
370
    25
100
AcDbLine
 10
0.1008053577
 20
0.17444362
 30
0.0
 11
0.1054713577
 21
0.17444362
 31
0.0
  0
LINE
  5
CC
330
1F
100
AcDbEntity
  8
0
  6
Continuous
 62
     7
370
    25
100
AcDbLine
 10
0.1058053577
 20
0.17444362
 30
0.0
 11
0.1104713577
 21
0.17444362
 31
0.0
  0
LINE
  5
CD
330
1F
100
AcDbEntity
  8
0
  6
Continuous
 62
     7
370
    25
100
AcDbLine
 10
0.1108053577
 20
0.17444362
 30
0.0
 11
0.1154713577
 21
0.17444362
 31
0.0
  0
LINE
  5
CE
330
1F
100
AcDbEntity
  8
0
  6
Continuous
 62
     7
370
    25
100
AcDbLine
 10
0.1158053577
 20
0.17444362
 30
0.0
 11
0.1204713577
 21
0.17444362
 31
0.0
  0
LINE
  5
CF
330
1F
100
AcDbEntity
  8
0
  6
Continuous
 62
     7
370
    25
100
AcDbLine
 10
0.1208053577
 20
0.17444362
 30
0.0
 11
0.1254713577
 21
0.17444362
 31
0.0
  0
LINE
  5
D0
330
1F
100
AcDbEntity
  8
0
  6
Continuous
 62
     7
370
    25
100
AcDbLine
 10
0.1258053577
 20
0.17444362
 30
0.0
 11
0.1301960579
 21
0.17444362
 31
0.0
  0
LINE
  5
D1
330
1F
100
AcDbEntity
  8
0
  6
Continuous
 62
     7
370
    25
100
AcDbLine
 10
0.1301960579
 20
0.17477762
 30
0.0
 11
0.1258053577
 21
0.17477762
 31
0.0
  0
LINE
  5
D2
330
1F
100
AcDbEntity
  8
0
  6
Continuous
 62
     7
370
    25
100
AcDbLine
 10
0.1254713577
 20
0.17477762
 30
0.0
 11
0.1208053577
 21
0.17477762
 31
0.0
  0
LINE
  5
D3
330
1F
100
AcDbEntity
  8
0
  6
Continuous
 62
     7
370
    25
100
AcDbLine
 10
0.1204713577
 20
0.17477762
 30
0.0
 11
0.1158053577
 21
0.17477762
 31
0.0
  0
LINE
  5
D4
330
1F
100
AcDbEntity
  8
0
  6
Continuous
 62
     7
370
    25
100
AcDbLine
 10
0.1154713577
 20
0.17477762
 30
0.0
 11
0.1108053577
 21
0.17477762
 31
0.0
  0
LINE
  5
D5
330
1F
100
AcDbEntity
  8
0
  6
Continuous
 62
     7
370
    25
100
AcDbLine
 10
0.1104713577
 20
0.17477762
 30
0.0
 11
0.1058053577
 21
0.17477762
 31
0.0
  0
LINE
  5
D6
330
1F
100
AcDbEntity
  8
0
  6
Continuous
 62
     7
370
    25
100
AcDbLine
 10
0.1054713577
 20
0.17477762
 30
0.0
 11
0.1008053577
 21
0.17477762
 31
0.0
  0
LINE
  5
D7
330
1F
100
AcDbEntity
  8
0
  6
Continuous
 62
     7
370
    25
100
AcDbLine
 10
0.1004713577
 20
0.17477762
 30
0.0
 11
0.0960700579
 21
0.17477762
 31
0.0
  0
LINE
  5
D8
330
1F
100
AcDbEntity
  8
0
  6
Continuous
 62
     7
370
    25
100
AcDbLine
 10
0.0960700579
 20
0.16564362
 30
0.0
 11
0.1004713577
 21
0.16564362
 31
0.0
  0
LINE
  5
D9
330
1F
100
AcDbEntity
  8
0
  6
Continuous
 62
     7
370
    25
100
AcDbLine
 10
0.1008053577
 20
0.16564362
 30
0.0
 11
0.1054713577
 21
0.16564362
 31
0.0
  0
LINE
  5
DA
330
1F
100
AcDbEntity
  8
0
  6
Continuous
 62
     7
370
    25
100
AcDbLine
 10
0.1058053577
 20
0.16564362
 30
0.0
 11
0.1104713577
 21
0.16564362
 31
0.0
  0
LINE
  5
DB
330
1F
100
AcDbEntity
  8
0
  6
Continuous
 62
     7
370
    25
100
AcDbLine
 10
0.1108053577
 20
0.16564362
 30
0.0
 11
0.1154713577
 21
0.16564362
 31
0.0
  0
LINE
  5
DC
330
1F
100
AcDbEntity
  8
0
  6
Continuous
 62
     7
370
    25
100
AcDbLine
 10
0.1158053577
 20
0.16564362
 30
0.0
 11
0.1204713577
 21
0.16564362
 31
0.0
  0
LINE
  5
DD
330
1F
100
AcDbEntity
  8
0
  6
Continuous
 62
     7
370
    25
100
AcDbLine
 10
0.1208053577
 20
0.16564362
 30
0.0
 11
0.1254713577
 21
0.16564362
 31
0.0
  0
LINE
  5
DE
330
1F
100
AcDbEntity
  8
0
  6
Continuous
 62
     7
370
    25
100
AcDbLine
 10
0.1258053577
 20
0.16564362
 30
0.0
 11
0.1301960579
 21
0.16564362
 31
0.0
  0
LINE
  5
DF
330
1F
100
AcDbEntity
  8
0
  6
Continuous
 62
     7
370
    25
100
AcDbLine
 10
0.1301960579
 20
0.16597762
 30
0.0
 11
0.1258053577
 21
0.16597762
 31
0.0
  0
LINE
  5
E0
330
1F
100
AcDbEntity
  8
0
  6
Continuous
 62
     7
370
    25
100
AcDbLine
 10
0.1254713577
 20
0.16597762
 30
0.0
 11
0.1208053577
 21
0.16597762
 31
0.0
  0
LINE
  5
E1
330
1F
100
AcDbEntity
  8
0
  6
Continuous
 62
     7
370
    25
100
AcDbLine
 10
0.1204713577
 20
0.16597762
 30
0.0
 11
0.1158053577
 21
0.16597762
 31
0.0
  0
LINE
  5
E2
330
1F
100
AcDbEntity
  8
0
  6
Continuous
 62
     7
370
    25
100
AcDbLine
 10
0.1154713577
 20
0.16597762
 30
0.0
 11
0.1108053577
 21
0.16597762
 31
0.0
  0
LINE
  5
E3
330
1F
100
AcDbEntity
  8
0
  6
Continuous
 62
     7
370
    25
100
AcDbLine
 10
0.1104713577
 20
0.16597762
 30
0.0
 11
0.1058053577
 21
0.16597762
 31
0.0
  0
LINE
  5
E4
330
1F
100
AcDbEntity
  8
0
  6
Continuous
 62
     7
370
    25
100
AcDbLine
 10
0.1054713577
 20
0.16597762
 30
0.0
 11
0.1008053577
 21
0.16597762
 31
0.0
  0
LINE
  5
E5
330
1F
100
AcDbEntity
  8
0
  6
Continuous
 62
     7
370
    25
100
AcDbLine
 10
0.1004713577
 20
0.16597762
 30
0.0
 11
0.0960700579
 21
0.16597762
 31
0.0
  0
LINE
  5
E6
330
1F
100
AcDbEntity
  8
0
  6
Continuous
 62
     7
370
    25
100
AcDbLine
 10
0.0960700579
 20
0.16388362
 30
0.0
 11
0.1004713577
 21
0.16388362
 31
0.0
  0
LINE
  5
E7
330
1F
100
AcDbEntity
  8
0
  6
Continuous
 62
     7
370
    25
100
AcDbLine
 10
0.1008053577
 20
0.16388362
 30
0.0
 11
0.1054713577
 21
0.16388362
 31
0.0
  0
LINE
  5
E8
330
1F
100
AcDbEntity
  8
0
  6
Continuous
 62
     7
370
    25
100
AcDbLine
 10
0.1058053577
 20
0.16388362
 30
0.0
 11
0.1104713577
 21
0.16388362
 31
0.0
  0
LINE
  5
E9
330
1F
100
AcDbEntity
  8
0
  6
Continuous
 62
     7
370
    25
100
AcDbLine
 10
0.1108053577
 20
0.16388362
 30
0.0
 11
0.1154713577
 21
0.16388362
 31
0.0
  0
LINE
  5
EA
330
1F
100
AcDbEntity
  8
0
  6
Continuous
 62
     7
370
    25
100
AcDbLine
 10
0.1158053577
 20
0.16388362
 30
0.0
 11
0.1204713577
 21
0.16388362
 31
0.0
  0
LINE
  5
EB
330
1F
100
AcDbEntity
  8
0
  6
Continuous
 62
     7
370
    25
100
AcDbLine
 10
0.1208053577
 20
0.16388362
 30
0.0
 11
0.1254713577
 21
0.16388362
 31
0.0
  0
LINE
  5
EC
330
1F
100
AcDbEntity
  8
0
  6
Continuous
 62
     7
370
    25
100
AcDbLine
 10
0.1258053577
 20
0.16388362
 30
0.0
 11
0.1301960579
 21
0.16388362
 31
0.0
  0
LINE
  5
ED
330
1F
100
AcDbEntity
  8
0
  6
Continuous
 62
     7
370
    25
100
AcDbLine
 10
0.1301960579
 20
0.16421762
 30
0.0
 11
0.1258053577
 21
0.16421762
 31
0.0
  0
LINE
  5
EE
330
1F
100
AcDbEntity
  8
0
  6
Continuous
 62
     7
370
    25
100
AcDbLine
 10
0.1254713577
 20
0.16421762
 30
0.0
 11
0.1208053577
 21
0.16421762
 31
0.0
  0
LINE
  5
EF
330
1F
100
AcDbEntity
  8
0
  6
Continuous
 62
     7
370
    25
100
AcDbLine
 10
0.1204713577
 20
0.16421762
 30
0.0
 11
0.1158053577
 21
0.16421762
 31
0.0
  0
LINE
  5
F0
330
1F
100
AcDbEntity
  8
0
  6
Continuous
 62
     7
370
    25
100
AcDbLine
 10
0.1154713577
 20
0.16421762
 30
0.0
 11
0.1108053577
 21
0.16421762
 31
0.0
  0
LINE
  5
F1
330
1F
100
AcDbEntity
  8
0
  6
Continuous
 62
     7
370
    25
100
AcDbLine
 10
0.1104713577
 20
0.16421762
 30
0.0
 11
0.1058053577
 21
0.16421762
 31
0.0
  0
LINE
  5
F2
330
1F
100
AcDbEntity
  8
0
  6
Continuous
 62
     7
370
    25
100
AcDbLine
 10
0.1054713577
 20
0.16421762
 30
0.0
 11
0.1008053577
 21
0.16421762
 31
0.0
  0
LINE
  5
F3
330
1F
100
AcDbEntity
  8
0
  6
Continuous
 62
     7
370
    25
100
AcDbLine
 10
0.1004713577
 20
0.16421762
 30
0.0
 11
0.0960700579
 21
0.16421762
 31
0.0
  0
LINE
  5
F4
330
1F
100
AcDbEntity
  8
0
  6
Continuous
 62
     7
370
    25
100
AcDbLine
 10
0.0960700579
 20
0.16212362
 30
0.0
 11
0.1004713577
 21
0.16212362
 31
0.0
  0
LINE
  5
F5
330
1F
100
AcDbEntity
  8
0
  6
Continuous
 62
     7
370
    25
100
AcDbLine
 10
0.1008053577
 20
0.16212362
 30
0.0
 11
0.1054713577
 21
0.16212362
 31
0.0
  0
LINE
  5
F6
330
1F
100
AcDbEntity
  8
0
  6
Continuous
 62
     7
370
    25
100
AcDbLine
 10
0.1058053577
 20
0.16212362
 30
0.0
 11
0.1104713577
 21
0.16212362
 31
0.0
  0
LINE
  5
F7
330
1F
100
AcDbEntity
  8
0
  6
Continuous
 62
     7
370
    25
100
AcDbLine
 10
0.1108053577
 20
0.16212362
 30
0.0
 11
0.1154713577
 21
0.16212362
 31
0.0
  0
LINE
  5
F8
330
1F
100
AcDbEntity
  8
0
  6
Continuous
 62
     7
370
    25
100
AcDbLine
 10
0.1158053577
 20
0.16212362
 30
0.0
 11
0.1204713577
 21
0.16212362
 31
0.0
  0
LINE
  5
F9
330
1F
100
AcDbEntity
  8
0
  6
Continuous
 62
     7
370
    25
100
AcDbLine
 10
0.1208053577
 20
0.16212362
 30
0.0
 11
0.1254713577
 21
0.16212362
 31
0.0
  0
LINE
  5
FA
330
1F
100
AcDbEntity
  8
0
  6
Continuous
 62
     7
370
    25
100
AcDbLine
 10
0.1258053577
 20
0.16212362
 30
0.0
 11
0.1301960579
 21
0.16212362
 31
0.0
  0
LINE
  5
FB
330
1F
100
AcDbEntity
  8
0
  6
Continuous
 62
     7
370
    25
100
AcDbLine
 10
0.1301960579
 20
0.16245762
 30
0.0
 11
0.1258053577
 21
0.16245762
 31
0.0
  0
LINE
  5
FC
330
1F
100
AcDbEntity
  8
0
  6
Continuous
 62
     7
370
    25
100
AcDbLine
 10
0.1254713577
 20
0.16245762
 30
0.0
 11
0.1208053577
 21
0.16245762
 31
0.0
  0
LINE
  5
FD
330
1F
100
AcDbEntity
  8
0
  6
Continuous
 62
     7
370
    25
100
AcDbLine
 10
0.1204713577
 20
0.16245762
 30
0.0
 11
0.1158053577
 21
0.16245762
 31
0.0
  0
LINE
  5
FE
330
1F
100
AcDbEntity
  8
0
  6
Continuous
 62
     7
370
    25
100
AcDbLine
 10
0.1154713577
 20
0.16245762
 30
0.0
 11
0.1108053577
 21
0.16245762
 31
0.0
  0
LINE
  5
FF
330
1F
100
AcDbEntity
  8
0
  6
Continuous
 62
     7
370
    25
100
AcDbLine
 10
0.1104713577
 20
0.16245762
 30
0.0
 11
0.1058053577
 21
0.16245762
 31
0.0
  0
LINE
  5
100
330
1F
100
AcDbEntity
  8
0
  6
Continuous
 62
     7
370
    25
100
AcDbLine
 10
0.1054713577
 20
0.16245762
 30
0.0
 11
0.1008053577
 21
0.16245762
 31
0.0
  0
LINE
  5
101
330
1F
100
AcDbEntity
  8
0
  6
Continuous
 62
     7
370
    25
100
AcDbLine
 10
0.1004713577
 20
0.16245762
 30
0.0
 11
0.0960700579
 21
0.16245762
 31
0.0
  0
LINE
  5
102
330
1F
100
AcDbEntity
  8
0
  6
Continuous
 62
     7
370
    25
100
AcDbLine
 10
0.0960700579
 20
0.16916362
 30
0.0
 11
0.1004713577
 21
0.16916362
 31
0.0
  0
LINE
  5
103
330
1F
100
AcDbEntity
  8
0
  6
Continuous
 62
     7
370
    25
100
AcDbLine
 10
0.1008053577
 20
0.16916362
 30
0.0
 11
0.1054713577
 21
0.16916362
 31
0.0
  0
LINE
  5
104
330
1F
100
AcDbEntity
  8
0
  6
Continuous
 62
     7
370
    25
100
AcDbLine
 10
0.1058053577
 20
0.16916362
 30
0.0
 11
0.1104713577
 21
0.16916362
 31
0.0
  0
LINE
  5
105
330
1F
100
AcDbEntity
  8
0
  6
Continuous
 62
     7
370
    25
100
AcDbLine
 10
0.1108053577
 20
0.16916362
 30
0.0
 11
0.1154713577
 21
0.16916362
 31
0.0
  0
LINE
  5
106
330
1F
100
AcDbEntity
  8
0
  6
Continuous
 62
     7
370
    25
100
AcDbLine
 10
0.1158053577
 20
0.16916362
 30
0.0
 11
0.1204713577
 21
0.16916362
 31
0.0
  0
LINE
  5
107
330
1F
100
AcDbEntity
  8
0
  6
Continuous
 62
     7
370
    25
100
AcDbLine
 10
0.1208053577
 20
0.16916362
 30
0.0
 11
0.1254713577
 21
0.16916362
 31
0.0
  0
LINE
  5
108
330
1F
100
AcDbEntity
  8
0
  6
Continuous
 62
     7
370
    25
100
AcDbLine
 10
0.1258053577
 20
0.16916362
 30
0.0
 11
0.1301960579
 21
0.16916362
 31
0.0
  0
LINE
  5
109
330
1F
100
AcDbEntity
  8
0
  6
Continuous
 62
     7
370
    25
100
AcDbLine
 10
0.1301960579
 20
0.16949762
 30
0.0
 11
0.1258053577
 21
0.16949762
 31
0.0
  0
LINE
  5
10A
330
1F
100
AcDbEntity
  8
0
  6
Continuous
 62
     7
370
    25
100
AcDbLine
 10
0.1254713577
 20
0.16949762
 30
0.0
 11
0.1208053577
 21
0.16949762
 31
0.0
  0
LINE
  5
10B
330
1F
100
AcDbEntity
  8
0
  6
Continuous
 62
     7
370
    25
100
AcDbLine
 10
0.1204713577
 20
0.16949762
 30
0.0
 11
0.1158053577
 21
0.16949762
 31
0.0
  0
LINE
  5
10C
330
1F
100
AcDbEntity
  8
0
  6
Continuous
 62
     7
370
    25
100
AcDbLine
 10
0.1154713577
 20
0.16949762
 30
0.0
 11
0.1108053577
 21
0.16949762
 31
0.0
  0
LINE
  5
10D
330
1F
100
AcDbEntity
  8
0
  6
Continuous
 62
     7
370
    25
100
AcDbLine
 10
0.1104713577
 20
0.16949762
 30
0.0
 11
0.1058053577
 21
0.16949762
 31
0.0
  0
LINE
  5
10E
330
1F
100
AcDbEntity
  8
0
  6
Continuous
 62
     7
370
    25
100
AcDbLine
 10
0.1054713577
 20
0.16949762
 30
0.0
 11
0.1008053577
 21
0.16949762
 31
0.0
  0
LINE
  5
10F
330
1F
100
AcDbEntity
  8
0
  6
Continuous
 62
     7
370
    25
100
AcDbLine
 10
0.1004713577
 20
0.16949762
 30
0.0
 11
0.0960700579
 21
0.16949762
 31
0.0
  0
LINE
  5
110
330
1F
100
AcDbEntity
  8
0
  6
Continuous
 62
     7
370
    25
100
AcDbLine
 10
0.1004713577
 20
0.17268362
 30
0.0
 11
0.1004713577
 21
0.17125762
 31
0.0
  0
LINE
  5
111
330
1F
100
AcDbEntity
  8
0
  6
Continuous
 62
     7
370
    25
100
AcDbLine
 10
0.1008053577
 20
0.17125762
 30
0.0
 11
0.1008053577
 21
0.17268362
 31
0.0
  0
LINE
  5
112
330
1F
100
AcDbEntity
  8
0
  6
Continuous
 62
     7
370
    25
100
AcDbLine
 10
0.1004713577
 20
0.17796362
 30
0.0
 11
0.1004713577
 21
0.17653762
 31
0.0
  0
LINE
  5
113
330
1F
100
AcDbEntity
  8
0
  6
Continuous
 62
     7
370
    25
100
AcDbLine
 10
0.1008053577
 20
0.17653762
 30
0.0
 11
0.1008053577
 21
0.17796362
 31
0.0
  0
LINE
  5
114
330
1F
100
AcDbEntity
  8
0
  6
Continuous
 62
     7
370
    25
100
AcDbLine
 10
0.1004713577
 20
0.17620362
 30
0.0
 11
0.1004713577
 21
0.17477762
 31
0.0
  0
LINE
  5
115
330
1F
100
AcDbEntity
  8
0
  6
Continuous
 62
     7
370
    25
100
AcDbLine
 10
0.1008053577
 20
0.17477762
 30
0.0
 11
0.1008053577
 21
0.17620362
 31
0.0
  0
LINE
  5
116
330
1F
100
AcDbEntity
  8
0
  6
Continuous
 62
     7
370
    25
100
AcDbLine
 10
0.1004713577
 20
0.17444362
 30
0.0
 11
0.1004713577
 21
0.17301762
 31
0.0
  0
LINE
  5
117
330
1F
100
AcDbEntity
  8
0
  6
Continuous
 62
     7
370
    25
100
AcDbLine
 10
0.1008053577
 20
0.17301762
 30
0.0
 11
0.1008053577
 21
0.17444362
 31
0.0
  0
LINE
  5
118
330
1F
100
AcDbEntity
  8
0
  6
Continuous
 62
     7
370
    25
100
AcDbLine
 10
0.1004713577
 20
0.16740362
 30
0.0
 11
0.1004713577
 21
0.16597762
 31
0.0
  0
LINE
  5
119
330
1F
100
AcDbEntity
  8
0
  6
Continuous
 62
     7
370
    25
100
AcDbLine
 10
0.1008053577
 20
0.16597762
 30
0.0
 11
0.1008053577
 21
0.16740362
 31
0.0
  0
LINE
  5
11A
330
1F
100
AcDbEntity
  8
0
  6
Continuous
 62
     7
370
    25
100
AcDbLine
 10
0.1004713577
 20
0.16564362
 30
0.0
 11
0.1004713577
 21
0.16421762
 31
0.0
  0
LINE
  5
11B
330
1F
100
AcDbEntity
  8
0
  6
Continuous
 62
     7
370
    25
100
AcDbLine
 10
0.1008053577
 20
0.16421762
 30
0.0
 11
0.1008053577
 21
0.16564362
 31
0.0
  0
LINE
  5
11C
330
1F
100
AcDbEntity
  8
0
  6
Continuous
 62
     7
370
    25
100
AcDbLine
 10
0.1004713577
 20
0.16388362
 30
0.0
 11
0.1004713577
 21
0.16245762
 31
0.0
  0
LINE
  5
11D
330
1F
100
AcDbEntity
  8
0
  6
Continuous
 62
     7
370
    25
100
AcDbLine
 10
0.1008053577
 20
0.16245762
 30
0.0
 11
0.1008053577
 21
0.16388362
 31
0.0
  0
LINE
  5
11E
330
1F
100
AcDbEntity
  8
0
  6
Continuous
 62
     7
370
    25
100
AcDbLine
 10
0.1004713577
 20
0.16161062
 30
0.0
 11
0.1004713577
 21
0.16081362
 31
0.0
  0
LINE
  5
11F
330
1F
100
AcDbEntity
  8
0
  6
Continuous
 62
     7
370
    25
100
AcDbLine
 10
0.1008053577
 20
0.16081362
 30
0.0
 11
0.1008053577
 21
0.16161062
 31
0.0
  0
LINE
  5
120
330
1F
100
AcDbEntity
  8
0
  6
Continuous
 62
     7
370
    25
100
AcDbLine
 10
0.1004713577
 20
0.16212362
 30
0.0
 11
0.1004713577
 21
0.16161062
 31
0.0
  0
LINE
  5
121
330
1F
100
AcDbEntity
  8
0
  6
Continuous
 62
     7
370
    25
100
AcDbLine
 10
0.1008053577
 20
0.16161062
 30
0.0
 11
0.1008053577
 21
0.16212362
 31
0.0
  0
LINE
  5
122
330
1F
100
AcDbEntity
  8
0
  6
Continuous
 62
     7
370
    25
100
AcDbLine
 10
0.1004713577
 20
0.17092362
 30
0.0
 11
0.1004713577
 21
0.16949762
 31
0.0
  0
LINE
  5
123
330
1F
100
AcDbEntity
  8
0
  6
Continuous
 62
     7
370
    25
100
AcDbLine
 10
0.1008053577
 20
0.16949762
 30
0.0
 11
0.1008053577
 21
0.17092362
 31
0.0
  0
LINE
  5
124
330
1F
100
AcDbEntity
  8
0
  6
Continuous
 62
     7
370
    25
100
AcDbLine
 10
0.1004713577
 20
0.16916362
 30
0.0
 11
0.1004713577
 21
0.16773762
 31
0.0
  0
LINE
  5
125
330
1F
100
AcDbEntity
  8
0
  6
Continuous
 62
     7
370
    25
100
AcDbLine
 10
0.1008053577
 20
0.16773762
 30
0.0
 11
0.1008053577
 21
0.16916362
 31
0.0
  0
LINE
  5
126
330
1F
100
AcDbEntity
  8
0
  6
Continuous
 62
     7
370
    25
100
AcDbLine
 10
0.1004713577
 20
0.17960762
 30
0.0
 11
0.1004713577
 21
0.17881062
 31
0.0
  0
LINE
  5
127
330
1F
100
AcDbEntity
  8
0
  6
Continuous
 62
     7
370
    25
100
AcDbLine
 10
0.1008053577
 20
0.17881062
 30
0.0
 11
0.1008053577
 21
0.17960762
 31
0.0
  0
LINE
  5
128
330
1F
100
AcDbEntity
  8
0
  6
Continuous
 62
     7
370
    25
100
AcDbLine
 10
0.1004713577
 20
0.17881062
 30
0.0
 11
0.1004713577
 21
0.17829762
 31
0.0
  0
LINE
  5
129
330
1F
100
AcDbEntity
  8
0
  6
Continuous
 62
     7
370
    25
100
AcDbLine
 10
0.1008053577
 20
0.17829762
 30
0.0
 11
0.1008053577
 21
0.17881062
 31
0.0
  0
LINE
  5
12A
330
1F
100
AcDbEntity
  8
0
  6
Continuous
 62
     7
370
    25
100
AcDbLine
 10
0.1054713577
 20
0.16388362
 30
0.0
 11
0.1054713577
 21
0.16245762
 31
0.0
  0
LINE
  5
12B
330
1F
100
AcDbEntity
  8
0
  6
Continuous
 62
     7
370
    25
100
AcDbLine
 10
0.1058053577
 20
0.16245762
 30
0.0
 11
0.1058053577
 21
0.16388362
 31
0.0
  0
LINE
  5
12C
330
1F
100
AcDbEntity
  8
0
  6
Continuous
 62
     7
370
    25
100
AcDbLine
 10
0.1104713577
 20
0.16388362
 30
0.0
 11
0.1104713577
 21
0.16245762
 31
0.0
  0
LINE
  5
12D
330
1F
100
AcDbEntity
  8
0
  6
Continuous
 62
     7
370
    25
100
AcDbLine
 10
0.1108053577
 20
0.16245762
 30
0.0
 11
0.1108053577
 21
0.16388362
 31
0.0
  0
LINE
  5
12E
330
1F
100
AcDbEntity
  8
0
  6
Continuous
 62
     7
370
    25
100
AcDbLine
 10
0.1154713577
 20
0.16388362
 30
0.0
 11
0.1154713577
 21
0.16245762
 31
0.0
  0
LINE
  5
12F
330
1F
100
AcDbEntity
  8
0
  6
Continuous
 62
     7
370
    25
100
AcDbLine
 10
0.1158053577
 20
0.16245762
 30
0.0
 11
0.1158053577
 21
0.16388362
 31
0.0
  0
LINE
  5
130
330
1F
100
AcDbEntity
  8
0
  6
Continuous
 62
     7
370
    25
100
AcDbLine
 10
0.1204713577
 20
0.16388362
 30
0.0
 11
0.1204713577
 21
0.16245762
 31
0.0
  0
LINE
  5
131
330
1F
100
AcDbEntity
  8
0
  6
Continuous
 62
     7
370
    25
100
AcDbLine
 10
0.1208053577
 20
0.16245762
 30
0.0
 11
0.1208053577
 21
0.16388362
 31
0.0
  0
LINE
  5
132
330
1F
100
AcDbEntity
  8
0
  6
Continuous
 62
     7
370
    25
100
AcDbLine
 10
0.1254713577
 20
0.16388362
 30
0.0
 11
0.1254713577
 21
0.16245762
 31
0.0
  0
LINE
  5
133
330
1F
100
AcDbEntity
  8
0
  6
Continuous
 62
     7
370
    25
100
AcDbLine
 10
0.1258053577
 20
0.16245762
 30
0.0
 11
0.1258053577
 21
0.16388362
 31
0.0
  0
LINE
  5
134
330
1F
100
AcDbEntity
  8
0
  6
Continuous
 62
     7
370
    25
100
AcDbLine
 10
0.1054713577
 20
0.17796362
 30
0.0
 11
0.1054713577
 21
0.17653762
 31
0.0
  0
LINE
  5
135
330
1F
100
AcDbEntity
  8
0
  6
Continuous
 62
     7
370
    25
100
AcDbLine
 10
0.1058053577
 20
0.17653762
 30
0.0
 11
0.1058053577
 21
0.17796362
 31
0.0
  0
LINE
  5
136
330
1F
100
AcDbEntity
  8
0
  6
Continuous
 62
     7
370
    25
100
AcDbLine
 10
0.1104713577
 20
0.17796362
 30
0.0
 11
0.1104713577
 21
0.17653762
 31
0.0
  0
LINE
  5
137
330
1F
100
AcDbEntity
  8
0
  6
Continuous
 62
     7
370
    25
100
AcDbLine
 10
0.1108053577
 20
0.17653762
 30
0.0
 11
0.1108053577
 21
0.17796362
 31
0.0
  0
LINE
  5
138
330
1F
100
AcDbEntity
  8
0
  6
Continuous
 62
     7
370
    25
100
AcDbLine
 10
0.1154713577
 20
0.17796362
 30
0.0
 11
0.1154713577
 21
0.17653762
 31
0.0
  0
LINE
  5
139
330
1F
100
AcDbEntity
  8
0
  6
Continuous
 62
     7
370
    25
100
AcDbLine
 10
0.1158053577
 20
0.17653762
 30
0.0
 11
0.1158053577
 21
0.17796362
 31
0.0
  0
LINE
  5
13A
330
1F
100
AcDbEntity
  8
0
  6
Continuous
 62
     7
370
    25
100
AcDbLine
 10
0.1204713577
 20
0.17796362
 30
0.0
 11
0.1204713577
 21
0.17653762
 31
0.0
  0
LINE
  5
13B
330
1F
100
AcDbEntity
  8
0
  6
Continuous
 62
     7
370
    25
100
AcDbLine
 10
0.1208053577
 20
0.17653762
 30
0.0
 11
0.1208053577
 21
0.17796362
 31
0.0
  0
LINE
  5
13C
330
1F
100
AcDbEntity
  8
0
  6
Continuous
 62
     7
370
    25
100
AcDbLine
 10
0.1254713577
 20
0.17796362
 30
0.0
 11
0.1254713577
 21
0.17653762
 31
0.0
  0
LINE
  5
13D
330
1F
100
AcDbEntity
  8
0
  6
Continuous
 62
     7
370
    25
100
AcDbLine
 10
0.1258053577
 20
0.17653762
 30
0.0
 11
0.1258053577
 21
0.17796362
 31
0.0
  0
LINE
  5
13E
330
1F
100
AcDbEntity
  8
0
  6
Continuous
 62
     7
370
    25
100
AcDbLine
 10
0.1054713577
 20
0.17620362
 30
0.0
 11
0.1054713577
 21
0.17477762
 31
0.0
  0
LINE
  5
13F
330
1F
100
AcDbEntity
  8
0
  6
Continuous
 62
     7
370
    25
100
AcDbLine
 10
0.1058053577
 20
0.17477762
 30
0.0
 11
0.1058053577
 21
0.17620362
 31
0.0
  0
LINE
  5
140
330
1F
100
AcDbEntity
  8
0
  6
Continuous
 62
     7
370
    25
100
AcDbLine
 10
0.1104713577
 20
0.17620362
 30
0.0
 11
0.1104713577
 21
0.17477762
 31
0.0
  0
LINE
  5
141
330
1F
100
AcDbEntity
  8
0
  6
Continuous
 62
     7
370
    25
100
AcDbLine
 10
0.1108053577
 20
0.17477762
 30
0.0
 11
0.1108053577
 21
0.17620362
 31
0.0
  0
LINE
  5
142
330
1F
100
AcDbEntity
  8
0
  6
Continuous
 62
     7
370
    25
100
AcDbLine
 10
0.1154713577
 20
0.17620362
 30
0.0
 11
0.1154713577
 21
0.17477762
 31
0.0
  0
LINE
  5
143
330
1F
100
AcDbEntity
  8
0
  6
Continuous
 62
     7
370
    25
100
AcDbLine
 10
0.1158053577
 20
0.17477762
 30
0.0
 11
0.1158053577
 21
0.17620362
 31
0.0
  0
LINE
  5
144
330
1F
100
AcDbEntity
  8
0
  6
Continuous
 62
     7
370
    25
100
AcDbLine
 10
0.1204713577
 20
0.17620362
 30
0.0
 11
0.1204713577
 21
0.17477762
 31
0.0
  0
LINE
  5
145
330
1F
100
AcDbEntity
  8
0
  6
Continuous
 62
     7
370
    25
100
AcDbLine
 10
0.1208053577
 20
0.17477762
 30
0.0
 11
0.1208053577
 21
0.17620362
 31
0.0
  0
LINE
  5
146
330
1F
100
AcDbEntity
  8
0
  6
Continuous
 62
     7
370
    25
100
AcDbLine
 10
0.1254713577
 20
0.17620362
 30
0.0
 11
0.1254713577
 21
0.17477762
 31
0.0
  0
LINE
  5
147
330
1F
100
AcDbEntity
  8
0
  6
Continuous
 62
     7
370
    25
100
AcDbLine
 10
0.1258053577
 20
0.17477762
 30
0.0
 11
0.1258053577
 21
0.17620362
 31
0.0
  0
LINE
  5
148
330
1F
100
AcDbEntity
  8
0
  6
Continuous
 62
     7
370
    25
100
AcDbLine
 10
0.1054713577
 20
0.16161062
 30
0.0
 11
0.1054713577
 21
0.16081362
 31
0.0
  0
LINE
  5
149
330
1F
100
AcDbEntity
  8
0
  6
Continuous
 62
     7
370
    25
100
AcDbLine
 10
0.1058053577
 20
0.16081362
 30
0.0
 11
0.1058053577
 21
0.16161062
 31
0.0
  0
LINE
  5
14A
330
1F
100
AcDbEntity
  8
0
  6
Continuous
 62
     7
370
    25
100
AcDbLine
 10
0.1054713577
 20
0.16212362
 30
0.0
 11
0.1054713577
 21
0.16161062
 31
0.0
  0
LINE
  5
14B
330
1F
100
AcDbEntity
  8
0
  6
Continuous
 62
     7
370
    25
100
AcDbLine
 10
0.1058053577
 20
0.16161062
 30
0.0
 11
0.1058053577
 21
0.16212362
 31
0.0
  0
LINE
  5
14C
330
1F
100
AcDbEntity
  8
0
  6
Continuous
 62
     7
370
    25
100
AcDbLine
 10
0.1104713577
 20
0.16161062
 30
0.0
 11
0.1104713577
 21
0.16081362
 31
0.0
  0
LINE
  5
14D
330
1F
100
AcDbEntity
  8
0
  6
Continuous
 62
     7
370
    25
100
AcDbLine
 10
0.1108053577
 20
0.16081362
 30
0.0
 11
0.1108053577
 21
0.16161062
 31
0.0
  0
LINE
  5
14E
330
1F
100
AcDbEntity
  8
0
  6
Continuous
 62
     7
370
    25
100
AcDbLine
 10
0.1104713577
 20
0.16212362
 30
0.0
 11
0.1104713577
 21
0.16161062
 31
0.0
  0
LINE
  5
14F
330
1F
100
AcDbEntity
  8
0
  6
Continuous
 62
     7
370
    25
100
AcDbLine
 10
0.1108053577
 20
0.16161062
 30
0.0
 11
0.1108053577
 21
0.16212362
 31
0.0
  0
LINE
  5
150
330
1F
100
AcDbEntity
  8
0
  6
Continuous
 62
     7
370
    25
100
AcDbLine
 10
0.1154713577
 20
0.16161062
 30
0.0
 11
0.1154713577
 21
0.16081362
 31
0.0
  0
LINE
  5
151
330
1F
100
AcDbEntity
  8
0
  6
Continuous
 62
     7
370
    25
100
AcDbLine
 10
0.1158053577
 20
0.16081362
 30
0.0
 11
0.1158053577
 21
0.16161062
 31
0.0
  0
LINE
  5
152
330
1F
100
AcDbEntity
  8
0
  6
Continuous
 62
     7
370
    25
100
AcDbLine
 10
0.1154713577
 20
0.16212362
 30
0.0
 11
0.1154713577
 21
0.16161062
 31
0.0
  0
LINE
  5
153
330
1F
100
AcDbEntity
  8
0
  6
Continuous
 62
     7
370
    25
100
AcDbLine
 10
0.1158053577
 20
0.16161062
 30
0.0
 11
0.1158053577
 21
0.16212362
 31
0.0
  0
LINE
  5
154
330
1F
100
AcDbEntity
  8
0
  6
Continuous
 62
     7
370
    25
100
AcDbLine
 10
0.1204713577
 20
0.16161062
 30
0.0
 11
0.1204713577
 21
0.16081362
 31
0.0
  0
LINE
  5
155
330
1F
100
AcDbEntity
  8
0
  6
Continuous
 62
     7
370
    25
100
AcDbLine
 10
0.1208053577
 20
0.16081362
 30
0.0
 11
0.1208053577
 21
0.16161062
 31
0.0
  0
LINE
  5
156
330
1F
100
AcDbEntity
  8
0
  6
Continuous
 62
     7
370
    25
100
AcDbLine
 10
0.1204713577
 20
0.16212362
 30
0.0
 11
0.1204713577
 21
0.16161062
 31
0.0
  0
LINE
  5
157
330
1F
100
AcDbEntity
  8
0
  6
Continuous
 62
     7
370
    25
100
AcDbLine
 10
0.1208053577
 20
0.16161062
 30
0.0
 11
0.1208053577
 21
0.16212362
 31
0.0
  0
LINE
  5
158
330
1F
100
AcDbEntity
  8
0
  6
Continuous
 62
     7
370
    25
100
AcDbLine
 10
0.1254713577
 20
0.16161062
 30
0.0
 11
0.1254713577
 21
0.16081362
 31
0.0
  0
LINE
  5
159
330
1F
100
AcDbEntity
  8
0
  6
Continuous
 62
     7
370
    25
100
AcDbLine
 10
0.1258053577
 20
0.16081362
 30
0.0
 11
0.1258053577
 21
0.16161062
 31
0.0
  0
LINE
  5
15A
330
1F
100
AcDbEntity
  8
0
  6
Continuous
 62
     7
370
    25
100
AcDbLine
 10
0.1254713577
 20
0.16212362
 30
0.0
 11
0.1254713577
 21
0.16161062
 31
0.0
  0
LINE
  5
15B
330
1F
100
AcDbEntity
  8
0
  6
Continuous
 62
     7
370
    25
100
AcDbLine
 10
0.1258053577
 20
0.16161062
 30
0.0
 11
0.1258053577
 21
0.16212362
 31
0.0
  0
LINE
  5
15C
330
1F
100
AcDbEntity
  8
0
  6
Continuous
 62
     7
370
    25
100
AcDbLine
 10
0.1054713577
 20
0.17444362
 30
0.0
 11
0.1054713577
 21
0.17301762
 31
0.0
  0
LINE
  5
15D
330
1F
100
AcDbEntity
  8
0
  6
Continuous
 62
     7
370
    25
100
AcDbLine
 10
0.1058053577
 20
0.17301762
 30
0.0
 11
0.1058053577
 21
0.17444362
 31
0.0
  0
LINE
  5
15E
330
1F
100
AcDbEntity
  8
0
  6
Continuous
 62
     7
370
    25
100
AcDbLine
 10
0.1104713577
 20
0.17444362
 30
0.0
 11
0.1104713577
 21
0.17301762
 31
0.0
  0
LINE
  5
15F
330
1F
100
AcDbEntity
  8
0
  6
Continuous
 62
     7
370
    25
100
AcDbLine
 10
0.1108053577
 20
0.17301762
 30
0.0
 11
0.1108053577
 21
0.17444362
 31
0.0
  0
LINE
  5
160
330
1F
100
AcDbEntity
  8
0
  6
Continuous
 62
     7
370
    25
100
AcDbLine
 10
0.1154713577
 20
0.17444362
 30
0.0
 11
0.1154713577
 21
0.17301762
 31
0.0
  0
LINE
  5
161
330
1F
100
AcDbEntity
  8
0
  6
Continuous
 62
     7
370
    25
100
AcDbLine
 10
0.1158053577
 20
0.17301762
 30
0.0
 11
0.1158053577
 21
0.17444362
 31
0.0
  0
LINE
  5
162
330
1F
100
AcDbEntity
  8
0
  6
Continuous
 62
     7
370
    25
100
AcDbLine
 10
0.1204713577
 20
0.17444362
 30
0.0
 11
0.1204713577
 21
0.17301762
 31
0.0
  0
LINE
  5
163
330
1F
100
AcDbEntity
  8
0
  6
Continuous
 62
     7
370
    25
100
AcDbLine
 10
0.1208053577
 20
0.17301762
 30
0.0
 11
0.1208053577
 21
0.17444362
 31
0.0
  0
LINE
  5
164
330
1F
100
AcDbEntity
  8
0
  6
Continuous
 62
     7
370
    25
100
AcDbLine
 10
0.1254713577
 20
0.17444362
 30
0.0
 11
0.1254713577
 21
0.17301762
 31
0.0
  0
LINE
  5
165
330
1F
100
AcDbEntity
  8
0
  6
Continuous
 62
     7
370
    25
100
AcDbLine
 10
0.1258053577
 20
0.17301762
 30
0.0
 11
0.1258053577
 21
0.17444362
 31
0.0
  0
LINE
  5
166
330
1F
100
AcDbEntity
  8
0
  6
Continuous
 62
     7
370
    25
100
AcDbLine
 10
0.1054713577
 20
0.17268362
 30
0.0
 11
0.1054713577
 21
0.17125762
 31
0.0
  0
LINE
  5
167
330
1F
100
AcDbEntity
  8
0
  6
Continuous
 62
     7
370
    25
100
AcDbLine
 10
0.1058053577
 20
0.17125762
 30
0.0
 11
0.1058053577
 21
0.17268362
 31
0.0
  0
LINE
  5
168
330
1F
100
AcDbEntity
  8
0
  6
Continuous
 62
     7
370
    25
100
AcDbLine
 10
0.1104713577
 20
0.17268362
 30
0.0
 11
0.1104713577
 21
0.17125762
 31
0.0
  0
LINE
  5
169
330
1F
100
AcDbEntity
  8
0
  6
Continuous
 62
     7
370
    25
100
AcDbLine
 10
0.1108053577
 20
0.17125762
 30
0.0
 11
0.1108053577
 21
0.17268362
 31
0.0
  0
LINE
  5
16A
330
1F
100
AcDbEntity
  8
0
  6
Continuous
 62
     7
370
    25
100
AcDbLine
 10
0.1154713577
 20
0.17268362
 30
0.0
 11
0.1154713577
 21
0.17125762
 31
0.0
  0
LINE
  5
16B
330
1F
100
AcDbEntity
  8
0
  6
Continuous
 62
     7
370
    25
100
AcDbLine
 10
0.1158053577
 20
0.17125762
 30
0.0
 11
0.1158053577
 21
0.17268362
 31
0.0
  0
LINE
  5
16C
330
1F
100
AcDbEntity
  8
0
  6
Continuous
 62
     7
370
    25
100
AcDbLine
 10
0.1204713577
 20
0.17268362
 30
0.0
 11
0.1204713577
 21
0.17125762
 31
0.0
  0
LINE
  5
16D
330
1F
100
AcDbEntity
  8
0
  6
Continuous
 62
     7
370
    25
100
AcDbLine
 10
0.1208053577
 20
0.17125762
 30
0.0
 11
0.1208053577
 21
0.17268362
 31
0.0
  0
LINE
  5
16E
330
1F
100
AcDbEntity
  8
0
  6
Continuous
 62
     7
370
    25
100
AcDbLine
 10
0.1254713577
 20
0.17268362
 30
0.0
 11
0.1254713577
 21
0.17125762
 31
0.0
  0
LINE
  5
16F
330
1F
100
AcDbEntity
  8
0
  6
Continuous
 62
     7
370
    25
100
AcDbLine
 10
0.1258053577
 20
0.17125762
 30
0.0
 11
0.1258053577
 21
0.17268362
 31
0.0
  0
LINE
  5
170
330
1F
100
AcDbEntity
  8
0
  6
Continuous
 62
     7
370
    25
100
AcDbLine
 10
0.1054713577
 20
0.17092362
 30
0.0
 11
0.1054713577
 21
0.16949762
 31
0.0
  0
LINE
  5
171
330
1F
100
AcDbEntity
  8
0
  6
Continuous
 62
     7
370
    25
100
AcDbLine
 10
0.1058053577
 20
0.16949762
 30
0.0
 11
0.1058053577
 21
0.17092362
 31
0.0
  0
LINE
  5
172
330
1F
100
AcDbEntity
  8
0
  6
Continuous
 62
     7
370
    25
100
AcDbLine
 10
0.1104713577
 20
0.17092362
 30
0.0
 11
0.1104713577
 21
0.16949762
 31
0.0
  0
LINE
  5
173
330
1F
100
AcDbEntity
  8
0
  6
Continuous
 62
     7
370
    25
100
AcDbLine
 10
0.1108053577
 20
0.16949762
 30
0.0
 11
0.1108053577
 21
0.17092362
 31
0.0
  0
LINE
  5
174
330
1F
100
AcDbEntity
  8
0
  6
Continuous
 62
     7
370
    25
100
AcDbLine
 10
0.1154713577
 20
0.17092362
 30
0.0
 11
0.1154713577
 21
0.16949762
 31
0.0
  0
LINE
  5
175
330
1F
100
AcDbEntity
  8
0
  6
Continuous
 62
     7
370
    25
100
AcDbLine
 10
0.1158053577
 20
0.16949762
 30
0.0
 11
0.1158053577
 21
0.17092362
 31
0.0
  0
LINE
  5
176
330
1F
100
AcDbEntity
  8
0
  6
Continuous
 62
     7
370
    25
100
AcDbLine
 10
0.1204713577
 20
0.17092362
 30
0.0
 11
0.1204713577
 21
0.16949762
 31
0.0
  0
LINE
  5
177
330
1F
100
AcDbEntity
  8
0
  6
Continuous
 62
     7
370
    25
100
AcDbLine
 10
0.1208053577
 20
0.16949762
 30
0.0
 11
0.1208053577
 21
0.17092362
 31
0.0
  0
LINE
  5
178
330
1F
100
AcDbEntity
  8
0
  6
Continuous
 62
     7
370
    25
100
AcDbLine
 10
0.1254713577
 20
0.17092362
 30
0.0
 11
0.1254713577
 21
0.16949762
 31
0.0
  0
LINE
  5
179
330
1F
100
AcDbEntity
  8
0
  6
Continuous
 62
     7
370
    25
100
AcDbLine
 10
0.1258053577
 20
0.16949762
 30
0.0
 11
0.1258053577
 21
0.17092362
 31
0.0
  0
LINE
  5
17A
330
1F
100
AcDbEntity
  8
0
  6
Continuous
 62
     7
370
    25
100
AcDbLine
 10
0.1054713577
 20
0.16916362
 30
0.0
 11
0.1054713577
 21
0.16773762
 31
0.0
  0
LINE
  5
17B
330
1F
100
AcDbEntity
  8
0
  6
Continuous
 62
     7
370
    25
100
AcDbLine
 10
0.1058053577
 20
0.16773762
 30
0.0
 11
0.1058053577
 21
0.16916362
 31
0.0
  0
LINE
  5
17C
330
1F
100
AcDbEntity
  8
0
  6
Continuous
 62
     7
370
    25
100
AcDbLine
 10
0.1104713577
 20
0.16916362
 30
0.0
 11
0.1104713577
 21
0.16773762
 31
0.0
  0
LINE
  5
17D
330
1F
100
AcDbEntity
  8
0
  6
Continuous
 62
     7
370
    25
100
AcDbLine
 10
0.1108053577
 20
0.16773762
 30
0.0
 11
0.1108053577
 21
0.16916362
 31
0.0
  0
LINE
  5
17E
330
1F
100
AcDbEntity
  8
0
  6
Continuous
 62
     7
370
    25
100
AcDbLine
 10
0.1154713577
 20
0.16916362
 30
0.0
 11
0.1154713577
 21
0.16773762
 31
0.0
  0
LINE
  5
17F
330
1F
100
AcDbEntity
  8
0
  6
Continuous
 62
     7
370
    25
100
AcDbLine
 10
0.1158053577
 20
0.16773762
 30
0.0
 11
0.1158053577
 21
0.16916362
 31
0.0
  0
LINE
  5
180
330
1F
100
AcDbEntity
  8
0
  6
Continuous
 62
     7
370
    25
100
AcDbLine
 10
0.1204713577
 20
0.16916362
 30
0.0
 11
0.1204713577
 21
0.16773762
 31
0.0
  0
LINE
  5
181
330
1F
100
AcDbEntity
  8
0
  6
Continuous
 62
     7
370
    25
100
AcDbLine
 10
0.1208053577
 20
0.16773762
 30
0.0
 11
0.1208053577
 21
0.16916362
 31
0.0
  0
LINE
  5
182
330
1F
100
AcDbEntity
  8
0
  6
Continuous
 62
     7
370
    25
100
AcDbLine
 10
0.1254713577
 20
0.16916362
 30
0.0
 11
0.1254713577
 21
0.16773762
 31
0.0
  0
LINE
  5
183
330
1F
100
AcDbEntity
  8
0
  6
Continuous
 62
     7
370
    25
100
AcDbLine
 10
0.1258053577
 20
0.16773762
 30
0.0
 11
0.1258053577
 21
0.16916362
 31
0.0
  0
LINE
  5
184
330
1F
100
AcDbEntity
  8
0
  6
Continuous
 62
     7
370
    25
100
AcDbLine
 10
0.1054713577
 20
0.16740362
 30
0.0
 11
0.1054713577
 21
0.16597762
 31
0.0
  0
LINE
  5
185
330
1F
100
AcDbEntity
  8
0
  6
Continuous
 62
     7
370
    25
100
AcDbLine
 10
0.1058053577
 20
0.16597762
 30
0.0
 11
0.1058053577
 21
0.16740362
 31
0.0
  0
LINE
  5
186
330
1F
100
AcDbEntity
  8
0
  6
Continuous
 62
     7
370
    25
100
AcDbLine
 10
0.1104713577
 20
0.16740362
 30
0.0
 11
0.1104713577
 21
0.16597762
 31
0.0
  0
LINE
  5
187
330
1F
100
AcDbEntity
  8
0
  6
Continuous
 62
     7
370
    25
100
AcDbLine
 10
0.1108053577
 20
0.16597762
 30
0.0
 11
0.1108053577
 21
0.16740362
 31
0.0
  0
LINE
  5
188
330
1F
100
AcDbEntity
  8
0
  6
Continuous
 62
     7
370
    25
100
AcDbLine
 10
0.1154713577
 20
0.16740362
 30
0.0
 11
0.1154713577
 21
0.16597762
 31
0.0
  0
LINE
  5
189
330
1F
100
AcDbEntity
  8
0
  6
Continuous
 62
     7
370
    25
100
AcDbLine
 10
0.1158053577
 20
0.16597762
 30
0.0
 11
0.1158053577
 21
0.16740362
 31
0.0
  0
LINE
  5
18A
330
1F
100
AcDbEntity
  8
0
  6
Continuous
 62
     7
370
    25
100
AcDbLine
 10
0.1204713577
 20
0.16740362
 30
0.0
 11
0.1204713577
 21
0.16597762
 31
0.0
  0
LINE
  5
18B
330
1F
100
AcDbEntity
  8
0
  6
Continuous
 62
     7
370
    25
100
AcDbLine
 10
0.1208053577
 20
0.16597762
 30
0.0
 11
0.1208053577
 21
0.16740362
 31
0.0
  0
LINE
  5
18C
330
1F
100
AcDbEntity
  8
0
  6
Continuous
 62
     7
370
    25
100
AcDbLine
 10
0.1254713577
 20
0.16740362
 30
0.0
 11
0.1254713577
 21
0.16597762
 31
0.0
  0
LINE
  5
18D
330
1F
100
AcDbEntity
  8
0
  6
Continuous
 62
     7
370
    25
100
AcDbLine
 10
0.1258053577
 20
0.16597762
 30
0.0
 11
0.1258053577
 21
0.16740362
 31
0.0
  0
LINE
  5
18E
330
1F
100
AcDbEntity
  8
0
  6
Continuous
 62
     7
370
    25
100
AcDbLine
 10
0.1054713577
 20
0.16564362
 30
0.0
 11
0.1054713577
 21
0.16421762
 31
0.0
  0
LINE
  5
18F
330
1F
100
AcDbEntity
  8
0
  6
Continuous
 62
     7
370
    25
100
AcDbLine
 10
0.1058053577
 20
0.16421762
 30
0.0
 11
0.1058053577
 21
0.16564362
 31
0.0
  0
LINE
  5
190
330
1F
100
AcDbEntity
  8
0
  6
Continuous
 62
     7
370
    25
100
AcDbLine
 10
0.1104713577
 20
0.16564362
 30
0.0
 11
0.1104713577
 21
0.16421762
 31
0.0
  0
LINE
  5
191
330
1F
100
AcDbEntity
  8
0
  6
Continuous
 62
     7
370
    25
100
AcDbLine
 10
0.1108053577
 20
0.16421762
 30
0.0
 11
0.1108053577
 21
0.16564362
 31
0.0
  0
LINE
  5
192
330
1F
100
AcDbEntity
  8
0
  6
Continuous
 62
     7
370
    25
100
AcDbLine
 10
0.1154713577
 20
0.16564362
 30
0.0
 11
0.1154713577
 21
0.16421762
 31
0.0
  0
LINE
  5
193
330
1F
100
AcDbEntity
  8
0
  6
Continuous
 62
     7
370
    25
100
AcDbLine
 10
0.1158053577
 20
0.16421762
 30
0.0
 11
0.1158053577
 21
0.16564362
 31
0.0
  0
LINE
  5
194
330
1F
100
AcDbEntity
  8
0
  6
Continuous
 62
     7
370
    25
100
AcDbLine
 10
0.1204713577
 20
0.16564362
 30
0.0
 11
0.1204713577
 21
0.16421762
 31
0.0
  0
LINE
  5
195
330
1F
100
AcDbEntity
  8
0
  6
Continuous
 62
     7
370
    25
100
AcDbLine
 10
0.1208053577
 20
0.16421762
 30
0.0
 11
0.1208053577
 21
0.16564362
 31
0.0
  0
LINE
  5
196
330
1F
100
AcDbEntity
  8
0
  6
Continuous
 62
     7
370
    25
100
AcDbLine
 10
0.1254713577
 20
0.16564362
 30
0.0
 11
0.1254713577
 21
0.16421762
 31
0.0
  0
LINE
  5
197
330
1F
100
AcDbEntity
  8
0
  6
Continuous
 62
     7
370
    25
100
AcDbLine
 10
0.1258053577
 20
0.16421762
 30
0.0
 11
0.1258053577
 21
0.16564362
 31
0.0
  0
LINE
  5
198
330
1F
100
AcDbEntity
  8
0
  6
Continuous
 62
     7
370
    25
100
AcDbLine
 10
0.1054713577
 20
0.17960762
 30
0.0
 11
0.1054713577
 21
0.17881062
 31
0.0
  0
LINE
  5
199
330
1F
100
AcDbEntity
  8
0
  6
Continuous
 62
     7
370
    25
100
AcDbLine
 10
0.1058053577
 20
0.17881062
 30
0.0
 11
0.1058053577
 21
0.17960762
 31
0.0
  0
LINE
  5
19A
330
1F
100
AcDbEntity
  8
0
  6
Continuous
 62
     7
370
    25
100
AcDbLine
 10
0.1054713577
 20
0.17881062
 30
0.0
 11
0.1054713577
 21
0.17829762
 31
0.0
  0
LINE
  5
19B
330
1F
100
AcDbEntity
  8
0
  6
Continuous
 62
     7
370
    25
100
AcDbLine
 10
0.1058053577
 20
0.17829762
 30
0.0
 11
0.1058053577
 21
0.17881062
 31
0.0
  0
LINE
  5
19C
330
1F
100
AcDbEntity
  8
0
  6
Continuous
 62
     7
370
    25
100
AcDbLine
 10
0.1104713577
 20
0.17960762
 30
0.0
 11
0.1104713577
 21
0.17881062
 31
0.0
  0
LINE
  5
19D
330
1F
100
AcDbEntity
  8
0
  6
Continuous
 62
     7
370
    25
100
AcDbLine
 10
0.1108053577
 20
0.17881062
 30
0.0
 11
0.1108053577
 21
0.17960762
 31
0.0
  0
LINE
  5
19E
330
1F
100
AcDbEntity
  8
0
  6
Continuous
 62
     7
370
    25
100
AcDbLine
 10
0.1104713577
 20
0.17881062
 30
0.0
 11
0.1104713577
 21
0.17829762
 31
0.0
  0
LINE
  5
19F
330
1F
100
AcDbEntity
  8
0
  6
Continuous
 62
     7
370
    25
100
AcDbLine
 10
0.1108053577
 20
0.17829762
 30
0.0
 11
0.1108053577
 21
0.17881062
 31
0.0
  0
LINE
  5
1A0
330
1F
100
AcDbEntity
  8
0
  6
Continuous
 62
     7
370
    25
100
AcDbLine
 10
0.1154713577
 20
0.17960762
 30
0.0
 11
0.1154713577
 21
0.17881062
 31
0.0
  0
LINE
  5
1A1
330
1F
100
AcDbEntity
  8
0
  6
Continuous
 62
     7
370
    25
100
AcDbLine
 10
0.1158053577
 20
0.17881062
 30
0.0
 11
0.1158053577
 21
0.17960762
 31
0.0
  0
LINE
  5
1A2
330
1F
100
AcDbEntity
  8
0
  6
Continuous
 62
     7
370
    25
100
AcDbLine
 10
0.1154713577
 20
0.17881062
 30
0.0
 11
0.1154713577
 21
0.17829762
 31
0.0
  0
LINE
  5
1A3
330
1F
100
AcDbEntity
  8
0
  6
Continuous
 62
     7
370
    25
100
AcDbLine
 10
0.1158053577
 20
0.17829762
 30
0.0
 11
0.1158053577
 21
0.17881062
 31
0.0
  0
LINE
  5
1A4
330
1F
100
AcDbEntity
  8
0
  6
Continuous
 62
     7
370
    25
100
AcDbLine
 10
0.1204713577
 20
0.17960762
 30
0.0
 11
0.1204713577
 21
0.17881062
 31
0.0
  0
LINE
  5
1A5
330
1F
100
AcDbEntity
  8
0
  6
Continuous
 62
     7
370
    25
100
AcDbLine
 10
0.1208053577
 20
0.17881062
 30
0.0
 11
0.1208053577
 21
0.17960762
 31
0.0
  0
LINE
  5
1A6
330
1F
100
AcDbEntity
  8
0
  6
Continuous
 62
     7
370
    25
100
AcDbLine
 10
0.1204713577
 20
0.17881062
 30
0.0
 11
0.1204713577
 21
0.17829762
 31
0.0
  0
LINE
  5
1A7
330
1F
100
AcDbEntity
  8
0
  6
Continuous
 62
     7
370
    25
100
AcDbLine
 10
0.1208053577
 20
0.17829762
 30
0.0
 11
0.1208053577
 21
0.17881062
 31
0.0
  0
LINE
  5
1A8
330
1F
100
AcDbEntity
  8
0
  6
Continuous
 62
     7
370
    25
100
AcDbLine
 10
0.1254713577
 20
0.17960762
 30
0.0
 11
0.1254713577
 21
0.17881062
 31
0.0
  0
LINE
  5
1A9
330
1F
100
AcDbEntity
  8
0
  6
Continuous
 62
     7
370
    25
100
AcDbLine
 10
0.1258053577
 20
0.17881062
 30
0.0
 11
0.1258053577
 21
0.17960762
 31
0.0
  0
LINE
  5
1AA
330
1F
100
AcDbEntity
  8
0
  6
Continuous
 62
     7
370
    25
100
AcDbLine
 10
0.1254713577
 20
0.17881062
 30
0.0
 11
0.1254713577
 21
0.17829762
 31
0.0
  0
LINE
  5
1AB
330
1F
100
AcDbEntity
  8
0
  6
Continuous
 62
     7
370
    25
100
AcDbLine
 10
0.1258053577
 20
0.17829762
 30
0.0
 11
0.1258053577
 21
0.17881062
 31
0.0
  0
LINE
  5
1AC
330
1F
100
AcDbEntity
  8
0
  6
Continuous
 62
     7
370
    25
100
AcDbLine
 10
0.0960700579
 20
0.16081362
 30
0.0
 11
0.0960700579
 21
0.16191062
 31
0.0
  0
LINE
  5
1AD
330
1F
100
AcDbEntity
  8
0
  6
Continuous
 62
     7
370
    25
100
AcDbLine
 10
0.0953960579
 20
0.16191062
 30
0.0
 11
0.0953960579
 21
0.16081362
 31
0.0
  0
LINE
  5
1AE
330
1F
100
AcDbEntity
  8
0
  6
Continuous
 62
     7
370
    25
100
AcDbLine
 10
0.0960700579
 20
0.17851062
 30
0.0
 11
0.0960700579
 21
0.1790062631
 31
0.0
  0
LINE
  5
1AF
330
1F
100
AcDbEntity
  8
0
  6
Continuous
 62
     7
370
    25
100
AcDbLine
 10
0.0960700579
 20
0.1793456743
 30
0.0
 11
0.0960700579
 21
0.17960762
 31
0.0
  0
LINE
  5
1B0
330
1F
100
AcDbEntity
  8
0
  6
Continuous
 62
     7
370
    25
100
AcDbLine
 10
0.0953960579
 20
0.17960762
 30
0.0
 11
0.0953960579
 21
0.17851062
 31
0.0
  0
LINE
  5
1B1
330
1F
100
AcDbEntity
  8
0
  6
Continuous
 62
     7
370
    25
100
AcDbLine
 10
0.0960700579
 20
0.17829762
 30
0.0
 11
0.0960700579
 21
0.17851062
 31
0.0
  0
LINE
  5
1B2
330
1F
100
AcDbEntity
  8
0
  6
Continuous
 62
     7
370
    25
100
AcDbLine
 10
0.0960700579
 20
0.17653762
 30
0.0
 11
0.0960700579
 21
0.17796362
 31
0.0
  0
LINE
  5
1B3
330
1F
100
AcDbEntity
  8
0
  6
Continuous
 62
     7
370
    25
100
AcDbLine
 10
0.0960700579
 20
0.17477762
 30
0.0
 11
0.0960700579
 21
0.17620362
 31
0.0
  0
LINE
  5
1B4
330
1F
100
AcDbEntity
  8
0
  6
Continuous
 62
     7
370
    25
100
AcDbLine
 10
0.0960700579
 20
0.17301762
 30
0.0
 11
0.0960700579
 21
0.17444362
 31
0.0
  0
LINE
  5
1B5
330
1F
100
AcDbEntity
  8
0
  6
Continuous
 62
     7
370
    25
100
AcDbLine
 10
0.0960700579
 20
0.17125762
 30
0.0
 11
0.0960700579
 21
0.17268362
 31
0.0
  0
LINE
  5
1B6
330
1F
100
AcDbEntity
  8
0
  6
Continuous
 62
     7
370
    25
100
AcDbLine
 10
0.0960700579
 20
0.16949762
 30
0.0
 11
0.0960700579
 21
0.17092362
 31
0.0
  0
LINE
  5
1B7
330
1F
100
AcDbEntity
  8
0
  6
Continuous
 62
     7
370
    25
100
AcDbLine
 10
0.0960700579
 20
0.16773762
 30
0.0
 11
0.0960700579
 21
0.16916362
 31
0.0
  0
LINE
  5
1B8
330
1F
100
AcDbEntity
  8
0
  6
Continuous
 62
     7
370
    25
100
AcDbLine
 10
0.0960700579
 20
0.16597762
 30
0.0
 11
0.0960700579
 21
0.16740362
 31
0.0
  0
LINE
  5
1B9
330
1F
100
AcDbEntity
  8
0
  6
Continuous
 62
     7
370
    25
100
AcDbLine
 10
0.0960700579
 20
0.16421762
 30
0.0
 11
0.0960700579
 21
0.16564362
 31
0.0
  0
LINE
  5
1BA
330
1F
100
AcDbEntity
  8
0
  6
Continuous
 62
     7
370
    25
100
AcDbLine
 10
0.0960700579
 20
0.16245762
 30
0.0
 11
0.0960700579
 21
0.16388362
 31
0.0
  0
LINE
  5
1BB
330
1F
100
AcDbEntity
  8
0
  6
Continuous
 62
     7
370
    25
100
AcDbLine
 10
0.0960700579
 20
0.16191062
 30
0.0
 11
0.0960700579
 21
0.16212362
 31
0.0
  0
LINE
  5
1BC
330
1F
100
AcDbEntity
  8
0
  6
Continuous
 62
     7
370
    25
100
AcDbLine
 10
0.0953960579
 20
0.16218062
 30
0.0
 11
0.0953960579
 21
0.16191062
 31
0.0
  0
LINE
  5
1BD
330
1F
100
AcDbEntity
  8
0
  6
Continuous
 62
     7
370
    25
100
AcDbLine
 10
0.0953960579
 20
0.16394062
 30
0.0
 11
0.0953960579
 21
0.162399127
 31
0.0
  0
LINE
  5
1BE
330
1F
100
AcDbEntity
  8
0
  6
Continuous
 62
     7
370
    25
100
AcDbLine
 10
0.0953960579
 20
0.16570062
 30
0.0
 11
0.0953960579
 21
0.164159127
 31
0.0
  0
LINE
  5
1BF
330
1F
100
AcDbEntity
  8
0
  6
Continuous
 62
     7
370
    25
100
AcDbLine
 10
0.0953960579
 20
0.16746062
 30
0.0
 11
0.0953960579
 21
0.165919127
 31
0.0
  0
LINE
  5
1C0
330
1F
100
AcDbEntity
  8
0
  6
Continuous
 62
     7
370
    25
100
AcDbLine
 10
0.0953960579
 20
0.16922062
 30
0.0
 11
0.0953960579
 21
0.167679127
 31
0.0
  0
LINE
  5
1C1
330
1F
100
AcDbEntity
  8
0
  6
Continuous
 62
     7
370
    25
100
AcDbLine
 10
0.0953960579
 20
0.17098062
 30
0.0
 11
0.0953960579
 21
0.169439127
 31
0.0
  0
LINE
  5
1C2
330
1F
100
AcDbEntity
  8
0
  6
Continuous
 62
     7
370
    25
100
AcDbLine
 10
0.0953960579
 20
0.17274062
 30
0.0
 11
0.0953960579
 21
0.171199127
 31
0.0
  0
LINE
  5
1C3
330
1F
100
AcDbEntity
  8
0
  6
Continuous
 62
     7
370
    25
100
AcDbLine
 10
0.0953960579
 20
0.17450062
 30
0.0
 11
0.0953960579
 21
0.172959127
 31
0.0
  0
LINE
  5
1C4
330
1F
100
AcDbEntity
  8
0
  6
Continuous
 62
     7
370
    25
100
AcDbLine
 10
0.0953960579
 20
0.17626062
 30
0.0
 11
0.0953960579
 21
0.174719127
 31
0.0
  0
LINE
  5
1C5
330
1F
100
AcDbEntity
  8
0
  6
Continuous
 62
     7
370
    25
100
AcDbLine
 10
0.0953960579
 20
0.17802062
 30
0.0
 11
0.0953960579
 21
0.176479127
 31
0.0
  0
LINE
  5
1C6
330
1F
100
AcDbEntity
  8
0
  6
Continuous
 62
     7
370
    25
100
AcDbLine
 10
0.0953960579
 20
0.17851062
 30
0.0
 11
0.0953960579
 21
0.178239127
 31
0.0
  0
LINE
  5
1C7
330
1F
100
AcDbEntity
  8
0
  6
Continuous
 62
     7
370
    25
100
AcDbLine
 10
0.1301960579
 20
0.17960762
 30
0.0
 11
0.1301960579
 21
0.17851062
 31
0.0
  0
LINE
  5
1C8
330
1F
100
AcDbEntity
  8
0
  6
Continuous
 62
     7
370
    25
100
AcDbLine
 10
0.1308700579
 20
0.17851062
 30
0.0
 11
0.1308700579
 21
0.17960762
 31
0.0
  0
LINE
  5
1C9
330
1F
100
AcDbEntity
  8
0
  6
Continuous
 62
     7
370
    25
100
AcDbLine
 10
0.1301960579
 20
0.16191062
 30
0.0
 11
0.1301960579
 21
0.16081362
 31
0.0
  0
LINE
  5
1CA
330
1F
100
AcDbEntity
  8
0
  6
Continuous
 62
     7
370
    25
100
AcDbLine
 10
0.1308700579
 20
0.16081362
 30
0.0
 11
0.1308700579
 21
0.16191062
 31
0.0
  0
LINE
  5
1CB
330
1F
100
AcDbEntity
  8
0
  6
Continuous
 62
     7
370
    25
100
AcDbLine
 10
0.1308700579
 20
0.178239127
 30
0.0
 11
0.1308700579
 21
0.17851062
 31
0.0
  0
LINE
  5
1CC
330
1F
100
AcDbEntity
  8
0
  6
Continuous
 62
     7
370
    25
100
AcDbLine
 10
0.1308700579
 20
0.176479127
 30
0.0
 11
0.1308700579
 21
0.17802062
 31
0.0
  0
LINE
  5
1CD
330
1F
100
AcDbEntity
  8
0
  6
Continuous
 62
     7
370
    25
100
AcDbLine
 10
0.1308700579
 20
0.174719127
 30
0.0
 11
0.1308700579
 21
0.17626062
 31
0.0
  0
LINE
  5
1CE
330
1F
100
AcDbEntity
  8
0
  6
Continuous
 62
     7
370
    25
100
AcDbLine
 10
0.1308700579
 20
0.172959127
 30
0.0
 11
0.1308700579
 21
0.17450062
 31
0.0
  0
LINE
  5
1CF
330
1F
100
AcDbEntity
  8
0
  6
Continuous
 62
     7
370
    25
100
AcDbLine
 10
0.1308700579
 20
0.171199127
 30
0.0
 11
0.1308700579
 21
0.17274062
 31
0.0
  0
LINE
  5
1D0
330
1F
100
AcDbEntity
  8
0
  6
Continuous
 62
     7
370
    25
100
AcDbLine
 10
0.1308700579
 20
0.169439127
 30
0.0
 11
0.1308700579
 21
0.17098062
 31
0.0
  0
LINE
  5
1D1
330
1F
100
AcDbEntity
  8
0
  6
Continuous
 62
     7
370
    25
100
AcDbLine
 10
0.1308700579
 20
0.167679127
 30
0.0
 11
0.1308700579
 21
0.16922062
 31
0.0
  0
LINE
  5
1D2
330
1F
100
AcDbEntity
  8
0
  6
Continuous
 62
     7
370
    25
100
AcDbLine
 10
0.1308700579
 20
0.165919127
 30
0.0
 11
0.1308700579
 21
0.16746062
 31
0.0
  0
LINE
  5
1D3
330
1F
100
AcDbEntity
  8
0
  6
Continuous
 62
     7
370
    25
100
AcDbLine
 10
0.1308700579
 20
0.164159127
 30
0.0
 11
0.1308700579
 21
0.16570062
 31
0.0
  0
LINE
  5
1D4
330
1F
100
AcDbEntity
  8
0
  6
Continuous
 62
     7
370
    25
100
AcDbLine
 10
0.1308700579
 20
0.162399127
 30
0.0
 11
0.1308700579
 21
0.16394062
 31
0.0
  0
LINE
  5
1D5
330
1F
100
AcDbEntity
  8
0
  6
Continuous
 62
     7
370
    25
100
AcDbLine
 10
0.1308700579
 20
0.16191062
 30
0.0
 11
0.1308700579
 21
0.16218062
 31
0.0
  0
LINE
  5
1D6
330
1F
100
AcDbEntity
  8
0
  6
Continuous
 62
     7
370
    25
100
AcDbLine
 10
0.1301960579
 20
0.16212362
 30
0.0
 11
0.1301960579
 21
0.16191062
 31
0.0
  0
LINE
  5
1D7
330
1F
100
AcDbEntity
  8
0
  6
Continuous
 62
     7
370
    25
100
AcDbLine
 10
0.1301960579
 20
0.16388362
 30
0.0
 11
0.1301960579
 21
0.16245762
 31
0.0
  0
LINE
  5
1D8
330
1F
100
AcDbEntity
  8
0
  6
Continuous
 62
     7
370
    25
100
AcDbLine
 10
0.1301960579
 20
0.16564362
 30
0.0
 11
0.1301960579
 21
0.16421762
 31
0.0
  0
LINE
  5
1D9
330
1F
100
AcDbEntity
  8
0
  6
Continuous
 62
     7
370
    25
100
AcDbLine
 10
0.1301960579
 20
0.16740362
 30
0.0
 11
0.1301960579
 21
0.16597762
 31
0.0
  0
LINE
  5
1DA
330
1F
100
AcDbEntity
  8
0
  6
Continuous
 62
     7
370
    25
100
AcDbLine
 10
0.1301960579
 20
0.16916362
 30
0.0
 11
0.1301960579
 21
0.16773762
 31
0.0
  0
LINE
  5
1DB
330
1F
100
AcDbEntity
  8
0
  6
Continuous
 62
     7
370
    25
100
AcDbLine
 10
0.1301960579
 20
0.17092362
 30
0.0
 11
0.1301960579
 21
0.16949762
 31
0.0
  0
LINE
  5
1DC
330
1F
100
AcDbEntity
  8
0
  6
Continuous
 62
     7
370
    25
100
AcDbLine
 10
0.1301960579
 20
0.17268362
 30
0.0
 11
0.1301960579
 21
0.17125762
 31
0.0
  0
LINE
  5
1DD
330
1F
100
AcDbEntity
  8
0
  6
Continuous
 62
     7
370
    25
100
AcDbLine
 10
0.1301960579
 20
0.17444362
 30
0.0
 11
0.1301960579
 21
0.17301762
 31
0.0
  0
LINE
  5
1DE
330
1F
100
AcDbEntity
  8
0
  6
Continuous
 62
     7
370
    25
100
AcDbLine
 10
0.1301960579
 20
0.17620362
 30
0.0
 11
0.1301960579
 21
0.17477762
 31
0.0
  0
LINE
  5
1DF
330
1F
100
AcDbEntity
  8
0
  6
Continuous
 62
     7
370
    25
100
AcDbLine
 10
0.1301960579
 20
0.17796362
 30
0.0
 11
0.1301960579
 21
0.17653762
 31
0.0
  0
LINE
  5
1E0
330
1F
100
AcDbEntity
  8
0
  6
Continuous
 62
     7
370
    25
100
AcDbLine
 10
0.1301960579
 20
0.17851062
 30
0.0
 11
0.1301960579
 21
0.17829762
 31
0.0
  0
LINE
  5
1E1
330
1F
100
AcDbEntity
  8
0
  6
Continuous
 62
     7
370
    25
100
AcDbLine
 10
0.0937862899
 20
0.15960762
 30
0.0
 11
0.132479826
 21
0.15960762
 31
0.0
  0
LINE
  5
1E2
330
1F
100
AcDbEntity
  8
0
  6
Continuous
 62
     7
370
    25
100
AcDbLine
 10
0.1324796262
 20
0.16081362
 30
0.0
 11
0.0937864897
 21
0.16081362
 31
0.0
  0
LINE
  5
1E3
330
1F
100
AcDbEntity
  8
0
  6
Continuous
 62
     7
370
    25
100
AcDbLine
 10
0.0937862899
 20
0.17960762
 30
0.0
 11
0.095468701
 21
0.17960762
 31
0.0
  0
LINE
  5
1E4
330
1F
100
AcDbEntity
  8
0
  6
Continuous
 62
     7
370
    25
100
AcDbLine
 10
0.0958081123
 20
0.17960762
 30
0.0
 11
0.132479826
 21
0.17960762
 31
0.0
  0
LINE
  5
1E5
330
1F
100
AcDbEntity
  8
0
  6
Continuous
 62
     7
370
    25
100
AcDbLine
 10
0.1324796262
 20
0.18081362
 30
0.0
 11
0.0947217841
 21
0.18081362
 31
0.0
  0
LINE
  5
1E6
330
1F
100
AcDbEntity
  8
0
  6
Continuous
 62
     7
370
    25
100
AcDbLine
 10
0.0942061325
 20
0.18081362
 30
0.0
 11
0.0937866967
 21
0.18081362
 31
0.0
  0
CIRCLE
  5
1E7
330
1F
100
AcDbEntity
  8
0
  6
Continuous
 62
     7
370
    25
100
AcDbCircle
 10
0.1331333257
 20
0.1602105662
 30
0.0
 40
0.0008813863777264
  0
CIRCLE
  5
1E8
330
1F
100
AcDbEntity
  8
0
  6
Continuous
 62
     7
370
    25
100
AcDbCircle
 10
0.1331333257
 20
0.1802105662
 30
0.0
 40
0.0008813863777266
  0
LINE
  5
1E9
330
1F
100
AcDbEntity
  8
0
  6
Continuous
 62
     7
370
    25
100
AcDbLine
 10
0.1426472756
 20
0.1702014276
 30
0.0
 11
0.1334764639
 21
0.1610306159
 31
0.0
  0
LINE
  5
1EA
330
1F
100
AcDbEntity
  8
0
  6
Continuous
 62
     7
370
    25
100
AcDbLine
 10
0.1339532362
 20
0.1605542083
 30
0.0
 11
0.1431238655
 21
0.1697248376
 31
0.0
  0
LINE
  5
1EB
330
1F
100
AcDbEntity
  8
0
  6
Continuous
 62
     7
370
    25
100
AcDbLine
 10
0.1431422503
 20
0.1697248376
 30
0.0
 11
0.152313062
 21
0.160554026
 31
0.0
  0
LINE
  5
1EC
330
1F
100
AcDbEntity
  8
0
  6
Continuous
 62
     7
370
    25
100
AcDbLine
 10
0.1527894697
 20
0.1610307982
 30
0.0
 11
0.1436188403
 21
0.1702014276
 31
0.0
  0
LINE
  5
1ED
330
1F
100
AcDbEntity
  8
0
  6
Continuous
 62
     7
370
    25
100
AcDbLine
 10
0.1334764639
 20
0.1793906241
 30
0.0
 11
0.1426472756
 21
0.1702198124
 31
0.0
  0
LINE
  5
1EE
330
1F
100
AcDbEntity
  8
0
  6
Continuous
 62
     7
370
    25
100
AcDbLine
 10
0.1431238655
 20
0.1706964024
 30
0.0
 11
0.1339535313
 21
0.1798667366
 31
0.0
  0
LINE
  5
1EF
330
1F
100
AcDbEntity
  8
0
  6
Continuous
 62
     7
370
    25
100
AcDbLine
 10
0.152313062
 20
0.179867214
 30
0.0
 11
0.1431422503
 21
0.1706964024
 31
0.0
  0
LINE
  5
1F0
330
1F
100
AcDbEntity
  8
0
  6
Continuous
 62
     7
370
    25
100
AcDbLine
 10
0.1436188403
 20
0.1702198124
 30
0.0
 11
0.1527891745
 21
0.1793901466
 31
0.0
  0
ARC
  5
1F1
330
1F
100
AcDbEntity
  8
0
  6
Continuous
 62
     7
370
    25
100
AcDbCircle
 10
0.07403844
 20
0.18021062
 30
0.0
 40
0.0001490747274042
100
AcDbArc
 50
28.00594401
 51
69.9053469508
  0
ARC
  5
1F2
330
1F
100
AcDbEntity
  8
0
  6
Continuous
 62
     7
370
    25
100
AcDbCircle
 10
0.07403844
 20
0.18021062
 30
0.0
 40
0.0001490747274042
100
AcDbArc
 50
290.0946530492
 51
331.99405599
  0
LINE
  5
1F3
330
1F
100
AcDbEntity
  8
0
  6
Continuous
 62
     7
370
    25
100
AcDbLine
 10
0.0740896579
 20
0.18035062
 30
0.0
 11
0.0740820579
 21
0.18035062
 31
0.0
  0
LINE
  5
1F4
330
1F
100
AcDbEntity
  8
0
  6
Continuous
 62
     7
370
    25
100
AcDbLine
 10
0.0740820579
 20
0.18007062
 30
0.0
 11
0.0740896579
 21
0.18007062
 31
0.0
  0
ARC
  5
1F5
330
1F
100
AcDbEntity
  8
0
  6
Continuous
 62
     7
370
    25
100
AcDbCircle
 10
0.0740740579
 20
0.18029862
 30
0.0
 40
0.000008
100
AcDbArc
 50
300.7816610705
 51
0.0
  0
ARC
  5
1F6
330
1F
100
AcDbEntity
  8
0
  6
Continuous
 62
     7
370
    25
100
AcDbCircle
 10
0.0740740579
 20
0.18012262
 30
0.0
 40
0.000008
100
AcDbArc
 50
0.0
 51
60.9854135491
  0
ARC
  5
1F7
330
1F
100
AcDbEntity
  8
0
  6
Continuous
 62
     7
370
    25
100
AcDbCircle
 10
0.1531330579
 20
0.1793052379
 30
0.0
 40
0.0001490747274042
100
AcDbArc
 50
298.00594401
 51
339.9053469508
  0
ARC
  5
1F8
330
1F
100
AcDbEntity
  8
0
  6
Continuous
 62
     7
370
    25
100
AcDbCircle
 10
0.1531330579
 20
0.1793052379
 30
0.0
 40
0.0001490747274042
100
AcDbArc
 50
200.0946530492
 51
241.99405599
  0
LINE
  5
1F9
330
1F
100
AcDbEntity
  8
0
  6
Continuous
 62
     7
370
    25
100
AcDbLine
 10
0.1532730579
 20
0.17925402
 30
0.0
 11
0.1532730579
 21
0.17926162
 31
0.0
  0
LINE
  5
1FA
330
1F
100
AcDbEntity
  8
0
  6
Continuous
 62
     7
370
    25
100
AcDbLine
 10
0.1529930579
 20
0.17926162
 30
0.0
 11
0.1529930579
 21
0.17925402
 31
0.0
  0
ARC
  5
1FB
330
1F
100
AcDbEntity
  8
0
  6
Continuous
 62
     7
370
    25
100
AcDbCircle
 10
0.1532210579
 20
0.17926962
 30
0.0
 40
0.000008
100
AcDbArc
 50
210.7816610706
 51
270.0
  0
ARC
  5
1FC
330
1F
100
AcDbEntity
  8
0
  6
Continuous
 62
     7
370
    25
100
AcDbCircle
 10
0.1530450579
 20
0.17926962
 30
0.0
 40
0.000008
100
AcDbArc
 50
270.0
 51
330.985413549
  0
ARC
  5
1FD
330
1F
100
AcDbEntity
  8
0
  6
Continuous
 62
     7
370
    25
100
AcDbCircle
 10
0.0922276758
 20
0.18021062
 30
0.0
 40
0.0001490747274042
100
AcDbArc
 50
208.00594401
 51
249.9053469508
  0
ARC
  5
1FE
330
1F
100
AcDbEntity
  8
0
  6
Continuous
 62
     7
370
    25
100
AcDbCircle
 10
0.0922276758
 20
0.18021062
 30
0.0
 40
0.0001490747274042
100
AcDbArc
 50
110.0946530492
 51
151.99405599
  0
LINE
  5
1FF
330
1F
100
AcDbEntity
  8
0
  6
Continuous
 62
     7
370
    25
100
AcDbLine
 10
0.0921764579
 20
0.18007062
 30
0.0
 11
0.0921840579
 21
0.18007062
 31
0.0
  0
LINE
  5
200
330
1F
100
AcDbEntity
  8
0
  6
Continuous
 62
     7
370
    25
100
AcDbLine
 10
0.0921840579
 20
0.18035062
 30
0.0
 11
0.0921764579
 21
0.18035062
 31
0.0
  0
ARC
  5
201
330
1F
100
AcDbEntity
  8
0
  6
Continuous
 62
     7
370
    25
100
AcDbCircle
 10
0.0921920579
 20
0.18012262
 30
0.0
 40
0.000008
100
AcDbArc
 50
120.7816610709
 51
180.0
  0
ARC
  5
202
330
1F
100
AcDbEntity
  8
0
  6
Continuous
 62
     7
370
    25
100
AcDbCircle
 10
0.0921920579
 20
0.18029862
 30
0.0
 40
0.000008
100
AcDbArc
 50
180.0
 51
240.9854135493
  0
ARC
  5
203
330
1F
100
AcDbEntity
  8
0
  6
Continuous
 62
     7
370
    25
100
AcDbCircle
 10
0.1531330579
 20
0.1611160021
 30
0.0
 40
0.0001490747274042
100
AcDbArc
 50
118.00594401
 51
159.9053469508
  0
ARC
  5
204
330
1F
100
AcDbEntity
  8
0
  6
Continuous
 62
     7
370
    25
100
AcDbCircle
 10
0.1531330579
 20
0.1611160021
 30
0.0
 40
0.0001490747274042
100
AcDbArc
 50
20.0946530492
 51
61.99405599
  0
LINE
  5
205
330
1F
100
AcDbEntity
  8
0
  6
Continuous
 62
     7
370
    25
100
AcDbLine
 10
0.1529930579
 20
0.16116722
 30
0.0
 11
0.1529930579
 21
0.16115962
 31
0.0
  0
LINE
  5
206
330
1F
100
AcDbEntity
  8
0
  6
Continuous
 62
     7
370
    25
100
AcDbLine
 10
0.1532730579
 20
0.16115962
 30
0.0
 11
0.1532730579
 21
0.16116722
 31
0.0
  0
ARC
  5
207
330
1F
100
AcDbEntity
  8
0
  6
Continuous
 62
     7
370
    25
100
AcDbCircle
 10
0.1530450579
 20
0.16115162
 30
0.0
 40
0.000008
100
AcDbArc
 50
30.7816610709
 51
90.0
  0
ARC
  5
208
330
1F
100
AcDbEntity
  8
0
  6
Continuous
 62
     7
370
    25
100
AcDbCircle
 10
0.1532210579
 20
0.16115162
 30
0.0
 40
0.000008
100
AcDbArc
 50
90.0
 51
150.9854135492
  0
LINE
  5
209
330
1F
100
AcDbEntity
  8
0
  6
Continuous
 62
     7
370
    25
100
AcDbLine
 10
0.1527960579
 20
0.1793282928
 30
0.0
 11
0.1527960579
 21
0.1793161928
 31
0.0
  0
LINE
  5
20A
330
1F
100
AcDbEntity
  8
0
  6
Continuous
 62
     7
370
    25
100
AcDbLine
 10
0.1527960579
 20
0.1611050472
 30
0.0
 11
0.1527960579
 21
0.1610928319
 31
0.0
  0
LINE
  5
20B
330
1F
100
AcDbEntity
  8
0
  6
Continuous
 62
     7
370
    25
100
AcDbLine
 10
0.1534700579
 20
0.1610929472
 30
0.0
 11
0.1534700579
 21
0.1658249423
 31
0.0
  0
LINE
  5
20C
330
1F
100
AcDbEntity
  8
0
  6
Continuous
 62
     7
370
    25
100
AcDbLine
 10
0.1534700579
 20
0.1745962977
 30
0.0
 11
0.1534700579
 21
0.1793284081
 31
0.0
  0
LINE
  5
20D
330
1F
100
AcDbEntity
  8
0
  6
Continuous
 62
     7
370
    25
100
AcDbLine
 10
0.0740153851
 20
0.17987362
 30
0.0
 11
0.092250846
 21
0.17987362
 31
0.0
  0
LINE
  5
20E
330
1F
100
AcDbEntity
  8
0
  6
Continuous
 62
     7
370
    25
100
AcDbLine
 10
0.0922507308
 20
0.18054762
 30
0.0
 11
0.0740152698
 21
0.18054762
 31
0.0
  0
ARC
  5
20F
330
1F
100
AcDbEntity
  8
0
  6
Continuous
 62
     7
370
    25
100
AcDbCircle
 10
0.0773872604
 20
0.1924169318
 30
0.0
 40
0.0016092081047042
100
AcDbArc
 50
39.3621780503
 51
95.9462098389
  0
LWPOLYLINE
  5
210
330
1F
100
AcDbEntity
  8
0
  6
Continuous
 62
     7
370
    25
100
AcDbPolyline
 90
       43
 70
   128
 43
0.0
 10
0.0772778048
 20
0.1939818881
 10
0.0772764015
 20
0.19398349
 10
0.0772705932
 20
0.1939874776
 10
0.077247329
 20
0.1940019092
 10
0.0772196889
 20
0.1940179854
 10
0.0771940585
 20
0.1940313797
 10
0.0771700816
 20
0.194042395
 10
0.0771421099
 20
0.1940536293
 10
0.0770723491
 20
0.1940760273
 10
0.0769996408
 20
0.1940927016
 10
0.0769327968
 20
0.1941027055
 10
0.0768707535
 20
0.1941067788
 10
0.0768283208
 20
0.194106016
 10
0.0767808409
 20
0.1941015995
 10
0.0767249202
 20
0.1940930223
 10
0.0766383107
 20
0.1940741693
 10
0.0765643708
 20
0.194053548
 10
0.0764753678
 20
0.1940238885
 10
0.0763940144
 20
0.1939881518
 10
0.0763224051
 20
0.1939471044
 10
0.0762739504
 20
0.1939136929
 10
0.0762246037
 20
0.1938754859
 10
0.0761715138
 20
0.1938315644
 10
0.0761173191
 20
0.1937866287
 10
0.0760714329
 20
0.1937509192
 10
0.0760331897
 20
0.1937241725
 10
0.0759840303
 20
0.1936948931
 10
0.0759194102
 20
0.1936625471
 10
0.0758446778
 20
0.1936289891
 10
0.075769237
 20
0.193596519
 10
0.0757110052
 20
0.1935710969
 10
0.0756575461
 20
0.1935464067
 10
0.0755937826
 20
0.1935138313
 10
0.0755312788
 20
0.1934766312
 10
0.0754777219
 20
0.1934382912
 10
0.0754350469
 20
0.1934011772
 10
0.0754108417
 20
0.1933763267
 10
0.0753877013
 20
0.1933489326
 10
0.0753650869
 20
0.1933173381
 10
0.0753448556
 20
0.1932830122
 10
0.0753233342
 20
0.1932357972
 10
0.0753039578
 20
0.1931726818
 10
0.0752913584
 20
0.1930896267
  0
LWPOLYLINE
  5
211
330
1F
100
AcDbEntity
  8
0
  6
Continuous
 62
     7
370
    25
100
AcDbPolyline
 90
       58
 70
   128
 43
0.0
 10
0.0902464601
 20
0.1889275151
 10
0.0901621068
 20
0.1890204842
 10
0.0900889722
 20
0.1891116169
 10
0.0900266598
 20
0.1891918404
 10
0.0899755853
 20
0.1892567401
 10
0.0899324823
 20
0.1893096982
 10
0.0898928161
 20
0.1893563424
 10
0.0898567763
 20
0.1893966044
 10
0.0898221005
 20
0.1894331971
 10
0.0897750661
 20
0.189479179
 10
0.0897123876
 20
0.189533757
 10
0.0896638501
 20
0.1895708909
 10
0.0896214043
 20
0.1895998468
 10
0.0895867633
 20
0.1896211915
 10
0.0895540921
 20
0.189639592
 10
0.0895141141
 20
0.1896601197
 10
0.0894629338
 20
0.1896838884
 10
0.0894109071
 20
0.1897059703
 10
0.0893633272
 20
0.1897250854
 10
0.0892786859
 20
0.1897585791
 10
0.0891901439
 20
0.1897954061
 10
0.0890878161
 20
0.1898433675
 10
0.089035565
 20
0.1898710475
 10
0.088992911
 20
0.1898954156
 10
0.0889612639
 20
0.1899143797
 10
0.0889250034
 20
0.189936743
 10
0.0888743987
 20
0.189968246
 10
0.0888319116
 20
0.1899938232
 10
0.0887973268
 20
0.1900131926
 10
0.0887751855
 20
0.1900246363
 10
0.0887561067
 20
0.190033758
 10
0.0887331428
 20
0.1900435234
 10
0.0887085474
 20
0.1900520816
 10
0.088682399
 20
0.1900589353
 10
0.0886550708
 20
0.1900650034
 10
0.0886278185
 20
0.1900724037
 10
0.0886007972
 20
0.1900809425
 10
0.0885728454
 20
0.1900891778
 10
0.0885338206
 20
0.1900980472
 10
0.0884909
 20
0.1901055512
 10
0.088445506
 20
0.1901116093
 10
0.0883978946
 20
0.1901159346
 10
0.0883194076
 20
0.1901181139
 10
0.0882441562
 20
0.1901131488
 10
0.0881703284
 20
0.1901001185
 10
0.088094822
 20
0.1900768835
 10
0.0880477029
 20
0.1900567623
 10
0.0880130368
 20
0.1900390205
 10
0.0879902142
 20
0.1900259124
 10
0.087965704
 20
0.1900104898
 10
0.0879338749
 20
0.1899884873
 10
0.0878951372
 20
0.1899590999
 10
0.0878414383
 20
0.1899151609
 10
0.087800168
 20
0.1898807689
 10
0.0877847646
 20
0.1898683146
 10
0.087774216
 20
0.1898600417
 10
0.0877692156
 20
0.1898561522
 10
0.0877695765
 20
0.1898562817
  0
ARC
  5
212
330
1F
100
AcDbEntity
  8
0
  6
Continuous
 62
     7
370
    25
100
AcDbCircle
 10
0.087728881
 20
0.1891305214
 30
0.0
 40
0.0007581404278204
100
AcDbArc
 50
84.2348012279
 51
161.4892019246
  0
ARC
  5
213
330
1F
100
AcDbEntity
  8
0
  6
Continuous
 62
     7
370
    25
100
AcDbCircle
 10
0.0823348214
 20
0.1848953024
 30
0.0
 40
0.0033993369668318
100
AcDbArc
 50
44.1399436482
 51
75.4625444309
  0
ARC
  5
214
330
1F
100
AcDbEntity
  8
0
  6
Continuous
 62
     7
370
    25
100
AcDbCircle
 10
0.0829078648
 20
0.187610174
 30
0.0
 40
0.0006402055406852
100
AcDbArc
 50
54.4686948832
 51
81.0145300526
  0
LWPOLYLINE
  5
215
330
1F
100
AcDbEntity
  8
0
  6
Continuous
 62
     7
370
    25
100
AcDbPolyline
 90
       41
 70
   128
 43
0.0
 10
0.0829169698
 20
0.1882515614
 10
0.0828472673
 20
0.1882547375
 10
0.0827624014
 20
0.1882519677
 10
0.0826860462
 20
0.1882433894
 10
0.0826172352
 20
0.1882299167
 10
0.0825602708
 20
0.1882135278
 10
0.0825086097
 20
0.188193451
 10
0.0824507689
 20
0.1881644207
 10
0.0823879195
 20
0.1881248498
 10
0.0823565007
 20
0.1881021397
 10
0.0823270703
 20
0.1880793614
 10
0.0822997907
 20
0.1880572648
 10
0.0822752116
 20
0.1880369357
 10
0.0822385661
 20
0.1880072914
 10
0.0822242922
 20
0.187996536
 10
0.0822154927
 20
0.1879903848
 10
0.0822078076
 20
0.1879856469
 10
0.0822031686
 20
0.1879832273
 10
0.0821987832
 20
0.1879812932
 10
0.0821908786
 20
0.1879783358
 10
0.0821753138
 20
0.1879732372
 10
0.0821515251
 20
0.1879663808
 10
0.0821225438
 20
0.1879588987
 10
0.0820591334
 20
0.1879439818
 10
0.08201227
 20
0.1879332507
 10
0.0819598108
 20
0.1879208337
 10
0.0819029196
 20
0.1879062172
 10
0.0818544101
 20
0.1878923127
 10
0.0818182103
 20
0.1878807979
 10
0.0817827598
 20
0.1878683772
 10
0.0817377593
 20
0.1878506839
 10
0.0816861122
 20
0.1878271595
 10
0.0816394004
 20
0.1878021574
 10
0.0815818313
 20
0.1877647751
 10
0.0815312022
 20
0.187723258
 10
0.0814834819
 20
0.1876722025
 10
0.0814437071
 20
0.1876135478
 10
0.0814269375
 20
0.1875806286
 10
0.0814097502
 20
0.1875372747
 10
0.0813939911
 20
0.1874797185
 10
0.0813831164
 20
0.1874048967
  0
ARC
  5
216
330
1F
100
AcDbEntity
  8
0
  6
Continuous
 62
     7
370
    25
100
AcDbCircle
 10
0.0906158458
 20
0.1854629167
 30
0.0
 40
0.0001198766236917
100
AcDbArc
 50
219.2986062659
 51
235.5571565101
  0
ARC
  5
217
330
1F
100
AcDbEntity
  8
0
  6
Continuous
 62
     7
370
    25
100
AcDbCircle
 10
0.0896288554
 20
0.1847458187
 30
0.0
 40
0.001104304267525
100
AcDbArc
 50
34.8411490591
 51
109.3113017543
  0
LWPOLYLINE
  5
218
330
1F
100
AcDbEntity
  8
0
  6
Continuous
 62
     7
370
    25
100
AcDbPolyline
 90
       11
 70
   128
 43
0.0
 10
0.0889240397
 20
0.1858185575
 10
0.0888780079
 20
0.1858115864
 10
0.0888331612
 20
0.185800653
 10
0.0888186645
 20
0.1857962753
 10
0.0888045214
 20
0.1857915305
 10
0.0887904834
 20
0.1857862369
 10
0.0887766619
 20
0.1857803546
 10
0.0887641331
 20
0.1857746354
 10
0.0887561639
 20
0.1857711349
 10
0.0887533997
 20
0.1857700451
 10
0.0887534157
 20
0.1857700508
  0
ARC
  5
219
330
1F
100
AcDbEntity
  8
0
  6
Continuous
 62
     7
370
    25
100
AcDbCircle
 10
0.0900031907
 20
0.1830599132
 30
0.0
 40
0.002984124037422
100
AcDbArc
 50
114.4599068307
 51
146.9281485761
  0
ARC
  5
21A
330
1F
100
AcDbEntity
  8
0
  6
Continuous
 62
     7
370
    25
100
AcDbCircle
 10
0.0843305606
 20
0.1899467926
 30
0.0
 40
0.0022231321707816
100
AcDbArc
 50
42.5157910023
 51
85.9680780473
  0
ARC
  5
21B
330
1F
100
AcDbEntity
  8
0
  6
Continuous
 62
     7
370
    25
100
AcDbCircle
 10
0.0840546404
 20
0.1904733043
 30
0.0
 40
0.0017203345014777
100
AcDbArc
 50
72.7503573673
 51
150.5352392851
  0
ARC
  5
21C
330
1F
100
AcDbEntity
  8
0
  6
Continuous
 62
     7
370
    25
100
AcDbCircle
 10
0.0879608974
 20
0.1929952749
 30
0.0
 40
0.0014136234837782
100
AcDbArc
 50
39.4103114002
 51
100.4619903948
  0
LWPOLYLINE
  5
21D
330
1F
100
AcDbEntity
  8
0
  6
Continuous
 62
     7
370
    25
100
AcDbPolyline
 90
       57
 70
   128
 43
0.0
 10
0.0877823129
 20
0.1943398777
 10
0.0877770862
 20
0.1943432648
 10
0.0877614219
 20
0.194352659
 10
0.0877372302
 20
0.1943671862
 10
0.0877117859
 20
0.1943815916
 10
0.0876872339
 20
0.1943939219
 10
0.0876635563
 20
0.1944041104
 10
0.0876340321
 20
0.1944146181
 10
0.0875756102
 20
0.1944304058
 10
0.0875087714
 20
0.1944428772
 10
0.0874502388
 20
0.194449736
 10
0.0873990056
 20
0.1944527186
 10
0.0873347969
 20
0.1944516904
 10
0.0872693697
 20
0.1944437675
 10
0.0871992745
 20
0.1944281798
 10
0.0871662348
 20
0.1944188409
 10
0.0871400608
 20
0.1944104487
 10
0.0871299181
 20
0.1944068978
 10
0.0871220481
 20
0.1944039666
 10
0.0871119251
 20
0.1944000761
 10
0.0870996395
 20
0.1943966134
 10
0.0870833642
 20
0.1943927418
 10
0.0870734693
 20
0.1943902909
 10
0.0870618267
 20
0.1943870579
 10
0.0870482176
 20
0.1943828622
 10
0.0870325431
 20
0.194377593
 10
0.0869951334
 20
0.1943635568
 10
0.0869565634
 20
0.1943471125
 10
0.0869158653
 20
0.1943274188
 10
0.0868848024
 20
0.1943106035
 10
0.0868493648
 20
0.1942893499
 10
0.086808699
 20
0.1942620339
 10
0.0867663012
 20
0.1942301755
 10
0.086727937
 20
0.1941987444
 10
0.0866950802
 20
0.194170317
 10
0.0866677721
 20
0.1941460092
 10
0.0866323397
 20
0.1941141785
 10
0.0865880184
 20
0.1940751122
 10
0.08653629
 20
0.1940324977
 10
0.0864656892
 20
0.1939821595
 10
0.0863881875
 20
0.1939357023
 10
0.0863091412
 20
0.1938928648
 10
0.0862395077
 20
0.1938561006
 10
0.0861991977
 20
0.1938344448
 10
0.0861630428
 20
0.1938143995
 10
0.0861307784
 20
0.1937957277
 10
0.0860954673
 20
0.1937740741
 10
0.0860514404
 20
0.1937445378
 10
0.0860059258
 20
0.193709722
 10
0.0859704444
 20
0.1936781514
 10
0.0859427818
 20
0.1936496354
 10
0.0859174595
 20
0.1936192444
 10
0.0858992697
 20
0.1935938287
 10
0.0858747433
 20
0.1935522943
 10
0.0858560382
 20
0.1935112378
 10
0.0858384042
 20
0.1934568755
 10
0.0858254151
 20
0.1933859742
  0
ARC
  5
21E
330
1F
100
AcDbEntity
  8
0
  6
Continuous
 62
     7
370
    25
100
AcDbCircle
 10
0.0785313611
 20
0.1887497945
 30
0.0
 40
0.0012212613753995
100
AcDbArc
 50
36.8144825449
 51
105.6029974589
  0
LWPOLYLINE
  5
21F
330
1F
100
AcDbEntity
  8
0
  6
Continuous
 62
     7
370
    25
100
AcDbPolyline
 90
       45
 70
   128
 43
0.0
 10
0.0778425834
 20
0.1899701952
 10
0.0778215718
 20
0.1899679609
 10
0.0777858891
 20
0.1899618727
 10
0.0777565584
 20
0.1899550644
 10
0.0777432252
 20
0.1899513325
 10
0.077730218
 20
0.1899471104
 10
0.0777175362
 20
0.1899422316
 10
0.0777001481
 20
0.1899342997
 10
0.0776878183
 20
0.1899290577
 10
0.0776813188
 20
0.1899275249
 10
0.0776851476
 20
0.1899295317
 10
0.0776848171
 20
0.1899299314
 10
0.0776815228
 20
0.1899295407
 10
0.0776786797
 20
0.189929025
 10
0.0776750043
 20
0.1899282819
 10
0.0776650847
 20
0.1899260643
 10
0.0776381005
 20
0.1899191861
 10
0.0776092711
 20
0.1899107429
 10
0.0775486142
 20
0.1898892139
 10
0.0774861657
 20
0.1898614307
 10
0.0774216432
 20
0.1898262478
 10
0.077354246
 20
0.1897814113
 10
0.0772927968
 20
0.1897328235
 10
0.0772350281
 20
0.1896812497
 10
0.0771700181
 20
0.1896190177
 10
0.0771104575
 20
0.1895617761
 10
0.0770512484
 20
0.1895084111
 10
0.0769717697
 20
0.1894463967
 10
0.0769072401
 20
0.1894024262
 10
0.076856739
 20
0.1893701508
 10
0.0768170367
 20
0.1893454293
 10
0.0767671147
 20
0.1893145362
 10
0.0767236489
 20
0.1892872336
 10
0.0766881496
 20
0.1892642176
 10
0.0766616875
 20
0.1892463887
 10
0.0766309473
 20
0.1892246627
 10
0.0765902308
 20
0.1891935393
 10
0.0765474856
 20
0.1891566171
 10
0.0765158909
 20
0.1891251532
 10
0.0764905665
 20
0.1890961643
 10
0.0764627471
 20
0.1890585868
 10
0.0764412853
 20
0.1890232865
 10
0.0764206598
 20
0.1889805551
 10
0.0764025098
 20
0.1889288994
 10
0.0763888797
 20
0.1888664416
  0
ARC
  5
220
330
1F
100
AcDbEntity
  8
0
  6
Continuous
 62
     7
370
    25
100
AcDbCircle
 10
0.0793490209
 20
0.1839546123
 30
0.0
 40
0.0011092455844154
100
AcDbArc
 50
34.4574425602
 51
109.2413843625
  0
ARC
  5
221
330
1F
100
AcDbEntity
  8
0
  6
Continuous
 62
     7
370
    25
100
AcDbCircle
 10
0.0787327419
 20
0.1844253187
 30
0.0
 40
0.0006077720102773
100
AcDbArc
 50
97.8131297428
 51
114.7652219118
  0
ARC
  5
222
330
1F
100
AcDbEntity
  8
0
  6
Continuous
 62
     7
370
    25
100
AcDbCircle
 10
0.0796659675
 20
0.1823843966
 30
0.0
 40
0.002851522450691
100
AcDbArc
 50
114.290628464
 51
148.1878132882
  0
LINE
  5
223
330
1F
100
AcDbEntity
  8
0
  6
Continuous
 62
     7
370
    25
100
AcDbLine
 10
0.0734700579
 20
0.1815666937
 30
0.0
 11
0.0927960579
 21
0.1815666937
 31
0.0
  0
LINE
  5
224
330
1F
100
AcDbEntity
  8
0
  6
Continuous
 62
     7
370
    25
100
AcDbLine
 10
0.0734700579
 20
0.18161062
 30
0.0
 11
0.0734700579
 21
0.181739084
 31
0.0
  0
LINE
  5
225
330
1F
100
AcDbEntity
  8
0
  6
Continuous
 62
     7
370
    25
100
AcDbLine
 10
0.0734700579
 20
0.1952050678
 30
0.0
 11
0.0734700579
 21
0.19575062
 31
0.0
  0
LINE
  5
226
330
1F
100
AcDbEntity
  8
0
  6
Continuous
 62
     7
370
    25
100
AcDbLine
 10
0.0727960579
 20
0.19575062
 30
0.0
 11
0.0727960579
 21
0.18161062
 31
0.0
  0
LINE
  5
227
330
1F
100
AcDbEntity
  8
0
  6
Continuous
 62
     7
370
    25
100
AcDbLine
 10
0.0934700579
 20
0.18161062
 30
0.0
 11
0.0934700579
 21
0.19575062
 31
0.0
  0
LINE
  5
228
330
1F
100
AcDbEntity
  8
0
  6
Continuous
 62
     7
370
    25
100
AcDbLine
 10
0.0927960579
 20
0.19575062
 30
0.0
 11
0.0927960579
 21
0.1952050678
 31
0.0
  0
LINE
  5
229
330
1F
100
AcDbEntity
  8
0
  6
Continuous
 62
     7
370
    25
100
AcDbLine
 10
0.0927960579
 20
0.181739084
 30
0.0
 11
0.0927960579
 21
0.18161062
 31
0.0
  0
LINE
  5
22A
330
1F
100
AcDbEntity
  8
0
  6
Continuous
 62
     7
370
    25
100
AcDbLine
 10
0.0934700579
 20
0.1810929449
 30
0.0
 11
0.0934700579
 21
0.18161062
 31
0.0
  0
LINE
  5
22B
330
1F
100
AcDbEntity
  8
0
  6
Continuous
 62
     7
370
    25
100
AcDbLine
 10
0.0927960579
 20
0.18161062
 30
0.0
 11
0.0927960579
 21
0.1810928322
 31
0.0
  0
LINE
  5
22C
330
1F
100
AcDbEntity
  8
0
  6
Continuous
 62
     7
370
    25
100
AcDbLine
 10
0.0734700579
 20
0.1810929472
 30
0.0
 11
0.0734700579
 21
0.18161062
 31
0.0
  0
LINE
  5
22D
330
1F
100
AcDbEntity
  8
0
  6
Continuous
 62
     7
370
    25
100
AcDbLine
 10
0.0727960579
 20
0.18161062
 30
0.0
 11
0.0727960579
 21
0.1810928319
 31
0.0
  0
LINE
  5
22E
330
1F
100
AcDbEntity
  8
0
  6
Continuous
 62
     7
370
    25
100
AcDbLine
 10
0.1784160579
 20
0.18054762
 30
0.0
 11
0.1540153141
 21
0.18054762
 31
0.0
  0
LINE
  5
22F
330
1F
100
AcDbEntity
  8
0
  6
Continuous
 62
     7
370
    25
100
AcDbLine
 10
0.1540154956
 20
0.17987362
 30
0.0
 11
0.1586812145
 21
0.17987362
 31
0.0
  0
LINE
  5
230
330
1F
100
AcDbEntity
  8
0
  6
Continuous
 62
     7
370
    25
100
AcDbLine
 10
0.158996398
 20
0.17987362
 30
0.0
 11
0.1659342171
 21
0.17987362
 31
0.0
  0
LINE
  5
231
330
1F
100
AcDbEntity
  8
0
  6
Continuous
 62
     7
370
    25
100
AcDbLine
 10
0.166211218
 20
0.17987362
 30
0.0
 11
0.1719796782
 21
0.17987362
 31
0.0
  0
LINE
  5
232
330
1F
100
AcDbEntity
  8
0
  6
Continuous
 62
     7
370
    25
100
AcDbLine
 10
0.1721930109
 20
0.17987362
 30
0.0
 11
0.1762431312
 21
0.17987362
 31
0.0
  0
LINE
  5
233
330
1F
100
AcDbEntity
  8
0
  6
Continuous
 62
     7
370
    25
100
AcDbLine
 10
0.176386412
 20
0.17987362
 30
0.0
 11
0.1783256575
 21
0.17987362
 31
0.0
  0
LINE
  5
234
330
1F
100
AcDbEntity
  8
0
  6
Continuous
 62
     7
370
    25
100
AcDbLine
 10
0.1784067085
 20
0.17987362
 30
0.0
 11
0.1784160579
 21
0.17987362
 31
0.0
  0
LINE
  5
235
330
1F
100
AcDbEntity
  8
0
  6
Continuous
 62
     7
370
    25
100
AcDbLine
 10
0.1784160579
 20
0.16054762
 30
0.0
 11
0.1784043041
 21
0.16054762
 31
0.0
  0
LINE
  5
236
330
1F
100
AcDbEntity
  8
0
  6
Continuous
 62
     7
370
    25
100
AcDbLine
 10
0.1783282069
 20
0.16054762
 30
0.0
 11
0.1763849732
 21
0.16054762
 31
0.0
  0
LINE
  5
237
330
1F
100
AcDbEntity
  8
0
  6
Continuous
 62
     7
370
    25
100
AcDbLine
 10
0.1762455187
 20
0.16054762
 30
0.0
 11
0.1721948212
 21
0.16054762
 31
0.0
  0
LINE
  5
238
330
1F
100
AcDbEntity
  8
0
  6
Continuous
 62
     7
370
    25
100
AcDbLine
 10
0.1719785973
 20
0.16054762
 30
0.0
 11
0.1662107983
 21
0.16054762
 31
0.0
  0
LINE
  5
239
330
1F
100
AcDbEntity
  8
0
  6
Continuous
 62
     7
370
    25
100
AcDbLine
 10
0.1659353081
 20
0.16054762
 30
0.0
 11
0.1589955261
 21
0.16054762
 31
0.0
  0
LINE
  5
23A
330
1F
100
AcDbEntity
  8
0
  6
Continuous
 62
     7
370
    25
100
AcDbLine
 10
0.1586821719
 20
0.16054762
 30
0.0
 11
0.1540153138
 21
0.16054762
 31
0.0
  0
LINE
  5
23B
330
1F
100
AcDbEntity
  8
0
  6
Continuous
 62
     7
370
    25
100
AcDbLine
 10
0.1540154979
 20
0.15987362
 30
0.0
 11
0.1784160579
 21
0.15987362
 31
0.0
  0
ARC
  5
23C
330
1F
100
AcDbEntity
  8
0
  6
Continuous
 62
     7
370
    25
100
AcDbCircle
 10
0.2106363224
 20
0.1702106183
 30
0.0
 40
0.0531212115914921
100
AcDbArc
 50
169.5192731485
 51
190.4807231867
  0
ARC
  5
23D
330
1F
100
AcDbEntity
  8
0
  6
Continuous
 62
     7
370
    25
100
AcDbCircle
 10
0.2102145967
 20
0.1702102236
 30
0.0
 40
0.0520291600333602
100
AcDbArc
 50
169.2962810283
 51
190.7028303956
  0
ARC
  5
23E
330
1F
100
AcDbEntity
  8
0
  6
Continuous
 62
     7
370
    25
100
AcDbCircle
 10
0.1881264097
 20
0.1702110006
 30
0.0
 40
0.0246135142939663
100
AcDbArc
 50
156.8852599083
 51
203.1166669326
  0
ARC
  5
23F
330
1F
100
AcDbEntity
  8
0
  6
Continuous
 62
     7
370
    25
100
AcDbCircle
 10
0.1878752694
 20
0.170210598
 30
0.0
 40
0.0236965480378368
100
AcDbArc
 50
155.9541647784
 51
204.0446691457
  0
ARC
  5
240
330
1F
100
AcDbEntity
  8
0
  6
Continuous
 62
     7
370
    25
100
AcDbCircle
 10
0.186328058
 20
0.1702109581
 30
0.0
 40
0.0178106863860535
100
AcDbArc
 50
147.1446166815
 51
212.8579729389
  0
ARC
  5
241
330
1F
100
AcDbEntity
  8
0
  6
Continuous
 62
     7
370
    25
100
AcDbCircle
 10
0.1861941173
 20
0.1702105472
 30
0.0
 40
0.0170107539523137
100
AcDbArc
 50
145.4044721271
 51
214.5955769737
  0
ARC
  5
242
330
1F
100
AcDbEntity
  8
0
  6
Continuous
 62
     7
370
    25
100
AcDbCircle
 10
0.1873225493
 20
0.1702106911
 30
0.0
 40
0.0152773923392456
100
AcDbArc
 50
140.7652954048
 51
219.235392843
  0
ARC
  5
243
330
1F
100
AcDbEntity
  8
0
  6
Continuous
 62
     7
370
    25
100
AcDbCircle
 10
0.1872749629
 20
0.1702102845
 30
0.0
 40
0.0145597462546333
100
AcDbArc
 50
138.3322419578
 51
221.6630426935
  0
ARC
  5
244
330
1F
100
AcDbEntity
  8
0
  6
Continuous
 62
     7
370
    25
100
AcDbCircle
 10
0.1881427668
 20
0.1702105379
 30
0.0
 40
0.0143940484164428
100
AcDbArc
 50
137.8306019148
 51
222.1685166754
  0
ARC
  5
245
330
1F
100
AcDbEntity
  8
0
  6
Continuous
 62
     7
370
    25
100
AcDbCircle
 10
0.1881408166
 20
0.1702102968
 30
0.0
 40
0.0137183603672204
100
AcDbArc
 50
135.0064796072
 51
224.9900567846
  0
LINE
  5
246
330
1F
100
AcDbEntity
  8
0
  6
Continuous
 62
     7
370
    25
100
AcDbLine
 10
0.1523104086
 20
0.16054762
 30
0.0
 11
0.1521149646
 21
0.16054762
 31
0.0
  0
LINE
  5
247
330
1F
100
AcDbEntity
  8
0
  6
Continuous
 62
     7
370
    25
100
AcDbLine
 10
0.1341511513
 20
0.16054762
 30
0.0
 11
0.1339557073
 21
0.16054762
 31
0.0
  0
LINE
  5
248
330
1F
100
AcDbEntity
  8
0
  6
Continuous
 62
     7
370
    25
100
AcDbLine
 10
0.1339558313
 20
0.15987362
 30
0.0
 11
0.140393266
 21
0.15987362
 31
0.0
  0
LINE
  5
249
330
1F
100
AcDbEntity
  8
0
  6
Continuous
 62
     7
370
    25
100
AcDbLine
 10
0.1458728499
 20
0.15987362
 30
0.0
 11
0.1523102831
 21
0.15987362
 31
0.0
  0
LINE
  5
24A
330
1F
100
AcDbEntity
  8
0
  6
Continuous
 62
     7
370
    25
100
AcDbLine
 10
0.1378630579
 20
0.1198608122
 30
0.0
 11
0.1382430579
 21
0.1198608122
 31
0.0
  0
LINE
  5
24B
330
1F
100
AcDbEntity
  8
0
  6
Continuous
 62
     7
370
    25
100
AcDbLine
 10
0.1478830579
 20
0.1198608122
 30
0.0
 11
0.1482630579
 21
0.1198608122
 31
0.0
  0
LINE
  5
24C
330
1F
100
AcDbEntity
  8
0
  6
Continuous
 62
     7
370
    25
100
AcDbLine
 10
0.1382430579
 20
0.1206608122
 30
0.0
 11
0.1478830579
 21
0.1206608122
 31
0.0
  0
ARC
  5
24D
330
1F
100
AcDbEntity
  8
0
  6
Continuous
 62
     7
370
    25
100
AcDbCircle
 10
0.0944684395
 20
0.180612998
 30
0.0
 40
0.0001490747274042
100
AcDbArc
 50
155.0946530492
 51
196.99405599
  0
ARC
  5
24E
330
1F
100
AcDbEntity
  8
0
  6
Continuous
 62
     7
370
    25
100
AcDbCircle
 10
0.0944684395
 20
0.180612998
 30
0.0
 40
0.0001490747274042
100
AcDbArc
 50
253.00594401
 51
294.9053469508
  0
LINE
  5
24F
330
1F
100
AcDbEntity
  8
0
  6
Continuous
 62
     7
370
    25
100
AcDbLine
 10
0.094531218
 20
0.1804777865
 30
0.0
 11
0.094536592
 21
0.1804831605
 31
0.0
  0
LINE
  5
250
330
1F
100
AcDbEntity
  8
0
  6
Continuous
 62
     7
370
    25
100
AcDbLine
 10
0.0943386021
 20
0.1806811504
 30
0.0
 11
0.0943332281
 21
0.1806757764
 31
0.0
  0
LINE
  5
251
330
1F
100
AcDbEntity
  8
0
  6
Continuous
 62
     7
370
    25
100
AcDbLine
 10
0.1540896579
 20
0.18035062
 30
0.0
 11
0.1540820579
 21
0.18035062
 31
0.0
  0
LINE
  5
252
330
1F
100
AcDbEntity
  8
0
  6
Continuous
 62
     7
370
    25
100
AcDbLine
 10
0.1540820579
 20
0.18007062
 30
0.0
 11
0.1540896579
 21
0.18007062
 31
0.0
  0
ARC
  5
253
330
1F
100
AcDbEntity
  8
0
  6
Continuous
 62
     7
370
    25
100
AcDbCircle
 10
0.15403844
 20
0.18021062
 30
0.0
 40
0.0001490747274042
100
AcDbArc
 50
28.00594401
 51
69.9053469508
  0
ARC
  5
254
330
1F
100
AcDbEntity
  8
0
  6
Continuous
 62
     7
370
    25
100
AcDbCircle
 10
0.15403844
 20
0.18021062
 30
0.0
 40
0.0001490747274042
100
AcDbArc
 50
290.0946530492
 51
331.99405599
  0
ARC
  5
255
330
1F
100
AcDbEntity
  8
0
  6
Continuous
 62
     7
370
    25
100
AcDbCircle
 10
0.1540740579
 20
0.18029862
 30
0.0
 40
0.000008
100
AcDbArc
 50
300.773070914
 51
359.9999999996
  0
ARC
  5
256
330
1F
100
AcDbEntity
  8
0
  6
Continuous
 62
     7
370
    25
100
AcDbCircle
 10
0.1540740579
 20
0.18012262
 30
0.0
 40
0.000008
100
AcDbArc
 50
0.0000000002
 51
60.9923126011
  0
LINE
  5
257
330
1F
100
AcDbEntity
  8
0
  6
Continuous
 62
     7
370
    25
100
AcDbLine
 10
0.0929930579
 20
0.18116722
 30
0.0
 11
0.0929930579
 21
0.18115962
 31
0.0
  0
LINE
  5
258
330
1F
100
AcDbEntity
  8
0
  6
Continuous
 62
     7
370
    25
100
AcDbLine
 10
0.0932730579
 20
0.18115962
 30
0.0
 11
0.0932730579
 21
0.18116722
 31
0.0
  0
ARC
  5
259
330
1F
100
AcDbEntity
  8
0
  6
Continuous
 62
     7
370
    25
100
AcDbCircle
 10
0.0931330579
 20
0.1811160021
 30
0.0
 40
0.0001490747274042
100
AcDbArc
 50
118.00594401
 51
159.9053469508
  0
ARC
  5
25A
330
1F
100
AcDbEntity
  8
0
  6
Continuous
 62
     7
370
    25
100
AcDbCircle
 10
0.0931330579
 20
0.1811160021
 30
0.0
 40
0.0001490747274042
100
AcDbArc
 50
20.0946530492
 51
61.99405599
  0
ARC
  5
25B
330
1F
100
AcDbEntity
  8
0
  6
Continuous
 62
     7
370
    25
100
AcDbCircle
 10
0.0930450579
 20
0.18115162
 30
0.0
 40
0.000008
100
AcDbArc
 50
30.7730709141
 51
89.9999999998
  0
ARC
  5
25C
330
1F
100
AcDbEntity
  8
0
  6
Continuous
 62
     7
370
    25
100
AcDbCircle
 10
0.0932210579
 20
0.18115162
 30
0.0
 40
0.000008
100
AcDbArc
 50
90.0000000003
 51
150.9923126014
  0
LINE
  5
25D
330
1F
100
AcDbEntity
  8
0
  6
Continuous
 62
     7
370
    25
100
AcDbLine
 10
0.1437974505
 20
0.1694956148
 30
0.0
 11
0.1438028245
 21
0.1695009888
 31
0.0
  0
LINE
  5
25E
330
1F
100
AcDbEntity
  8
0
  6
Continuous
 62
     7
370
    25
100
AcDbLine
 10
0.1436048346
 20
0.1696989787
 30
0.0
 11
0.1435994606
 21
0.1696936047
 31
0.0
  0
ARC
  5
25F
330
1F
100
AcDbEntity
  8
0
  6
Continuous
 62
     7
370
    25
100
AcDbCircle
 10
0.143734672
 20
0.1696308263
 30
0.0
 40
0.0001490747274042
100
AcDbArc
 50
155.0946530492
 51
196.99405599
  0
ARC
  5
260
330
1F
100
AcDbEntity
  8
0
  6
Continuous
 62
     7
370
    25
100
AcDbCircle
 10
0.143734672
 20
0.1696308263
 30
0.0
 40
0.0001490747274042
100
AcDbArc
 50
253.00594401
 51
294.9053469508
  0
LINE
  5
261
330
1F
100
AcDbEntity
  8
0
  6
Continuous
 62
     7
370
    25
100
AcDbLine
 10
0.0729930579
 20
0.18116722
 30
0.0
 11
0.0729930579
 21
0.18115962
 31
0.0
  0
LINE
  5
262
330
1F
100
AcDbEntity
  8
0
  6
Continuous
 62
     7
370
    25
100
AcDbLine
 10
0.0732730579
 20
0.18115962
 30
0.0
 11
0.0732730579
 21
0.18116722
 31
0.0
  0
ARC
  5
263
330
1F
100
AcDbEntity
  8
0
  6
Continuous
 62
     7
370
    25
100
AcDbCircle
 10
0.0731330579
 20
0.1811160021
 30
0.0
 40
0.0001490747274042
100
AcDbArc
 50
118.00594401
 51
159.9053469508
  0
ARC
  5
264
330
1F
100
AcDbEntity
  8
0
  6
Continuous
 62
     7
370
    25
100
AcDbCircle
 10
0.0731330579
 20
0.1811160021
 30
0.0
 40
0.0001490747274042
100
AcDbArc
 50
20.0946530492
 51
61.99405599
  0
ARC
  5
265
330
1F
100
AcDbEntity
  8
0
  6
Continuous
 62
     7
370
    25
100
AcDbCircle
 10
0.0730450579
 20
0.18115162
 30
0.0
 40
0.000008
100
AcDbArc
 50
30.7816610704
 51
89.9999999998
  0
ARC
  5
266
330
1F
100
AcDbEntity
  8
0
  6
Continuous
 62
     7
370
    25
100
AcDbCircle
 10
0.0732210579
 20
0.18115162
 30
0.0
 40
0.000008
100
AcDbArc
 50
90.0000000003
 51
150.9854135492
  0
LINE
  5
267
330
1F
100
AcDbEntity
  8
0
  6
Continuous
 62
     7
370
    25
100
AcDbLine
 10
0.1540896579
 20
0.16035062
 30
0.0
 11
0.1540820579
 21
0.16035062
 31
0.0
  0
LINE
  5
268
330
1F
100
AcDbEntity
  8
0
  6
Continuous
 62
     7
370
    25
100
AcDbLine
 10
0.1540820579
 20
0.16007062
 30
0.0
 11
0.1540896579
 21
0.16007062
 31
0.0
  0
ARC
  5
269
330
1F
100
AcDbEntity
  8
0
  6
Continuous
 62
     7
370
    25
100
AcDbCircle
 10
0.15403844
 20
0.16021062
 30
0.0
 40
0.0001490747274042
100
AcDbArc
 50
28.00594401
 51
69.9053469508
  0
ARC
  5
26A
330
1F
100
AcDbEntity
  8
0
  6
Continuous
 62
     7
370
    25
100
AcDbCircle
 10
0.15403844
 20
0.16021062
 30
0.0
 40
0.0001490747274042
100
AcDbArc
 50
290.0946530492
 51
331.99405599
  0
ARC
  5
26B
330
1F
100
AcDbEntity
  8
0
  6
Continuous
 62
     7
370
    25
100
AcDbCircle
 10
0.1540740579
 20
0.16029862
 30
0.0
 40
0.000008
100
AcDbArc
 50
300.7816610707
 51
359.9999999998
  0
ARC
  5
26C
330
1F
100
AcDbEntity
  8
0
  6
Continuous
 62
     7
370
    25
100
AcDbCircle
 10
0.1540740579
 20
0.16012262
 30
0.0
 40
0.000008
100
AcDbArc
 50
0.0000000004
 51
60.9854135492
  0
ARC
  5
26D
330
1F
100
AcDbEntity
  8
0
  6
Continuous
 62
     7
370
    25
100
AcDbCircle
 10
0.0944885087
 20
0.1809074246
 30
0.0
 40
0.000006
100
AcDbArc
 50
135.0
 51
224.9999999998
  0
ARC
  5
26E
330
1F
100
AcDbEntity
  8
0
  6
Continuous
 62
     7
370
    25
100
AcDbCircle
 10
0.0947628661
 20
0.1806330671
 30
0.0
 40
0.000006
100
AcDbArc
 50
225.0000000002
 51
315.0000000001
  0
LINE
  5
26F
330
1F
100
AcDbEntity
  8
0
  6
Continuous
 62
     7
370
    25
100
AcDbLine
 10
0.0947671088
 20
0.1806288245
 30
0.0
 11
0.0947753885
 21
0.1806371042
 31
0.0
  0
LINE
  5
270
330
1F
100
AcDbEntity
  8
0
  6
Continuous
 62
     7
370
    25
100
AcDbLine
 10
0.0944925458
 20
0.180919947
 30
0.0
 11
0.0944842661
 21
0.1809116672
 31
0.0
  0
ARC
  5
271
330
1F
100
AcDbEntity
  8
0
  6
Continuous
 62
     7
370
    25
100
AcDbCircle
 10
0.0947711459
 20
0.1806413469
 30
0.0
 40
0.000006
100
AcDbArc
 50
315.0000000001
 51
357.0412668334
  0
ARC
  5
272
330
1F
100
AcDbEntity
  8
0
  6
Continuous
 62
     7
370
    25
100
AcDbCircle
 10
0.0944967885
 20
0.1809157043
 30
0.0
 40
0.000006
100
AcDbArc
 50
92.9587331668
 51
135.0
  0
ARC
  5
273
330
1F
100
AcDbEntity
  8
0
  6
Continuous
 62
     7
370
    25
100
AcDbCircle
 10
0.0945102719
 20
0.1806548303
 30
0.0
 40
0.0002672222222222
100
AcDbArc
 50
58.2393588421
 51
92.9587331667
  0
ARC
  5
274
330
1F
100
AcDbEntity
  8
0
  6
Continuous
 62
     7
370
    25
100
AcDbCircle
 10
0.0945102719
 20
0.1806548303
 30
0.0
 40
0.0002672222222222
100
AcDbArc
 50
357.0412668333
 51
31.7606411579
  0
LINE
  5
275
330
1F
100
AcDbEntity
  8
0
  6
Continuous
 62
     7
370
    25
100
AcDbLine
 10
0.1439210428
 20
0.169897417
 30
0.0
 11
0.1439171626
 21
0.1698998655
 31
0.0
  0
LINE
  5
276
330
1F
100
AcDbEntity
  8
0
  6
Continuous
 62
     7
370
    25
100
AcDbLine
 10
0.1440037113
 20
0.1698133169
 30
0.0
 11
0.1440012628
 21
0.169817197
 31
0.0
  0
ARC
  5
277
330
1F
100
AcDbEntity
  8
0
  6
Continuous
 62
     7
370
    25
100
AcDbCircle
 10
0.1437547412
 20
0.1699252529
 30
0.0
 40
0.000006
100
AcDbArc
 50
134.9999999998
 51
224.9999999998
  0
ARC
  5
278
330
1F
100
AcDbEntity
  8
0
  6
Continuous
 62
     7
370
    25
100
AcDbCircle
 10
0.1440290986
 20
0.1696508954
 30
0.0
 40
0.000006
100
AcDbArc
 50
225.0000000002
 51
315.0
  0
LINE
  5
279
330
1F
100
AcDbEntity
  8
0
  6
Continuous
 62
     7
370
    25
100
AcDbLine
 10
0.1440333413
 20
0.1696466528
 30
0.0
 11
0.144041621
 21
0.1696549325
 31
0.0
  0
LINE
  5
27A
330
1F
100
AcDbEntity
  8
0
  6
Continuous
 62
     7
370
    25
100
AcDbLine
 10
0.1437587783
 20
0.1699377753
 30
0.0
 11
0.1437504986
 21
0.1699294955
 31
0.0
  0
ARC
  5
27B
330
1F
100
AcDbEntity
  8
0
  6
Continuous
 62
     7
370
    25
100
AcDbCircle
 10
0.1440373784
 20
0.1696591752
 30
0.0
 40
0.000006
100
AcDbArc
 50
315.0
 51
357.0412668334
  0
ARC
  5
27C
330
1F
100
AcDbEntity
  8
0
  6
Continuous
 62
     7
370
    25
100
AcDbCircle
 10
0.143763021
 20
0.1699335326
 30
0.0
 40
0.000006
100
AcDbArc
 50
92.9587331666
 51
135.0
  0
ARC
  5
27D
330
1F
100
AcDbEntity
  8
0
  6
Continuous
 62
     7
370
    25
100
AcDbCircle
 10
0.1437765044
 20
0.1696726586
 30
0.0
 40
0.0002672222222222
100
AcDbArc
 50
58.2393588421
 51
92.9587331667
  0
ARC
  5
27E
330
1F
100
AcDbEntity
  8
0
  6
Continuous
 62
     7
370
    25
100
AcDbCircle
 10
0.1437765044
 20
0.1696726586
 30
0.0
 40
0.0002672222222222
100
AcDbArc
 50
357.0412668333
 51
31.7606411579
  0
LINE
  5
27F
330
1F
100
AcDbEntity
  8
0
  6
Continuous
 62
     7
370
    25
100
AcDbLine
 10
0.0946548103
 20
0.1808795888
 30
0.0
 11
0.0946509301
 21
0.1808820372
 31
0.0
  0
LINE
  5
280
330
1F
100
AcDbEntity
  8
0
  6
Continuous
 62
     7
370
    25
100
AcDbLine
 10
0.0947374788
 20
0.1807954886
 30
0.0
 11
0.0947350303
 21
0.1807993688
 31
0.0
  0
LINE
  5
281
330
1F
100
AcDbEntity
  8
0
  6
Continuous
 62
     7
370
    25
100
AcDbLine
 10
0.1438735352
 20
0.1694302781
 30
0.0
 11
0.1439159616
 21
0.1694727045
 31
0.0
  0
LINE
  5
282
330
1F
100
AcDbEntity
  8
0
  6
Continuous
 62
     7
370
    25
100
AcDbLine
 10
0.0946073027
 20
0.1804124498
 30
0.0
 11
0.0946497291
 21
0.1804548762
 31
0.0
  0
LINE
  5
283
330
1F
100
AcDbEntity
  8
0
  6
Continuous
 62
     7
370
    25
100
AcDbLine
 10
0.1459963424
 20
0.1676751664
 30
0.0
 11
0.1460104845
 21
0.1676893085
 31
0.0
  0
LINE
  5
284
330
1F
100
AcDbEntity
  8
0
  6
Continuous
 62
     7
370
    25
100
AcDbLine
 10
0.1445212706
 20
0.1691785224
 30
0.0
 11
0.1445071285
 21
0.1691643803
 31
0.0
  0
LINE
  5
285
330
1F
100
AcDbEntity
  8
0
  6
Continuous
 62
     7
370
    25
100
AcDbLine
 10
0.0967301099
 20
0.1786573381
 30
0.0
 11
0.096744252
 21
0.1786714802
 31
0.0
  0
LINE
  5
286
330
1F
100
AcDbEntity
  8
0
  6
Continuous
 62
     7
370
    25
100
AcDbLine
 10
0.0952550381
 20
0.1801606941
 30
0.0
 11
0.095240896
 21
0.180146552
 31
0.0
  0
LINE
  5
287
330
1F
100
AcDbEntity
  8
0
  6
Continuous
 62
     7
370
    25
100
AcDbLine
 10
0.0948074881
 20
0.1802971172
 30
0.0
 11
0.0947933459
 21
0.1802829751
 31
0.0
  0
LINE
  5
288
330
1F
100
AcDbEntity
  8
0
  6
Continuous
 62
     7
370
    25
100
AcDbLine
 10
0.0962825598
 20
0.1787937612
 30
0.0
 11
0.0962967019
 21
0.1788079033
 31
0.0
  0
LINE
  5
289
330
1F
100
AcDbEntity
  8
0
  6
Continuous
 62
     7
370
    25
100
AcDbLine
 10
0.1440737206
 20
0.1693149455
 30
0.0
 11
0.1440595784
 21
0.1693008034
 31
0.0
  0
LINE
  5
28A
330
1F
100
AcDbEntity
  8
0
  6
Continuous
 62
     7
370
    25
100
AcDbLine
 10
0.1455487923
 20
0.1678115895
 30
0.0
 11
0.1455629344
 21
0.1678257316
 31
0.0
  0
LINE
  5
28B
330
1F
100
AcDbEntity
  8
0
  6
Continuous
 62
     7
370
    25
100
AcDbLine
 10
0.0988594914
 20
0.1762451139
 30
0.0
 11
0.0990009128
 21
0.1763865352
 31
0.0
  0
LINE
  5
28C
330
1F
100
AcDbEntity
  8
0
  6
Continuous
 62
     7
370
    25
100
AcDbLine
 10
0.1481257239
 20
0.1652629422
 30
0.0
 11
0.1482671453
 21
0.1654043635
 31
0.0
  0
LINE
  5
28D
330
1F
100
AcDbEntity
  8
0
  6
Continuous
 62
     7
370
    25
100
AcDbLine
 10
0.0718927352
 20
0.1800745967
 30
0.0
 11
0.0705381591
 21
0.1792237596
 31
0.0
  0
LINE
  5
28E
330
1F
100
AcDbEntity
  8
0
  6
Continuous
 62
     7
370
    25
100
AcDbLine
 10
0.06299492
 20
0.1744856952
 30
0.0
 11
0.0569722271
 21
0.1707027174
 31
0.0
  0
LINE
  5
28F
330
1F
100
AcDbEntity
  8
0
  6
Continuous
 62
     7
370
    25
100
AcDbLine
 10
0.0569722271
 20
0.1707027174
 30
0.0
 11
0.0570491073
 21
0.1705803202
 31
0.0
  0
LINE
  5
290
330
1F
100
AcDbEntity
  8
0
  6
Continuous
 62
     7
370
    25
100
AcDbLine
 10
0.0718927352
 20
0.1800745967
 30
0.0
 11
0.0719572977
 21
0.1799718099
 31
0.0
  0
LINE
  5
291
330
1F
100
AcDbEntity
  8
0
  6
Continuous
 62
     7
370
    25
100
AcDbLine
 10
0.0718927352
 20
0.1603466432
 30
0.0
 11
0.0705381591
 21
0.1611974804
 31
0.0
  0
LINE
  5
292
330
1F
100
AcDbEntity
  8
0
  6
Continuous
 62
     7
370
    25
100
AcDbLine
 10
0.06299492
 20
0.1659355448
 30
0.0
 11
0.0569722271
 21
0.1697185226
 31
0.0
  0
LINE
  5
293
330
1F
100
AcDbEntity
  8
0
  6
Continuous
 62
     7
370
    25
100
AcDbLine
 10
0.0718927352
 20
0.1603466432
 30
0.0
 11
0.0719572977
 21
0.16044943
 31
0.0
  0
LINE
  5
294
330
1F
100
AcDbEntity
  8
0
  6
Continuous
 62
     7
370
    25
100
AcDbLine
 10
0.0569722271
 20
0.1697185226
 30
0.0
 11
0.0570491073
 21
0.1698409198
 31
0.0
  0
ARC
  5
295
330
1F
100
AcDbEntity
  8
0
  6
Continuous
 62
     7
370
    25
100
AcDbCircle
 10
0.0558749706
 20
0.17021062
 30
0.0
 40
0.000889
100
AcDbArc
 50
348.3745628375
 51
11.6254371625
  0
LINE
  5
296
330
1F
100
AcDbEntity
  8
0
  6
Continuous
 62
     7
370
    25
100
AcDbLine
 10
0.0567457336
 20
0.1703897649
 30
0.0
 11
0.0646848123
 21
0.1753764642
 31
0.0
  0
LINE
  5
297
330
1F
100
AcDbEntity
  8
0
  6
Continuous
 62
     7
370
    25
100
AcDbLine
 10
0.0722280515
 20
0.1801145286
 30
0.0
 11
0.0722479942
 21
0.180127055
 31
0.0
  0
LINE
  5
298
330
1F
100
AcDbEntity
  8
0
  6
Continuous
 62
     7
370
    25
100
AcDbLine
 10
0.0567457336
 20
0.1700314751
 30
0.0
 11
0.0646848123
 21
0.1650447758
 31
0.0
  0
LINE
  5
299
330
1F
100
AcDbEntity
  8
0
  6
Continuous
 62
     7
370
    25
100
AcDbLine
 10
0.0722280515
 20
0.1603067114
 30
0.0
 11
0.0722479942
 21
0.160294185
 31
0.0
  0
ARC
  5
29A
330
1F
100
AcDbEntity
  8
0
  6
Continuous
 62
     7
370
    25
100
AcDbCircle
 10
0.0522270933
 20
0.1702106207
 30
0.0
 40
0.0008829621826662
100
AcDbArc
 50
242.8267818976
 51
117.1696008044
  0
LINE
  5
29B
330
1F
100
AcDbEntity
  8
0
  6
Continuous
 62
     7
370
    25
100
AcDbLine
 10
0.0548846053
 20
0.17021062
 30
0.0
 11
0.0540420589
 21
0.17021062
 31
0.0
  0
LINE
  5
29C
330
1F
100
AcDbEntity
  8
0
  6
Continuous
 62
     7
370
    25
100
AcDbLine
 10
0.0540907824
 20
0.1702227452
 30
0.0
 11
0.0540420589
 21
0.17021062
 31
0.0
  0
ELLIPSE
  5
29D
330
1F
100
AcDbEntity
  8
0
  6
Continuous
 62
     7
370
    25
100
AcDbEllipse
 10
0.0541618954
 20
0.17021062
 30
0.0
 11
-8.328839023402645E-5
 21
0.00033662300890408
 31
0.0
210
0.0
220
0.0
230
1.0
 40
0.1913328473
 41
0.0473048955668765
 42
1.487503855701714
  0
ARC
  5
29E
330
1F
100
AcDbEntity
  8
0
  6
Continuous
 62
     7
370
    25
100
AcDbCircle
 10
0.0573238907
 20
0.1702111604
 30
0.0
 40
0.003740752838435
100
AcDbArc
 50
174.8551749617
 51
185.1582561855
  0
LINE
  5
29F
330
1F
100
AcDbEntity
  8
0
  6
Continuous
 62
     7
370
    25
100
AcDbLine
 10
0.0540420589
 20
0.17021062
 30
0.0
 11
0.0540907824
 21
0.1701984948
 31
0.0
  0
ELLIPSE
  5
2A0
330
1F
100
AcDbEntity
  8
0
  6
Continuous
 62
     7
370
    25
100
AcDbEllipse
 10
0.0541618954
 20
0.17021062
 30
0.0
 11
8.328839023401258E-5
 21
0.00033662300890408
 31
0.0
210
0.0
220
0.0
230
1.0
 40
0.1913328473
 41
1.654088797888173
 42
3.094287758022616
  0
LINE
  5
2A1
330
1F
100
AcDbEntity
  8
0
  6
Continuous
 62
     7
370
    25
100
AcDbLine
 10
0.0540420589
 20
0.17021062
 30
0.0
 11
0.0548846053
 21
0.17021062
 31
0.0
  0
ARC
  5
2A2
330
1F
100
AcDbEntity
  8
0
  6
Continuous
 62
     7
370
    25
100
AcDbCircle
 10
0.0604051624
 20
0.1702111604
 30
0.0
 40
0.0037407528384227
100
AcDbArc
 50
174.8551749617
 51
185.1582561855
  0
ARC
  5
2A3
330
1F
100
AcDbEntity
  8
0
  6
Continuous
 62
     7
370
    25
100
AcDbCircle
 10
0.052214736
 20
0.17021062
 30
0.0
 40
0.0008851451159513
100
AcDbArc
 50
271.037513847
 51
88.962486153
  0
CIRCLE
  5
2A4
330
1F
100
AcDbEntity
  8
0
  6
Continuous
 62
     7
370
    25
100
AcDbCircle
 10
0.0522363489
 20
0.1702117726
 30
0.0
 40
0.000879078142931
  0
CIRCLE
  5
2A5
330
1F
100
AcDbEntity
  8
0
  6
Continuous
 62
     7
370
    25
100
AcDbCircle
 10
0.0731330579
 20
0.18021062
 30
0.0
 40
0.000889
  0
CIRCLE
  5
2A6
330
1F
100
AcDbEntity
  8
0
  6
Continuous
 62
     7
370
    25
100
AcDbCircle
 10
0.0931330579
 20
0.18021062
 30
0.0
 40
0.000889
  0
CIRCLE
  5
2A7
330
1F
100
AcDbEntity
  8
0
  6
Continuous
 62
     7
370
    25
100
AcDbCircle
 10
0.0931330579
 20
0.16021062
 30
0.0
 40
0.000889
  0
CIRCLE
  5
2A8
330
1F
100
AcDbEntity
  8
0
  6
Continuous
 62
     7
370
    25
100
AcDbCircle
 10
0.0731330579
 20
0.16021062
 30
0.0
 40
0.000889
  0
LINE
  5
2A9
330
1F
100
AcDbEntity
  8
0
  6
Continuous
 62
     7
370
    25
100
AcDbLine
 10
0.0727830579
 20
0.1610278232
 30
0.0
 11
0.0727830579
 21
0.16119062
 31
0.0
  0
LINE
  5
2AA
330
1F
100
AcDbEntity
  8
0
  6
Continuous
 62
     7
370
    25
100
AcDbLine
 10
0.0727830579
 20
0.17923062
 30
0.0
 11
0.0727830579
 21
0.1793934168
 31
0.0
  0
LINE
  5
2AB
330
1F
100
AcDbEntity
  8
0
  6
Continuous
 62
     7
370
    25
100
AcDbLine
 10
0.0734830579
 20
0.1610278232
 30
0.0
 11
0.0734830579
 21
0.1611259888
 31
0.0
  0
LINE
  5
2AC
330
1F
100
AcDbEntity
  8
0
  6
Continuous
 62
     7
370
    25
100
AcDbLine
 10
0.0734830579
 20
0.1792952512
 30
0.0
 11
0.0734830579
 21
0.1793934168
 31
0.0
  0
LINE
  5
2AD
330
1F
100
AcDbEntity
  8
0
  6
Continuous
 62
     7
370
    25
100
AcDbLine
 10
0.0927830579
 20
0.1793934168
 30
0.0
 11
0.0927830579
 21
0.1792952512
 31
0.0
  0
LINE
  5
2AE
330
1F
100
AcDbEntity
  8
0
  6
Continuous
 62
     7
370
    25
100
AcDbLine
 10
0.0927830579
 20
0.1611259888
 30
0.0
 11
0.0927830579
 21
0.1610278232
 31
0.0
  0
LINE
  5
2AF
330
1F
100
AcDbEntity
  8
0
  6
Continuous
 62
     7
370
    25
100
AcDbLine
 10
0.0934830579
 20
0.1793934168
 30
0.0
 11
0.0934830579
 21
0.17923062
 31
0.0
  0
LINE
  5
2B0
330
1F
100
AcDbEntity
  8
0
  6
Continuous
 62
     7
370
    25
100
AcDbLine
 10
0.0934830579
 20
0.16119062
 30
0.0
 11
0.0934830579
 21
0.1610278232
 31
0.0
  0
LINE
  5
2B1
330
1F
100
AcDbEntity
  8
0
  6
Continuous
 62
     7
370
    25
100
AcDbLine
 10
0.0740095875
 20
0.18056062
 30
0.0
 11
0.0741130579
 21
0.18056062
 31
0.0
  0
LINE
  5
2B2
330
1F
100
AcDbEntity
  8
0
  6
Continuous
 62
     7
370
    25
100
AcDbLine
 10
0.0921530579
 20
0.18056062
 30
0.0
 11
0.0922563872
 21
0.18056062
 31
0.0
  0
LINE
  5
2B3
330
1F
100
AcDbEntity
  8
0
  6
Continuous
 62
     7
370
    25
100
AcDbLine
 10
0.0740097287
 20
0.17986062
 30
0.0
 11
0.0740484267
 21
0.17986062
 31
0.0
  0
LINE
  5
2B4
330
1F
100
AcDbEntity
  8
0
  6
Continuous
 62
     7
370
    25
100
AcDbLine
 10
0.0922176892
 20
0.17986062
 30
0.0
 11
0.0922565284
 21
0.17986062
 31
0.0
  0
CIRCLE
  5
2B5
330
1F
100
AcDbEntity
  8
0
  6
Continuous
 62
     7
370
    25
100
AcDbCircle
 10
0.0731330579
 20
0.18021062
 30
0.0
 40
0.000885
  0
CIRCLE
  5
2B6
330
1F
100
AcDbEntity
  8
0
  6
Continuous
 62
     7
370
    25
100
AcDbCircle
 10
0.0731330579
 20
0.16021062
 30
0.0
 40
0.000885
  0
CIRCLE
  5
2B7
330
1F
100
AcDbEntity
  8
0
  6
Continuous
 62
     7
370
    25
100
AcDbCircle
 10
0.0931330579
 20
0.16021062
 30
0.0
 40
0.000885
  0
CIRCLE
  5
2B8
330
1F
100
AcDbEntity
  8
0
  6
Continuous
 62
     7
370
    25
100
AcDbCircle
 10
0.0931330579
 20
0.18021062
 30
0.0
 40
0.000885
  0
ARC
  5
2B9
330
1F
100
AcDbEntity
  8
0
  6
Continuous
 62
     7
370
    25
100
AcDbCircle
 10
0.0885735289
 20
0.1836927525
 30
0.0
 40
0.0008289999999999
100
AcDbArc
 50
360.0
 51
51.9433433673
  0
LINE
  5
2BA
330
1F
100
AcDbEntity
  8
0
  6
Continuous
 62
     7
370
    25
100
AcDbLine
 10
0.0891215444
 20
0.1843927525
 30
0.0
 11
0.089084558
 21
0.1843455085
 31
0.0
  0
ARC
  5
2BB
330
1F
100
AcDbEntity
  8
0
  6
Continuous
 62
     7
370
    25
100
AcDbCircle
 10
0.0885734186
 20
0.1836926988
 30
0.0
 40
0.0008891103494399
100
AcDbArc
 50
0.0034639155
 51
51.9398794518
  0
LINE
  5
2BC
330
1F
100
AcDbEntity
  8
0
  6
Continuous
 62
     7
370
    25
100
AcDbLine
 10
0.0891215444
 20
0.1829927525
 30
0.0
 11
0.089084558
 21
0.1830399966
 31
0.0
  0
ARC
  5
2BD
330
1F
100
AcDbEntity
  8
0
  6
Continuous
 62
     7
370
    25
100
AcDbCircle
 10
0.0885732616
 20
0.1836928827
 30
0.0
 40
0.0008292672906198
100
AcDbArc
 50
308.0656522671
 51
359.9910043657
  0
ARC
  5
2BE
330
1F
100
AcDbEntity
  8
0
  6
Continuous
 62
     7
370
    25
100
AcDbCircle
 10
0.0885733859
 20
0.1836928222
 30
0.0
 40
0.0008891430052479
100
AcDbArc
 50
308.0611454434
 51
359.9955111893
  0
LINE
  5
2BF
330
1F
100
AcDbEntity
  8
0
  6
Continuous
 62
     7
370
    25
100
AcDbLine
 10
0.1006383577
 20
0.17285062
 30
0.0
 11
0.1008053577
 21
0.17268362
 31
0.0
  0
LINE
  5
2C0
330
1F
100
AcDbEntity
  8
0
  6
Continuous
 62
     7
370
    25
100
AcDbLine
 10
0.1004713577
 20
0.17268362
 30
0.0
 11
0.1006383577
 21
0.17285062
 31
0.0
  0
LINE
  5
2C1
330
1F
100
AcDbEntity
  8
0
  6
Continuous
 62
     7
370
    25
100
AcDbLine
 10
0.1006383577
 20
0.17109062
 30
0.0
 11
0.1004713577
 21
0.17125762
 31
0.0
  0
LINE
  5
2C2
330
1F
100
AcDbEntity
  8
0
  6
Continuous
 62
     7
370
    25
100
AcDbLine
 10
0.1008053577
 20
0.17125762
 30
0.0
 11
0.1006383577
 21
0.17109062
 31
0.0
  0
LINE
  5
2C3
330
1F
100
AcDbEntity
  8
0
  6
Continuous
 62
     7
370
    25
100
AcDbLine
 10
0.1006383577
 20
0.17813062
 30
0.0
 11
0.1008053577
 21
0.17796362
 31
0.0
  0
LINE
  5
2C4
330
1F
100
AcDbEntity
  8
0
  6
Continuous
 62
     7
370
    25
100
AcDbLine
 10
0.1004713577
 20
0.17796362
 30
0.0
 11
0.1006383577
 21
0.17813062
 31
0.0
  0
LINE
  5
2C5
330
1F
100
AcDbEntity
  8
0
  6
Continuous
 62
     7
370
    25
100
AcDbLine
 10
0.1006383577
 20
0.17637062
 30
0.0
 11
0.1004713577
 21
0.17653762
 31
0.0
  0
LINE
  5
2C6
330
1F
100
AcDbEntity
  8
0
  6
Continuous
 62
     7
370
    25
100
AcDbLine
 10
0.1008053577
 20
0.17653762
 30
0.0
 11
0.1006383577
 21
0.17637062
 31
0.0
  0
LINE
  5
2C7
330
1F
100
AcDbEntity
  8
0
  6
Continuous
 62
     7
370
    25
100
AcDbLine
 10
0.1006383577
 20
0.17461062
 30
0.0
 11
0.1004713577
 21
0.17477762
 31
0.0
  0
LINE
  5
2C8
330
1F
100
AcDbEntity
  8
0
  6
Continuous
 62
     7
370
    25
100
AcDbLine
 10
0.1008053577
 20
0.17477762
 30
0.0
 11
0.1006383577
 21
0.17461062
 31
0.0
  0
LINE
  5
2C9
330
1F
100
AcDbEntity
  8
0
  6
Continuous
 62
     7
370
    25
100
AcDbLine
 10
0.1006383577
 20
0.17637062
 30
0.0
 11
0.1008053577
 21
0.17620362
 31
0.0
  0
LINE
  5
2CA
330
1F
100
AcDbEntity
  8
0
  6
Continuous
 62
     7
370
    25
100
AcDbLine
 10
0.1004713577
 20
0.17620362
 30
0.0
 11
0.1006383577
 21
0.17637062
 31
0.0
  0
LINE
  5
2CB
330
1F
100
AcDbEntity
  8
0
  6
Continuous
 62
     7
370
    25
100
AcDbLine
 10
0.1006383577
 20
0.17461062
 30
0.0
 11
0.1008053577
 21
0.17444362
 31
0.0
  0
LINE
  5
2CC
330
1F
100
AcDbEntity
  8
0
  6
Continuous
 62
     7
370
    25
100
AcDbLine
 10
0.1004713577
 20
0.17444362
 30
0.0
 11
0.1006383577
 21
0.17461062
 31
0.0
  0
LINE
  5
2CD
330
1F
100
AcDbEntity
  8
0
  6
Continuous
 62
     7
370
    25
100
AcDbLine
 10
0.1006383577
 20
0.17285062
 30
0.0
 11
0.1004713577
 21
0.17301762
 31
0.0
  0
LINE
  5
2CE
330
1F
100
AcDbEntity
  8
0
  6
Continuous
 62
     7
370
    25
100
AcDbLine
 10
0.1008053577
 20
0.17301762
 30
0.0
 11
0.1006383577
 21
0.17285062
 31
0.0
  0
LINE
  5
2CF
330
1F
100
AcDbEntity
  8
0
  6
Continuous
 62
     7
370
    25
100
AcDbLine
 10
0.1006383577
 20
0.16581062
 30
0.0
 11
0.1004713577
 21
0.16597762
 31
0.0
  0
LINE
  5
2D0
330
1F
100
AcDbEntity
  8
0
  6
Continuous
 62
     7
370
    25
100
AcDbLine
 10
0.1008053577
 20
0.16597762
 30
0.0
 11
0.1006383577
 21
0.16581062
 31
0.0
  0
LINE
  5
2D1
330
1F
100
AcDbEntity
  8
0
  6
Continuous
 62
     7
370
    25
100
AcDbLine
 10
0.1006383577
 20
0.16757062
 30
0.0
 11
0.1008053577
 21
0.16740362
 31
0.0
  0
LINE
  5
2D2
330
1F
100
AcDbEntity
  8
0
  6
Continuous
 62
     7
370
    25
100
AcDbLine
 10
0.1004713577
 20
0.16740362
 30
0.0
 11
0.1006383577
 21
0.16757062
 31
0.0
  0
LINE
  5
2D3
330
1F
100
AcDbEntity
  8
0
  6
Continuous
 62
     7
370
    25
100
AcDbLine
 10
0.1006383577
 20
0.16581062
 30
0.0
 11
0.1008053577
 21
0.16564362
 31
0.0
  0
LINE
  5
2D4
330
1F
100
AcDbEntity
  8
0
  6
Continuous
 62
     7
370
    25
100
AcDbLine
 10
0.1004713577
 20
0.16564362
 30
0.0
 11
0.1006383577
 21
0.16581062
 31
0.0
  0
LINE
  5
2D5
330
1F
100
AcDbEntity
  8
0
  6
Continuous
 62
     7
370
    25
100
AcDbLine
 10
0.1006383577
 20
0.16405062
 30
0.0
 11
0.1004713577
 21
0.16421762
 31
0.0
  0
LINE
  5
2D6
330
1F
100
AcDbEntity
  8
0
  6
Continuous
 62
     7
370
    25
100
AcDbLine
 10
0.1008053577
 20
0.16421762
 30
0.0
 11
0.1006383577
 21
0.16405062
 31
0.0
  0
LINE
  5
2D7
330
1F
100
AcDbEntity
  8
0
  6
Continuous
 62
     7
370
    25
100
AcDbLine
 10
0.1006383577
 20
0.16229062
 30
0.0
 11
0.1004713577
 21
0.16245762
 31
0.0
  0
LINE
  5
2D8
330
1F
100
AcDbEntity
  8
0
  6
Continuous
 62
     7
370
    25
100
AcDbLine
 10
0.1008053577
 20
0.16245762
 30
0.0
 11
0.1006383577
 21
0.16229062
 31
0.0
  0
LINE
  5
2D9
330
1F
100
AcDbEntity
  8
0
  6
Continuous
 62
     7
370
    25
100
AcDbLine
 10
0.1006383577
 20
0.16405062
 30
0.0
 11
0.1008053577
 21
0.16388362
 31
0.0
  0
LINE
  5
2DA
330
1F
100
AcDbEntity
  8
0
  6
Continuous
 62
     7
370
    25
100
AcDbLine
 10
0.1004713577
 20
0.16388362
 30
0.0
 11
0.1006383577
 21
0.16405062
 31
0.0
  0
LINE
  5
2DB
330
1F
100
AcDbEntity
  8
0
  6
Continuous
 62
     7
370
    25
100
AcDbLine
 10
0.1006383577
 20
0.16229062
 30
0.0
 11
0.1008053577
 21
0.16212362
 31
0.0
  0
LINE
  5
2DC
330
1F
100
AcDbEntity
  8
0
  6
Continuous
 62
     7
370
    25
100
AcDbLine
 10
0.1004713577
 20
0.16212362
 30
0.0
 11
0.1006383577
 21
0.16229062
 31
0.0
  0
LINE
  5
2DD
330
1F
100
AcDbEntity
  8
0
  6
Continuous
 62
     7
370
    25
100
AcDbLine
 10
0.1006383577
 20
0.16933062
 30
0.0
 11
0.1004713577
 21
0.16949762
 31
0.0
  0
LINE
  5
2DE
330
1F
100
AcDbEntity
  8
0
  6
Continuous
 62
     7
370
    25
100
AcDbLine
 10
0.1008053577
 20
0.16949762
 30
0.0
 11
0.1006383577
 21
0.16933062
 31
0.0
  0
LINE
  5
2DF
330
1F
100
AcDbEntity
  8
0
  6
Continuous
 62
     7
370
    25
100
AcDbLine
 10
0.1006383577
 20
0.17109062
 30
0.0
 11
0.1008053577
 21
0.17092362
 31
0.0
  0
LINE
  5
2E0
330
1F
100
AcDbEntity
  8
0
  6
Continuous
 62
     7
370
    25
100
AcDbLine
 10
0.1004713577
 20
0.17092362
 30
0.0
 11
0.1006383577
 21
0.17109062
 31
0.0
  0
LINE
  5
2E1
330
1F
100
AcDbEntity
  8
0
  6
Continuous
 62
     7
370
    25
100
AcDbLine
 10
0.1006383577
 20
0.16933062
 30
0.0
 11
0.1008053577
 21
0.16916362
 31
0.0
  0
LINE
  5
2E2
330
1F
100
AcDbEntity
  8
0
  6
Continuous
 62
     7
370
    25
100
AcDbLine
 10
0.1004713577
 20
0.16916362
 30
0.0
 11
0.1006383577
 21
0.16933062
 31
0.0
  0
LINE
  5
2E3
330
1F
100
AcDbEntity
  8
0
  6
Continuous
 62
     7
370
    25
100
AcDbLine
 10
0.1006383577
 20
0.16757062
 30
0.0
 11
0.1004713577
 21
0.16773762
 31
0.0
  0
LINE
  5
2E4
330
1F
100
AcDbEntity
  8
0
  6
Continuous
 62
     7
370
    25
100
AcDbLine
 10
0.1008053577
 20
0.16773762
 30
0.0
 11
0.1006383577
 21
0.16757062
 31
0.0
  0
LINE
  5
2E5
330
1F
100
AcDbEntity
  8
0
  6
Continuous
 62
     7
370
    25
100
AcDbLine
 10
0.1006383577
 20
0.17813062
 30
0.0
 11
0.1004713577
 21
0.17829762
 31
0.0
  0
LINE
  5
2E6
330
1F
100
AcDbEntity
  8
0
  6
Continuous
 62
     7
370
    25
100
AcDbLine
 10
0.1008053577
 20
0.17829762
 30
0.0
 11
0.1006383577
 21
0.17813062
 31
0.0
  0
LINE
  5
2E7
330
1F
100
AcDbEntity
  8
0
  6
Continuous
 62
     7
370
    25
100
AcDbLine
 10
0.1056383577
 20
0.16229062
 30
0.0
 11
0.1054713577
 21
0.16245762
 31
0.0
  0
LINE
  5
2E8
330
1F
100
AcDbEntity
  8
0
  6
Continuous
 62
     7
370
    25
100
AcDbLine
 10
0.1058053577
 20
0.16245762
 30
0.0
 11
0.1056383577
 21
0.16229062
 31
0.0
  0
LINE
  5
2E9
330
1F
100
AcDbEntity
  8
0
  6
Continuous
 62
     7
370
    25
100
AcDbLine
 10
0.1056383577
 20
0.16405062
 30
0.0
 11
0.1058053577
 21
0.16388362
 31
0.0
  0
LINE
  5
2EA
330
1F
100
AcDbEntity
  8
0
  6
Continuous
 62
     7
370
    25
100
AcDbLine
 10
0.1054713577
 20
0.16388362
 30
0.0
 11
0.1056383577
 21
0.16405062
 31
0.0
  0
LINE
  5
2EB
330
1F
100
AcDbEntity
  8
0
  6
Continuous
 62
     7
370
    25
100
AcDbLine
 10
0.1106383577
 20
0.16405062
 30
0.0
 11
0.1108053577
 21
0.16388362
 31
0.0
  0
LINE
  5
2EC
330
1F
100
AcDbEntity
  8
0
  6
Continuous
 62
     7
370
    25
100
AcDbLine
 10
0.1104713577
 20
0.16388362
 30
0.0
 11
0.1106383577
 21
0.16405062
 31
0.0
  0
LINE
  5
2ED
330
1F
100
AcDbEntity
  8
0
  6
Continuous
 62
     7
370
    25
100
AcDbLine
 10
0.1106383577
 20
0.16229062
 30
0.0
 11
0.1104713577
 21
0.16245762
 31
0.0
  0
LINE
  5
2EE
330
1F
100
AcDbEntity
  8
0
  6
Continuous
 62
     7
370
    25
100
AcDbLine
 10
0.1108053577
 20
0.16245762
 30
0.0
 11
0.1106383577
 21
0.16229062
 31
0.0
  0
LINE
  5
2EF
330
1F
100
AcDbEntity
  8
0
  6
Continuous
 62
     7
370
    25
100
AcDbLine
 10
0.1156383577
 20
0.16405062
 30
0.0
 11
0.1158053577
 21
0.16388362
 31
0.0
  0
LINE
  5
2F0
330
1F
100
AcDbEntity
  8
0
  6
Continuous
 62
     7
370
    25
100
AcDbLine
 10
0.1154713577
 20
0.16388362
 30
0.0
 11
0.1156383577
 21
0.16405062
 31
0.0
  0
LINE
  5
2F1
330
1F
100
AcDbEntity
  8
0
  6
Continuous
 62
     7
370
    25
100
AcDbLine
 10
0.1156383577
 20
0.16229062
 30
0.0
 11
0.1154713577
 21
0.16245762
 31
0.0
  0
LINE
  5
2F2
330
1F
100
AcDbEntity
  8
0
  6
Continuous
 62
     7
370
    25
100
AcDbLine
 10
0.1158053577
 20
0.16245762
 30
0.0
 11
0.1156383577
 21
0.16229062
 31
0.0
  0
LINE
  5
2F3
330
1F
100
AcDbEntity
  8
0
  6
Continuous
 62
     7
370
    25
100
AcDbLine
 10
0.1206383577
 20
0.16229062
 30
0.0
 11
0.1204713577
 21
0.16245762
 31
0.0
  0
LINE
  5
2F4
330
1F
100
AcDbEntity
  8
0
  6
Continuous
 62
     7
370
    25
100
AcDbLine
 10
0.1208053577
 20
0.16245762
 30
0.0
 11
0.1206383577
 21
0.16229062
 31
0.0
  0
LINE
  5
2F5
330
1F
100
AcDbEntity
  8
0
  6
Continuous
 62
     7
370
    25
100
AcDbLine
 10
0.1206383577
 20
0.16405062
 30
0.0
 11
0.1208053577
 21
0.16388362
 31
0.0
  0
LINE
  5
2F6
330
1F
100
AcDbEntity
  8
0
  6
Continuous
 62
     7
370
    25
100
AcDbLine
 10
0.1204713577
 20
0.16388362
 30
0.0
 11
0.1206383577
 21
0.16405062
 31
0.0
  0
LINE
  5
2F7
330
1F
100
AcDbEntity
  8
0
  6
Continuous
 62
     7
370
    25
100
AcDbLine
 10
0.1256383577
 20
0.16229062
 30
0.0
 11
0.1254713577
 21
0.16245762
 31
0.0
  0
LINE
  5
2F8
330
1F
100
AcDbEntity
  8
0
  6
Continuous
 62
     7
370
    25
100
AcDbLine
 10
0.1258053577
 20
0.16245762
 30
0.0
 11
0.1256383577
 21
0.16229062
 31
0.0
  0
LINE
  5
2F9
330
1F
100
AcDbEntity
  8
0
  6
Continuous
 62
     7
370
    25
100
AcDbLine
 10
0.1256383577
 20
0.16405062
 30
0.0
 11
0.1258053577
 21
0.16388362
 31
0.0
  0
LINE
  5
2FA
330
1F
100
AcDbEntity
  8
0
  6
Continuous
 62
     7
370
    25
100
AcDbLine
 10
0.1254713577
 20
0.16388362
 30
0.0
 11
0.1256383577
 21
0.16405062
 31
0.0
  0
LINE
  5
2FB
330
1F
100
AcDbEntity
  8
0
  6
Continuous
 62
     7
370
    25
100
AcDbLine
 10
0.1056383577
 20
0.17637062
 30
0.0
 11
0.1054713577
 21
0.17653762
 31
0.0
  0
LINE
  5
2FC
330
1F
100
AcDbEntity
  8
0
  6
Continuous
 62
     7
370
    25
100
AcDbLine
 10
0.1058053577
 20
0.17653762
 30
0.0
 11
0.1056383577
 21
0.17637062
 31
0.0
  0
LINE
  5
2FD
330
1F
100
AcDbEntity
  8
0
  6
Continuous
 62
     7
370
    25
100
AcDbLine
 10
0.1056383577
 20
0.17813062
 30
0.0
 11
0.1058053577
 21
0.17796362
 31
0.0
  0
LINE
  5
2FE
330
1F
100
AcDbEntity
  8
0
  6
Continuous
 62
     7
370
    25
100
AcDbLine
 10
0.1054713577
 20
0.17796362
 30
0.0
 11
0.1056383577
 21
0.17813062
 31
0.0
  0
LINE
  5
2FF
330
1F
100
AcDbEntity
  8
0
  6
Continuous
 62
     7
370
    25
100
AcDbLine
 10
0.1106383577
 20
0.17637062
 30
0.0
 11
0.1104713577
 21
0.17653762
 31
0.0
  0
LINE
  5
300
330
1F
100
AcDbEntity
  8
0
  6
Continuous
 62
     7
370
    25
100
AcDbLine
 10
0.1108053577
 20
0.17653762
 30
0.0
 11
0.1106383577
 21
0.17637062
 31
0.0
  0
LINE
  5
301
330
1F
100
AcDbEntity
  8
0
  6
Continuous
 62
     7
370
    25
100
AcDbLine
 10
0.1106383577
 20
0.17813062
 30
0.0
 11
0.1108053577
 21
0.17796362
 31
0.0
  0
LINE
  5
302
330
1F
100
AcDbEntity
  8
0
  6
Continuous
 62
     7
370
    25
100
AcDbLine
 10
0.1104713577
 20
0.17796362
 30
0.0
 11
0.1106383577
 21
0.17813062
 31
0.0
  0
LINE
  5
303
330
1F
100
AcDbEntity
  8
0
  6
Continuous
 62
     7
370
    25
100
AcDbLine
 10
0.1156383577
 20
0.17813062
 30
0.0
 11
0.1158053577
 21
0.17796362
 31
0.0
  0
LINE
  5
304
330
1F
100
AcDbEntity
  8
0
  6
Continuous
 62
     7
370
    25
100
AcDbLine
 10
0.1154713577
 20
0.17796362
 30
0.0
 11
0.1156383577
 21
0.17813062
 31
0.0
  0
LINE
  5
305
330
1F
100
AcDbEntity
  8
0
  6
Continuous
 62
     7
370
    25
100
AcDbLine
 10
0.1156383577
 20
0.17637062
 30
0.0
 11
0.1154713577
 21
0.17653762
 31
0.0
  0
LINE
  5
306
330
1F
100
AcDbEntity
  8
0
  6
Continuous
 62
     7
370
    25
100
AcDbLine
 10
0.1158053577
 20
0.17653762
 30
0.0
 11
0.1156383577
 21
0.17637062
 31
0.0
  0
LINE
  5
307
330
1F
100
AcDbEntity
  8
0
  6
Continuous
 62
     7
370
    25
100
AcDbLine
 10
0.1206383577
 20
0.17813062
 30
0.0
 11
0.1208053577
 21
0.17796362
 31
0.0
  0
LINE
  5
308
330
1F
100
AcDbEntity
  8
0
  6
Continuous
 62
     7
370
    25
100
AcDbLine
 10
0.1204713577
 20
0.17796362
 30
0.0
 11
0.1206383577
 21
0.17813062
 31
0.0
  0
LINE
  5
309
330
1F
100
AcDbEntity
  8
0
  6
Continuous
 62
     7
370
    25
100
AcDbLine
 10
0.1206383577
 20
0.17637062
 30
0.0
 11
0.1204713577
 21
0.17653762
 31
0.0
  0
LINE
  5
30A
330
1F
100
AcDbEntity
  8
0
  6
Continuous
 62
     7
370
    25
100
AcDbLine
 10
0.1208053577
 20
0.17653762
 30
0.0
 11
0.1206383577
 21
0.17637062
 31
0.0
  0
LINE
  5
30B
330
1F
100
AcDbEntity
  8
0
  6
Continuous
 62
     7
370
    25
100
AcDbLine
 10
0.1256383577
 20
0.17637062
 30
0.0
 11
0.1254713577
 21
0.17653762
 31
0.0
  0
LINE
  5
30C
330
1F
100
AcDbEntity
  8
0
  6
Continuous
 62
     7
370
    25
100
AcDbLine
 10
0.1258053577
 20
0.17653762
 30
0.0
 11
0.1256383577
 21
0.17637062
 31
0.0
  0
LINE
  5
30D
330
1F
100
AcDbEntity
  8
0
  6
Continuous
 62
     7
370
    25
100
AcDbLine
 10
0.1256383577
 20
0.17813062
 30
0.0
 11
0.1258053577
 21
0.17796362
 31
0.0
  0
LINE
  5
30E
330
1F
100
AcDbEntity
  8
0
  6
Continuous
 62
     7
370
    25
100
AcDbLine
 10
0.1254713577
 20
0.17796362
 30
0.0
 11
0.1256383577
 21
0.17813062
 31
0.0
  0
LINE
  5
30F
330
1F
100
AcDbEntity
  8
0
  6
Continuous
 62
     7
370
    25
100
AcDbLine
 10
0.1056383577
 20
0.17461062
 30
0.0
 11
0.1054713577
 21
0.17477762
 31
0.0
  0
LINE
  5
310
330
1F
100
AcDbEntity
  8
0
  6
Continuous
 62
     7
370
    25
100
AcDbLine
 10
0.1058053577
 20
0.17477762
 30
0.0
 11
0.1056383577
 21
0.17461062
 31
0.0
  0
LINE
  5
311
330
1F
100
AcDbEntity
  8
0
  6
Continuous
 62
     7
370
    25
100
AcDbLine
 10
0.1056383577
 20
0.17637062
 30
0.0
 11
0.1058053577
 21
0.17620362
 31
0.0
  0
LINE
  5
312
330
1F
100
AcDbEntity
  8
0
  6
Continuous
 62
     7
370
    25
100
AcDbLine
 10
0.1054713577
 20
0.17620362
 30
0.0
 11
0.1056383577
 21
0.17637062
 31
0.0
  0
LINE
  5
313
330
1F
100
AcDbEntity
  8
0
  6
Continuous
 62
     7
370
    25
100
AcDbLine
 10
0.1106383577
 20
0.17461062
 30
0.0
 11
0.1104713577
 21
0.17477762
 31
0.0
  0
LINE
  5
314
330
1F
100
AcDbEntity
  8
0
  6
Continuous
 62
     7
370
    25
100
AcDbLine
 10
0.1108053577
 20
0.17477762
 30
0.0
 11
0.1106383577
 21
0.17461062
 31
0.0
  0
LINE
  5
315
330
1F
100
AcDbEntity
  8
0
  6
Continuous
 62
     7
370
    25
100
AcDbLine
 10
0.1106383577
 20
0.17637062
 30
0.0
 11
0.1108053577
 21
0.17620362
 31
0.0
  0
LINE
  5
316
330
1F
100
AcDbEntity
  8
0
  6
Continuous
 62
     7
370
    25
100
AcDbLine
 10
0.1104713577
 20
0.17620362
 30
0.0
 11
0.1106383577
 21
0.17637062
 31
0.0
  0
LINE
  5
317
330
1F
100
AcDbEntity
  8
0
  6
Continuous
 62
     7
370
    25
100
AcDbLine
 10
0.1156383577
 20
0.17461062
 30
0.0
 11
0.1154713577
 21
0.17477762
 31
0.0
  0
LINE
  5
318
330
1F
100
AcDbEntity
  8
0
  6
Continuous
 62
     7
370
    25
100
AcDbLine
 10
0.1158053577
 20
0.17477762
 30
0.0
 11
0.1156383577
 21
0.17461062
 31
0.0
  0
LINE
  5
319
330
1F
100
AcDbEntity
  8
0
  6
Continuous
 62
     7
370
    25
100
AcDbLine
 10
0.1156383577
 20
0.17637062
 30
0.0
 11
0.1158053577
 21
0.17620362
 31
0.0
  0
LINE
  5
31A
330
1F
100
AcDbEntity
  8
0
  6
Continuous
 62
     7
370
    25
100
AcDbLine
 10
0.1154713577
 20
0.17620362
 30
0.0
 11
0.1156383577
 21
0.17637062
 31
0.0
  0
LINE
  5
31B
330
1F
100
AcDbEntity
  8
0
  6
Continuous
 62
     7
370
    25
100
AcDbLine
 10
0.1206383577
 20
0.17461062
 30
0.0
 11
0.1204713577
 21
0.17477762
 31
0.0
  0
LINE
  5
31C
330
1F
100
AcDbEntity
  8
0
  6
Continuous
 62
     7
370
    25
100
AcDbLine
 10
0.1208053577
 20
0.17477762
 30
0.0
 11
0.1206383577
 21
0.17461062
 31
0.0
  0
LINE
  5
31D
330
1F
100
AcDbEntity
  8
0
  6
Continuous
 62
     7
370
    25
100
AcDbLine
 10
0.1206383577
 20
0.17637062
 30
0.0
 11
0.1208053577
 21
0.17620362
 31
0.0
  0
LINE
  5
31E
330
1F
100
AcDbEntity
  8
0
  6
Continuous
 62
     7
370
    25
100
AcDbLine
 10
0.1204713577
 20
0.17620362
 30
0.0
 11
0.1206383577
 21
0.17637062
 31
0.0
  0
LINE
  5
31F
330
1F
100
AcDbEntity
  8
0
  6
Continuous
 62
     7
370
    25
100
AcDbLine
 10
0.1256383577
 20
0.17637062
 30
0.0
 11
0.1258053577
 21
0.17620362
 31
0.0
  0
LINE
  5
320
330
1F
100
AcDbEntity
  8
0
  6
Continuous
 62
     7
370
    25
100
AcDbLine
 10
0.1254713577
 20
0.17620362
 30
0.0
 11
0.1256383577
 21
0.17637062
 31
0.0
  0
LINE
  5
321
330
1F
100
AcDbEntity
  8
0
  6
Continuous
 62
     7
370
    25
100
AcDbLine
 10
0.1256383577
 20
0.17461062
 30
0.0
 11
0.1254713577
 21
0.17477762
 31
0.0
  0
LINE
  5
322
330
1F
100
AcDbEntity
  8
0
  6
Continuous
 62
     7
370
    25
100
AcDbLine
 10
0.1258053577
 20
0.17477762
 30
0.0
 11
0.1256383577
 21
0.17461062
 31
0.0
  0
LINE
  5
323
330
1F
100
AcDbEntity
  8
0
  6
Continuous
 62
     7
370
    25
100
AcDbLine
 10
0.1056383577
 20
0.16229062
 30
0.0
 11
0.1058053577
 21
0.16212362
 31
0.0
  0
LINE
  5
324
330
1F
100
AcDbEntity
  8
0
  6
Continuous
 62
     7
370
    25
100
AcDbLine
 10
0.1054713577
 20
0.16212362
 30
0.0
 11
0.1056383577
 21
0.16229062
 31
0.0
  0
LINE
  5
325
330
1F
100
AcDbEntity
  8
0
  6
Continuous
 62
     7
370
    25
100
AcDbLine
 10
0.1106383577
 20
0.16229062
 30
0.0
 11
0.1108053577
 21
0.16212362
 31
0.0
  0
LINE
  5
326
330
1F
100
AcDbEntity
  8
0
  6
Continuous
 62
     7
370
    25
100
AcDbLine
 10
0.1104713577
 20
0.16212362
 30
0.0
 11
0.1106383577
 21
0.16229062
 31
0.0
  0
LINE
  5
327
330
1F
100
AcDbEntity
  8
0
  6
Continuous
 62
     7
370
    25
100
AcDbLine
 10
0.1156383577
 20
0.16229062
 30
0.0
 11
0.1158053577
 21
0.16212362
 31
0.0
  0
LINE
  5
328
330
1F
100
AcDbEntity
  8
0
  6
Continuous
 62
     7
370
    25
100
AcDbLine
 10
0.1154713577
 20
0.16212362
 30
0.0
 11
0.1156383577
 21
0.16229062
 31
0.0
  0
LINE
  5
329
330
1F
100
AcDbEntity
  8
0
  6
Continuous
 62
     7
370
    25
100
AcDbLine
 10
0.1206383577
 20
0.16229062
 30
0.0
 11
0.1208053577
 21
0.16212362
 31
0.0
  0
LINE
  5
32A
330
1F
100
AcDbEntity
  8
0
  6
Continuous
 62
     7
370
    25
100
AcDbLine
 10
0.1204713577
 20
0.16212362
 30
0.0
 11
0.1206383577
 21
0.16229062
 31
0.0
  0
LINE
  5
32B
330
1F
100
AcDbEntity
  8
0
  6
Continuous
 62
     7
370
    25
100
AcDbLine
 10
0.1256383577
 20
0.16229062
 30
0.0
 11
0.1258053577
 21
0.16212362
 31
0.0
  0
LINE
  5
32C
330
1F
100
AcDbEntity
  8
0
  6
Continuous
 62
     7
370
    25
100
AcDbLine
 10
0.1254713577
 20
0.16212362
 30
0.0
 11
0.1256383577
 21
0.16229062
 31
0.0
  0
LINE
  5
32D
330
1F
100
AcDbEntity
  8
0
  6
Continuous
 62
     7
370
    25
100
AcDbLine
 10
0.1056383577
 20
0.17285062
 30
0.0
 11
0.1054713577
 21
0.17301762
 31
0.0
  0
LINE
  5
32E
330
1F
100
AcDbEntity
  8
0
  6
Continuous
 62
     7
370
    25
100
AcDbLine
 10
0.1058053577
 20
0.17301762
 30
0.0
 11
0.1056383577
 21
0.17285062
 31
0.0
  0
LINE
  5
32F
330
1F
100
AcDbEntity
  8
0
  6
Continuous
 62
     7
370
    25
100
AcDbLine
 10
0.1056383577
 20
0.17461062
 30
0.0
 11
0.1058053577
 21
0.17444362
 31
0.0
  0
LINE
  5
330
330
1F
100
AcDbEntity
  8
0
  6
Continuous
 62
     7
370
    25
100
AcDbLine
 10
0.1054713577
 20
0.17444362
 30
0.0
 11
0.1056383577
 21
0.17461062
 31
0.0
  0
LINE
  5
331
330
1F
100
AcDbEntity
  8
0
  6
Continuous
 62
     7
370
    25
100
AcDbLine
 10
0.1106383577
 20
0.17285062
 30
0.0
 11
0.1104713577
 21
0.17301762
 31
0.0
  0
LINE
  5
332
330
1F
100
AcDbEntity
  8
0
  6
Continuous
 62
     7
370
    25
100
AcDbLine
 10
0.1108053577
 20
0.17301762
 30
0.0
 11
0.1106383577
 21
0.17285062
 31
0.0
  0
LINE
  5
333
330
1F
100
AcDbEntity
  8
0
  6
Continuous
 62
     7
370
    25
100
AcDbLine
 10
0.1106383577
 20
0.17461062
 30
0.0
 11
0.1108053577
 21
0.17444362
 31
0.0
  0
LINE
  5
334
330
1F
100
AcDbEntity
  8
0
  6
Continuous
 62
     7
370
    25
100
AcDbLine
 10
0.1104713577
 20
0.17444362
 30
0.0
 11
0.1106383577
 21
0.17461062
 31
0.0
  0
LINE
  5
335
330
1F
100
AcDbEntity
  8
0
  6
Continuous
 62
     7
370
    25
100
AcDbLine
 10
0.1156383577
 20
0.17461062
 30
0.0
 11
0.1158053577
 21
0.17444362
 31
0.0
  0
LINE
  5
336
330
1F
100
AcDbEntity
  8
0
  6
Continuous
 62
     7
370
    25
100
AcDbLine
 10
0.1154713577
 20
0.17444362
 30
0.0
 11
0.1156383577
 21
0.17461062
 31
0.0
  0
LINE
  5
337
330
1F
100
AcDbEntity
  8
0
  6
Continuous
 62
     7
370
    25
100
AcDbLine
 10
0.1156383577
 20
0.17285062
 30
0.0
 11
0.1154713577
 21
0.17301762
 31
0.0
  0
LINE
  5
338
330
1F
100
AcDbEntity
  8
0
  6
Continuous
 62
     7
370
    25
100
AcDbLine
 10
0.1158053577
 20
0.17301762
 30
0.0
 11
0.1156383577
 21
0.17285062
 31
0.0
  0
LINE
  5
339
330
1F
100
AcDbEntity
  8
0
  6
Continuous
 62
     7
370
    25
100
AcDbLine
 10
0.1206383577
 20
0.17461062
 30
0.0
 11
0.1208053577
 21
0.17444362
 31
0.0
  0
LINE
  5
33A
330
1F
100
AcDbEntity
  8
0
  6
Continuous
 62
     7
370
    25
100
AcDbLine
 10
0.1204713577
 20
0.17444362
 30
0.0
 11
0.1206383577
 21
0.17461062
 31
0.0
  0
LINE
  5
33B
330
1F
100
AcDbEntity
  8
0
  6
Continuous
 62
     7
370
    25
100
AcDbLine
 10
0.1206383577
 20
0.17285062
 30
0.0
 11
0.1204713577
 21
0.17301762
 31
0.0
  0
LINE
  5
33C
330
1F
100
AcDbEntity
  8
0
  6
Continuous
 62
     7
370
    25
100
AcDbLine
 10
0.1208053577
 20
0.17301762
 30
0.0
 11
0.1206383577
 21
0.17285062
 31
0.0
  0
LINE
  5
33D
330
1F
100
AcDbEntity
  8
0
  6
Continuous
 62
     7
370
    25
100
AcDbLine
 10
0.1256383577
 20
0.17461062
 30
0.0
 11
0.1258053577
 21
0.17444362
 31
0.0
  0
LINE
  5
33E
330
1F
100
AcDbEntity
  8
0
  6
Continuous
 62
     7
370
    25
100
AcDbLine
 10
0.1254713577
 20
0.17444362
 30
0.0
 11
0.1256383577
 21
0.17461062
 31
0.0
  0
LINE
  5
33F
330
1F
100
AcDbEntity
  8
0
  6
Continuous
 62
     7
370
    25
100
AcDbLine
 10
0.1256383577
 20
0.17285062
 30
0.0
 11
0.1254713577
 21
0.17301762
 31
0.0
  0
LINE
  5
340
330
1F
100
AcDbEntity
  8
0
  6
Continuous
 62
     7
370
    25
100
AcDbLine
 10
0.1258053577
 20
0.17301762
 30
0.0
 11
0.1256383577
 21
0.17285062
 31
0.0
  0
LINE
  5
341
330
1F
100
AcDbEntity
  8
0
  6
Continuous
 62
     7
370
    25
100
AcDbLine
 10
0.1056383577
 20
0.17285062
 30
0.0
 11
0.1058053577
 21
0.17268362
 31
0.0
  0
LINE
  5
342
330
1F
100
AcDbEntity
  8
0
  6
Continuous
 62
     7
370
    25
100
AcDbLine
 10
0.1054713577
 20
0.17268362
 30
0.0
 11
0.1056383577
 21
0.17285062
 31
0.0
  0
LINE
  5
343
330
1F
100
AcDbEntity
  8
0
  6
Continuous
 62
     7
370
    25
100
AcDbLine
 10
0.1056383577
 20
0.17109062
 30
0.0
 11
0.1054713577
 21
0.17125762
 31
0.0
  0
LINE
  5
344
330
1F
100
AcDbEntity
  8
0
  6
Continuous
 62
     7
370
    25
100
AcDbLine
 10
0.1058053577
 20
0.17125762
 30
0.0
 11
0.1056383577
 21
0.17109062
 31
0.0
  0
LINE
  5
345
330
1F
100
AcDbEntity
  8
0
  6
Continuous
 62
     7
370
    25
100
AcDbLine
 10
0.1106383577
 20
0.17285062
 30
0.0
 11
0.1108053577
 21
0.17268362
 31
0.0
  0
LINE
  5
346
330
1F
100
AcDbEntity
  8
0
  6
Continuous
 62
     7
370
    25
100
AcDbLine
 10
0.1104713577
 20
0.17268362
 30
0.0
 11
0.1106383577
 21
0.17285062
 31
0.0
  0
LINE
  5
347
330
1F
100
AcDbEntity
  8
0
  6
Continuous
 62
     7
370
    25
100
AcDbLine
 10
0.1106383577
 20
0.17109062
 30
0.0
 11
0.1104713577
 21
0.17125762
 31
0.0
  0
LINE
  5
348
330
1F
100
AcDbEntity
  8
0
  6
Continuous
 62
     7
370
    25
100
AcDbLine
 10
0.1108053577
 20
0.17125762
 30
0.0
 11
0.1106383577
 21
0.17109062
 31
0.0
  0
LINE
  5
349
330
1F
100
AcDbEntity
  8
0
  6
Continuous
 62
     7
370
    25
100
AcDbLine
 10
0.1156383577
 20
0.17285062
 30
0.0
 11
0.1158053577
 21
0.17268362
 31
0.0
  0
LINE
  5
34A
330
1F
100
AcDbEntity
  8
0
  6
Continuous
 62
     7
370
    25
100
AcDbLine
 10
0.1154713577
 20
0.17268362
 30
0.0
 11
0.1156383577
 21
0.17285062
 31
0.0
  0
LINE
  5
34B
330
1F
100
AcDbEntity
  8
0
  6
Continuous
 62
     7
370
    25
100
AcDbLine
 10
0.1156383577
 20
0.17109062
 30
0.0
 11
0.1154713577
 21
0.17125762
 31
0.0
  0
LINE
  5
34C
330
1F
100
AcDbEntity
  8
0
  6
Continuous
 62
     7
370
    25
100
AcDbLine
 10
0.1158053577
 20
0.17125762
 30
0.0
 11
0.1156383577
 21
0.17109062
 31
0.0
  0
LINE
  5
34D
330
1F
100
AcDbEntity
  8
0
  6
Continuous
 62
     7
370
    25
100
AcDbLine
 10
0.1206383577
 20
0.17285062
 30
0.0
 11
0.1208053577
 21
0.17268362
 31
0.0
  0
LINE
  5
34E
330
1F
100
AcDbEntity
  8
0
  6
Continuous
 62
     7
370
    25
100
AcDbLine
 10
0.1204713577
 20
0.17268362
 30
0.0
 11
0.1206383577
 21
0.17285062
 31
0.0
  0
LINE
  5
34F
330
1F
100
AcDbEntity
  8
0
  6
Continuous
 62
     7
370
    25
100
AcDbLine
 10
0.1206383577
 20
0.17109062
 30
0.0
 11
0.1204713577
 21
0.17125762
 31
0.0
  0
LINE
  5
350
330
1F
100
AcDbEntity
  8
0
  6
Continuous
 62
     7
370
    25
100
AcDbLine
 10
0.1208053577
 20
0.17125762
 30
0.0
 11
0.1206383577
 21
0.17109062
 31
0.0
  0
LINE
  5
351
330
1F
100
AcDbEntity
  8
0
  6
Continuous
 62
     7
370
    25
100
AcDbLine
 10
0.1256383577
 20
0.17285062
 30
0.0
 11
0.1258053577
 21
0.17268362
 31
0.0
  0
LINE
  5
352
330
1F
100
AcDbEntity
  8
0
  6
Continuous
 62
     7
370
    25
100
AcDbLine
 10
0.1254713577
 20
0.17268362
 30
0.0
 11
0.1256383577
 21
0.17285062
 31
0.0
  0
LINE
  5
353
330
1F
100
AcDbEntity
  8
0
  6
Continuous
 62
     7
370
    25
100
AcDbLine
 10
0.1256383577
 20
0.17109062
 30
0.0
 11
0.1254713577
 21
0.17125762
 31
0.0
  0
LINE
  5
354
330
1F
100
AcDbEntity
  8
0
  6
Continuous
 62
     7
370
    25
100
AcDbLine
 10
0.1258053577
 20
0.17125762
 30
0.0
 11
0.1256383577
 21
0.17109062
 31
0.0
  0
LINE
  5
355
330
1F
100
AcDbEntity
  8
0
  6
Continuous
 62
     7
370
    25
100
AcDbLine
 10
0.1056383577
 20
0.16933062
 30
0.0
 11
0.1054713577
 21
0.16949762
 31
0.0
  0
LINE
  5
356
330
1F
100
AcDbEntity
  8
0
  6
Continuous
 62
     7
370
    25
100
AcDbLine
 10
0.1058053577
 20
0.16949762
 30
0.0
 11
0.1056383577
 21
0.16933062
 31
0.0
  0
LINE
  5
357
330
1F
100
AcDbEntity
  8
0
  6
Continuous
 62
     7
370
    25
100
AcDbLine
 10
0.1056383577
 20
0.17109062
 30
0.0
 11
0.1058053577
 21
0.17092362
 31
0.0
  0
LINE
  5
358
330
1F
100
AcDbEntity
  8
0
  6
Continuous
 62
     7
370
    25
100
AcDbLine
 10
0.1054713577
 20
0.17092362
 30
0.0
 11
0.1056383577
 21
0.17109062
 31
0.0
  0
LINE
  5
359
330
1F
100
AcDbEntity
  8
0
  6
Continuous
 62
     7
370
    25
100
AcDbLine
 10
0.1106383577
 20
0.16933062
 30
0.0
 11
0.1104713577
 21
0.16949762
 31
0.0
  0
LINE
  5
35A
330
1F
100
AcDbEntity
  8
0
  6
Continuous
 62
     7
370
    25
100
AcDbLine
 10
0.1108053577
 20
0.16949762
 30
0.0
 11
0.1106383577
 21
0.16933062
 31
0.0
  0
LINE
  5
35B
330
1F
100
AcDbEntity
  8
0
  6
Continuous
 62
     7
370
    25
100
AcDbLine
 10
0.1106383577
 20
0.17109062
 30
0.0
 11
0.1108053577
 21
0.17092362
 31
0.0
  0
LINE
  5
35C
330
1F
100
AcDbEntity
  8
0
  6
Continuous
 62
     7
370
    25
100
AcDbLine
 10
0.1104713577
 20
0.17092362
 30
0.0
 11
0.1106383577
 21
0.17109062
 31
0.0
  0
LINE
  5
35D
330
1F
100
AcDbEntity
  8
0
  6
Continuous
 62
     7
370
    25
100
AcDbLine
 10
0.1156383577
 20
0.16933062
 30
0.0
 11
0.1154713577
 21
0.16949762
 31
0.0
  0
LINE
  5
35E
330
1F
100
AcDbEntity
  8
0
  6
Continuous
 62
     7
370
    25
100
AcDbLine
 10
0.1158053577
 20
0.16949762
 30
0.0
 11
0.1156383577
 21
0.16933062
 31
0.0
  0
LINE
  5
35F
330
1F
100
AcDbEntity
  8
0
  6
Continuous
 62
     7
370
    25
100
AcDbLine
 10
0.1156383577
 20
0.17109062
 30
0.0
 11
0.1158053577
 21
0.17092362
 31
0.0
  0
LINE
  5
360
330
1F
100
AcDbEntity
  8
0
  6
Continuous
 62
     7
370
    25
100
AcDbLine
 10
0.1154713577
 20
0.17092362
 30
0.0
 11
0.1156383577
 21
0.17109062
 31
0.0
  0
LINE
  5
361
330
1F
100
AcDbEntity
  8
0
  6
Continuous
 62
     7
370
    25
100
AcDbLine
 10
0.1206383577
 20
0.16933062
 30
0.0
 11
0.1204713577
 21
0.16949762
 31
0.0
  0
LINE
  5
362
330
1F
100
AcDbEntity
  8
0
  6
Continuous
 62
     7
370
    25
100
AcDbLine
 10
0.1208053577
 20
0.16949762
 30
0.0
 11
0.1206383577
 21
0.16933062
 31
0.0
  0
LINE
  5
363
330
1F
100
AcDbEntity
  8
0
  6
Continuous
 62
     7
370
    25
100
AcDbLine
 10
0.1206383577
 20
0.17109062
 30
0.0
 11
0.1208053577
 21
0.17092362
 31
0.0
  0
LINE
  5
364
330
1F
100
AcDbEntity
  8
0
  6
Continuous
 62
     7
370
    25
100
AcDbLine
 10
0.1204713577
 20
0.17092362
 30
0.0
 11
0.1206383577
 21
0.17109062
 31
0.0
  0
LINE
  5
365
330
1F
100
AcDbEntity
  8
0
  6
Continuous
 62
     7
370
    25
100
AcDbLine
 10
0.1256383577
 20
0.16933062
 30
0.0
 11
0.1254713577
 21
0.16949762
 31
0.0
  0
LINE
  5
366
330
1F
100
AcDbEntity
  8
0
  6
Continuous
 62
     7
370
    25
100
AcDbLine
 10
0.1258053577
 20
0.16949762
 30
0.0
 11
0.1256383577
 21
0.16933062
 31
0.0
  0
LINE
  5
367
330
1F
100
AcDbEntity
  8
0
  6
Continuous
 62
     7
370
    25
100
AcDbLine
 10
0.1256383577
 20
0.17109062
 30
0.0
 11
0.1258053577
 21
0.17092362
 31
0.0
  0
LINE
  5
368
330
1F
100
AcDbEntity
  8
0
  6
Continuous
 62
     7
370
    25
100
AcDbLine
 10
0.1254713577
 20
0.17092362
 30
0.0
 11
0.1256383577
 21
0.17109062
 31
0.0
  0
LINE
  5
369
330
1F
100
AcDbEntity
  8
0
  6
Continuous
 62
     7
370
    25
100
AcDbLine
 10
0.1056383577
 20
0.16933062
 30
0.0
 11
0.1058053577
 21
0.16916362
 31
0.0
  0
LINE
  5
36A
330
1F
100
AcDbEntity
  8
0
  6
Continuous
 62
     7
370
    25
100
AcDbLine
 10
0.1054713577
 20
0.16916362
 30
0.0
 11
0.1056383577
 21
0.16933062
 31
0.0
  0
LINE
  5
36B
330
1F
100
AcDbEntity
  8
0
  6
Continuous
 62
     7
370
    25
100
AcDbLine
 10
0.1056383577
 20
0.16757062
 30
0.0
 11
0.1054713577
 21
0.16773762
 31
0.0
  0
LINE
  5
36C
330
1F
100
AcDbEntity
  8
0
  6
Continuous
 62
     7
370
    25
100
AcDbLine
 10
0.1058053577
 20
0.16773762
 30
0.0
 11
0.1056383577
 21
0.16757062
 31
0.0
  0
LINE
  5
36D
330
1F
100
AcDbEntity
  8
0
  6
Continuous
 62
     7
370
    25
100
AcDbLine
 10
0.1106383577
 20
0.16933062
 30
0.0
 11
0.1108053577
 21
0.16916362
 31
0.0
  0
LINE
  5
36E
330
1F
100
AcDbEntity
  8
0
  6
Continuous
 62
     7
370
    25
100
AcDbLine
 10
0.1104713577
 20
0.16916362
 30
0.0
 11
0.1106383577
 21
0.16933062
 31
0.0
  0
LINE
  5
36F
330
1F
100
AcDbEntity
  8
0
  6
Continuous
 62
     7
370
    25
100
AcDbLine
 10
0.1106383577
 20
0.16757062
 30
0.0
 11
0.1104713577
 21
0.16773762
 31
0.0
  0
LINE
  5
370
330
1F
100
AcDbEntity
  8
0
  6
Continuous
 62
     7
370
    25
100
AcDbLine
 10
0.1108053577
 20
0.16773762
 30
0.0
 11
0.1106383577
 21
0.16757062
 31
0.0
  0
LINE
  5
371
330
1F
100
AcDbEntity
  8
0
  6
Continuous
 62
     7
370
    25
100
AcDbLine
 10
0.1156383577
 20
0.16933062
 30
0.0
 11
0.1158053577
 21
0.16916362
 31
0.0
  0
LINE
  5
372
330
1F
100
AcDbEntity
  8
0
  6
Continuous
 62
     7
370
    25
100
AcDbLine
 10
0.1154713577
 20
0.16916362
 30
0.0
 11
0.1156383577
 21
0.16933062
 31
0.0
  0
LINE
  5
373
330
1F
100
AcDbEntity
  8
0
  6
Continuous
 62
     7
370
    25
100
AcDbLine
 10
0.1156383577
 20
0.16757062
 30
0.0
 11
0.1154713577
 21
0.16773762
 31
0.0
  0
LINE
  5
374
330
1F
100
AcDbEntity
  8
0
  6
Continuous
 62
     7
370
    25
100
AcDbLine
 10
0.1158053577
 20
0.16773762
 30
0.0
 11
0.1156383577
 21
0.16757062
 31
0.0
  0
LINE
  5
375
330
1F
100
AcDbEntity
  8
0
  6
Continuous
 62
     7
370
    25
100
AcDbLine
 10
0.1206383577
 20
0.16933062
 30
0.0
 11
0.1208053577
 21
0.16916362
 31
0.0
  0
LINE
  5
376
330
1F
100
AcDbEntity
  8
0
  6
Continuous
 62
     7
370
    25
100
AcDbLine
 10
0.1204713577
 20
0.16916362
 30
0.0
 11
0.1206383577
 21
0.16933062
 31
0.0
  0
LINE
  5
377
330
1F
100
AcDbEntity
  8
0
  6
Continuous
 62
     7
370
    25
100
AcDbLine
 10
0.1206383577
 20
0.16757062
 30
0.0
 11
0.1204713577
 21
0.16773762
 31
0.0
  0
LINE
  5
378
330
1F
100
AcDbEntity
  8
0
  6
Continuous
 62
     7
370
    25
100
AcDbLine
 10
0.1208053577
 20
0.16773762
 30
0.0
 11
0.1206383577
 21
0.16757062
 31
0.0
  0
LINE
  5
379
330
1F
100
AcDbEntity
  8
0
  6
Continuous
 62
     7
370
    25
100
AcDbLine
 10
0.1256383577
 20
0.16933062
 30
0.0
 11
0.1258053577
 21
0.16916362
 31
0.0
  0
LINE
  5
37A
330
1F
100
AcDbEntity
  8
0
  6
Continuous
 62
     7
370
    25
100
AcDbLine
 10
0.1254713577
 20
0.16916362
 30
0.0
 11
0.1256383577
 21
0.16933062
 31
0.0
  0
LINE
  5
37B
330
1F
100
AcDbEntity
  8
0
  6
Continuous
 62
     7
370
    25
100
AcDbLine
 10
0.1256383577
 20
0.16757062
 30
0.0
 11
0.1254713577
 21
0.16773762
 31
0.0
  0
LINE
  5
37C
330
1F
100
AcDbEntity
  8
0
  6
Continuous
 62
     7
370
    25
100
AcDbLine
 10
0.1258053577
 20
0.16773762
 30
0.0
 11
0.1256383577
 21
0.16757062
 31
0.0
  0
LINE
  5
37D
330
1F
100
AcDbEntity
  8
0
  6
Continuous
 62
     7
370
    25
100
AcDbLine
 10
0.1056383577
 20
0.16581062
 30
0.0
 11
0.1054713577
 21
0.16597762
 31
0.0
  0
LINE
  5
37E
330
1F
100
AcDbEntity
  8
0
  6
Continuous
 62
     7
370
    25
100
AcDbLine
 10
0.1058053577
 20
0.16597762
 30
0.0
 11
0.1056383577
 21
0.16581062
 31
0.0
  0
LINE
  5
37F
330
1F
100
AcDbEntity
  8
0
  6
Continuous
 62
     7
370
    25
100
AcDbLine
 10
0.1056383577
 20
0.16757062
 30
0.0
 11
0.1058053577
 21
0.16740362
 31
0.0
  0
LINE
  5
380
330
1F
100
AcDbEntity
  8
0
  6
Continuous
 62
     7
370
    25
100
AcDbLine
 10
0.1054713577
 20
0.16740362
 30
0.0
 11
0.1056383577
 21
0.16757062
 31
0.0
  0
LINE
  5
381
330
1F
100
AcDbEntity
  8
0
  6
Continuous
 62
     7
370
    25
100
AcDbLine
 10
0.1106383577
 20
0.16757062
 30
0.0
 11
0.1108053577
 21
0.16740362
 31
0.0
  0
LINE
  5
382
330
1F
100
AcDbEntity
  8
0
  6
Continuous
 62
     7
370
    25
100
AcDbLine
 10
0.1104713577
 20
0.16740362
 30
0.0
 11
0.1106383577
 21
0.16757062
 31
0.0
  0
LINE
  5
383
330
1F
100
AcDbEntity
  8
0
  6
Continuous
 62
     7
370
    25
100
AcDbLine
 10
0.1106383577
 20
0.16581062
 30
0.0
 11
0.1104713577
 21
0.16597762
 31
0.0
  0
LINE
  5
384
330
1F
100
AcDbEntity
  8
0
  6
Continuous
 62
     7
370
    25
100
AcDbLine
 10
0.1108053577
 20
0.16597762
 30
0.0
 11
0.1106383577
 21
0.16581062
 31
0.0
  0
LINE
  5
385
330
1F
100
AcDbEntity
  8
0
  6
Continuous
 62
     7
370
    25
100
AcDbLine
 10
0.1156383577
 20
0.16581062
 30
0.0
 11
0.1154713577
 21
0.16597762
 31
0.0
  0
LINE
  5
386
330
1F
100
AcDbEntity
  8
0
  6
Continuous
 62
     7
370
    25
100
AcDbLine
 10
0.1158053577
 20
0.16597762
 30
0.0
 11
0.1156383577
 21
0.16581062
 31
0.0
  0
LINE
  5
387
330
1F
100
AcDbEntity
  8
0
  6
Continuous
 62
     7
370
    25
100
AcDbLine
 10
0.1156383577
 20
0.16757062
 30
0.0
 11
0.1158053577
 21
0.16740362
 31
0.0
  0
LINE
  5
388
330
1F
100
AcDbEntity
  8
0
  6
Continuous
 62
     7
370
    25
100
AcDbLine
 10
0.1154713577
 20
0.16740362
 30
0.0
 11
0.1156383577
 21
0.16757062
 31
0.0
  0
LINE
  5
389
330
1F
100
AcDbEntity
  8
0
  6
Continuous
 62
     7
370
    25
100
AcDbLine
 10
0.1206383577
 20
0.16581062
 30
0.0
 11
0.1204713577
 21
0.16597762
 31
0.0
  0
LINE
  5
38A
330
1F
100
AcDbEntity
  8
0
  6
Continuous
 62
     7
370
    25
100
AcDbLine
 10
0.1208053577
 20
0.16597762
 30
0.0
 11
0.1206383577
 21
0.16581062
 31
0.0
  0
LINE
  5
38B
330
1F
100
AcDbEntity
  8
0
  6
Continuous
 62
     7
370
    25
100
AcDbLine
 10
0.1206383577
 20
0.16757062
 30
0.0
 11
0.1208053577
 21
0.16740362
 31
0.0
  0
LINE
  5
38C
330
1F
100
AcDbEntity
  8
0
  6
Continuous
 62
     7
370
    25
100
AcDbLine
 10
0.1204713577
 20
0.16740362
 30
0.0
 11
0.1206383577
 21
0.16757062
 31
0.0
  0
LINE
  5
38D
330
1F
100
AcDbEntity
  8
0
  6
Continuous
 62
     7
370
    25
100
AcDbLine
 10
0.1256383577
 20
0.16581062
 30
0.0
 11
0.1254713577
 21
0.16597762
 31
0.0
  0
LINE
  5
38E
330
1F
100
AcDbEntity
  8
0
  6
Continuous
 62
     7
370
    25
100
AcDbLine
 10
0.1258053577
 20
0.16597762
 30
0.0
 11
0.1256383577
 21
0.16581062
 31
0.0
  0
LINE
  5
38F
330
1F
100
AcDbEntity
  8
0
  6
Continuous
 62
     7
370
    25
100
AcDbLine
 10
0.1256383577
 20
0.16757062
 30
0.0
 11
0.1258053577
 21
0.16740362
 31
0.0
  0
LINE
  5
390
330
1F
100
AcDbEntity
  8
0
  6
Continuous
 62
     7
370
    25
100
AcDbLine
 10
0.1254713577
 20
0.16740362
 30
0.0
 11
0.1256383577
 21
0.16757062
 31
0.0
  0
LINE
  5
391
330
1F
100
AcDbEntity
  8
0
  6
Continuous
 62
     7
370
    25
100
AcDbLine
 10
0.1056383577
 20
0.16405062
 30
0.0
 11
0.1054713577
 21
0.16421762
 31
0.0
  0
LINE
  5
392
330
1F
100
AcDbEntity
  8
0
  6
Continuous
 62
     7
370
    25
100
AcDbLine
 10
0.1058053577
 20
0.16421762
 30
0.0
 11
0.1056383577
 21
0.16405062
 31
0.0
  0
LINE
  5
393
330
1F
100
AcDbEntity
  8
0
  6
Continuous
 62
     7
370
    25
100
AcDbLine
 10
0.1056383577
 20
0.16581062
 30
0.0
 11
0.1058053577
 21
0.16564362
 31
0.0
  0
LINE
  5
394
330
1F
100
AcDbEntity
  8
0
  6
Continuous
 62
     7
370
    25
100
AcDbLine
 10
0.1054713577
 20
0.16564362
 30
0.0
 11
0.1056383577
 21
0.16581062
 31
0.0
  0
LINE
  5
395
330
1F
100
AcDbEntity
  8
0
  6
Continuous
 62
     7
370
    25
100
AcDbLine
 10
0.1106383577
 20
0.16405062
 30
0.0
 11
0.1104713577
 21
0.16421762
 31
0.0
  0
LINE
  5
396
330
1F
100
AcDbEntity
  8
0
  6
Continuous
 62
     7
370
    25
100
AcDbLine
 10
0.1108053577
 20
0.16421762
 30
0.0
 11
0.1106383577
 21
0.16405062
 31
0.0
  0
LINE
  5
397
330
1F
100
AcDbEntity
  8
0
  6
Continuous
 62
     7
370
    25
100
AcDbLine
 10
0.1106383577
 20
0.16581062
 30
0.0
 11
0.1108053577
 21
0.16564362
 31
0.0
  0
LINE
  5
398
330
1F
100
AcDbEntity
  8
0
  6
Continuous
 62
     7
370
    25
100
AcDbLine
 10
0.1104713577
 20
0.16564362
 30
0.0
 11
0.1106383577
 21
0.16581062
 31
0.0
  0
LINE
  5
399
330
1F
100
AcDbEntity
  8
0
  6
Continuous
 62
     7
370
    25
100
AcDbLine
 10
0.1156383577
 20
0.16405062
 30
0.0
 11
0.1154713577
 21
0.16421762
 31
0.0
  0
LINE
  5
39A
330
1F
100
AcDbEntity
  8
0
  6
Continuous
 62
     7
370
    25
100
AcDbLine
 10
0.1158053577
 20
0.16421762
 30
0.0
 11
0.1156383577
 21
0.16405062
 31
0.0
  0
LINE
  5
39B
330
1F
100
AcDbEntity
  8
0
  6
Continuous
 62
     7
370
    25
100
AcDbLine
 10
0.1156383577
 20
0.16581062
 30
0.0
 11
0.1158053577
 21
0.16564362
 31
0.0
  0
LINE
  5
39C
330
1F
100
AcDbEntity
  8
0
  6
Continuous
 62
     7
370
    25
100
AcDbLine
 10
0.1154713577
 20
0.16564362
 30
0.0
 11
0.1156383577
 21
0.16581062
 31
0.0
  0
LINE
  5
39D
330
1F
100
AcDbEntity
  8
0
  6
Continuous
 62
     7
370
    25
100
AcDbLine
 10
0.1206383577
 20
0.16405062
 30
0.0
 11
0.1204713577
 21
0.16421762
 31
0.0
  0
LINE
  5
39E
330
1F
100
AcDbEntity
  8
0
  6
Continuous
 62
     7
370
    25
100
AcDbLine
 10
0.1208053577
 20
0.16421762
 30
0.0
 11
0.1206383577
 21
0.16405062
 31
0.0
  0
LINE
  5
39F
330
1F
100
AcDbEntity
  8
0
  6
Continuous
 62
     7
370
    25
100
AcDbLine
 10
0.1206383577
 20
0.16581062
 30
0.0
 11
0.1208053577
 21
0.16564362
 31
0.0
  0
LINE
  5
3A0
330
1F
100
AcDbEntity
  8
0
  6
Continuous
 62
     7
370
    25
100
AcDbLine
 10
0.1204713577
 20
0.16564362
 30
0.0
 11
0.1206383577
 21
0.16581062
 31
0.0
  0
LINE
  5
3A1
330
1F
100
AcDbEntity
  8
0
  6
Continuous
 62
     7
370
    25
100
AcDbLine
 10
0.1256383577
 20
0.16581062
 30
0.0
 11
0.1258053577
 21
0.16564362
 31
0.0
  0
LINE
  5
3A2
330
1F
100
AcDbEntity
  8
0
  6
Continuous
 62
     7
370
    25
100
AcDbLine
 10
0.1254713577
 20
0.16564362
 30
0.0
 11
0.1256383577
 21
0.16581062
 31
0.0
  0
LINE
  5
3A3
330
1F
100
AcDbEntity
  8
0
  6
Continuous
 62
     7
370
    25
100
AcDbLine
 10
0.1256383577
 20
0.16405062
 30
0.0
 11
0.1254713577
 21
0.16421762
 31
0.0
  0
LINE
  5
3A4
330
1F
100
AcDbEntity
  8
0
  6
Continuous
 62
     7
370
    25
100
AcDbLine
 10
0.1258053577
 20
0.16421762
 30
0.0
 11
0.1256383577
 21
0.16405062
 31
0.0
  0
LINE
  5
3A5
330
1F
100
AcDbEntity
  8
0
  6
Continuous
 62
     7
370
    25
100
AcDbLine
 10
0.1056383577
 20
0.17813062
 30
0.0
 11
0.1054713577
 21
0.17829762
 31
0.0
  0
LINE
  5
3A6
330
1F
100
AcDbEntity
  8
0
  6
Continuous
 62
     7
370
    25
100
AcDbLine
 10
0.1058053577
 20
0.17829762
 30
0.0
 11
0.1056383577
 21
0.17813062
 31
0.0
  0
LINE
  5
3A7
330
1F
100
AcDbEntity
  8
0
  6
Continuous
 62
     7
370
    25
100
AcDbLine
 10
0.1106383577
 20
0.17813062
 30
0.0
 11
0.1104713577
 21
0.17829762
 31
0.0
  0
LINE
  5
3A8
330
1F
100
AcDbEntity
  8
0
  6
Continuous
 62
     7
370
    25
100
AcDbLine
 10
0.1108053577
 20
0.17829762
 30
0.0
 11
0.1106383577
 21
0.17813062
 31
0.0
  0
LINE
  5
3A9
330
1F
100
AcDbEntity
  8
0
  6
Continuous
 62
     7
370
    25
100
AcDbLine
 10
0.1156383577
 20
0.17813062
 30
0.0
 11
0.1154713577
 21
0.17829762
 31
0.0
  0
LINE
  5
3AA
330
1F
100
AcDbEntity
  8
0
  6
Continuous
 62
     7
370
    25
100
AcDbLine
 10
0.1158053577
 20
0.17829762
 30
0.0
 11
0.1156383577
 21
0.17813062
 31
0.0
  0
LINE
  5
3AB
330
1F
100
AcDbEntity
  8
0
  6
Continuous
 62
     7
370
    25
100
AcDbLine
 10
0.1206383577
 20
0.17813062
 30
0.0
 11
0.1204713577
 21
0.17829762
 31
0.0
  0
LINE
  5
3AC
330
1F
100
AcDbEntity
  8
0
  6
Continuous
 62
     7
370
    25
100
AcDbLine
 10
0.1208053577
 20
0.17829762
 30
0.0
 11
0.1206383577
 21
0.17813062
 31
0.0
  0
LINE
  5
3AD
330
1F
100
AcDbEntity
  8
0
  6
Continuous
 62
     7
370
    25
100
AcDbLine
 10
0.1256383577
 20
0.17813062
 30
0.0
 11
0.1254713577
 21
0.17829762
 31
0.0
  0
LINE
  5
3AE
330
1F
100
AcDbEntity
  8
0
  6
Continuous
 62
     7
370
    25
100
AcDbLine
 10
0.1258053577
 20
0.17829762
 30
0.0
 11
0.1256383577
 21
0.17813062
 31
0.0
  0
ARC
  5
3AF
330
1F
100
AcDbEntity
  8
0
  6
Continuous
 62
     7
370
    25
100
AcDbCircle
 10
0.095068856
 20
0.1693305993
 30
0.0
 40
0.000345190607646
100
AcDbArc
 50
341.4214426531
 51
18.3245513953
  0
ARC
  5
3B0
330
1F
100
AcDbEntity
  8
0
  6
Continuous
 62
     7
370
    25
100
AcDbCircle
 10
0.095068856
 20
0.1622905993
 30
0.0
 40
0.0003451906076465
100
AcDbArc
 50
341.4214426532
 51
18.3245513953
  0
ARC
  5
3B1
330
1F
100
AcDbEntity
  8
0
  6
Continuous
 62
     7
370
    25
100
AcDbCircle
 10
0.095068856
 20
0.1640505993
 30
0.0
 40
0.0003451906076455
100
AcDbArc
 50
341.4214426531
 51
18.3245513953
  0
ARC
  5
3B2
330
1F
100
AcDbEntity
  8
0
  6
Continuous
 62
     7
370
    25
100
AcDbCircle
 10
0.095068856
 20
0.1658105993
 30
0.0
 40
0.0003451906076455
100
AcDbArc
 50
341.4214426531
 51
18.3245513953
  0
ARC
  5
3B3
330
1F
100
AcDbEntity
  8
0
  6
Continuous
 62
     7
370
    25
100
AcDbCircle
 10
0.095068856
 20
0.1781305993
 30
0.0
 40
0.0003451906076456
100
AcDbArc
 50
341.4214426531
 51
18.3245513953
  0
ARC
  5
3B4
330
1F
100
AcDbEntity
  8
0
  6
Continuous
 62
     7
370
    25
100
AcDbCircle
 10
0.095068856
 20
0.1763705993
 30
0.0
 40
0.0003451906076455
100
AcDbArc
 50
341.4214426531
 51
18.3245513953
  0
ARC
  5
3B5
330
1F
100
AcDbEntity
  8
0
  6
Continuous
 62
     7
370
    25
100
AcDbCircle
 10
0.095068856
 20
0.1746105993
 30
0.0
 40
0.0003451906076451
100
AcDbArc
 50
341.4214426531
 51
18.3245513953
  0
ARC
  5
3B6
330
1F
100
AcDbEntity
  8
0
  6
Continuous
 62
     7
370
    25
100
AcDbCircle
 10
0.095068856
 20
0.1675705993
 30
0.0
 40
0.0003451906076453
100
AcDbArc
 50
341.4214426531
 51
18.3245513953
  0
ARC
  5
3B7
330
1F
100
AcDbEntity
  8
0
  6
Continuous
 62
     7
370
    25
100
AcDbCircle
 10
0.095068856
 20
0.1710905993
 30
0.0
 40
0.0003451906076455
100
AcDbArc
 50
341.4214426531
 51
18.3245513953
  0
ARC
  5
3B8
330
1F
100
AcDbEntity
  8
0
  6
Continuous
 62
     7
370
    25
100
AcDbCircle
 10
0.095068856
 20
0.1728505993
 30
0.0
 40
0.0003451906076455
100
AcDbArc
 50
341.4214426531
 51
18.3245513953
  0
LWPOLYLINE
  5
3B9
330
1F
100
AcDbEntity
  8
0
  6
Continuous
 62
     7
370
    25
100
AcDbPolyline
 90
       11
 70
   128
 43
0.0
 10
0.1308700579
 20
0.16922062
 10
0.1308681983
 20
0.1692264563
 10
0.1308633909
 20
0.1692431508
 10
0.1308573669
 20
0.1692697326
 10
0.1308526961
 20
0.1693041703
 10
0.1308517601
 20
0.1693407238
 10
0.1308546204
 20
0.1693745905
 10
0.1308599919
 20
0.1694042192
 10
0.1308659017
 20
0.1694271394
 10
0.1308696182
 20
0.1694392652
 10
0.1308695736
 20
0.169439127
  0
LWPOLYLINE
  5
3BA
330
1F
100
AcDbEntity
  8
0
  6
Continuous
 62
     7
370
    25
100
AcDbPolyline
 90
       11
 70
   128
 43
0.0
 10
0.1308700579
 20
0.16218062
 10
0.1308681983
 20
0.1621864563
 10
0.1308633909
 20
0.1622031508
 10
0.1308573669
 20
0.1622297326
 10
0.1308526961
 20
0.1622641703
 10
0.1308517601
 20
0.1623007238
 10
0.1308546204
 20
0.1623345905
 10
0.1308599919
 20
0.1623642192
 10
0.1308659017
 20
0.1623871394
 10
0.1308696182
 20
0.1623992652
 10
0.1308695736
 20
0.162399127
  0
LWPOLYLINE
  5
3BB
330
1F
100
AcDbEntity
  8
0
  6
Continuous
 62
     7
370
    25
100
AcDbPolyline
 90
       11
 70
   128
 43
0.0
 10
0.1308700579
 20
0.16394062
 10
0.1308681983
 20
0.1639464563
 10
0.1308633909
 20
0.1639631508
 10
0.1308573669
 20
0.1639897326
 10
0.1308526961
 20
0.1640241703
 10
0.1308517601
 20
0.1640607238
 10
0.1308546204
 20
0.1640945905
 10
0.1308599919
 20
0.1641242192
 10
0.1308659017
 20
0.1641471394
 10
0.1308696182
 20
0.1641592652
 10
0.1308695736
 20
0.164159127
  0
LWPOLYLINE
  5
3BC
330
1F
100
AcDbEntity
  8
0
  6
Continuous
 62
     7
370
    25
100
AcDbPolyline
 90
       11
 70
   128
 43
0.0
 10
0.1308700579
 20
0.16570062
 10
0.1308681983
 20
0.1657064563
 10
0.1308633909
 20
0.1657231508
 10
0.1308573669
 20
0.1657497326
 10
0.1308526961
 20
0.1657841703
 10
0.1308517601
 20
0.1658207238
 10
0.1308546204
 20
0.1658545905
 10
0.1308599919
 20
0.1658842192
 10
0.1308659017
 20
0.1659071394
 10
0.1308696182
 20
0.1659192652
 10
0.1308695736
 20
0.165919127
  0
LWPOLYLINE
  5
3BD
330
1F
100
AcDbEntity
  8
0
  6
Continuous
 62
     7
370
    25
100
AcDbPolyline
 90
       11
 70
   128
 43
0.0
 10
0.1308700579
 20
0.17802062
 10
0.1308681983
 20
0.1780264563
 10
0.1308633909
 20
0.1780431508
 10
0.1308573669
 20
0.1780697326
 10
0.1308526961
 20
0.1781041703
 10
0.1308517601
 20
0.1781407238
 10
0.1308546204
 20
0.1781745905
 10
0.1308599919
 20
0.1782042192
 10
0.1308659017
 20
0.1782271394
 10
0.1308696182
 20
0.1782392652
 10
0.1308695736
 20
0.178239127
  0
LWPOLYLINE
  5
3BE
330
1F
100
AcDbEntity
  8
0
  6
Continuous
 62
     7
370
    25
100
AcDbPolyline
 90
       11
 70
   128
 43
0.0
 10
0.1308700579
 20
0.17626062
 10
0.1308681983
 20
0.1762664563
 10
0.1308633909
 20
0.1762831508
 10
0.1308573669
 20
0.1763097326
 10
0.1308526961
 20
0.1763441703
 10
0.1308517601
 20
0.1763807238
 10
0.1308546204
 20
0.1764145905
 10
0.1308599919
 20
0.1764442192
 10
0.1308659017
 20
0.1764671394
 10
0.1308696182
 20
0.1764792652
 10
0.1308695736
 20
0.176479127
  0
LWPOLYLINE
  5
3BF
330
1F
100
AcDbEntity
  8
0
  6
Continuous
 62
     7
370
    25
100
AcDbPolyline
 90
       11
 70
   128
 43
0.0
 10
0.1308700579
 20
0.17450062
 10
0.1308681983
 20
0.1745064563
 10
0.1308633909
 20
0.1745231508
 10
0.1308573669
 20
0.1745497326
 10
0.1308526961
 20
0.1745841703
 10
0.1308517601
 20
0.1746207238
 10
0.1308546204
 20
0.1746545905
 10
0.1308599919
 20
0.1746842192
 10
0.1308659017
 20
0.1747071394
 10
0.1308696182
 20
0.1747192652
 10
0.1308695736
 20
0.174719127
  0
LWPOLYLINE
  5
3C0
330
1F
100
AcDbEntity
  8
0
  6
Continuous
 62
     7
370
    25
100
AcDbPolyline
 90
       11
 70
   128
 43
0.0
 10
0.1308700579
 20
0.16746062
 10
0.1308681983
 20
0.1674664563
 10
0.1308633909
 20
0.1674831508
 10
0.1308573669
 20
0.1675097326
 10
0.1308526961
 20
0.1675441703
 10
0.1308517601
 20
0.1675807238
 10
0.1308546204
 20
0.1676145905
 10
0.1308599919
 20
0.1676442192
 10
0.1308659017
 20
0.1676671394
 10
0.1308696182
 20
0.1676792652
 10
0.1308695736
 20
0.167679127
  0
LWPOLYLINE
  5
3C1
330
1F
100
AcDbEntity
  8
0
  6
Continuous
 62
     7
370
    25
100
AcDbPolyline
 90
       11
 70
   128
 43
0.0
 10
0.1308700579
 20
0.17098062
 10
0.1308681983
 20
0.1709864563
 10
0.1308633909
 20
0.1710031508
 10
0.1308573669
 20
0.1710297326
 10
0.1308526961
 20
0.1710641703
 10
0.1308517601
 20
0.1711007238
 10
0.1308546204
 20
0.1711345905
 10
0.1308599919
 20
0.1711642192
 10
0.1308659017
 20
0.1711871394
 10
0.1308696182
 20
0.1711992652
 10
0.1308695736
 20
0.171199127
  0
LWPOLYLINE
  5
3C2
330
1F
100
AcDbEntity
  8
0
  6
Continuous
 62
     7
370
    25
100
AcDbPolyline
 90
       11
 70
   128
 43
0.0
 10
0.1308700579
 20
0.17274062
 10
0.1308681983
 20
0.1727464563
 10
0.1308633909
 20
0.1727631508
 10
0.1308573669
 20
0.1727897326
 10
0.1308526961
 20
0.1728241703
 10
0.1308517601
 20
0.1728607238
 10
0.1308546204
 20
0.1728945905
 10
0.1308599919
 20
0.1729242192
 10
0.1308659017
 20
0.1729471394
 10
0.1308696182
 20
0.1729592652
 10
0.1308695736
 20
0.172959127
  0
LINE
  5
3C3
330
1F
100
AcDbEntity
  8
0
  6
Continuous
 62
     7
370
    25
100
AcDbLine
 10
0.1430906315
 20
0.1697580717
 30
0.0
 11
0.1426805096
 21
0.1701681936
 31
0.0
  0
LWPOLYLINE
  5
3C4
330
1F
100
AcDbEntity
  8
0
  6
Continuous
 62
     7
370
    25
100
AcDbPolyline
 90
        3
 70
   128
 43
0.0
 10
0.1430906315
 20
0.1706631683
 10
0.1430997237
 20
0.1706706301
 10
0.1431086915
 20
0.1706755715
  0
LWPOLYLINE
  5
3C5
330
1F
100
AcDbEntity
  8
0
  6
Continuous
 62
     7
370
    25
100
AcDbPolyline
 90
        3
 70
   128
 43
0.0
 10
0.1431574244
 20
0.1706755715
 10
0.1431663921
 20
0.1706706301
 10
0.1431754843
 20
0.1706631683
  0
LINE
  5
3C6
330
1F
100
AcDbEntity
  8
0
  6
Continuous
 62
     7
370
    25
100
AcDbLine
 10
0.1431754843
 20
0.1706631683
 30
0.0
 11
0.1435856063
 21
0.1702530464
 31
0.0
  0
LWPOLYLINE
  5
3C7
330
1F
100
AcDbEntity
  8
0
  6
Continuous
 62
     7
370
    25
100
AcDbPolyline
 90
        3
 70
   128
 43
0.0
 10
0.1426805096
 20
0.1701681936
 10
0.1426730478
 20
0.1701772858
 10
0.1426681065
 20
0.1701862536
  0
LWPOLYLINE
  5
3C8
330
1F
100
AcDbEntity
  8
0
  6
Continuous
 62
     7
370
    25
100
AcDbPolyline
 90
        3
 70
   128
 43
0.0
 10
0.1426681065
 20
0.1702349864
 10
0.1426730478
 20
0.1702439542
 10
0.1426805096
 20
0.1702530464
  0
LWPOLYLINE
  5
3C9
330
1F
100
AcDbEntity
  8
0
  6
Continuous
 62
     7
370
    25
100
AcDbPolyline
 90
        3
 70
   128
 43
0.0
 10
0.1435856063
 20
0.1702530464
 10
0.143593068
 20
0.1702439542
 10
0.1435980094
 20
0.1702349864
  0
LWPOLYLINE
  5
3CA
330
1F
100
AcDbEntity
  8
0
  6
Continuous
 62
     7
370
    25
100
AcDbPolyline
 90
        3
 70
   128
 43
0.0
 10
0.1435980094
 20
0.1701862536
 10
0.143593068
 20
0.1701772858
 10
0.1435856063
 20
0.1701681936
  0
LINE
  5
3CB
330
1F
100
AcDbEntity
  8
0
  6
Continuous
 62
     7
370
    25
100
AcDbLine
 10
0.1435856063
 20
0.1701681936
 30
0.0
 11
0.1434030394
 21
0.1699856267
 31
0.0
  0
LINE
  5
3CC
330
1F
100
AcDbEntity
  8
0
  6
Continuous
 62
     7
370
    25
100
AcDbLine
 10
0.143360613
 20
0.1699432003
 30
0.0
 11
0.1431754843
 21
0.1697580717
 31
0.0
  0
LWPOLYLINE
  5
3CD
330
1F
100
AcDbEntity
  8
0
  6
Continuous
 62
     7
370
    25
100
AcDbPolyline
 90
        3
 70
   128
 43
0.0
 10
0.1431754843
 20
0.1697580717
 10
0.1431663921
 20
0.1697506099
 10
0.1431574244
 20
0.1697456685
  0
LWPOLYLINE
  5
3CE
330
1F
100
AcDbEntity
  8
0
  6
Continuous
 62
     7
370
    25
100
AcDbPolyline
 90
        3
 70
   128
 43
0.0
 10
0.1431086915
 20
0.1697456685
 10
0.1430997237
 20
0.1697506099
 10
0.1430906315
 20
0.1697580717
  0
LINE
  5
3CF
330
1F
100
AcDbEntity
  8
0
  6
Continuous
 62
     7
370
    25
100
AcDbLine
 10
0.1426805096
 20
0.1702530464
 30
0.0
 11
0.1430906315
 21
0.1706631683
 31
0.0
  0
CIRCLE
  5
3D0
330
1F
100
AcDbEntity
  8
0
  6
Continuous
 62
     7
370
    25
100
AcDbCircle
 10
0.1331330579
 20
0.18021062
 30
0.0
 40
0.000889
  0
CIRCLE
  5
3D1
330
1F
100
AcDbEntity
  8
0
  6
Continuous
 62
     7
370
    25
100
AcDbCircle
 10
0.1331330579
 20
0.16021062
 30
0.0
 40
0.000889
  0
CIRCLE
  5
3D2
330
1F
100
AcDbEntity
  8
0
  6
Continuous
 62
     7
370
    25
100
AcDbCircle
 10
0.1531330579
 20
0.18021062
 30
0.0
 40
0.000889
  0
CIRCLE
  5
3D3
330
1F
100
AcDbEntity
  8
0
  6
Continuous
 62
     7
370
    25
100
AcDbCircle
 10
0.1531330579
 20
0.16021062
 30
0.0
 40
0.000889
  0
CIRCLE
  5
3D4
330
1F
100
AcDbEntity
  8
0
  6
Continuous
 62
     7
370
    25
100
AcDbCircle
 10
0.1531330021
 20
0.1602106176
 30
0.0
 40
0.0008849975611392
  0
CIRCLE
  5
3D5
330
1F
100
AcDbEntity
  8
0
  6
Continuous
 62
     7
370
    25
100
AcDbCircle
 10
0.1331330021
 20
0.1602106176
 30
0.0
 40
0.0008849975611391
  0
CIRCLE
  5
3D6
330
1F
100
AcDbEntity
  8
0
  6
Continuous
 62
     7
370
    25
100
AcDbCircle
 10
0.1331330021
 20
0.1802106176
 30
0.0
 40
0.0008849975611389
  0
CIRCLE
  5
3D7
330
1F
100
AcDbEntity
  8
0
  6
Continuous
 62
     7
370
    25
100
AcDbCircle
 10
0.1531330021
 20
0.1802106176
 30
0.0
 40
0.0008849975611389
  0
CIRCLE
  5
3D8
330
1F
100
AcDbEntity
  8
0
  6
Continuous
 62
     7
370
    25
100
AcDbCircle
 10
0.1431330579
 20
0.17021062
 30
0.0
 40
0.000337
  0
LINE
  5
3D9
330
1F
100
AcDbEntity
  8
0
  6
Continuous
 62
     7
370
    25
100
AcDbLine
 10
0.1431330579
 20
0.1706999379
 30
0.0
 11
0.14264374
 21
0.17021062
 31
0.0
  0
LINE
  5
3DA
330
1F
100
AcDbEntity
  8
0
  6
Continuous
 62
     7
370
    25
100
AcDbLine
 10
0.14264374
 20
0.17021062
 30
0.0
 11
0.1431330579
 21
0.1697213021
 31
0.0
  0
LINE
  5
3DB
330
1F
100
AcDbEntity
  8
0
  6
Continuous
 62
     7
370
    25
100
AcDbLine
 10
0.1436223758
 20
0.17021062
 30
0.0
 11
0.1431330579
 21
0.1706999379
 31
0.0
  0
LINE
  5
3DC
330
1F
100
AcDbEntity
  8
0
  6
Continuous
 62
     7
370
    25
100
AcDbLine
 10
0.1431330579
 20
0.1697213021
 30
0.0
 11
0.1433577846
 21
0.1699460287
 31
0.0
  0
LINE
  5
3DD
330
1F
100
AcDbEntity
  8
0
  6
Continuous
 62
     7
370
    25
100
AcDbLine
 10
0.143400211
 20
0.1699884551
 30
0.0
 11
0.1436223758
 21
0.17021062
 31
0.0
  0
LINE
  5
3DE
330
1F
100
AcDbEntity
  8
0
  6
Continuous
 62
     7
370
    25
100
AcDbLine
 10
0.1430906315
 20
0.1697580717
 30
0.0
 11
0.1431238655
 21
0.1697248376
 31
0.0
  0
LINE
  5
3DF
330
1F
100
AcDbEntity
  8
0
  6
Continuous
 62
     7
370
    25
100
AcDbLine
 10
0.1426472756
 20
0.1702014276
 30
0.0
 11
0.1426805096
 21
0.1701681936
 31
0.0
  0
LINE
  5
3E0
330
1F
100
AcDbEntity
  8
0
  6
Continuous
 62
     7
370
    25
100
AcDbLine
 10
0.1435856063
 20
0.1701681936
 30
0.0
 11
0.1436188403
 21
0.1702014276
 31
0.0
  0
LINE
  5
3E1
330
1F
100
AcDbEntity
  8
0
  6
Continuous
 62
     7
370
    25
100
AcDbLine
 10
0.1431422503
 20
0.1697248376
 30
0.0
 11
0.1431754843
 21
0.1697580717
 31
0.0
  0
LINE
  5
3E2
330
1F
100
AcDbEntity
  8
0
  6
Continuous
 62
     7
370
    25
100
AcDbLine
 10
0.1431238655
 20
0.1706964024
 30
0.0
 11
0.1430906315
 21
0.1706631683
 31
0.0
  0
LINE
  5
3E3
330
1F
100
AcDbEntity
  8
0
  6
Continuous
 62
     7
370
    25
100
AcDbLine
 10
0.1426805096
 20
0.1702530464
 30
0.0
 11
0.1426472756
 21
0.1702198124
 31
0.0
  0
LINE
  5
3E4
330
1F
100
AcDbEntity
  8
0
  6
Continuous
 62
     7
370
    25
100
AcDbLine
 10
0.1436188403
 20
0.1702198124
 30
0.0
 11
0.1435856063
 21
0.1702530464
 31
0.0
  0
LINE
  5
3E5
330
1F
100
AcDbEntity
  8
0
  6
Continuous
 62
     7
370
    25
100
AcDbLine
 10
0.1431754843
 20
0.1706631683
 30
0.0
 11
0.1431422503
 21
0.1706964024
 31
0.0
  0
LINE
  5
3E6
330
1F
100
AcDbEntity
  8
0
  6
Continuous
 62
     7
370
    25
100
AcDbLine
 10
0.1327830579
 20
0.1610278232
 30
0.0
 11
0.1327830579
 21
0.16119062
 31
0.0
  0
LINE
  5
3E7
330
1F
100
AcDbEntity
  8
0
  6
Continuous
 62
     7
370
    25
100
AcDbLine
 10
0.1327830579
 20
0.17923062
 30
0.0
 11
0.1327830579
 21
0.1793934168
 31
0.0
  0
LINE
  5
3E8
330
1F
100
AcDbEntity
  8
0
  6
Continuous
 62
     7
370
    25
100
AcDbLine
 10
0.1334830579
 20
0.16103721
 30
0.0
 11
0.1334830579
 21
0.1611050472
 31
0.0
  0
LINE
  5
3E9
330
1F
100
AcDbEntity
  8
0
  6
Continuous
 62
     7
370
    25
100
AcDbLine
 10
0.1334830579
 20
0.1793161928
 30
0.0
 11
0.1334830579
 21
0.17938403
 31
0.0
  0
LINE
  5
3EA
330
1F
100
AcDbEntity
  8
0
  6
Continuous
 62
     7
370
    25
100
AcDbLine
 10
0.1527830579
 20
0.1793339493
 30
0.0
 11
0.1527830579
 21
0.1793161928
 31
0.0
  0
LINE
  5
3EB
330
1F
100
AcDbEntity
  8
0
  6
Continuous
 62
     7
370
    25
100
AcDbLine
 10
0.1527830579
 20
0.1611050472
 30
0.0
 11
0.1527830579
 21
0.1610871495
 31
0.0
  0
LINE
  5
3EC
330
1F
100
AcDbEntity
  8
0
  6
Continuous
 62
     7
370
    25
100
AcDbLine
 10
0.1534830579
 20
0.1793340905
 30
0.0
 11
0.1534830579
 21
0.17923062
 31
0.0
  0
LINE
  5
3ED
330
1F
100
AcDbEntity
  8
0
  6
Continuous
 62
     7
370
    25
100
AcDbLine
 10
0.1534830579
 20
0.16119062
 30
0.0
 11
0.1534830579
 21
0.1610872907
 31
0.0
  0
CIRCLE
  5
3EE
330
1F
100
AcDbEntity
  8
0
  6
Continuous
 62
     7
370
    25
100
AcDbCircle
 10
0.1431330579
 20
0.17021062
 30
0.0
 40
0.000335
  0
LINE
  5
3EF
330
1F
100
AcDbEntity
  8
0
  6
Continuous
 62
     7
370
    25
100
AcDbLine
 10
0.1518380769
 20
0.18080062
 30
0.0
 11
0.134428039
 21
0.18080062
 31
0.0
  0
LINE
  5
3F0
330
1F
100
AcDbEntity
  8
0
  6
Continuous
 62
     7
370
    25
100
AcDbLine
 10
0.1518380769
 20
0.18056062
 30
0.0
 11
0.147353868
 21
0.18056062
 31
0.0
  0
LINE
  5
3F1
330
1F
100
AcDbEntity
  8
0
  6
Continuous
 62
     7
370
    25
100
AcDbLine
 10
0.1389122479
 20
0.18056062
 30
0.0
 11
0.134428039
 21
0.18056062
 31
0.0
  0
LINE
  5
3F2
330
1F
100
AcDbEntity
  8
0
  6
Continuous
 62
     7
370
    25
100
AcDbLine
 10
0.1522330579
 20
0.18080062
 30
0.0
 11
0.1522330579
 21
0.18056062
 31
0.0
  0
LINE
  5
3F3
330
1F
100
AcDbEntity
  8
0
  6
Continuous
 62
     7
370
    25
100
AcDbLine
 10
0.1522330579
 20
0.18080062
 30
0.0
 11
0.1518380769
 21
0.18080062
 31
0.0
  0
LINE
  5
3F4
330
1F
100
AcDbEntity
  8
0
  6
Continuous
 62
     7
370
    25
100
AcDbLine
 10
0.1340330579
 20
0.18080062
 30
0.0
 11
0.1340330579
 21
0.18056062
 31
0.0
  0
LINE
  5
3F5
330
1F
100
AcDbEntity
  8
0
  6
Continuous
 62
     7
370
    25
100
AcDbLine
 10
0.1340330579
 20
0.18080062
 30
0.0
 11
0.134428039
 21
0.18080062
 31
0.0
  0
LINE
  5
3F6
330
1F
100
AcDbEntity
  8
0
  6
Continuous
 62
     7
370
    25
100
AcDbLine
 10
0.074428039
 20
0.15962062
 30
0.0
 11
0.0918380769
 21
0.15962062
 31
0.0
  0
LINE
  5
3F7
330
1F
100
AcDbEntity
  8
0
  6
Continuous
 62
     7
370
    25
100
AcDbLine
 10
0.074428039
 20
0.15986062
 30
0.0
 11
0.0918380769
 21
0.15986062
 31
0.0
  0
LINE
  5
3F8
330
1F
100
AcDbEntity
  8
0
  6
Continuous
 62
     7
370
    25
100
AcDbLine
 10
0.0740330579
 20
0.15962062
 30
0.0
 11
0.0740330579
 21
0.15986062
 31
0.0
  0
LINE
  5
3F9
330
1F
100
AcDbEntity
  8
0
  6
Continuous
 62
     7
370
    25
100
AcDbLine
 10
0.0740330579
 20
0.15962062
 30
0.0
 11
0.074428039
 21
0.15962062
 31
0.0
  0
LINE
  5
3FA
330
1F
100
AcDbEntity
  8
0
  6
Continuous
 62
     7
370
    25
100
AcDbLine
 10
0.0922330579
 20
0.15962062
 30
0.0
 11
0.0922330579
 21
0.15986062
 31
0.0
  0
LINE
  5
3FB
330
1F
100
AcDbEntity
  8
0
  6
Continuous
 62
     7
370
    25
100
AcDbLine
 10
0.0922330579
 20
0.15962062
 30
0.0
 11
0.0918380769
 21
0.15962062
 31
0.0
  0
LINE
  5
3FC
330
1F
100
AcDbEntity
  8
0
  6
Continuous
 62
     7
370
    25
100
AcDbLine
 10
0.1523158548
 20
0.18056062
 30
0.0
 11
0.1519668494
 21
0.18056062
 31
0.0
  0
LINE
  5
3FD
330
1F
100
AcDbEntity
  8
0
  6
Continuous
 62
     7
370
    25
100
AcDbLine
 10
0.1342992665
 20
0.18056062
 30
0.0
 11
0.1339502611
 21
0.18056062
 31
0.0
  0
LINE
  5
3FE
330
1F
100
AcDbEntity
  8
0
  6
Continuous
 62
     7
370
    25
100
AcDbLine
 10
0.152306468
 20
0.17986062
 30
0.0
 11
0.1522386307
 21
0.17986062
 31
0.0
  0
LINE
  5
3FF
330
1F
100
AcDbEntity
  8
0
  6
Continuous
 62
     7
370
    25
100
AcDbLine
 10
0.1340274851
 20
0.17986062
 30
0.0
 11
0.1339596479
 21
0.17986062
 31
0.0
  0
LINE
  5
400
330
1F
100
AcDbEntity
  8
0
  6
Continuous
 62
     7
370
    25
100
AcDbLine
 10
0.0739502611
 20
0.15986062
 30
0.0
 11
0.0742992665
 21
0.15986062
 31
0.0
  0
LINE
  5
401
330
1F
100
AcDbEntity
  8
0
  6
Continuous
 62
     7
370
    25
100
AcDbLine
 10
0.0919668494
 20
0.15986062
 30
0.0
 11
0.0923158548
 21
0.15986062
 31
0.0
  0
LINE
  5
402
330
1F
100
AcDbEntity
  8
0
  6
Continuous
 62
     7
370
    25
100
AcDbLine
 10
0.0739502611
 20
0.16056062
 30
0.0
 11
0.0923158548
 21
0.16056062
 31
0.0
  0
LINE
  5
403
330
1F
100
AcDbEntity
  8
0
  6
Continuous
 62
     7
370
    25
100
AcDbLine
 10
0.0741700579
 20
0.1801995213
 30
0.0
 11
0.0741700579
 21
0.18014062
 31
0.0
  0
LINE
  5
404
330
1F
100
AcDbEntity
  8
0
  6
Continuous
 62
     7
370
    25
100
AcDbLine
 10
0.0741700579
 20
0.18028062
 30
0.0
 11
0.0741700579
 21
0.1801995213
 31
0.0
  0
LINE
  5
405
330
1F
100
AcDbEntity
  8
0
  6
Continuous
 62
     7
370
    25
100
AcDbLine
 10
0.0740896579
 20
0.1801884226
 30
0.0
 11
0.0740896579
 21
0.18007062
 31
0.0
  0
LINE
  5
406
330
1F
100
AcDbEntity
  8
0
  6
Continuous
 62
     7
370
    25
100
AcDbLine
 10
0.0740896579
 20
0.18035062
 30
0.0
 11
0.0740896579
 21
0.1801884226
 31
0.0
  0
LINE
  5
407
330
1F
100
AcDbEntity
  8
0
  6
Continuous
 62
     7
370
    25
100
AcDbLine
 10
0.0740820579
 20
0.1801884226
 30
0.0
 11
0.0740820579
 21
0.18007062
 31
0.0
  0
LINE
  5
408
330
1F
100
AcDbEntity
  8
0
  6
Continuous
 62
     7
370
    25
100
AcDbLine
 10
0.0740820579
 20
0.18035062
 30
0.0
 11
0.0740820579
 21
0.1801884226
 31
0.0
  0
LINE
  5
409
330
1F
100
AcDbEntity
  8
0
  6
Continuous
 62
     7
370
    25
100
AcDbLine
 10
0.1531219592
 20
0.17917362
 30
0.0
 11
0.1530630579
 21
0.17917362
 31
0.0
  0
LINE
  5
40A
330
1F
100
AcDbEntity
  8
0
  6
Continuous
 62
     7
370
    25
100
AcDbLine
 10
0.1532030579
 20
0.17917362
 30
0.0
 11
0.1531219592
 21
0.17917362
 31
0.0
  0
LINE
  5
40B
330
1F
100
AcDbEntity
  8
0
  6
Continuous
 62
     7
370
    25
100
AcDbLine
 10
0.1531108605
 20
0.17925402
 30
0.0
 11
0.1529930579
 21
0.17925402
 31
0.0
  0
LINE
  5
40C
330
1F
100
AcDbEntity
  8
0
  6
Continuous
 62
     7
370
    25
100
AcDbLine
 10
0.1532730579
 20
0.17925402
 30
0.0
 11
0.1531108605
 21
0.17925402
 31
0.0
  0
LINE
  5
40D
330
1F
100
AcDbEntity
  8
0
  6
Continuous
 62
     7
370
    25
100
AcDbLine
 10
0.1531108605
 20
0.17926162
 30
0.0
 11
0.1529930579
 21
0.17926162
 31
0.0
  0
LINE
  5
40E
330
1F
100
AcDbEntity
  8
0
  6
Continuous
 62
     7
370
    25
100
AcDbLine
 10
0.1532730579
 20
0.17926162
 30
0.0
 11
0.1531108605
 21
0.17926162
 31
0.0
  0
LINE
  5
40F
330
1F
100
AcDbEntity
  8
0
  6
Continuous
 62
     7
370
    25
100
AcDbLine
 10
0.0920960579
 20
0.18014062
 30
0.0
 11
0.0920960579
 21
0.18028062
 31
0.0
  0
LINE
  5
410
330
1F
100
AcDbEntity
  8
0
  6
Continuous
 62
     7
370
    25
100
AcDbLine
 10
0.0921764579
 20
0.18007062
 30
0.0
 11
0.0921764579
 21
0.18035062
 31
0.0
  0
LINE
  5
411
330
1F
100
AcDbEntity
  8
0
  6
Continuous
 62
     7
370
    25
100
AcDbLine
 10
0.0921840579
 20
0.18007062
 30
0.0
 11
0.0921840579
 21
0.18035062
 31
0.0
  0
LINE
  5
412
330
1F
100
AcDbEntity
  8
0
  6
Continuous
 62
     7
370
    25
100
AcDbLine
 10
0.1530630579
 20
0.16124762
 30
0.0
 11
0.1532030579
 21
0.16124762
 31
0.0
  0
LINE
  5
413
330
1F
100
AcDbEntity
  8
0
  6
Continuous
 62
     7
370
    25
100
AcDbLine
 10
0.1529930579
 20
0.16116722
 30
0.0
 11
0.1532730579
 21
0.16116722
 31
0.0
  0
LINE
  5
414
330
1F
100
AcDbEntity
  8
0
  6
Continuous
 62
     7
370
    25
100
AcDbLine
 10
0.1529930579
 20
0.16115962
 30
0.0
 11
0.1532730579
 21
0.16115962
 31
0.0
  0
LWPOLYLINE
  5
415
330
1F
100
AcDbEntity
  8
0
  6
Continuous
 62
     7
370
    25
100
AcDbPolyline
 90
       36
 70
   128
 43
0.0
 10
0.0766322278
 20
0.1939800306
 10
0.0766409107
 20
0.1939609105
 10
0.0766564434
 20
0.193942855
 10
0.0766783268
 20
0.1939264444
 10
0.0767058575
 20
0.1939122061
 10
0.0767381507
 20
0.1939005977
 10
0.0767741683
 20
0.1938919924
 10
0.0768127528
 20
0.1938866668
 10
0.0768526641
 20
0.193884792
 10
0.0768926193
 20
0.1938864283
 10
0.0769313342
 20
0.193891523
 10
0.0769675646
 20
0.1938999125
 10
0.077000146
 20
0.1939113271
 10
0.0770280311
 20
0.1939253999
 10
0.0770503237
 20
0.1939416786
 10
0.0770663073
 20
0.19395964
 10
0.0770754683
 20
0.1939787068
 10
0.077077512
 20
0.1939982662
 10
0.0770723729
 20
0.1940176895
 10
0.0770602162
 20
0.1940363524
 10
0.0770414325
 20
0.1940536552
 10
0.0770166255
 20
0.1940690416
 10
0.0769865927
 20
0.1940820171
 10
0.0769522993
 20
0.1940921648
 10
0.0769148474
 20
0.1940991584
 10
0.0768754409
 20
0.1941027732
 10
0.0768353463
 20
0.1941028929
 10
0.0767958522
 20
0.1940995138
 10
0.076758228
 20
0.1940927444
 10
0.0767236831
 20
0.1940828024
 10
0.0766933277
 20
0.1940700072
 10
0.0766681374
 20
0.1940547701
 10
0.0766489219
 20
0.1940375808
 10
0.0766362988
 20
0.1940189919
 10
0.0766306739
 20
0.1939996007
 10
0.0766322278
 20
0.1939800306
  0
LWPOLYLINE
  5
416
330
1F
100
AcDbEntity
  8
0
  6
Continuous
 62
     7
370
    25
100
AcDbPolyline
 90
       22
 70
   128
 43
0.0
 10
0.0775370961
 20
0.192834131
 10
0.0776330032
 20
0.1928661346
 10
0.0777290592
 20
0.1928987029
 10
0.0778287664
 20
0.1929274916
 10
0.0779356274
 20
0.1929481565
 10
0.0780518749
 20
0.192957751
 10
0.0781472007
 20
0.1929600619
 10
0.0782427911
 20
0.1929610851
 10
0.0783356708
 20
0.1929638577
 10
0.0784228647
 20
0.1929714166
 10
0.0785013974
 20
0.1929867989
 10
0.0785594042
 20
0.1930081196
 10
0.0786085723
 20
0.1930367594
 10
0.0786489342
 20
0.1930714441
 10
0.0786805255
 20
0.1931108938
 10
0.0787033823
 20
0.1931538282
 10
0.078719725
 20
0.1932104464
 10
0.0787225461
 20
0.193268009
 10
0.0787119158
 20
0.1933240157
 10
0.0786879041
 20
0.1933759663
 10
0.0786505812
 20
0.1934213605
 10
0.0786294324
 20
0.1934365589
  0
LWPOLYLINE
  5
417
330
1F
100
AcDbEntity
  8
0
  6
Continuous
 62
     7
370
    25
100
AcDbPolyline
 90
       21
 70
   128
 43
0.0
 10
0.0752916667
 20
0.1930896279
 10
0.0752911722
 20
0.1930870442
 10
0.0752943982
 20
0.1930359535
 10
0.0753108958
 20
0.1929867066
 10
0.0753409003
 20
0.1929409774
 10
0.0753949024
 20
0.192892896
 10
0.0754670832
 20
0.1928526307
 10
0.0755549978
 20
0.1928194642
 10
0.0756561884
 20
0.1927926627
 10
0.0757681971
 20
0.1927714925
 10
0.0759196769
 20
0.1927518311
 10
0.0760794193
 20
0.1927383891
 10
0.0762426241
 20
0.1927297336
 10
0.0764045414
 20
0.1927244538
 10
0.0765845575
 20
0.1927219045
 10
0.0767588192
 20
0.1927238757
 10
0.0769271347
 20
0.1927312985
 10
0.077089312
 20
0.1927451042
 10
0.0772451593
 20
0.192766224
 10
0.0773944846
 20
0.1927955892
 10
0.0775370961
 20
0.192834131
  0
LWPOLYLINE
  5
418
330
1F
100
AcDbEntity
  8
0
  6
Continuous
 62
     7
370
    25
100
AcDbPolyline
 90
       36
 70
   128
 43
0.0
 10
0.0882645653
 20
0.1900483315
 10
0.0882481955
 20
0.1900304533
 10
0.0882386243
 20
0.1900114347
 10
0.0882361591
 20
0.1899918869
 10
0.0882408794
 20
0.1899724382
 10
0.0882526333
 20
0.1899537138
 10
0.0882710431
 20
0.1899363154
 10
0.0882955171
 20
0.1899208023
 10
0.0883252686
 20
0.1899076731
 10
0.0883593415
 20
0.1898973497
 10
0.0883966405
 20
0.1898901639
 10
0.088435967
 20
0.1898863467
 10
0.0884760568
 20
0.1898860208
 10
0.0885156215
 20
0.1898891967
 10
0.0885533895
 20
0.1898957722
 10
0.0885881467
 20
0.1899055361
 10
0.0886187762
 20
0.1899181746
 10
0.0886442934
 20
0.1899332813
 10
0.0886638783
 20
0.1899503708
 10
0.0886769012
 20
0.1899688938
 10
0.0886829438
 20
0.189988255
 10
0.0886818117
 20
0.190007832
 10
0.0886735413
 20
0.1900269957
 10
0.0886583985
 20
0.19004513
 10
0.0886368699
 20
0.1900616523
 10
0.0886096476
 20
0.1900760314
 10
0.0885776064
 20
0.1900878051
 10
0.0885417762
 20
0.1900965951
 10
0.0885033085
 20
0.1901021188
 10
0.0884634399
 20
0.1901041987
 10
0.0884234517
 20
0.190102768
 10
0.088384629
 20
0.1900978725
 10
0.0883482199
 20
0.1900896698
 10
0.0883153944
 20
0.1900784234
 10
0.0882872075
 20
0.1900644947
 10
0.0882645653
 20
0.1900483315
  0
LWPOLYLINE
  5
419
330
1F
100
AcDbEntity
  8
0
  6
Continuous
 62
     7
370
    25
100
AcDbPolyline
 90
       24
 70
   128
 43
0.0
 10
0.0886573437
 20
0.1886927892
 10
0.088773404
 20
0.1886905482
 10
0.088890273
 20
0.1886887171
 10
0.0890054595
 20
0.1886827884
 10
0.089116472
 20
0.1886682545
 10
0.0892215059
 20
0.1886420997
 10
0.089300853
 20
0.1886161911
 10
0.0893788406
 20
0.1885891717
 10
0.0894567877
 20
0.1885643462
 10
0.0895360129
 20
0.1885450191
 10
0.0896178353
 20
0.1885344951
 10
0.0896904289
 20
0.1885347165
 10
0.0897648615
 20
0.1885433878
 10
0.0898396038
 20
0.1885594768
 10
0.0899131219
 20
0.1885819454
 10
0.0899838819
 20
0.1886097554
 10
0.0900661166
 20
0.1886504478
 10
0.0901386492
 20
0.1886958366
 10
0.0901984839
 20
0.1887438941
 10
0.0902426248
 20
0.1887925926
 10
0.0902680761
 20
0.1888399047
 10
0.0902718419
 20
0.1888838027
 10
0.0902513537
 20
0.1889224463
 10
0.090245054
 20
0.1889272727
  0
ARC
  5
41A
330
1F
100
AcDbEntity
  8
0
  6
Continuous
 62
     7
370
    25
100
AcDbCircle
 10
0.0884954846
 20
0.1906359902
 30
0.0
 40
0.0019499303913802
100
AcDbArc
 50
220.4398151344
 51
274.7614647423
  0
LWPOLYLINE
  5
41B
330
1F
100
AcDbEntity
  8
0
  6
Continuous
 62
     7
370
    25
100
AcDbPolyline
 90
       36
 70
   128
 43
0.0
 10
0.0827033142
 20
0.1881730829
 10
0.0826957624
 20
0.1881538486
 10
0.0826953631
 20
0.1881342647
 10
0.0827021292
 20
0.1881149608
 10
0.0827158432
 20
0.1880965572
 10
0.0827360644
 20
0.1880796454
 10
0.0827621427
 20
0.188064769
 10
0.08279324
 20
0.1880524062
 10
0.0828283569
 20
0.1880429543
 10
0.0828663646
 20
0.1880367171
 10
0.0829060416
 20
0.188033895
 10
0.0829461125
 20
0.1880345788
 10
0.0829852895
 20
0.1880387465
 10
0.0830223134
 20
0.1880462641
 10
0.0830559943
 20
0.18805689
 10
0.0830852495
 20
0.1880702828
 10
0.0831091388
 20
0.1880860118
 10
0.0831268944
 20
0.1881035716
 10
0.0831379456
 20
0.1881223979
 10
0.0831419372
 20
0.1881418854
 10
0.0831387409
 20
0.1881614079
 10
0.0831284595
 20
0.1881803379
 10
0.0831114233
 20
0.188198067
 10
0.08308818
 20
0.1882140253
 10
0.0830594766
 20
0.1882276999
 10
0.0830262357
 20
0.1882386514
 10
0.0829895256
 20
0.1882465277
 10
0.0829505263
 20
0.1882510756
 10
0.0829104912
 20
0.1882521491
 10
0.082870707
 20
0.1882497135
 10
0.0828324526
 20
0.1882438473
 10
0.0827969573
 20
0.1882347388
 10
0.0827653621
 20
0.188222681
 10
0.0827386824
 20
0.1882080612
 10
0.0827177758
 20
0.1881913495
 10
0.0827033142
 20
0.1881730829
  0
LWPOLYLINE
  5
41C
330
1F
100
AcDbEntity
  8
0
  6
Continuous
 62
     7
370
    25
100
AcDbPolyline
 90
       23
 70
   128
 43
0.0
 10
0.0833121033
 20
0.1868743187
 10
0.0834261294
 20
0.1868851211
 10
0.0835407505
 20
0.186896413
 10
0.083655655
 20
0.1869035281
 10
0.0837705315
 20
0.1869017996
 10
0.0838850372
 20
0.1868880903
 10
0.0839744235
 20
0.1868717471
 10
0.0840630072
 20
0.1868541705
 10
0.0841505227
 20
0.1868387249
 10
0.0842367043
 20
0.1868287746
 10
0.0843212864
 20
0.1868276839
 10
0.0843918466
 20
0.1868360206
 10
0.0844602348
 20
0.1868527883
 10
0.0845254464
 20
0.1868768112
 10
0.0845864751
 20
0.1869069072
 10
0.0846423144
 20
0.186941894
 10
0.0847032831
 20
0.1869907045
 10
0.0847526055
 20
0.1870430011
 10
0.0847883161
 20
0.187096475
 10
0.0848084496
 20
0.1871488172
 10
0.0848110403
 20
0.187197719
 10
0.0847941228
 20
0.1872408714
 10
0.0847713176
 20
0.1872620357
  0
ARC
  5
41D
330
1F
100
AcDbEntity
  8
0
  6
Continuous
 62
     7
370
    25
100
AcDbCircle
 10
0.0828893209
 20
0.1891061903
 30
0.0
 40
0.0022715624418579
100
AcDbArc
 50
228.4999506205
 51
280.7264156841
  0
LWPOLYLINE
  5
41E
330
1F
100
AcDbEntity
  8
0
  6
Continuous
 62
     7
370
    25
100
AcDbPolyline
 90
       36
 70
   128
 43
0.0
 10
0.0887825797
 20
0.1856566022
 10
0.0888048065
 20
0.1856403021
 10
0.0888326348
 20
0.1856262025
 10
0.08886517
 20
0.1856147565
 10
0.0889013665
 20
0.1856063322
 10
0.0889400608
 20
0.1856012001
 10
0.0889800093
 20
0.1855995254
 10
0.0890199281
 20
0.1856013618
 10
0.089058534
 20
0.1856066502
 10
0.0890945863
 20
0.1856152208
 10
0.0891269262
 20
0.185626798
 10
0.0891545143
 20
0.1856410098
 10
0.089176464
 20
0.1856573993
 10
0.0891920696
 20
0.1856754399
 10
0.0892008296
 20
0.1856945516
 10
0.0892024625
 20
0.1857141201
 10
0.0891969158
 20
0.1857335167
 10
0.0891843678
 20
0.1857521177
 10
0.0891652217
 20
0.1857693254
 10
0.089140093
 20
0.1857845868
 10
0.0891097893
 20
0.1857974112
 10
0.0890752845
 20
0.1858073865
 10
0.0890376878
 20
0.1858141921
 10
0.0889982074
 20
0.1858176092
 10
0.0889581124
 20
0.1858175281
 10
0.0889186913
 20
0.1858139513
 10
0.0888812113
 20
0.1858069937
 10
0.088846877
 20
0.1857968791
 10
0.0888167918
 20
0.1857839325
 10
0.0887919229
 20
0.18576857
 10
0.0887730694
 20
0.1857512854
 10
0.0887608373
 20
0.1857326342
 10
0.0887556198
 20
0.1857132159
 10
0.0887575846
 20
0.1856936546
 10
0.0887666686
 20
0.185674579
 10
0.0887825797
 20
0.1856566022
  0
LWPOLYLINE
  5
41F
330
1F
100
AcDbEntity
  8
0
  6
Continuous
 62
     7
370
    25
100
AcDbPolyline
 90
       20
 70
   128
 43
0.0
 10
0.0898284147
 20
0.1846886688
 10
0.0898942059
 20
0.1847354245
 10
0.0899597186
 20
0.184782733
 10
0.0900314293
 20
0.1848271604
 10
0.090115815
 20
0.1848652731
 10
0.0902171351
 20
0.1848947167
 10
0.0903043264
 20
0.184913679
 10
0.0903927161
 20
0.184931487
 10
0.0904772852
 20
0.1849504486
 10
0.0905530147
 20
0.1849728713
 10
0.0906148856
 20
0.1850010629
 10
0.090653226
 20
0.1850311735
 10
0.0906779151
 20
0.1850665514
 10
0.0906899244
 20
0.1851060141
 10
0.0906902334
 20
0.1851483741
 10
0.0906798215
 20
0.1851924439
 10
0.0906532227
 20
0.1852481264
 10
0.090613316
 20
0.1853023056
 10
0.0905620144
 20
0.1853526622
 10
0.0905470513
 20
0.1853635465
  0
LWPOLYLINE
  5
420
330
1F
100
AcDbEntity
  8
0
  6
Continuous
 62
     7
370
    25
100
AcDbPolyline
 90
       25
 70
   128
 43
0.0
 10
0.0875038806
 20
0.1846882803
 10
0.0875009829
 20
0.1846781087
 10
0.0875025969
 20
0.1846284684
 10
0.0875182784
 20
0.1845780798
 10
0.0875470098
 20
0.1845285455
 10
0.0875877733
 20
0.1844814681
 10
0.0876395513
 20
0.1844384501
 10
0.0877013258
 20
0.1844010941
 10
0.0877872184
 20
0.1843657756
 10
0.0878842882
 20
0.1843409513
 10
0.0879907851
 20
0.1843255213
 10
0.0881049594
 20
0.1843183679
 10
0.0882250611
 20
0.1843183736
 10
0.0883808577
 20
0.1843267455
 10
0.0885397639
 20
0.1843423745
 10
0.0886983619
 20
0.1843630776
 10
0.0888532647
 20
0.1843867018
 10
0.0890230281
 20
0.1844160636
 10
0.0891840847
 20
0.1844486265
 10
0.0893355673
 20
0.1844852251
 10
0.0894766087
 20
0.184526694
 10
0.0896063419
 20
0.1845738678
 10
0.0897238996
 20
0.1846275812
 10
0.0898284147
 20
0.1846886688
 10
0.0898284147
 20
0.1846886688
  0
LWPOLYLINE
  5
421
330
1F
100
AcDbEntity
  8
0
  6
Continuous
 62
     7
370
    25
100
AcDbPolyline
 90
       36
 70
   128
 43
0.0
 10
0.0839012018
 20
0.1921615848
 10
0.0839022241
 20
0.1921420063
 10
0.0839103869
 20
0.1921228316
 10
0.083925428
 20
0.1921046771
 10
0.0839468637
 20
0.1920881261
 10
0.0839740053
 20
0.1920737106
 10
0.0840059803
 20
0.192061894
 10
0.0840417611
 20
0.1920530561
 10
0.0840801976
 20
0.1920474809
 10
0.0841200544
 20
0.1920453477
 10
0.0841600505
 20
0.1920467249
 10
0.0841989005
 20
0.1920515683
 10
0.0842353555
 20
0.1920597223
 10
0.084268244
 20
0.1920709248
 10
0.0842965089
 20
0.1920848156
 10
0.0843192417
 20
0.1921009484
 10
0.0843357117
 20
0.1921188047
 10
0.0843453896
 20
0.1921378104
 10
0.0843479644
 20
0.1921573549
 10
0.0843433533
 20
0.1921768097
 10
0.0843317045
 20
0.1921955498
 10
0.0843133924
 20
0.1922129728
 10
0.0842890055
 20
0.1922285186
 10
0.0842593278
 20
0.1922416876
 10
0.0842253129
 20
0.1922520566
 10
0.0841880543
 20
0.1922592923
 10
0.0841487494
 20
0.1922631621
 10
0.0841086616
 20
0.1922635416
 10
0.0840690792
 20
0.1922604187
 10
0.0840312745
 20
0.1922538937
 10
0.0839964626
 20
0.1922441764
 10
0.0839657623
 20
0.192231579
 10
0.0839401605
 20
0.1922165065
 10
0.0839204798
 20
0.1921994433
 10
0.083907353
 20
0.1921809378
 10
0.0839012018
 20
0.1921615848
  0
LWPOLYLINE
  5
422
330
1F
100
AcDbEntity
  8
0
  6
Continuous
 62
     7
370
    25
100
AcDbPolyline
 90
       23
 70
   128
 43
0.0
 10
0.084682102
 20
0.1909360661
 10
0.0847887857
 20
0.1909585013
 10
0.0848958368
 20
0.1909814768
 10
0.0850049891
 20
0.191000401
 10
0.0851179761
 20
0.1910106825
 10
0.0852358334
 20
0.1910092202
 10
0.0853302997
 20
0.1910025672
 10
0.0854245205
 20
0.1909946256
 10
0.0855167671
 20
0.1909886546
 10
0.0856053106
 20
0.1909879134
 10
0.0856884221
 20
0.1909956612
 10
0.0857537171
 20
0.1910111584
 10
0.0858132082
 20
0.1910346662
 10
0.0858664272
 20
0.1910649311
 10
0.0859129072
 20
0.1911006934
 10
0.0859521813
 20
0.1911406934
 10
0.0859904294
 20
0.1911947333
 10
0.0860157769
 20
0.1912509655
 10
0.0860273118
 20
0.1913069295
 10
0.0860241223
 20
0.1913601648
 10
0.0860052964
 20
0.1914082108
 10
0.0859699223
 20
0.1914486071
 10
0.0859690525
 20
0.1914491121
  0
ARC
  5
423
330
1F
100
AcDbEntity
  8
0
  6
Continuous
 62
     7
370
    25
100
AcDbCircle
 10
0.0839744941
 20
0.193088709
 30
0.0
 40
0.002265961289178
100
AcDbArc
 50
231.3280442969
 51
288.1965147079
  0
LWPOLYLINE
  5
424
330
1F
100
AcDbEntity
  8
0
  6
Continuous
 62
     7
370
    25
100
AcDbPolyline
 90
       36
 70
   128
 43
0.0
 10
0.087147987
 20
0.1943079826
 10
0.0871629174
 20
0.1942898063
 10
0.0871842524
 20
0.1942732242
 10
0.0872113061
 20
0.1942587694
 10
0.0872432091
 20
0.1942469065
 10
0.0872789359
 20
0.1942380166
 10
0.0873173382
 20
0.1942323856
 10
0.0873571819
 20
0.1942301945
 10
0.0873971862
 20
0.1942315136
 10
0.0874360655
 20
0.1942363006
 10
0.08747257
 20
0.1942444016
 10
0.0875055265
 20
0.1942555563
 10
0.0875338758
 20
0.194269406
 10
0.0875567067
 20
0.1942855058
 10
0.0875732854
 20
0.194303338
 10
0.0875830789
 20
0.1943223296
 10
0.0875857727
 20
0.1943418702
 10
0.08758128
 20
0.1943613317
 10
0.0875697453
 20
0.1943800886
 10
0.0875515393
 20
0.1943975381
 10
0.0875272472
 20
0.1944131192
 10
0.0874976497
 20
0.1944263313
 10
0.0874636982
 20
0.1944367496
 10
0.0874264838
 20
0.1944440394
 10
0.0873872026
 20
0.1944479663
 10
0.0873471173
 20
0.194448404
 10
0.087307516
 20
0.1944453386
 10
0.0872696718
 20
0.1944388686
 10
0.0872348009
 20
0.1944292019
 10
0.0872040241
 20
0.1944166491
 10
0.0871783306
 20
0.1944016139
 10
0.0871585462
 20
0.1943845793
 10
0.0871453067
 20
0.1943660929
 10
0.0871390378
 20
0.194346749
 10
0.0871399409
 20
0.1943271691
 10
0.087147987
 20
0.1943079826
  0
LWPOLYLINE
  5
425
330
1F
100
AcDbEntity
  8
0
  6
Continuous
 62
     7
370
    25
100
AcDbPolyline
 90
       21
 70
   128
 43
0.0
 10
0.0881317764
 20
0.1932375658
 10
0.0882157573
 20
0.1932767589
 10
0.0882996971
 20
0.1933165209
 10
0.0883884974
 20
0.1933528436
 10
0.08848706
 20
0.1933817185
 10
0.0885985683
 20
0.1934004155
 10
0.0886918572
 20
0.1934102647
 10
0.0887858357
 20
0.1934188643
 10
0.0888765574
 20
0.1934289747
 10
0.0889600759
 20
0.1934433564
 10
0.089032445
 20
0.1934647697
 10
0.0890825848
 20
0.1934904127
 10
0.0891215679
 20
0.1935225755
 10
0.08914985
 20
0.1935600037
 10
0.0891678925
 20
0.1936014371
 10
0.089176157
 20
0.1936456153
 10
0.0891734401
 20
0.193702778
 10
0.0891570672
 20
0.193759799
 10
0.0891279396
 20
0.1938142168
 10
0.0890869585
 20
0.1938635698
 10
0.0890517766
 20
0.1938919051
  0
LWPOLYLINE
  5
426
330
1F
100
AcDbEntity
  8
0
  6
Continuous
 62
     7
370
    25
100
AcDbPolyline
 90
       22
 70
   128
 43
0.0
 10
0.0858271035
 20
0.1933860304
 10
0.0858241774
 20
0.1933601438
 10
0.0858315565
 20
0.1933087862
 10
0.0858517423
 20
0.1932586312
 10
0.0858844096
 20
0.1932113492
 10
0.0859292334
 20
0.1931686107
 10
0.0859985184
 20
0.1931254566
 10
0.0860831392
 20
0.1930914581
 10
0.0861809221
 20
0.1930657132
 10
0.0862896862
 20
0.1930473028
 10
0.0864072505
 20
0.1930353078
 10
0.0865632587
 20
0.1930279356
 10
0.0867253499
 20
0.1930273561
 10
0.0868892644
 20
0.1930317744
 10
0.0870507853
 20
0.1930394212
 10
0.0872292554
 20
0.1930511993
 10
0.0874005434
 20
0.1930669809
 10
0.0875641499
 20
0.1930876694
 10
0.0877195757
 20
0.1931141685
 10
0.0878663216
 20
0.1931473819
 10
0.0880038882
 20
0.1931882131
 10
0.0881317764
 20
0.1932375658
  0
LWPOLYLINE
  5
427
330
1F
100
AcDbEntity
  8
0
  6
Continuous
 62
     7
370
    25
100
AcDbPolyline
 90
       36
 70
   128
 43
0.0
 10
0.0776883494
 20
0.1898158835
 10
0.0777078312
 20
0.1897987659
 10
0.0777332573
 20
0.1897836225
 10
0.0777638104
 20
0.1897709401
 10
0.0777985087
 20
0.1897611263
 10
0.0778362369
 20
0.1897544965
 10
0.0778757823
 20
0.1897512637
 10
0.0779158739
 20
0.189751532
 10
0.0779552232
 20
0.1897552926
 10
0.0779925654
 20
0.1897624247
 10
0.0780267003
 20
0.1897726991
 10
0.0780565308
 20
0.1897857855
 10
0.0780810982
 20
0.1898012634
 10
0.0780996128
 20
0.1898186352
 10
0.0781114794
 20
0.1898373426
 10
0.0781163169
 20
0.1898567844
 10
0.0781139695
 20
0.1898763357
 10
0.0781045129
 20
0.189895368
 10
0.0780882509
 20
0.1899132697
 10
0.0780657062
 20
0.1899294653
 10
0.0780376035
 20
0.1899434344
 10
0.0780048458
 20
0.189954728
 10
0.0779684863
 20
0.1899629831
 10
0.0779296933
 20
0.1899679343
 10
0.0778897139
 20
0.1899694225
 10
0.0778498329
 20
0.1899674
 10
0.0778113321
 20
0.1899619316
 10
0.0777754491
 20
0.1899531932
 10
0.0777433371
 20
0.1899414655
 10
0.0777160282
 20
0.1899271257
 10
0.0776944002
 20
0.1899106344
 10
0.0776791482
 20
0.1898925219
 10
0.0776707623
 20
0.1898733702
 10
0.0776695123
 20
0.1898537949
 10
0.0776754381
 20
0.1898344251
 10
0.0776883494
 20
0.1898158835
  0
LWPOLYLINE
  5
428
330
1F
100
AcDbEntity
  8
0
  6
Continuous
 62
     7
370
    25
100
AcDbPolyline
 90
       20
 70
   128
 43
0.0
 10
0.0787151833
 20
0.1888073279
 10
0.0787884321
 20
0.1888513585
 10
0.078861494
 20
0.1888959511
 10
0.0789402615
 20
0.1889374294
 10
0.0790306274
 20
0.1889721171
 10
0.0791364513
 20
0.1889975009
 10
0.0792264726
 20
0.18901299
 10
0.0793174992
 20
0.1890272817
 10
0.0794049066
 20
0.1890428726
 10
0.0794840705
 20
0.1890622596
 10
0.0795503667
 20
0.1890879393
 10
0.0795935228
 20
0.1891164527
 10
0.0796239354
 20
0.1891507506
 10
0.079642379
 20
0.1891896165
 10
0.0796496352
 20
0.1892318282
 10
0.0796464854
 20
0.1892761637
 10
0.0796291054
 20
0.1893327082
 10
0.0795982138
 20
0.189388275
 10
0.079555337
 20
0.1894404774
 10
0.0795085861
 20
0.1894811938
  0
LWPOLYLINE
  5
429
330
1F
100
AcDbEntity
  8
0
  6
Continuous
 62
     7
370
    25
100
AcDbPolyline
 90
       23
 70
   128
 43
0.0
 10
0.0763906789
 20
0.1888664822
 10
0.0763869679
 20
0.1888383417
 10
0.076394334
 20
0.1887875014
 10
0.0764148481
 20
0.188737002
 10
0.0764477586
 20
0.1886884806
 10
0.076492314
 20
0.1886435745
 10
0.0765477627
 20
0.1886039211
 10
0.076627586
 20
0.1885653547
 10
0.0767202718
 20
0.1885368114
 10
0.0768238955
 20
0.1885172632
 10
0.0769365294
 20
0.1885056647
 10
0.0770562459
 20
0.1885009702
 10
0.0772129149
 20
0.1885032181
 10
0.0773738738
 20
0.1885125781
 10
0.0775353578
 20
0.1885270079
 10
0.0776936376
 20
0.1885444941
 10
0.0778676714
 20
0.1885671178
 10
0.0780335514
 20
0.1885932731
 10
0.0781905502
 20
0.1886238257
 10
0.0783379402
 20
0.1886596417
 10
0.078474994
 20
0.1887015868
 10
0.0786009842
 20
0.1887505269
 10
0.0787151833
 20
0.1888073279
  0
LWPOLYLINE
  5
42A
330
1F
100
AcDbEntity
  8
0
  6
Continuous
 62
     7
370
    25
100
AcDbPolyline
 90
       36
 70
   128
 43
0.0
 10
0.0785156318
 20
0.1848634068
 10
0.0785387471
 20
0.1848474042
 10
0.0785673406
 20
0.1848336747
 10
0.0786004935
 20
0.1848226598
 10
0.0786371402
 20
0.1848147134
 10
0.0786761028
 20
0.1848100909
 10
0.078716129
 20
0.1848089409
 10
0.0787559323
 20
0.1848113004
 10
0.0787942335
 20
0.1848170934
 10
0.0788298015
 20
0.1848261339
 10
0.0788614931
 20
0.1848381313
 10
0.0788882898
 20
0.1848526999
 10
0.0789093302
 20
0.1848693715
 10
0.0789239381
 20
0.1848876103
 10
0.078931644
 20
0.18490683
 10
0.0789322002
 20
0.1849264129
 10
0.0789255889
 20
0.1849457297
 10
0.0789120225
 20
0.1849641594
 10
0.078891937
 20
0.1849811097
 10
0.0788659782
 20
0.1849960358
 10
0.0788349801
 20
0.185008458
 10
0.0787999393
 20
0.185017977
 10
0.0787619819
 20
0.1850242869
 10
0.0787223278
 20
0.1850271848
 10
0.0786822517
 20
0.1850265776
 10
0.0786430416
 20
0.1850224849
 10
0.0786059577
 20
0.1850150381
 10
0.078572192
 20
0.1850044767
 10
0.0785428296
 20
0.18499114
 10
0.0785188144
 20
0.1849754568
 10
0.0785009182
 20
0.184957931
 10
0.0784897162
 20
0.1849391261
 10
0.0784855685
 20
0.1849196463
 10
0.0784886083
 20
0.1849001178
 10
0.0784987379
 20
0.1848811683
 10
0.0785156318
 20
0.1848634068
  0
LWPOLYLINE
  5
42B
330
1F
100
AcDbEntity
  8
0
  6
Continuous
 62
     7
370
    25
100
AcDbPolyline
 90
       19
 70
   128
 43
0.0
 10
0.0795663326
 20
0.1839092295
 10
0.079629529
 20
0.1839568314
 10
0.0796924164
 20
0.1840049824
 10
0.0797616582
 20
0.1840503347
 10
0.0798439176
 20
0.1840895408
 10
0.079943582
 20
0.1841203031
 10
0.0800296991
 20
0.1841404025
 10
0.0801170776
 20
0.1841593638
 10
0.0802005735
 20
0.1841794281
 10
0.0802750426
 20
0.1842028363
 10
0.0803353409
 20
0.1842318295
 10
0.0803720117
 20
0.1842624323
 10
0.0803947464
 20
0.1842981214
 10
0.0804045813
 20
0.1843377274
 10
0.0804025607
 20
0.1843800762
 10
0.0803897292
 20
0.1844239934
 10
0.0803600779
 20
0.1844793068
 10
0.0803172062
 20
0.1845329429
 10
0.0802636131
 20
0.1845821864
  0
LWPOLYLINE
  5
42C
330
1F
100
AcDbEntity
  8
0
  6
Continuous
 62
     7
370
    25
100
AcDbPolyline
 90
       25
 70
   128
 43
0.0
 10
0.0772447608
 20
0.1838875223
 10
0.0772403214
 20
0.1838681366
 10
0.0772446645
 20
0.1838185354
 10
0.0772631113
 20
0.1837683707
 10
0.0772945562
 20
0.1837192313
 10
0.0773378939
 20
0.1836727057
 10
0.0773920188
 20
0.1836303825
 10
0.0774558253
 20
0.1835938505
 10
0.0775436291
 20
0.1835596716
 10
0.0776420289
 20
0.1835361299
 10
0.077749336
 20
0.1835221027
 10
0.0778638624
 20
0.1835164499
 10
0.0779839204
 20
0.1835180314
 10
0.0781392004
 20
0.1835284444
 10
0.0782971898
 20
0.1835461526
 10
0.0784545921
 20
0.1835689291
 10
0.0786081399
 20
0.1835945772
 10
0.0787762275
 20
0.1836261557
 10
0.0789354353
 20
0.18366082
 10
0.0790848507
 20
0.1836993928
 10
0.0792235608
 20
0.1837426973
 10
0.079350653
 20
0.1837915562
 10
0.0794652145
 20
0.1838467926
 10
0.0795663326
 20
0.1839092295
 10
0.0795663326
 20
0.1839092295
  0
LINE
  5
42D
330
1F
100
AcDbEntity
  8
0
  6
Continuous
 62
     7
370
    25
100
AcDbLine
 10
0.0734330579
 20
0.181880552
 30
0.0
 11
0.0928330579
 21
0.181880552
 31
0.0
  0
LINE
  5
42E
330
1F
100
AcDbEntity
  8
0
  6
Continuous
 62
     7
370
    25
100
AcDbLine
 10
0.0734330579
 20
0.1822121356
 30
0.0
 11
0.0928330579
 21
0.1822121356
 31
0.0
  0
ARC
  5
42F
330
1F
100
AcDbEntity
  8
0
  6
Continuous
 62
     7
370
    25
100
AcDbCircle
 10
0.0733188463
 20
0.1824074473
 30
0.0
 40
0.0005391316385176
100
AcDbArc
 50
205.7026287264
 51
282.2304148189
  0
LINE
  5
430
330
1F
100
AcDbEntity
  8
0
  6
Continuous
 62
     7
370
    25
100
AcDbLine
 10
0.0728330579
 20
0.1821736257
 30
0.0
 11
0.0728330579
 21
0.1825052093
 31
0.0
  0
ARC
  5
431
330
1F
100
AcDbEntity
  8
0
  6
Continuous
 62
     7
370
    25
100
AcDbCircle
 10
0.0733188463
 20
0.1827390309
 30
0.0
 40
0.0005391316385175
100
AcDbArc
 50
205.7026287264
 51
282.2304148189
  0
LINE
  5
432
330
1F
100
AcDbEntity
  8
0
  6
Continuous
 62
     7
370
    25
100
AcDbLine
 10
0.0934330579
 20
0.1821736257
 30
0.0
 11
0.0934330579
 21
0.1825052093
 31
0.0
  0
ARC
  5
433
330
1F
100
AcDbEntity
  8
0
  6
Continuous
 62
     7
370
    25
100
AcDbCircle
 10
0.0929472695
 20
0.1824074473
 30
0.0
 40
0.0005391316385176
100
AcDbArc
 50
257.7695851811
 51
334.2973712736
  0
ARC
  5
434
330
1F
100
AcDbEntity
  8
0
  6
Continuous
 62
     7
370
    25
100
AcDbCircle
 10
0.0929472695
 20
0.1827390309
 30
0.0
 40
0.0005391316385176
100
AcDbArc
 50
257.7695851811
 51
334.2973712736
  0
LINE
  5
435
330
1F
100
AcDbEntity
  8
0
  6
Continuous
 62
     7
370
    25
100
AcDbLine
 10
0.0728330579
 20
0.1885620649
 30
0.0
 11
0.0728330579
 21
0.1825052093
 31
0.0
  0
LINE
  5
436
330
1F
100
AcDbEntity
  8
0
  6
Continuous
 62
     7
370
    25
100
AcDbLine
 10
0.0728330579
 20
0.1885620649
 30
0.0
 11
0.0733995089
 21
0.1885620649
 31
0.0
  0
ARC
  5
437
330
1F
100
AcDbEntity
  8
0
  6
Continuous
 62
     7
370
    25
100
AcDbCircle
 10
0.0762312211
 20
0.1828931416
 30
0.0
 40
0.0063368198316466
100
AcDbArc
 50
86.4635955217
 51
116.5428156559
  0
ARC
  5
438
330
1F
100
AcDbEntity
  8
0
  6
Continuous
 62
     7
370
    25
100
AcDbCircle
 10
0.0831286352
 20
0.0893859279
 30
0.0
 40
0.100062522625927
100
AcDbArc
 50
87.7784814551
 51
92.021274578
  0
ARC
  5
439
330
1F
100
AcDbEntity
  8
0
  6
Continuous
 62
     7
370
    25
100
AcDbCircle
 10
0.0904122966
 20
0.18414701
 30
0.0
 40
0.0050513709582987
100
AcDbArc
 50
60.9305026548
 51
94.3099664249
  0
LINE
  5
43A
330
1F
100
AcDbEntity
  8
0
  6
Continuous
 62
     7
370
    25
100
AcDbLine
 10
0.0928666069
 20
0.1885620649
 30
0.0
 11
0.0934330579
 21
0.1885620649
 31
0.0
  0
LINE
  5
43B
330
1F
100
AcDbEntity
  8
0
  6
Continuous
 62
     7
370
    25
100
AcDbLine
 10
0.0934330579
 20
0.1825052093
 30
0.0
 11
0.0934330579
 21
0.1885620649
 31
0.0
  0
LINE
  5
43C
330
1F
100
AcDbEntity
  8
0
  6
Continuous
 62
     7
370
    25
100
AcDbLine
 10
0.0728330579
 20
0.1949119941
 30
0.0
 11
0.0728330579
 21
0.1885620649
 31
0.0
  0
ARC
  5
43D
330
1F
100
AcDbEntity
  8
0
  6
Continuous
 62
     7
370
    25
100
AcDbCircle
 10
0.0733188463
 20
0.1946781725
 30
0.0
 40
0.0005391316385176
100
AcDbArc
 50
77.7695851811
 51
154.2973712736
  0
LINE
  5
43E
330
1F
100
AcDbEntity
  8
0
  6
Continuous
 62
     7
370
    25
100
AcDbLine
 10
0.0734330579
 20
0.1952050678
 30
0.0
 11
0.0928330579
 21
0.1952050678
 31
0.0
  0
ARC
  5
43F
330
1F
100
AcDbEntity
  8
0
  6
Continuous
 62
     7
370
    25
100
AcDbCircle
 10
0.0929472695
 20
0.1946781725
 30
0.0
 40
0.0005391316385176
100
AcDbArc
 50
25.7026287264
 51
102.2304148189
  0
LINE
  5
440
330
1F
100
AcDbEntity
  8
0
  6
Continuous
 62
     7
370
    25
100
AcDbLine
 10
0.0934330579
 20
0.1885620649
 30
0.0
 11
0.0934330579
 21
0.1949119941
 31
0.0
  0
ELLIPSE
  5
441
330
1F
100
AcDbEntity
  8
0
  6
Continuous
 62
     7
370
    25
100
AcDbEllipse
 10
0.0931330579
 20
0.1819036937
 30
0.0
 11
0.0002907253604524373
 21
0.0002907253604524373
 31
0.0
210
0.0
220
0.0
230
1.0
 40
0.5862372926
 41
2.169758370487298
 42
2.611354258896353
  0
ELLIPSE
  5
442
330
1F
100
AcDbEntity
  8
0
  6
Continuous
 62
     7
370
    25
100
AcDbEllipse
 10
0.0731330579
 20
0.1819036937
 30
0.0
 11
0.0002907253604524373
 21
-0.0002907253604524373
 31
0.0
210
0.0
220
0.0
230
1.0
 40
0.5862372926
 41
0.5302383946935578
 42
0.9718342831024988
  0
ELLIPSE
  5
443
330
1F
100
AcDbEntity
  8
0
  6
Continuous
 62
     7
370
    25
100
AcDbEllipse
 10
0.0731330579
 20
0.18161062
 30
0.0
 11
0.0003369999999999901
 21
0.0
 31
0.0
210
0.0
220
0.0
230
1.0
 40
0.5862372926
 41
1.570796326794897
 42
3.141592653589793
  0
ELLIPSE
  5
444
330
1F
100
AcDbEntity
  8
0
  6
Continuous
 62
     7
370
    25
100
AcDbEllipse
 10
0.0731330579
 20
0.18161062
 30
0.0
 11
0.0003369999999999901
 21
0.0
 31
0.0
210
0.0
220
0.0
230
1.0
 40
0.5862372926
 41
0.0
 42
1.570796326794938
  0
ARC
  5
445
330
1F
100
AcDbEntity
  8
0
  6
Continuous
 62
     7
370
    25
100
AcDbCircle
 10
0.0731330579
 20
0.19575062
 30
0.0
 40
0.000337
100
AcDbArc
 50
0.0
 51
180.0
  0
ELLIPSE
  5
446
330
1F
100
AcDbEntity
  8
0
  6
Continuous
 62
     7
370
    25
100
AcDbEllipse
 10
0.0931330579
 20
0.18161062
 30
0.0
 11
0.000337000000000004
 21
0.0
 31
0.0
210
0.0
220
0.0
230
1.0
 40
0.5862372926
 41
1.570796326794897
 42
3.141592653589793
  0
ELLIPSE
  5
447
330
1F
100
AcDbEntity
  8
0
  6
Continuous
 62
     7
370
    25
100
AcDbEllipse
 10
0.0931330579
 20
0.18161062
 30
0.0
 11
0.000337000000000004
 21
0.0
 31
0.0
210
0.0
220
0.0
230
1.0
 40
0.5862372926
 41
0.0
 42
1.570796326794897
  0
ARC
  5
448
330
1F
100
AcDbEntity
  8
0
  6
Continuous
 62
     7
370
    25
100
AcDbCircle
 10
0.0931330579
 20
0.19575062
 30
0.0
 40
0.000337
100
AcDbArc
 50
0.0
 51
180.0
  0
ELLIPSE
  5
449
330
1F
100
AcDbEntity
  8
0
  6
Continuous
 62
     7
370
    25
100
AcDbEllipse
 10
0.0931330579
 20
0.18161062
 30
0.0
 11
0.000337000000000004
 21
0.0
 31
0.0
210
0.0
220
0.0
230
1.0
 40
0.5862372926
 41
0.0
 42
3.141592653589793
  0
ELLIPSE
  5
44A
330
1F
100
AcDbEntity
  8
0
  6
Continuous
 62
     7
370
    25
100
AcDbEllipse
 10
0.0731330579
 20
0.18161062
 30
0.0
 11
0.0003369999999999901
 21
0.0
 31
0.0
210
0.0
220
0.0
230
1.0
 40
0.5862372926
 41
0.0
 42
3.141592653589793
  0
LINE
  5
44B
330
1F
100
AcDbEntity
  8
0
  6
Continuous
 62
     7
370
    25
100
AcDbLine
 10
0.1340274851
 20
0.1605683909
 30
0.0
 11
0.1431330579
 21
0.1696739637
 31
0.0
  0
LINE
  5
44C
330
1F
100
AcDbEntity
  8
0
  6
Continuous
 62
     7
370
    25
100
AcDbLine
 10
0.1431330579
 20
0.1696739637
 30
0.0
 11
0.1522386307
 21
0.1605683909
 31
0.0
  0
ARC
  5
44D
330
1F
100
AcDbEntity
  8
0
  6
Continuous
 62
     7
370
    25
100
AcDbCircle
 10
0.1431330579
 20
0.2144785837
 30
0.0
 40
0.0546737629076487
100
AcDbArc
 50
260.41307494
 51
279.58692506
  0
LINE
  5
44E
330
1F
100
AcDbEntity
  8
0
  6
Continuous
 62
     7
370
    25
100
AcDbLine
 10
0.1431330579
 20
0.1697213021
 30
0.0
 11
0.1431330579
 21
0.1696739637
 31
0.0
  0
LINE
  5
44F
330
1F
100
AcDbEntity
  8
0
  6
Continuous
 62
     7
370
    25
100
AcDbLine
 10
0.1522386307
 20
0.1606284572
 30
0.0
 11
0.1522386307
 21
0.1605683909
 31
0.0
  0
LINE
  5
450
330
1F
100
AcDbEntity
  8
0
  6
Continuous
 62
     7
370
    25
100
AcDbLine
 10
0.143164782
 20
0.1697495708
 30
0.0
 11
0.1431658828
 21
0.1697484701
 31
0.0
  0
LINE
  5
451
330
1F
100
AcDbEntity
  8
0
  6
Continuous
 62
     7
370
    25
100
AcDbLine
 10
0.1340274851
 20
0.1606284572
 30
0.0
 11
0.1340274851
 21
0.1605683909
 31
0.0
  0
LINE
  5
452
330
1F
100
AcDbEntity
  8
0
  6
Continuous
 62
     7
370
    25
100
AcDbLine
 10
0.1431002331
 20
0.1697484701
 30
0.0
 11
0.1431013338
 21
0.1697495708
 31
0.0
  0
LINE
  5
453
330
1F
100
AcDbEntity
  8
0
  6
Continuous
 62
     7
370
    25
100
AcDbLine
 10
0.1431330579
 20
0.1708546076
 30
0.0
 11
0.1522386307
 21
0.1799601804
 31
0.0
  0
LINE
  5
454
330
1F
100
AcDbEntity
  8
0
  6
Continuous
 62
     7
370
    25
100
AcDbLine
 10
0.1340274851
 20
0.1799601804
 30
0.0
 11
0.1431330579
 21
0.1708546076
 31
0.0
  0
ARC
  5
455
330
1F
100
AcDbEntity
  8
0
  6
Continuous
 62
     7
370
    25
100
AcDbCircle
 10
0.1431330579
 20
0.1260499875
 30
0.0
 40
0.0546737629076481
100
AcDbArc
 50
80.41307494
 51
99.58692506
  0
LINE
  5
456
330
1F
100
AcDbEntity
  8
0
  6
Continuous
 62
     7
370
    25
100
AcDbLine
 10
0.1340274851
 20
0.1799601804
 30
0.0
 11
0.1340274851
 21
0.1798528491
 31
0.0
  0
LINE
  5
457
330
1F
100
AcDbEntity
  8
0
  6
Continuous
 62
     7
370
    25
100
AcDbLine
 10
0.1431330579
 20
0.1708546076
 30
0.0
 11
0.1431330579
 21
0.1707472763
 31
0.0
  0
LINE
  5
458
330
1F
100
AcDbEntity
  8
0
  6
Continuous
 62
     7
370
    25
100
AcDbLine
 10
0.1340274851
 20
0.1798528491
 30
0.0
 11
0.1431330579
 21
0.1707472763
 31
0.0
  0
LINE
  5
459
330
1F
100
AcDbEntity
  8
0
  6
Continuous
 62
     7
370
    25
100
AcDbLine
 10
0.1522386307
 20
0.1799601804
 30
0.0
 11
0.1522386307
 21
0.1798528491
 31
0.0
  0
LINE
  5
45A
330
1F
100
AcDbEntity
  8
0
  6
Continuous
 62
     7
370
    25
100
AcDbLine
 10
0.1431330579
 20
0.1707472763
 30
0.0
 11
0.1522386307
 21
0.1798528491
 31
0.0
  0
LINE
  5
45B
330
1F
100
AcDbEntity
  8
0
  6
Continuous
 62
     7
370
    25
100
AcDbLine
 10
0.1424890704
 20
0.17021062
 30
0.0
 11
0.1333834975
 21
0.1793161928
 31
0.0
  0
LINE
  5
45C
330
1F
100
AcDbEntity
  8
0
  6
Continuous
 62
     7
370
    25
100
AcDbLine
 10
0.1333834975
 20
0.1611050472
 30
0.0
 11
0.1424890704
 21
0.17021062
 31
0.0
  0
ARC
  5
45D
330
1F
100
AcDbEntity
  8
0
  6
Continuous
 62
     7
370
    25
100
AcDbCircle
 10
0.1872936904
 20
0.17021062
 30
0.0
 40
0.0546737629076482
100
AcDbArc
 50
170.41307494
 51
189.58692506
  0
LINE
  5
45E
330
1F
100
AcDbEntity
  8
0
  6
Continuous
 62
     7
370
    25
100
AcDbLine
 10
0.1424890704
 20
0.17021062
 30
0.0
 11
0.1425964016
 21
0.17021062
 31
0.0
  0
LINE
  5
45F
330
1F
100
AcDbEntity
  8
0
  6
Continuous
 62
     7
370
    25
100
AcDbLine
 10
0.1333834975
 20
0.1793161928
 30
0.0
 11
0.1334908288
 21
0.1793161928
 31
0.0
  0
LINE
  5
460
330
1F
100
AcDbEntity
  8
0
  6
Continuous
 62
     7
370
    25
100
AcDbLine
 10
0.1425964016
 20
0.17021062
 30
0.0
 11
0.1334908288
 21
0.1793161928
 31
0.0
  0
LINE
  5
461
330
1F
100
AcDbEntity
  8
0
  6
Continuous
 62
     7
370
    25
100
AcDbLine
 10
0.1333834975
 20
0.1611050472
 30
0.0
 11
0.1334908288
 21
0.1611050472
 31
0.0
  0
LINE
  5
462
330
1F
100
AcDbEntity
  8
0
  6
Continuous
 62
     7
370
    25
100
AcDbLine
 10
0.1334908288
 20
0.1611050472
 30
0.0
 11
0.1425964016
 21
0.17021062
 31
0.0
  0
LINE
  5
463
330
1F
100
AcDbEntity
  8
0
  6
Continuous
 62
     7
370
    25
100
AcDbLine
 10
0.1437770455
 20
0.17021062
 30
0.0
 11
0.1436697142
 21
0.17021062
 31
0.0
  0
LINE
  5
464
330
1F
100
AcDbEntity
  8
0
  6
Continuous
 62
     7
370
    25
100
AcDbLine
 10
0.1437770455
 20
0.17021062
 30
0.0
 11
0.1528826183
 21
0.1611050472
 31
0.0
  0
LINE
  5
465
330
1F
100
AcDbEntity
  8
0
  6
Continuous
 62
     7
370
    25
100
AcDbLine
 10
0.1528826183
 20
0.1611050472
 30
0.0
 11
0.1527752871
 21
0.1611050472
 31
0.0
  0
LINE
  5
466
330
1F
100
AcDbEntity
  8
0
  6
Continuous
 62
     7
370
    25
100
AcDbLine
 10
0.1436697142
 20
0.17021062
 30
0.0
 11
0.1527752871
 21
0.1611050472
 31
0.0
  0
LINE
  5
467
330
1F
100
AcDbEntity
  8
0
  6
Continuous
 62
     7
370
    25
100
AcDbLine
 10
0.1528826183
 20
0.1793161928
 30
0.0
 11
0.1437770455
 21
0.17021062
 31
0.0
  0
ARC
  5
468
330
1F
100
AcDbEntity
  8
0
  6
Continuous
 62
     7
370
    25
100
AcDbCircle
 10
0.0989724255
 20
0.17021062
 30
0.0
 40
0.0546737629076503
100
AcDbArc
 50
350.41307494
 51
9.58692506
  0
LINE
  5
469
330
1F
100
AcDbEntity
  8
0
  6
Continuous
 62
     7
370
    25
100
AcDbLine
 10
0.1528826183
 20
0.1793161928
 30
0.0
 11
0.1527752871
 21
0.1793161928
 31
0.0
  0
LINE
  5
46A
330
1F
100
AcDbEntity
  8
0
  6
Continuous
 62
     7
370
    25
100
AcDbLine
 10
0.1527752871
 20
0.1793161928
 30
0.0
 11
0.1436697142
 21
0.17021062
 31
0.0
  0
LINE
  5
46B
330
1F
100
AcDbEntity
  8
0
  6
Continuous
 62
     7
370
    25
100
AcDbLine
 10
0.1539597528
 20
0.18066062
 30
0.0
 11
0.1539146787
 21
0.1806341645
 31
0.0
  0
ARC
  5
46C
330
1F
100
AcDbEntity
  8
0
  6
Continuous
 62
     7
370
    25
100
AcDbCircle
 10
0.1531930579
 20
0.18021062
 30
0.0
 40
0.0008889999999995
100
AcDbArc
 50
0.007338257
 51
30.4101616522
  0
LINE
  5
46D
330
1F
100
AcDbEntity
  8
0
  6
Continuous
 62
     7
370
    25
100
AcDbLine
 10
0.1539597528
 20
0.17976062
 30
0.0
 11
0.1539146787
 21
0.1797870755
 31
0.0
  0
ARC
  5
46E
330
1F
100
AcDbEntity
  8
0
  6
Continuous
 62
     7
370
    25
100
AcDbCircle
 10
0.1531930579
 20
0.18021062
 30
0.0
 40
0.0008889999999997
100
AcDbArc
 50
329.5898383478
 51
0.0073382568
  0
LINE
  5
46F
330
1F
100
AcDbEntity
  8
0
  6
Continuous
 62
     7
370
    25
100
AcDbLine
 10
0.0726830579
 20
0.1810373149
 30
0.0
 11
0.0727095135
 21
0.1809922408
 31
0.0
  0
ARC
  5
470
330
1F
100
AcDbEntity
  8
0
  6
Continuous
 62
     7
370
    25
100
AcDbCircle
 10
0.0731330579
 20
0.18027062
 30
0.0
 40
0.0008889999999997
100
AcDbArc
 50
90.0025836269
 51
120.4101616522
  0
LINE
  5
471
330
1F
100
AcDbEntity
  8
0
  6
Continuous
 62
     7
370
    25
100
AcDbLine
 10
0.0735830579
 20
0.1810373149
 30
0.0
 11
0.0735566024
 21
0.1809922408
 31
0.0
  0
ARC
  5
472
330
1F
100
AcDbEntity
  8
0
  6
Continuous
 62
     7
370
    25
100
AcDbCircle
 10
0.0731330579
 20
0.18027062
 30
0.0
 40
0.0008889999999995
100
AcDbArc
 50
59.5898383478
 51
90.002583627
  0
LINE
  5
473
330
1F
100
AcDbEntity
  8
0
  6
Continuous
 62
     7
370
    25
100
AcDbLine
 10
0.0926830579
 20
0.1810373149
 30
0.0
 11
0.0927095135
 21
0.1809922408
 31
0.0
  0
ARC
  5
474
330
1F
100
AcDbEntity
  8
0
  6
Continuous
 62
     7
370
    25
100
AcDbCircle
 10
0.0931330579
 20
0.18027062
 30
0.0
 40
0.0008889999999997
100
AcDbArc
 50
90.007338257
 51
120.4101616522
  0
LINE
  5
475
330
1F
100
AcDbEntity
  8
0
  6
Continuous
 62
     7
370
    25
100
AcDbLine
 10
0.0935830579
 20
0.1810373149
 30
0.0
 11
0.0935566024
 21
0.1809922408
 31
0.0
  0
ARC
  5
476
330
1F
100
AcDbEntity
  8
0
  6
Continuous
 62
     7
370
    25
100
AcDbCircle
 10
0.0931330579
 20
0.18027062
 30
0.0
 40
0.000889
100
AcDbArc
 50
59.5898383478
 51
90.0073382568
  0
LWPOLYLINE
  5
477
330
1F
100
AcDbEntity
  8
0
  6
Continuous
 62
     7
370
    25
100
AcDbPolyline
 90
        3
 70
   128
 43
0.0
 10
0.1527483078
 20
0.1610719601
 10
0.1528075173
 20
0.1610978408
 10
0.1528283746
 20
0.1611050472
  0
ARC
  5
478
330
1F
100
AcDbEntity
  8
0
  6
Continuous
 62
     7
370
    25
100
AcDbCircle
 10
0.1531321051
 20
0.160284585
 30
0.0
 40
0.0008750354510382
100
AcDbArc
 50
89.9402361583
 51
106.3591028112
  0
LINE
  5
479
330
1F
100
AcDbEntity
  8
0
  6
Continuous
 62
     7
370
    25
100
AcDbLine
 10
0.1535830579
 20
0.1610373149
 30
0.0
 11
0.1535566024
 21
0.1609922408
 31
0.0
  0
ARC
  5
47A
330
1F
100
AcDbEntity
  8
0
  6
Continuous
 62
     7
370
    25
100
AcDbCircle
 10
0.1531330579
 20
0.16027062
 30
0.0
 40
0.0008889999999999
100
AcDbArc
 50
59.5898383478
 51
90.002583627
  0
LINE
  5
47B
330
1F
100
AcDbEntity
  8
0
  6
Continuous
 62
     7
370
    25
100
AcDbLine
 10
0.1539597528
 20
0.16066062
 30
0.0
 11
0.1539146787
 21
0.1606341645
 31
0.0
  0
ARC
  5
47C
330
1F
100
AcDbEntity
  8
0
  6
Continuous
 62
     7
370
    25
100
AcDbCircle
 10
0.1531930579
 20
0.16021062
 30
0.0
 40
0.0008890000000002
100
AcDbArc
 50
0.0025836269
 51
30.4101616521
  0
LINE
  5
47D
330
1F
100
AcDbEntity
  8
0
  6
Continuous
 62
     7
370
    25
100
AcDbLine
 10
0.1539597528
 20
0.15976062
 30
0.0
 11
0.1539146787
 21
0.1597870755
 31
0.0
  0
ARC
  5
47E
330
1F
100
AcDbEntity
  8
0
  6
Continuous
 62
     7
370
    25
100
AcDbCircle
 10
0.1531930579
 20
0.16021062
 30
0.0
 40
0.0008889999999999
100
AcDbArc
 50
329.5898383478
 51
0.002583627
  0
LINE
  5
47F
330
1F
100
AcDbEntity
  8
0
  6
Continuous
 62
     7
370
    25
100
AcDbLine
 10
0.0923063631
 20
0.17976062
 30
0.0
 11
0.0923514371
 21
0.1797870755
 31
0.0
  0
ARC
  5
480
330
1F
100
AcDbEntity
  8
0
  6
Continuous
 62
     7
370
    25
100
AcDbCircle
 10
0.0930730579
 20
0.18021062
 30
0.0
 40
0.0008889999999999
100
AcDbArc
 50
180.0025836269
 51
210.4101616522
  0
LINE
  5
481
330
1F
100
AcDbEntity
  8
0
  6
Continuous
 62
     7
370
    25
100
AcDbLine
 10
0.0923063631
 20
0.18066062
 30
0.0
 11
0.0923514371
 21
0.1806341645
 31
0.0
  0
ARC
  5
482
330
1F
100
AcDbEntity
  8
0
  6
Continuous
 62
     7
370
    25
100
AcDbCircle
 10
0.0930730579
 20
0.18021062
 30
0.0
 40
0.0008889999999997
100
AcDbArc
 50
149.5898383478
 51
180.002583627
  0
LINE
  5
483
330
1F
100
AcDbEntity
  8
0
  6
Continuous
 62
     7
370
    25
100
AcDbLine
 10
0.0739597528
 20
0.18066062
 30
0.0
 11
0.0739146787
 21
0.1806341645
 31
0.0
  0
ARC
  5
484
330
1F
100
AcDbEntity
  8
0
  6
Continuous
 62
     7
370
    25
100
AcDbCircle
 10
0.0731930579
 20
0.18021062
 30
0.0
 40
0.0008889999999997
100
AcDbArc
 50
0.0025836269
 51
30.4101616522
  0
LINE
  5
485
330
1F
100
AcDbEntity
  8
0
  6
Continuous
 62
     7
370
    25
100
AcDbLine
 10
0.0739597528
 20
0.17976062
 30
0.0
 11
0.0739146787
 21
0.1797870755
 31
0.0
  0
ARC
  5
486
330
1F
100
AcDbEntity
  8
0
  6
Continuous
 62
     7
370
    25
100
AcDbCircle
 10
0.0731930579
 20
0.18021062
 30
0.0
 40
0.0008889999999996
100
AcDbArc
 50
329.5898383478
 51
0.002583627
  0
LINE
  5
487
330
1F
100
AcDbEntity
  8
0
  6
Continuous
 62
     7
370
    25
100
AcDbLine
 10
0.1535830579
 20
0.1793839251
 30
0.0
 11
0.1535566024
 21
0.1794289992
 31
0.0
  0
ARC
  5
488
330
1F
100
AcDbEntity
  8
0
  6
Continuous
 62
     7
370
    25
100
AcDbCircle
 10
0.1531330579
 20
0.18015062
 30
0.0
 40
0.0008889999999996
100
AcDbArc
 50
270.0025836269
 51
300.4101616522
  0
ARC
  5
489
330
1F
100
AcDbEntity
  8
0
  6
Continuous
 62
     7
370
    25
100
AcDbCircle
 10
0.1531302959
 20
0.1801176646
 30
0.0
 40
0.0008560491712555
100
AcDbArc
 50
253.3962757817
 51
270.1875503351
  0
ARC
  5
48A
330
1F
100
AcDbEntity
  8
0
  6
Continuous
 62
     7
370
    25
100
AcDbCircle
 10
0.1530078828
 20
0.1798625256
 30
0.0
 40
0.0005751631611286
100
AcDbArc
 50
243.1715527539
 51
251.7820926836
  0
ARC
  5
48B
330
1F
100
AcDbEntity
  8
0
  6
Continuous
 62
     7
370
    25
100
AcDbCircle
 10
0.1784160579
 20
0.18021062
 30
0.0
 40
0.000337
100
AcDbArc
 50
270.0
 51
0.0
  0
ARC
  5
48C
330
1F
100
AcDbEntity
  8
0
  6
Continuous
 62
     7
370
    25
100
AcDbCircle
 10
0.1784160579
 20
0.18021062
 30
0.0
 40
0.000337
100
AcDbArc
 50
0.0
 51
90.0
  0
ARC
  5
48D
330
1F
100
AcDbEntity
  8
0
  6
Continuous
 62
     7
370
    25
100
AcDbCircle
 10
0.1784160579
 20
0.16021062
 30
0.0
 40
0.000337
100
AcDbArc
 50
270.0
 51
0.0
  0
ARC
  5
48E
330
1F
100
AcDbEntity
  8
0
  6
Continuous
 62
     7
370
    25
100
AcDbCircle
 10
0.1784160579
 20
0.16021062
 30
0.0
 40
0.000337
100
AcDbArc
 50
0.0
 51
90.0
  0
ARC
  5
48F
330
1F
100
AcDbEntity
  8
0
  6
Continuous
 62
     7
370
    25
100
AcDbCircle
 10
0.1588030629
 20
0.1792929514
 30
0.0
 40
0.0006428343829593
100
AcDbArc
 50
64.5945257488
 51
115.4054742512
  0
ARC
  5
490
330
1F
100
AcDbEntity
  8
0
  6
Continuous
 62
     7
370
    25
100
AcDbCircle
 10
0.1588028018
 20
0.1574006167
 30
0.0
 40
0.0031591673926505
100
AcDbArc
 50
84.9704422518
 51
95.0295577482
  0
ARC
  5
491
330
1F
100
AcDbEntity
  8
0
  6
Continuous
 62
     7
370
    25
100
AcDbCircle
 10
0.1681769367
 20
0.2913781813
 30
0.0
 40
0.1115310052391425
100
AcDbArc
 50
268.752295703
 51
269.0001044389
  0
LINE
  5
492
330
1F
100
AcDbEntity
  8
0
  6
Continuous
 62
     7
370
    25
100
AcDbLine
 10
0.1662320524
 20
0.1798638113
 30
0.0
 11
0.1662335048
 21
0.179866965
 31
0.0
  0
ARC
  5
493
330
1F
100
AcDbEntity
  8
0
  6
Continuous
 62
     7
370
    25
100
AcDbCircle
 10
0.1661968583
 20
0.1470755616
 30
0.0
 40
0.0134795794399506
100
AcDbArc
 50
89.8417789629
 51
91.9140678423
  0
LWPOLYLINE
  5
494
330
1F
100
AcDbEntity
  8
0
  6
Continuous
 62
     7
370
    25
100
AcDbPolyline
 90
       12
 70
   128
 43
0.0
 10
0.1721895425
 20
0.1605509717
 10
0.1721931717
 20
0.1605463871
 10
0.1721895194
 20
0.1605239721
 10
0.1721784112
 20
0.1605130013
 10
0.1721633507
 20
0.1605088753
 10
0.1721401219
 20
0.1605104604
 10
0.1721003966
 20
0.1605197022
 10
0.1720326544
 20
0.1605371478
 10
0.1719608048
 20
0.1605508844
 10
0.1718841599
 20
0.1605574662
 10
0.1718057265
 20
0.1605534094
 10
0.1717763961
 20
0.16054762
  0
LWPOLYLINE
  5
495
330
1F
100
AcDbEntity
  8
0
  6
Continuous
 62
     7
370
    25
100
AcDbPolyline
 90
       13
 70
   128
 43
0.0
 10
0.1717782692
 20
0.17987362
 10
0.1718119578
 20
0.1798670377
 10
0.1718752759
 20
0.1798636359
 10
0.1719600151
 20
0.1798702422
 10
0.1720454251
 20
0.1798871547
 10
0.1721025452
 20
0.1799021058
 10
0.1721396832
 20
0.1799107053
 10
0.1721613106
 20
0.1799124899
 10
0.1721762548
 20
0.1799093044
 10
0.1721861583
 20
0.1799020053
 10
0.1721914252
 20
0.1798933699
 10
0.1721935869
 20
0.1798768226
 10
0.1721897018
 20
0.1798700394
  0
LWPOLYLINE
  5
496
330
1F
100
AcDbEntity
  8
0
  6
Continuous
 62
     7
370
    25
100
AcDbPolyline
 90
       12
 70
   128
 43
0.0
 10
0.1760476053
 20
0.17987362
 10
0.1760818555
 20
0.1798670377
 10
0.1761444479
 20
0.1798636359
 10
0.1762257616
 20
0.1798702422
 10
0.1763047077
 20
0.1798871547
 10
0.1763548823
 20
0.1799021058
 10
0.1763847885
 20
0.1799107053
 10
0.176399401
 20
0.1799124899
 10
0.1764060325
 20
0.1799093044
 10
0.1764059108
 20
0.1799020053
 10
0.1764008384
 20
0.1798933699
 10
0.1763976205
 20
0.1798906681
  0
LWPOLYLINE
  5
497
330
1F
100
AcDbEntity
  8
0
  6
Continuous
 62
     7
370
    25
100
AcDbPolyline
 90
       11
 70
   128
 43
0.0
 10
0.1763962275
 20
0.1605302977
 10
0.17640357
 20
0.1605239721
 10
0.1764064887
 20
0.1605130013
 10
0.1764005517
 20
0.1605088753
 10
0.1763851152
 20
0.1605104604
 10
0.1763530601
 20
0.1605197022
 10
0.176293137
 20
0.1605371478
 10
0.1762265064
 20
0.1605508844
 10
0.1761531012
 20
0.1605574662
 10
0.1760756029
 20
0.1605534094
 10
0.1760457717
 20
0.16054762
  0
LWPOLYLINE
  5
498
330
1F
100
AcDbEntity
  8
0
  6
Continuous
 62
     7
370
    25
100
AcDbPolyline
 90
        9
 70
   128
 43
0.0
 10
0.1781532467
 20
0.17987362
 10
0.1781848244
 20
0.1798670377
 10
0.1782407809
 20
0.1798636359
 10
0.1783109911
 20
0.1798702422
 10
0.178376019
 20
0.1798871547
 10
0.1784145102
 20
0.1799021058
 10
0.1784343607
 20
0.1799107053
 10
0.1784405787
 20
0.1799124899
 10
0.1784388373
 20
0.179910086
  0
LWPOLYLINE
  5
499
330
1F
100
AcDbEntity
  8
0
  6
Continuous
 62
     7
370
    25
100
AcDbPolyline
 90
        9
 70
   128
 43
0.0
 10
0.1784384947
 20
0.160511338
 10
0.1784407313
 20
0.1605088753
 10
0.1784345447
 20
0.1605104604
 10
0.1784131866
 20
0.1605197022
 10
0.1783667407
 20
0.1605371478
 10
0.1783116206
 20
0.1605508844
 10
0.1782483865
 20
0.1605574662
 10
0.1781791409
 20
0.1605534094
 10
0.1781516257
 20
0.16054762
  0
LINE
  5
49A
330
1F
100
AcDbEntity
  8
0
  6
Continuous
 62
     7
370
    25
100
AcDbLine
 10
0.1378336561
 20
0.15986062
 30
0.0
 11
0.1342724597
 21
0.15986062
 31
0.0
  0
LINE
  5
49B
330
1F
100
AcDbEntity
  8
0
  6
Continuous
 62
     7
370
    25
100
AcDbLine
 10
0.1378336561
 20
0.15948062
 30
0.0
 11
0.1342724597
 21
0.15948062
 31
0.0
  0
LINE
  5
49C
330
1F
100
AcDbEntity
  8
0
  6
Continuous
 62
     7
370
    25
100
AcDbLine
 10
0.1380030579
 20
0.15948062
 30
0.0
 11
0.1380030579
 21
0.15986062
 31
0.0
  0
LINE
  5
49D
330
1F
100
AcDbEntity
  8
0
  6
Continuous
 62
     7
370
    25
100
AcDbLine
 10
0.1380030579
 20
0.15986062
 30
0.0
 11
0.1378336561
 21
0.15986062
 31
0.0
  0
LINE
  5
49E
330
1F
100
AcDbEntity
  8
0
  6
Continuous
 62
     7
370
    25
100
AcDbLine
 10
0.1380030579
 20
0.15948062
 30
0.0
 11
0.1378336561
 21
0.15948062
 31
0.0
  0
LINE
  5
49F
330
1F
100
AcDbEntity
  8
0
  6
Continuous
 62
     7
370
    25
100
AcDbLine
 10
0.1341030579
 20
0.15948062
 30
0.0
 11
0.1341030579
 21
0.15986062
 31
0.0
  0
LINE
  5
4A0
330
1F
100
AcDbEntity
  8
0
  6
Continuous
 62
     7
370
    25
100
AcDbLine
 10
0.1342724597
 20
0.15986062
 30
0.0
 11
0.1341030579
 21
0.15986062
 31
0.0
  0
LINE
  5
4A1
330
1F
100
AcDbEntity
  8
0
  6
Continuous
 62
     7
370
    25
100
AcDbLine
 10
0.1342724597
 20
0.15948062
 30
0.0
 11
0.1341030579
 21
0.15948062
 31
0.0
  0
LINE
  5
4A2
330
1F
100
AcDbEntity
  8
0
  6
Continuous
 62
     7
370
    25
100
AcDbLine
 10
0.1519936561
 20
0.15948062
 30
0.0
 11
0.1484324597
 21
0.15948062
 31
0.0
  0
LINE
  5
4A3
330
1F
100
AcDbEntity
  8
0
  6
Continuous
 62
     7
370
    25
100
AcDbLine
 10
0.1519936561
 20
0.15986062
 30
0.0
 11
0.1484324597
 21
0.15986062
 31
0.0
  0
LINE
  5
4A4
330
1F
100
AcDbEntity
  8
0
  6
Continuous
 62
     7
370
    25
100
AcDbLine
 10
0.1482630579
 20
0.15948062
 30
0.0
 11
0.1482630579
 21
0.15986062
 31
0.0
  0
LINE
  5
4A5
330
1F
100
AcDbEntity
  8
0
  6
Continuous
 62
     7
370
    25
100
AcDbLine
 10
0.1484324597
 20
0.15948062
 30
0.0
 11
0.1482630579
 21
0.15948062
 31
0.0
  0
LINE
  5
4A6
330
1F
100
AcDbEntity
  8
0
  6
Continuous
 62
     7
370
    25
100
AcDbLine
 10
0.1484324597
 20
0.15986062
 30
0.0
 11
0.1482630579
 21
0.15986062
 31
0.0
  0
LINE
  5
4A7
330
1F
100
AcDbEntity
  8
0
  6
Continuous
 62
     7
370
    25
100
AcDbLine
 10
0.1521630579
 20
0.15948062
 30
0.0
 11
0.1521630579
 21
0.15986062
 31
0.0
  0
LINE
  5
4A8
330
1F
100
AcDbEntity
  8
0
  6
Continuous
 62
     7
370
    25
100
AcDbLine
 10
0.1521630579
 20
0.15948062
 30
0.0
 11
0.1519936561
 21
0.15948062
 31
0.0
  0
LINE
  5
4A9
330
1F
100
AcDbEntity
  8
0
  6
Continuous
 62
     7
370
    25
100
AcDbLine
 10
0.1521630579
 20
0.15986062
 30
0.0
 11
0.1519936561
 21
0.15986062
 31
0.0
  0
ARC
  5
4AA
330
1F
100
AcDbEntity
  8
0
  6
Continuous
 62
     7
370
    25
100
AcDbCircle
 10
0.1483230579
 20
0.15992062
 30
0.0
 40
0.00006
100
AcDbArc
 50
231.5667936591
 51
270.0
  0
ARC
  5
4AB
330
1F
100
AcDbEntity
  8
0
  6
Continuous
 62
     7
370
    25
100
AcDbCircle
 10
0.1489030579
 20
0.15992062
 30
0.0
 40
0.00006
100
AcDbArc
 50
270.0
 51
308.4332063409
  0
ARC
  5
4AC
330
1F
100
AcDbEntity
  8
0
  6
Continuous
 62
     7
370
    25
100
AcDbCircle
 10
0.1373630579
 20
0.15992062
 30
0.0
 40
0.00006
100
AcDbArc
 50
231.5667936591
 51
270.0
  0
ARC
  5
4AD
330
1F
100
AcDbEntity
  8
0
  6
Continuous
 62
     7
370
    25
100
AcDbCircle
 10
0.1379430579
 20
0.15992062
 30
0.0
 40
0.00006
100
AcDbArc
 50
270.0
 51
308.4332063409
  0
LINE
  5
4AE
330
1F
100
AcDbEntity
  8
0
  6
Continuous
 62
     7
370
    25
100
AcDbLine
 10
0.134073547
 20
0.16056062
 30
0.0
 11
0.1339596479
 21
0.16056062
 31
0.0
  0
LINE
  5
4AF
330
1F
100
AcDbEntity
  8
0
  6
Continuous
 62
     7
370
    25
100
AcDbLine
 10
0.1341030579
 20
0.15986062
 30
0.0
 11
0.1339502611
 21
0.15986062
 31
0.0
  0
LINE
  5
4B0
330
1F
100
AcDbEntity
  8
0
  6
Continuous
 62
     7
370
    25
100
AcDbLine
 10
0.1521630579
 20
0.15986062
 30
0.0
 11
0.1523158548
 21
0.15986062
 31
0.0
  0
LINE
  5
4B1
330
1F
100
AcDbEntity
  8
0
  6
Continuous
 62
     7
370
    25
100
AcDbLine
 10
0.1521925689
 20
0.16056062
 30
0.0
 11
0.152306468
 21
0.16056062
 31
0.0
  0
LINE
  5
4B2
330
1F
100
AcDbEntity
  8
0
  6
Continuous
 62
     7
370
    25
100
AcDbLine
 10
0.1382430579
 20
0.154340765
 30
0.0
 11
0.1382430579
 21
0.15987362
 31
0.0
  0
LINE
  5
4B3
330
1F
100
AcDbEntity
  8
0
  6
Continuous
 62
     7
370
    25
100
AcDbLine
 10
0.1378630579
 20
0.154340765
 30
0.0
 11
0.1378630579
 21
0.15948062
 31
0.0
  0
LINE
  5
4B4
330
1F
100
AcDbEntity
  8
0
  6
Continuous
 62
     7
370
    25
100
AcDbLine
 10
0.1382430579
 20
0.154340765
 30
0.0
 11
0.1382430579
 21
0.1350062899
 31
0.0
  0
LINE
  5
4B5
330
1F
100
AcDbEntity
  8
0
  6
Continuous
 62
     7
370
    25
100
AcDbLine
 10
0.1378630579
 20
0.154340765
 30
0.0
 11
0.1378630579
 21
0.1350062899
 31
0.0
  0
LINE
  5
4B6
330
1F
100
AcDbEntity
  8
0
  6
Continuous
 62
     7
370
    25
100
AcDbLine
 10
0.1382430579
 20
0.1214768823
 30
0.0
 11
0.1378630579
 21
0.1214768823
 31
0.0
  0
LINE
  5
4B7
330
1F
100
AcDbEntity
  8
0
  6
Continuous
 62
     7
370
    25
100
AcDbLine
 10
0.1382430579
 20
0.1350062899
 30
0.0
 11
0.1382430579
 21
0.1214768823
 31
0.0
  0
LINE
  5
4B8
330
1F
100
AcDbEntity
  8
0
  6
Continuous
 62
     7
370
    25
100
AcDbLine
 10
0.1378630579
 20
0.1350062899
 30
0.0
 11
0.1378630579
 21
0.1214768823
 31
0.0
  0
LINE
  5
4B9
330
1F
100
AcDbEntity
  8
0
  6
Continuous
 62
     7
370
    25
100
AcDbLine
 10
0.1382430579
 20
0.1214768823
 30
0.0
 11
0.1382430579
 21
0.1198608122
 31
0.0
  0
LINE
  5
4BA
330
1F
100
AcDbEntity
  8
0
  6
Continuous
 62
     7
370
    25
100
AcDbLine
 10
0.1378630579
 20
0.1214768823
 30
0.0
 11
0.1378630579
 21
0.1198608122
 31
0.0
  0
LINE
  5
4BB
330
1F
100
AcDbEntity
  8
0
  6
Continuous
 62
     7
370
    25
100
AcDbLine
 10
0.1478830579
 20
0.154340765
 30
0.0
 11
0.1478830579
 21
0.15987362
 31
0.0
  0
LINE
  5
4BC
330
1F
100
AcDbEntity
  8
0
  6
Continuous
 62
     7
370
    25
100
AcDbLine
 10
0.1482630579
 20
0.154340765
 30
0.0
 11
0.1482630579
 21
0.15948062
 31
0.0
  0
LINE
  5
4BD
330
1F
100
AcDbEntity
  8
0
  6
Continuous
 62
     7
370
    25
100
AcDbLine
 10
0.1482630579
 20
0.15986062
 30
0.0
 11
0.1482630579
 21
0.15987362
 31
0.0
  0
LINE
  5
4BE
330
1F
100
AcDbEntity
  8
0
  6
Continuous
 62
     7
370
    25
100
AcDbLine
 10
0.1478830579
 20
0.154340765
 30
0.0
 11
0.1478830579
 21
0.1350062899
 31
0.0
  0
LINE
  5
4BF
330
1F
100
AcDbEntity
  8
0
  6
Continuous
 62
     7
370
    25
100
AcDbLine
 10
0.1482630579
 20
0.154340765
 30
0.0
 11
0.1482630579
 21
0.1350062899
 31
0.0
  0
LINE
  5
4C0
330
1F
100
AcDbEntity
  8
0
  6
Continuous
 62
     7
370
    25
100
AcDbLine
 10
0.1482630579
 20
0.1214768823
 30
0.0
 11
0.1478830579
 21
0.1214768823
 31
0.0
  0
LINE
  5
4C1
330
1F
100
AcDbEntity
  8
0
  6
Continuous
 62
     7
370
    25
100
AcDbLine
 10
0.1478830579
 20
0.1350062899
 30
0.0
 11
0.1478830579
 21
0.1214768823
 31
0.0
  0
LINE
  5
4C2
330
1F
100
AcDbEntity
  8
0
  6
Continuous
 62
     7
370
    25
100
AcDbLine
 10
0.1482630579
 20
0.1350062899
 30
0.0
 11
0.1482630579
 21
0.1214768823
 31
0.0
  0
LINE
  5
4C3
330
1F
100
AcDbEntity
  8
0
  6
Continuous
 62
     7
370
    25
100
AcDbLine
 10
0.1478830579
 20
0.1214768823
 30
0.0
 11
0.1478830579
 21
0.1198608122
 31
0.0
  0
LINE
  5
4C4
330
1F
100
AcDbEntity
  8
0
  6
Continuous
 62
     7
370
    25
100
AcDbLine
 10
0.1482630579
 20
0.1214768823
 30
0.0
 11
0.1482630579
 21
0.1198608122
 31
0.0
  0
LINE
  5
4C5
330
1F
100
AcDbEntity
  8
0
  6
Continuous
 62
     7
370
    25
100
AcDbLine
 10
0.0944248691
 20
0.1804704326
 30
0.0
 11
0.0943258742
 21
0.1805694275
 31
0.0
  0
LINE
  5
4C6
330
1F
100
AcDbEntity
  8
0
  6
Continuous
 62
     7
370
    25
100
AcDbLine
 10
0.094531218
 20
0.1804777865
 30
0.0
 11
0.0943332281
 21
0.1806757764
 31
0.0
  0
LINE
  5
4C7
330
1F
100
AcDbEntity
  8
0
  6
Continuous
 62
     7
370
    25
100
AcDbLine
 10
0.1540896579
 20
0.18035062
 30
0.0
 11
0.1540896579
 21
0.18007062
 31
0.0
  0
LINE
  5
4C8
330
1F
100
AcDbEntity
  8
0
  6
Continuous
 62
     7
370
    25
100
AcDbLine
 10
0.1540820579
 20
0.18035062
 30
0.0
 11
0.1540820579
 21
0.18007062
 31
0.0
  0
LINE
  5
4C9
330
1F
100
AcDbEntity
  8
0
  6
Continuous
 62
     7
370
    25
100
AcDbLine
 10
0.1541700579
 20
0.18028062
 30
0.0
 11
0.1541700579
 21
0.18014062
 31
0.0
  0
LINE
  5
4CA
330
1F
100
AcDbEntity
  8
0
  6
Continuous
 62
     7
370
    25
100
AcDbLine
 10
0.0931865168
 20
0.18115962
 30
0.0
 11
0.0932730579
 21
0.18115962
 31
0.0
  0
LINE
  5
4CB
330
1F
100
AcDbEntity
  8
0
  6
Continuous
 62
     7
370
    25
100
AcDbLine
 10
0.0929930579
 20
0.18115962
 30
0.0
 11
0.0931865168
 21
0.18115962
 31
0.0
  0
LINE
  5
4CC
330
1F
100
AcDbEntity
  8
0
  6
Continuous
 62
     7
370
    25
100
AcDbLine
 10
0.0931865168
 20
0.18116722
 30
0.0
 11
0.0932730579
 21
0.18116722
 31
0.0
  0
LINE
  5
4CD
330
1F
100
AcDbEntity
  8
0
  6
Continuous
 62
     7
370
    25
100
AcDbLine
 10
0.0929930579
 20
0.18116722
 30
0.0
 11
0.0931865168
 21
0.18116722
 31
0.0
  0
LINE
  5
4CE
330
1F
100
AcDbEntity
  8
0
  6
Continuous
 62
     7
370
    25
100
AcDbLine
 10
0.0931597874
 20
0.18124762
 30
0.0
 11
0.0932030579
 21
0.18124762
 31
0.0
  0
LINE
  5
4CF
330
1F
100
AcDbEntity
  8
0
  6
Continuous
 62
     7
370
    25
100
AcDbLine
 10
0.0930630579
 20
0.18124762
 30
0.0
 11
0.0931597874
 21
0.18124762
 31
0.0
  0
LINE
  5
4D0
330
1F
100
AcDbEntity
  8
0
  6
Continuous
 62
     7
370
    25
100
AcDbLine
 10
0.1437974505
 20
0.1694956148
 30
0.0
 11
0.1435994606
 21
0.1696936047
 31
0.0
  0
LINE
  5
4D1
330
1F
100
AcDbEntity
  8
0
  6
Continuous
 62
     7
370
    25
100
AcDbLine
 10
0.1436911016
 20
0.1694882609
 30
0.0
 11
0.1435921067
 21
0.1695872558
 31
0.0
  0
LINE
  5
4D2
330
1F
100
AcDbEntity
  8
0
  6
Continuous
 62
     7
370
    25
100
AcDbLine
 10
0.0732209474
 20
0.18115962
 30
0.0
 11
0.0732730579
 21
0.18115962
 31
0.0
  0
LINE
  5
4D3
330
1F
100
AcDbEntity
  8
0
  6
Continuous
 62
     7
370
    25
100
AcDbLine
 10
0.0729930579
 20
0.18115962
 30
0.0
 11
0.0732209474
 21
0.18115962
 31
0.0
  0
LINE
  5
4D4
330
1F
100
AcDbEntity
  8
0
  6
Continuous
 62
     7
370
    25
100
AcDbLine
 10
0.0732209474
 20
0.18116722
 30
0.0
 11
0.0732730579
 21
0.18116722
 31
0.0
  0
LINE
  5
4D5
330
1F
100
AcDbEntity
  8
0
  6
Continuous
 62
     7
370
    25
100
AcDbLine
 10
0.0729930579
 20
0.18116722
 30
0.0
 11
0.0732209474
 21
0.18116722
 31
0.0
  0
LINE
  5
4D6
330
1F
100
AcDbEntity
  8
0
  6
Continuous
 62
     7
370
    25
100
AcDbLine
 10
0.0731770026
 20
0.18124762
 30
0.0
 11
0.0732030579
 21
0.18124762
 31
0.0
  0
LINE
  5
4D7
330
1F
100
AcDbEntity
  8
0
  6
Continuous
 62
     7
370
    25
100
AcDbLine
 10
0.0730630579
 20
0.18124762
 30
0.0
 11
0.0731770026
 21
0.18124762
 31
0.0
  0
LINE
  5
4D8
330
1F
100
AcDbEntity
  8
0
  6
Continuous
 62
     7
370
    25
100
AcDbLine
 10
0.1540896579
 20
0.16035062
 30
0.0
 11
0.1540896579
 21
0.16007062
 31
0.0
  0
LINE
  5
4D9
330
1F
100
AcDbEntity
  8
0
  6
Continuous
 62
     7
370
    25
100
AcDbLine
 10
0.1540820579
 20
0.16035062
 30
0.0
 11
0.1540820579
 21
0.16007062
 31
0.0
  0
LINE
  5
4DA
330
1F
100
AcDbEntity
  8
0
  6
Continuous
 62
     7
370
    25
100
AcDbLine
 10
0.1541700579
 20
0.16028062
 30
0.0
 11
0.1541700579
 21
0.16014062
 31
0.0
  0
ARC
  5
4DB
330
1F
100
AcDbEntity
  8
0
  6
Continuous
 62
     7
370
    25
100
AcDbCircle
 10
0.0946810733
 20
0.1807607203
 30
0.0
 40
0.0000662601623241
100
AcDbArc
 50
31.6496596256
 51
58.3503403744
  0
ARC
  5
4DC
330
1F
100
AcDbEntity
  8
0
  6
Continuous
 62
     7
370
    25
100
AcDbCircle
 10
0.0946161619
 20
0.1808256318
 30
0.0
 40
0.0000662601623226
100
AcDbArc
 50
31.6496596252
 51
58.3503403746
  0
ARC
  5
4DD
330
1F
100
AcDbEntity
  8
0
  6
Continuous
 62
     7
370
    25
100
AcDbCircle
 10
0.0945102719
 20
0.1806548303
 30
0.0
 40
0.0002619135659896
100
AcDbArc
 50
38.2907675029
 51
51.7092324971
  0
ARC
  5
4DE
330
1F
100
AcDbEntity
  8
0
  6
Continuous
 62
     7
370
    25
100
AcDbCircle
 10
0.1439166615
 20
0.1697546517
 30
0.0
 40
0.0001048291657718
100
AcDbArc
 50
43.5476534234
 51
53.7341038223
  0
ARC
  5
4DF
330
1F
100
AcDbEntity
  8
0
  6
Continuous
 62
     7
370
    25
100
AcDbCircle
 10
0.1438586636
 20
0.1698129715
 30
0.0
 40
0.0001046018318407
100
AcDbArc
 50
37.9939075129
 51
46.459549852
  0
ARC
  5
4E0
330
1F
100
AcDbEntity
  8
0
  6
Continuous
 62
     7
370
    25
100
AcDbCircle
 10
0.1439473058
 20
0.1697785486
 30
0.0
 40
0.0000662601623244
100
AcDbArc
 50
31.6496596257
 51
58.3503403744
  0
ARC
  5
4E1
330
1F
100
AcDbEntity
  8
0
  6
Continuous
 62
     7
370
    25
100
AcDbCircle
 10
0.1438823944
 20
0.16984346
 30
0.0
 40
0.0000662601623225
100
AcDbArc
 50
31.6496596251
 51
58.3503403746
  0
ARC
  5
4E2
330
1F
100
AcDbEntity
  8
0
  6
Continuous
 62
     7
370
    25
100
AcDbCircle
 10
0.1437765044
 20
0.1696726586
 30
0.0
 40
0.0002619135659896
100
AcDbArc
 50
38.2907675029
 51
51.7092324971
  0
ARC
  5
4E3
330
1F
100
AcDbEntity
  8
0
  6
Continuous
 62
     7
370
    25
100
AcDbCircle
 10
0.094650429
 20
0.1807368234
 30
0.0
 40
0.000104829167513
100
AcDbArc
 50
43.5476930472
 51
53.7341035044
  0
ARC
  5
4E4
330
1F
100
AcDbEntity
  8
0
  6
Continuous
 62
     7
370
    25
100
AcDbCircle
 10
0.0945924311
 20
0.1807951432
 30
0.0
 40
0.0001046018271974
100
AcDbArc
 50
37.9939073522
 51
46.4596936605
  0
LINE
  5
4E5
330
1F
100
AcDbEntity
  8
0
  6
Continuous
 62
     7
370
    25
100
AcDbLine
 10
0.1437038295
 20
0.1695999837
 30
0.0
 11
0.1433505855
 21
0.1699532278
 31
0.0
  0
LINE
  5
4E6
330
1F
100
AcDbEntity
  8
0
  6
Continuous
 62
     7
370
    25
100
AcDbLine
 10
0.1435493366
 20
0.1698393295
 30
0.0
 11
0.1433927829
 21
0.1699958831
 31
0.0
  0
LINE
  5
4E7
330
1F
100
AcDbEntity
  8
0
  6
Continuous
 62
     7
370
    25
100
AcDbLine
 10
0.1438735352
 20
0.1694302781
 30
0.0
 11
0.1437038295
 21
0.1695999837
 31
0.0
  0
LINE
  5
4E8
330
1F
100
AcDbEntity
  8
0
  6
Continuous
 62
     7
370
    25
100
AcDbLine
 10
0.0946073027
 20
0.1804124498
 30
0.0
 11
0.094437597
 21
0.1805821555
 31
0.0
  0
LINE
  5
4E9
330
1F
100
AcDbEntity
  8
0
  6
Continuous
 62
     7
370
    25
100
AcDbLine
 10
0.094437597
 20
0.1805821555
 30
0.0
 11
0.094084353
 21
0.1809353995
 31
0.0
  0
LINE
  5
4EA
330
1F
100
AcDbEntity
  8
0
  6
Continuous
 62
     7
370
    25
100
AcDbLine
 10
0.0942831041
 20
0.1808215012
 30
0.0
 11
0.0941265504
 21
0.1809780548
 31
0.0
  0
ARC
  5
4EB
330
1F
100
AcDbEntity
  8
0
  6
Continuous
 62
     7
370
    25
100
AcDbCircle
 10
0.0938668254
 20
0.1811927917
 30
0.0
 40
0.000337
100
AcDbArc
 50
310.2018533942
 51
320.4165531467
  0
LINE
  5
4EC
330
1F
100
AcDbEntity
  8
0
  6
Continuous
 62
     7
370
    25
100
AcDbLine
 10
0.1445649902
 20
0.1691348028
 30
0.0
 11
0.1445508481
 21
0.1691206607
 31
0.0
  0
LINE
  5
4ED
330
1F
100
AcDbEntity
  8
0
  6
Continuous
 62
     7
370
    25
100
AcDbLine
 10
0.1445649902
 20
0.1691348028
 30
0.0
 11
0.1460104845
 21
0.1676893085
 31
0.0
  0
LINE
  5
4EE
330
1F
100
AcDbEntity
  8
0
  6
Continuous
 62
     7
370
    25
100
AcDbLine
 10
0.1445299639
 20
0.1691698292
 30
0.0
 11
0.1445158218
 21
0.169155687
 31
0.0
  0
LINE
  5
4EF
330
1F
100
AcDbEntity
  8
0
  6
Continuous
 62
     7
370
    25
100
AcDbLine
 10
0.1445212706
 20
0.1691785224
 30
0.0
 11
0.1445299639
 21
0.1691698292
 31
0.0
  0
LINE
  5
4F0
330
1F
100
AcDbEntity
  8
0
  6
Continuous
 62
     7
370
    25
100
AcDbLine
 10
0.1445649902
 20
0.1691348028
 30
0.0
 11
0.1445299639
 21
0.1691698292
 31
0.0
  0
LINE
  5
4F1
330
1F
100
AcDbEntity
  8
0
  6
Continuous
 62
     7
370
    25
100
AcDbLine
 10
0.0952987577
 20
0.1801169745
 30
0.0
 11
0.0952846156
 21
0.1801028324
 31
0.0
  0
LINE
  5
4F2
330
1F
100
AcDbEntity
  8
0
  6
Continuous
 62
     7
370
    25
100
AcDbLine
 10
0.0952987577
 20
0.1801169745
 30
0.0
 11
0.096744252
 21
0.1786714802
 31
0.0
  0
LINE
  5
4F3
330
1F
100
AcDbEntity
  8
0
  6
Continuous
 62
     7
370
    25
100
AcDbLine
 10
0.0952637314
 20
0.1801520009
 30
0.0
 11
0.0952495893
 21
0.1801378587
 31
0.0
  0
LINE
  5
4F4
330
1F
100
AcDbEntity
  8
0
  6
Continuous
 62
     7
370
    25
100
AcDbLine
 10
0.0952550381
 20
0.1801606941
 30
0.0
 11
0.0952637314
 21
0.1801520009
 31
0.0
  0
LINE
  5
4F5
330
1F
100
AcDbEntity
  8
0
  6
Continuous
 62
     7
370
    25
100
AcDbLine
 10
0.0952987577
 20
0.1801169745
 30
0.0
 11
0.0952637314
 21
0.1801520009
 31
0.0
  0
LINE
  5
4F6
330
1F
100
AcDbEntity
  8
0
  6
Continuous
 62
     7
370
    25
100
AcDbLine
 10
0.0959756612
 20
0.1791006599
 30
0.0
 11
0.0959898033
 21
0.179114802
 31
0.0
  0
LINE
  5
4F7
330
1F
100
AcDbEntity
  8
0
  6
Continuous
 62
     7
370
    25
100
AcDbLine
 10
0.0959756612
 20
0.1791006599
 30
0.0
 11
0.0947933459
 21
0.1802829751
 31
0.0
  0
LINE
  5
4F8
330
1F
100
AcDbEntity
  8
0
  6
Continuous
 62
     7
370
    25
100
AcDbLine
 10
0.0960822714
 20
0.1789940496
 30
0.0
 11
0.0960964135
 21
0.1790081917
 31
0.0
  0
LINE
  5
4F9
330
1F
100
AcDbEntity
  8
0
  6
Continuous
 62
     7
370
    25
100
AcDbLine
 10
0.0962825598
 20
0.1787937612
 30
0.0
 11
0.0960822714
 21
0.1789940496
 31
0.0
  0
LINE
  5
4FA
330
1F
100
AcDbEntity
  8
0
  6
Continuous
 62
     7
370
    25
100
AcDbLine
 10
0.0959756612
 20
0.1791006599
 30
0.0
 11
0.0960822714
 21
0.1789940496
 31
0.0
  0
LINE
  5
4FB
330
1F
100
AcDbEntity
  8
0
  6
Continuous
 62
     7
370
    25
100
AcDbLine
 10
0.1452418937
 20
0.1681184882
 30
0.0
 11
0.1452560358
 21
0.1681326303
 31
0.0
  0
LINE
  5
4FC
330
1F
100
AcDbEntity
  8
0
  6
Continuous
 62
     7
370
    25
100
AcDbLine
 10
0.1452418937
 20
0.1681184882
 30
0.0
 11
0.1440595784
 21
0.1693008034
 31
0.0
  0
LINE
  5
4FD
330
1F
100
AcDbEntity
  8
0
  6
Continuous
 62
     7
370
    25
100
AcDbLine
 10
0.1453485039
 20
0.1680118779
 30
0.0
 11
0.145362646
 21
0.16802602
 31
0.0
  0
LINE
  5
4FE
330
1F
100
AcDbEntity
  8
0
  6
Continuous
 62
     7
370
    25
100
AcDbLine
 10
0.1455487923
 20
0.1678115895
 30
0.0
 11
0.1453485039
 21
0.1680118779
 31
0.0
  0
LINE
  5
4FF
330
1F
100
AcDbEntity
  8
0
  6
Continuous
 62
     7
370
    25
100
AcDbLine
 10
0.1452418937
 20
0.1681184882
 30
0.0
 11
0.1453485039
 21
0.1680118779
 31
0.0
  0
LINE
  5
500
330
1F
100
AcDbEntity
  8
0
  6
Continuous
 62
     7
370
    25
100
AcDbLine
 10
0.0942831041
 20
0.1808215012
 30
0.0
 11
0.0944245255
 21
0.1809629225
 31
0.0
  0
LINE
  5
501
330
1F
100
AcDbEntity
  8
0
  6
Continuous
 62
     7
370
    25
100
AcDbLine
 10
0.0946047983
 20
0.1807826497
 30
0.0
 11
0.0944245255
 21
0.1809629225
 31
0.0
  0
LINE
  5
502
330
1F
100
AcDbEntity
  8
0
  6
Continuous
 62
     7
370
    25
100
AcDbLine
 10
0.0944633769
 20
0.1806412284
 30
0.0
 11
0.0942831041
 21
0.1808215012
 31
0.0
  0
LINE
  5
503
330
1F
100
AcDbEntity
  8
0
  6
Continuous
 62
     7
370
    25
100
AcDbLine
 10
0.0988983429
 20
0.1764891051
 30
0.0
 11
0.0946047983
 21
0.1807826497
 31
0.0
  0
LINE
  5
504
330
1F
100
AcDbEntity
  8
0
  6
Continuous
 62
     7
370
    25
100
AcDbLine
 10
0.0987569215
 20
0.1763476838
 30
0.0
 11
0.0944633769
 21
0.1806412284
 31
0.0
  0
LINE
  5
505
330
1F
100
AcDbEntity
  8
0
  6
Continuous
 62
     7
370
    25
100
AcDbLine
 10
0.0990009128
 20
0.1763865352
 30
0.0
 11
0.0988983429
 21
0.1764891051
 31
0.0
  0
LINE
  5
506
330
1F
100
AcDbEntity
  8
0
  6
Continuous
 62
     7
370
    25
100
AcDbLine
 10
0.0988594914
 20
0.1762451139
 30
0.0
 11
0.0987569215
 21
0.1763476838
 31
0.0
  0
LINE
  5
507
330
1F
100
AcDbEntity
  8
0
  6
Continuous
 62
     7
370
    25
100
AcDbLine
 10
0.1437296094
 20
0.1696590567
 30
0.0
 11
0.1435493366
 21
0.1698393295
 31
0.0
  0
LINE
  5
508
330
1F
100
AcDbEntity
  8
0
  6
Continuous
 62
     7
370
    25
100
AcDbLine
 10
0.1435493366
 20
0.1698393295
 30
0.0
 11
0.143690758
 21
0.1699807508
 31
0.0
  0
LINE
  5
509
330
1F
100
AcDbEntity
  8
0
  6
Continuous
 62
     7
370
    25
100
AcDbLine
 10
0.1438710308
 20
0.169800478
 30
0.0
 11
0.143690758
 21
0.1699807508
 31
0.0
  0
LINE
  5
50A
330
1F
100
AcDbEntity
  8
0
  6
Continuous
 62
     7
370
    25
100
AcDbLine
 10
0.1481645754
 20
0.1655069334
 30
0.0
 11
0.1438710308
 21
0.169800478
 31
0.0
  0
LINE
  5
50B
330
1F
100
AcDbEntity
  8
0
  6
Continuous
 62
     7
370
    25
100
AcDbLine
 10
0.148023154
 20
0.1653655121
 30
0.0
 11
0.1437296094
 21
0.1696590567
 31
0.0
  0
LINE
  5
50C
330
1F
100
AcDbEntity
  8
0
  6
Continuous
 62
     7
370
    25
100
AcDbLine
 10
0.1482671453
 20
0.1654043635
 30
0.0
 11
0.1481645754
 21
0.1655069334
 31
0.0
  0
LINE
  5
50D
330
1F
100
AcDbEntity
  8
0
  6
Continuous
 62
     7
370
    25
100
AcDbLine
 10
0.1481257239
 20
0.1652629422
 30
0.0
 11
0.148023154
 21
0.1653655121
 31
0.0
  0
LINE
  5
50E
330
1F
100
AcDbEntity
  8
0
  6
Continuous
 62
     7
370
    25
100
AcDbLine
 10
0.1323330579
 20
0.16149062
 30
0.0
 11
0.1323330579
 21
0.17893062
 31
0.0
  0
LINE
  5
50F
330
1F
100
AcDbEntity
  8
0
  6
Continuous
 62
     7
370
    25
100
AcDbLine
 10
0.1326330579
 20
0.17923062
 30
0.0
 11
0.1331330579
 21
0.17923062
 31
0.0
  0
ARC
  5
510
330
1F
100
AcDbEntity
  8
0
  6
Continuous
 62
     7
370
    25
100
AcDbCircle
 10
0.1326330579
 20
0.16149062
 30
0.0
 40
0.0003
100
AcDbArc
 50
180.0
 51
270.0
  0
LINE
  5
511
330
1F
100
AcDbEntity
  8
0
  6
Continuous
 62
     7
370
    25
100
AcDbLine
 10
0.1331330579
 20
0.16119062
 30
0.0
 11
0.1326330579
 21
0.16119062
 31
0.0
  0
ARC
  5
512
330
1F
100
AcDbEntity
  8
0
  6
Continuous
 62
     7
370
    25
100
AcDbCircle
 10
0.1326330579
 20
0.17893062
 30
0.0
 40
0.0003
100
AcDbArc
 50
90.0
 51
180.0
  0
LINE
  5
513
330
1F
100
AcDbEntity
  8
0
  6
Continuous
 62
     7
370
    25
100
AcDbLine
 10
0.1518530579
 20
0.15941062
 30
0.0
 11
0.1482630579
 21
0.15941062
 31
0.0
  0
LINE
  5
514
330
1F
100
AcDbEntity
  8
0
  6
Continuous
 62
     7
370
    25
100
AcDbLine
 10
0.1478830579
 20
0.15941062
 30
0.0
 11
0.1382430579
 21
0.15941062
 31
0.0
  0
LINE
  5
515
330
1F
100
AcDbEntity
  8
0
  6
Continuous
 62
     7
370
    25
100
AcDbLine
 10
0.1378630579
 20
0.15941062
 30
0.0
 11
0.1344130579
 21
0.15941062
 31
0.0
  0
ARC
  5
516
330
1F
100
AcDbEntity
  8
0
  6
Continuous
 62
     7
370
    25
100
AcDbCircle
 10
0.1344130579
 20
0.15971062
 30
0.0
 40
0.0003
100
AcDbArc
 50
230.0554948102
 51
270.0
  0
LINE
  5
517
330
1F
100
AcDbEntity
  8
0
  6
Continuous
 62
     7
370
    25
100
AcDbLine
 10
0.1340484267
 20
0.16056062
 30
0.0
 11
0.1340466829
 21
0.1605651472
 31
0.0
  0
LINE
  5
518
330
1F
100
AcDbEntity
  8
0
  6
Continuous
 62
     7
370
    25
100
AcDbLine
 10
0.1340274851
 20
0.1606111197
 30
0.0
 11
0.1340220568
 21
0.1606230289
 31
0.0
  0
LINE
  5
519
330
1F
100
AcDbEntity
  8
0
  6
Continuous
 62
     7
370
    25
100
AcDbLine
 10
0.1335454668
 20
0.1610996188
 30
0.0
 11
0.1335036351
 21
0.1611178535
 31
0.0
  0
ARC
  5
51A
330
1F
100
AcDbEntity
  8
0
  6
Continuous
 62
     7
370
    25
100
AcDbCircle
 10
0.1331330579
 20
0.16021062
 30
0.0
 40
0.00098
100
AcDbArc
 50
75.7585141163
 51
90.0
  0
ARC
  5
51B
330
1F
100
AcDbEntity
  8
0
  6
Continuous
 62
     7
370
    25
100
AcDbCircle
 10
0.1331330579
 20
0.18021062
 30
0.0
 40
0.00098
100
AcDbArc
 50
270.0
 51
284.2414858837
  0
LINE
  5
51C
330
1F
100
AcDbEntity
  8
0
  6
Continuous
 62
     7
370
    25
100
AcDbLine
 10
0.1335036351
 20
0.1793033865
 30
0.0
 11
0.1335454668
 21
0.1793216212
 31
0.0
  0
LINE
  5
51D
330
1F
100
AcDbEntity
  8
0
  6
Continuous
 62
     7
370
    25
100
AcDbLine
 10
0.1340220568
 20
0.1797982111
 30
0.0
 11
0.1340402914
 21
0.1798400428
 31
0.0
  0
LINE
  5
51E
330
1F
100
AcDbEntity
  8
0
  6
Continuous
 62
     7
370
    25
100
AcDbLine
 10
0.1539330579
 20
0.17893062
 30
0.0
 11
0.1539330579
 21
0.16149062
 31
0.0
  0
ARC
  5
51F
330
1F
100
AcDbEntity
  8
0
  6
Continuous
 62
     7
370
    25
100
AcDbCircle
 10
0.1536330579
 20
0.17893062
 30
0.0
 40
0.0003
100
AcDbArc
 50
0.0
 51
90.0
  0
LINE
  5
520
330
1F
100
AcDbEntity
  8
0
  6
Continuous
 62
     7
370
    25
100
AcDbLine
 10
0.1522258245
 20
0.1798400428
 30
0.0
 11
0.1522440591
 21
0.1797982111
 31
0.0
  0
LINE
  5
521
330
1F
100
AcDbEntity
  8
0
  6
Continuous
 62
     7
370
    25
100
AcDbLine
 10
0.1527206491
 20
0.1793216212
 30
0.0
 11
0.1527624808
 21
0.1793033865
 31
0.0
  0
LINE
  5
522
330
1F
100
AcDbEntity
  8
0
  6
Continuous
 62
     7
370
    25
100
AcDbLine
 10
0.1534700579
 20
0.17923062
 30
0.0
 11
0.1536330579
 21
0.17923062
 31
0.0
  0
ARC
  5
523
330
1F
100
AcDbEntity
  8
0
  6
Continuous
 62
     7
370
    25
100
AcDbCircle
 10
0.1536330579
 20
0.16149062
 30
0.0
 40
0.0003
100
AcDbArc
 50
270.0
 51
0.0
  0
LINE
  5
524
330
1F
100
AcDbEntity
  8
0
  6
Continuous
 62
     7
370
    25
100
AcDbLine
 10
0.1527624808
 20
0.1611178535
 30
0.0
 11
0.1527206491
 21
0.1610996188
 31
0.0
  0
LINE
  5
525
330
1F
100
AcDbEntity
  8
0
  6
Continuous
 62
     7
370
    25
100
AcDbLine
 10
0.1522440591
 20
0.1606230289
 30
0.0
 11
0.1522386307
 21
0.1606111197
 31
0.0
  0
LINE
  5
526
330
1F
100
AcDbEntity
  8
0
  6
Continuous
 62
     7
370
    25
100
AcDbLine
 10
0.152219433
 20
0.1605651472
 30
0.0
 11
0.1522176892
 21
0.16056062
 31
0.0
  0
LINE
  5
527
330
1F
100
AcDbEntity
  8
0
  6
Continuous
 62
     7
370
    25
100
AcDbLine
 10
0.1344130579
 20
0.18101062
 30
0.0
 11
0.1518530579
 21
0.18101062
 31
0.0
  0
LINE
  5
528
330
1F
100
AcDbEntity
  8
0
  6
Continuous
 62
     7
370
    25
100
AcDbLine
 10
0.1536330579
 20
0.16119062
 30
0.0
 11
0.1534700579
 21
0.16119062
 31
0.0
  0
ARC
  5
529
330
1F
100
AcDbEntity
  8
0
  6
Continuous
 62
     7
370
    25
100
AcDbCircle
 10
0.1344130579
 20
0.18071062
 30
0.0
 40
0.0003
100
AcDbArc
 50
90.0
 51
162.5423968763
  0
ARC
  5
52A
330
1F
100
AcDbEntity
  8
0
  6
Continuous
 62
     7
370
    25
100
AcDbCircle
 10
0.1518530579
 20
0.15971062
 30
0.0
 40
0.0003
100
AcDbArc
 50
270.0
 51
309.9445051898
  0
ARC
  5
52B
330
1F
100
AcDbEntity
  8
0
  6
Continuous
 62
     7
370
    25
100
AcDbCircle
 10
0.1518530579
 20
0.18071062
 30
0.0
 40
0.0003
100
AcDbArc
 50
17.4576031237
 51
90.0
  0
LINE
  5
52C
330
1F
100
AcDbEntity
  8
0
  6
Continuous
 62
     7
370
    25
100
AcDbLine
 10
0.0731330579
 20
0.17923062
 30
0.0
 11
0.0726330579
 21
0.17923062
 31
0.0
  0
ARC
  5
52D
330
1F
100
AcDbEntity
  8
0
  6
Continuous
 62
     7
370
    25
100
AcDbCircle
 10
0.0731330579
 20
0.18021062
 30
0.0
 40
0.00098
100
AcDbArc
 50
270.0
 51
339.8867076343
  0
LINE
  5
52E
330
1F
100
AcDbEntity
  8
0
  6
Continuous
 62
     7
370
    25
100
AcDbLine
 10
0.0741130579
 20
0.18054762
 30
0.0
 11
0.0741130579
 21
0.18071062
 31
0.0
  0
ARC
  5
52F
330
1F
100
AcDbEntity
  8
0
  6
Continuous
 62
     7
370
    25
100
AcDbCircle
 10
0.0744130579
 20
0.18071062
 30
0.0
 40
0.0003
100
AcDbArc
 50
90.0
 51
180.0
  0
LINE
  5
530
330
1F
100
AcDbEntity
  8
0
  6
Continuous
 62
     7
370
    25
100
AcDbLine
 10
0.0744130579
 20
0.18101062
 30
0.0
 11
0.0918530579
 21
0.18101062
 31
0.0
  0
ARC
  5
531
330
1F
100
AcDbEntity
  8
0
  6
Continuous
 62
     7
370
    25
100
AcDbCircle
 10
0.0918530579
 20
0.18071062
 30
0.0
 40
0.0003
100
AcDbArc
 50
0.0
 51
90.0
  0
LINE
  5
532
330
1F
100
AcDbEntity
  8
0
  6
Continuous
 62
     7
370
    25
100
AcDbLine
 10
0.0921530579
 20
0.18054762
 30
0.0
 11
0.0921530579
 21
0.18071062
 31
0.0
  0
ARC
  5
533
330
1F
100
AcDbEntity
  8
0
  6
Continuous
 62
     7
370
    25
100
AcDbCircle
 10
0.0931330579
 20
0.18021062
 30
0.0
 40
0.00098
100
AcDbArc
 50
200.1132923657
 51
270.0
  0
LINE
  5
534
330
1F
100
AcDbEntity
  8
0
  6
Continuous
 62
     7
370
    25
100
AcDbLine
 10
0.0931330579
 20
0.17923062
 30
0.0
 11
0.0936330579
 21
0.17923062
 31
0.0
  0
ARC
  5
535
330
1F
100
AcDbEntity
  8
0
  6
Continuous
 62
     7
370
    25
100
AcDbCircle
 10
0.0936330579
 20
0.17893062
 30
0.0
 40
0.0003
100
AcDbArc
 50
0.0
 51
90.0
  0
LINE
  5
536
330
1F
100
AcDbEntity
  8
0
  6
Continuous
 62
     7
370
    25
100
AcDbLine
 10
0.0939330579
 20
0.16149062
 30
0.0
 11
0.0939330579
 21
0.17893062
 31
0.0
  0
ARC
  5
537
330
1F
100
AcDbEntity
  8
0
  6
Continuous
 62
     7
370
    25
100
AcDbCircle
 10
0.0936330579
 20
0.16149062
 30
0.0
 40
0.0003
100
AcDbArc
 50
270.0
 51
0.0
  0
LINE
  5
538
330
1F
100
AcDbEntity
  8
0
  6
Continuous
 62
     7
370
    25
100
AcDbLine
 10
0.0931330579
 20
0.16119062
 30
0.0
 11
0.0936330579
 21
0.16119062
 31
0.0
  0
ARC
  5
539
330
1F
100
AcDbEntity
  8
0
  6
Continuous
 62
     7
370
    25
100
AcDbCircle
 10
0.0931330579
 20
0.16021062
 30
0.0
 40
0.00098
100
AcDbArc
 50
90.0
 51
159.0751675724
  0
ARC
  5
53A
330
1F
100
AcDbEntity
  8
0
  6
Continuous
 62
     7
370
    25
100
AcDbCircle
 10
0.0918530579
 20
0.15971062
 30
0.0
 40
0.0003
100
AcDbArc
 50
270.0
 51
342.5423968763
  0
LINE
  5
53B
330
1F
100
AcDbEntity
  8
0
  6
Continuous
 62
     7
370
    25
100
AcDbLine
 10
0.0918530579
 20
0.15941062
 30
0.0
 11
0.0744130579
 21
0.15941062
 31
0.0
  0
ARC
  5
53C
330
1F
100
AcDbEntity
  8
0
  6
Continuous
 62
     7
370
    25
100
AcDbCircle
 10
0.0744130579
 20
0.15971062
 30
0.0
 40
0.0003
100
AcDbArc
 50
197.4576031237
 51
270.0
  0
ARC
  5
53D
330
1F
100
AcDbEntity
  8
0
  6
Continuous
 62
     7
370
    25
100
AcDbCircle
 10
0.0731330579
 20
0.16021062
 30
0.0
 40
0.00098
100
AcDbArc
 50
20.9248324276
 51
90.0
  0
LINE
  5
53E
330
1F
100
AcDbEntity
  8
0
  6
Continuous
 62
     7
370
    25
100
AcDbLine
 10
0.0731330579
 20
0.16119062
 30
0.0
 11
0.0726330579
 21
0.16119062
 31
0.0
  0
ARC
  5
53F
330
1F
100
AcDbEntity
  8
0
  6
Continuous
 62
     7
370
    25
100
AcDbCircle
 10
0.0726330579
 20
0.16149062
 30
0.0
 40
0.0003
100
AcDbArc
 50
180.0
 51
270.0
  0
LINE
  5
540
330
1F
100
AcDbEntity
  8
0
  6
Continuous
 62
     7
370
    25
100
AcDbLine
 10
0.0723330579
 20
0.17893062
 30
0.0
 11
0.0723330579
 21
0.16149062
 31
0.0
  0
ARC
  5
541
330
1F
100
AcDbEntity
  8
0
  6
Continuous
 62
     7
370
    25
100
AcDbCircle
 10
0.0726330579
 20
0.17893062
 30
0.0
 40
0.0003
100
AcDbArc
 50
90.0
 51
180.0
  0
LINE
  5
542
330
1F
100
AcDbEntity
  8
0
  6
Continuous
 62
     7
370
    18
100
AcDbLine
 10
0.1141685552
 20
0.21101062
 30
0.0
 11
0.1758394743
 21
0.21101062
 31
0.0
  0
LINE
  5
543
330
1F
100
AcDbEntity
  8
0
  6
Continuous
 62
     7
370
    18
100
AcDbLine
 10
0.0731330579
 20
0.2196211867
 30
0.0
 11
0.0931330579
 21
0.2196211867
 31
0.0
  0
LINE
  5
544
330
1F
100
AcDbEntity
  8
0
  6
Continuous
 62
     7
370
    18
100
AcDbLine
 10
0.0723330579
 20
0.12941062
 30
0.0
 11
0.1023330579
 21
0.12941062
 31
0.0
  0
LINE
  5
545
330
1F
100
AcDbEntity
  8
0
  6
Continuous
 62
     7
370
    18
100
AcDbLine
 10
0.1023330579
 20
0.12941062
 30
0.0
 11
0.1092970664
 21
0.12941062
 31
0.0
  0
LINE
  5
546
330
1F
100
AcDbEntity
  8
0
  6
Continuous
 62
     7
370
    18
100
AcDbLine
 10
0.1231330579
 20
0.0949050511
 30
0.0
 11
0.1231330579
 21
0.1009007964
 31
0.0
  0
LINE
  5
547
330
1F
100
AcDbEntity
  8
0
  6
Continuous
 62
     7
370
    18
100
AcDbLine
 10
0.1631330579
 20
0.0949050511
 30
0.0
 11
0.1631330579
 21
0.1009007964
 31
0.0
  0
LINE
  5
548
330
1F
100
AcDbEntity
  8
0
  6
Continuous
 62
     7
370
    18
100
AcDbLine
 10
0.2066394743
 20
0.16021062
 30
0.0
 11
0.2066394743
 21
0.18021062
 31
0.0
  0
ARC
  5
549
330
1F
100
AcDbEntity
  8
0
  6
Continuous
 62
     7
370
    18
100
AcDbCircle
 10
0.0931330579
 20
0.1896211867
 30
0.0
 40
0.03
100
AcDbArc
 50
45.4779871661
 51
90.0
  0
ARC
  5
54A
330
1F
100
AcDbEntity
  8
0
  6
Continuous
 62
     7
370
    18
100
AcDbCircle
 10
0.0731330579
 20
0.1896211867
 30
0.0
 40
0.03
100
AcDbArc
 50
90.0
 51
161.2672971323
  0
ARC
  5
54B
330
1F
100
AcDbEntity
  8
0
  6
Continuous
 62
     7
370
    18
100
AcDbCircle
 10
0.0522307634
 20
0.17021062
 30
0.0
 40
0.03
100
AcDbArc
 50
104.494316918
 51
264.1070933061
  0
ARC
  5
54C
330
1F
100
AcDbEntity
  8
0
  6
Continuous
 62
     7
370
    18
100
AcDbCircle
 10
0.0723330579
 20
0.15941062
 30
0.0
 40
0.03
100
AcDbArc
 50
219.3988894493
 51
270.0
  0
ARC
  5
54D
330
1F
100
AcDbEntity
  8
0
  6
Continuous
 62
     7
370
    18
100
AcDbCircle
 10
0.1391330579
 20
0.1262779515
 30
0.0
 40
0.03
100
AcDbArc
 50
174.0061171857
 51
237.7690473645
  0
ARC
  5
54E
330
1F
100
AcDbEntity
  8
0
  6
Continuous
 62
     7
370
    18
100
AcDbCircle
 10
0.1430930579
 20
0.0949050511
 30
0.0
 40
0.01996
100
AcDbArc
 50
180.0
 51
270.0
  0
ARC
  5
54F
330
1F
100
AcDbEntity
  8
0
  6
Continuous
 62
     7
370
    18
100
AcDbCircle
 10
0.1431730579
 20
0.0949050511
 30
0.0
 40
0.0199599999999999
100
AcDbArc
 50
270.0
 51
0.0
  0
ARC
  5
550
330
1F
100
AcDbEntity
  8
0
  6
Continuous
 62
     7
370
    18
100
AcDbCircle
 10
0.1471330579
 20
0.1262779515
 30
0.0
 40
0.03
100
AcDbArc
 50
302.2309526355
 51
6.033521517
  0
ARC
  5
551
330
1F
100
AcDbEntity
  8
0
  6
Continuous
 62
     7
370
    18
100
AcDbCircle
 10
0.1758394743
 20
0.16021062
 30
0.0
 40
0.0308
100
AcDbArc
 50
272.0977187558
 51
0.0
  0
ARC
  5
552
330
1F
100
AcDbEntity
  8
0
  6
Continuous
 62
     7
370
    18
100
AcDbCircle
 10
0.1758394743
 20
0.18021062
 30
0.0
 40
0.0308000000000001
100
AcDbArc
 50
0.0
 51
90.0
  0
ENDSEC
  0
SECTION
  2
OBJECTS
  0
DICTIONARY
  5
C
330
0
100
AcDbDictionary
281
     1
  3
ACAD_DETAILVIEWSTYLE
350
55B
  3
ACAD_GROUP
350
D
  3
ACAD_LAYOUT
350
1A
  3
ACAD_MATERIAL
350
43
  3
ACAD_MLEADERSTYLE
350
6B
  3
ACAD_MLINESTYLE
350
17
  3
ACAD_PLOTSETTINGS
350
19
  3
ACAD_PLOTSTYLENAME
350
E
  3
ACAD_SCALELIST
350
47
  3
ACAD_SECTIONVIEWSTYLE
350
55C
  3
ACAD_TABLESTYLE
350
69
  3
ACAD_VISUALSTYLE
350
2A
  3
ACDB_RECOMPOSE_DATA
350
558
  3
AcDbVariableDictionary
350
553
  0
SUN
  5
6D
330
29
100
AcDbSun
 90
        1
290
     0
 63
     7
421
 16777215
 40
1.0
291
     1
 91
  2455826
 92
 54000000
292
     0
 70
     2
 71
   256
280
     1
  0
DICTIONARY
  5
55B
102
{ACAD_REACTORS
330
C
102
}
330
C
100
AcDbDictionary
281
     1
  0
DICTIONARY
  5
D
102
{ACAD_REACTORS
330
C
102
}
330
C
100
AcDbDictionary
281
     1
  0
DICTIONARY
  5
1A
102
{ACAD_REACTORS
330
C
102
}
330
C
100
AcDbDictionary
281
     1
  3
Layout1
350
1E
  3
Layout2
350
26
  3
Model
350
22
  0
DICTIONARY
  5
43
102
{ACAD_REACTORS
330
C
102
}
330
C
100
AcDbDictionary
281
     1
  3
ByBlock
350
45
  3
ByLayer
350
44
  3
Global
350
46
  0
DICTIONARY
  5
6B
102
{ACAD_REACTORS
330
C
102
}
330
C
100
AcDbDictionary
281
     1
  3
Standard
350
6C
  0
DICTIONARY
  5
17
102
{ACAD_REACTORS
330
C
102
}
330
C
100
AcDbDictionary
281
     1
  3
Standard
350
18
  0
DICTIONARY
  5
19
102
{ACAD_REACTORS
330
C
102
}
330
C
100
AcDbDictionary
281
     1
  0
ACDBDICTIONARYWDFLT
  5
E
102
{ACAD_REACTORS
330
C
102
}
330
C
100
AcDbDictionary
281
     1
  3
Normal
350
F
100
AcDbDictionaryWithDefault
340
F
  0
DICTIONARY
  5
47
102
{ACAD_REACTORS
330
C
102
}
330
C
100
AcDbDictionary
281
     1
  3
A0
350
48
  3
A1
350
49
  3
A2
350
4A
  3
A3
350
4B
  3
A4
350
4C
  3
A5
350
4D
  3
A6
350
4E
  3
A7
350
4F
  3
A8
350
50
  3
A9
350
51
  3
B0
350
52
  3
B1
350
53
  3
B2
350
54
  3
B3
350
55
  3
B4
350
56
  3
B5
350
57
  3
B6
350
58
  3
B7
350
59
  3
B8
350
5A
  3
B9
350
5B
  3
C0
350
5C
  3
C1
350
5D
  3
C2
350
5E
  3
C3
350
5F
  3
C4
350
60
  3
C5
350
61
  3
C6
350
62
  3
C7
350
63
  3
C8
350
64
  3
C9
350
65
  3
D0
350
66
  3
D1
350
67
  3
D2
350
68
  0
DICTIONARY
  5
55C
102
{ACAD_REACTORS
330
C
102
}
330
C
100
AcDbDictionary
281
     1
  0
DICTIONARY
  5
69
102
{ACAD_REACTORS
330
C
102
}
330
C
100
AcDbDictionary
281
     1
  3
Standard
350
6A
  0
DICTIONARY
  5
2A
102
{ACAD_REACTORS
330
C
102
}
330
C
100
AcDbDictionary
281
     1
  3
2dWireframe
350
2F
  3
Basic
350
32
  3
Brighten
350
36
  3
ColorChange
350
3A
  3
Conceptual
350
34
  3
Dim
350
35
  3
EdgeColorOff
350
3D
  3
Facepattern
350
39
  3
Flat
350
2B
  3
FlatWithEdges
350
2C
  3
Gouraud
350
2D
  3
GouraudWithEdges
350
2E
  3
Hidden
350
31
  3
JitterOff
350
3B
  3
Linepattern
350
38
  3
OverhangOff
350
3C
  3
Realistic
350
33
  3
Shaded
350
42
  3
Shaded with edges
350
41
  3
Shades of Gray
350
3E
  3
Sketchy
350
3F
  3
Thicken
350
37
  3
Wireframe
350
30
  3
X-Ray
350
40
  0
XRECORD
  5
558
102
{ACAD_REACTORS
330
C
102
}
330
C
100
AcDbXrecord
280
     1
 90
        1
330
6A
  0
DICTIONARY
  5
553
102
{ACAD_REACTORS
330
C
102
}
330
C
100
AcDbDictionary
281
     1
  3
CANNOSCALE
350
554
  3
CMLEADERSTYLE
350
55A
  3
CTABLESTYLE
350
559
  0
LAYOUT
  5
1E
102
{ACAD_REACTORS
330
1A
102
}
330
1A
100
AcDbPlotSettings
  1

  2
none_device
  4

  6

 40
0.0
 41
0.0
 42
0.0
 43
0.0
 44
0.0
 45
0.0
 46
0.0
 47
0.0
 48
0.0
 49
0.0
140
0.0
141
0.0
142
1.0
143
1.0
 70
   688
 72
     1
 73
     0
 74
     5
  7

 75
    16
 76
     0
 77
     2
 78
   300
147
1.0
148
0.0
149
0.0
100
AcDbLayout
  1
Layout1
 70
     1
 71
     1
 10
0.0
 20
0.0
 11
420.0
 21
297.0
 12
0.0
 22
0.0
 32
0.0
 14
1.0000000000E+20
 24
1.0000000000E+20
 34
1.0000000000E+20
 15
-1.0000000000E+20
 25
-1.0000000000E+20
 35
-1.0000000000E+20
146
0.0
 13
0.0
 23
0.0
 33
0.0
 16
1.0
 26
0.0
 36
0.0
 17
0.0
 27
1.0
 37
0.0
 76
     0
330
1B
  0
LAYOUT
  5
26
102
{ACAD_REACTORS
330
1A
102
}
330
1A
100
AcDbPlotSettings
  1

  2
none_device
  4

  6

 40
0.0
 41
0.0
 42
0.0
 43
0.0
 44
0.0
 45
0.0
 46
0.0
 47
0.0
 48
0.0
 49
0.0
140
0.0
141
0.0
142
1.0
143
1.0
 70
   688
 72
     1
 73
     0
 74
     5
  7

 75
    16
 76
     0
 77
     2
 78
   300
147
1.0
148
0.0
149
0.0
100
AcDbLayout
  1
Layout2
 70
     1
 71
     2
 10
0.0
 20
0.0
 11
0.0
 21
0.0
 12
0.0
 22
0.0
 32
0.0
 14
0.0
 24
0.0
 34
0.0
 15
0.0
 25
0.0
 35
0.0
146
0.0
 13
0.0
 23
0.0
 33
0.0
 16
1.0
 26
0.0
 36
0.0
 17
0.0
 27
1.0
 37
0.0
 76
     0
330
23
  0
LAYOUT
  5
22
102
{ACAD_REACTORS
330
1A
102
}
330
1A
100
AcDbPlotSettings
  1

  2
none_device
  4
Letter_(8.50_x_11.00_Inches)
  6

 40
6.35
 41
6.35
 42
6.35000508
 43
6.35000508
 44
215.9
 45
279.4
 46
0.0
 47
0.0
 48
0.0
 49
0.0
140
0.0
141
0.0
142
1.0
143
1.0
 70
  1712
 72
     1
 73
     0
 74
     0
  7

 75
     0
 76
     0
 77
     2
 78
   300
147
1.0
148
0.0
149
0.0
100
AcDbLayout
  1
Model
 70
     1
 71
     0
 10
0.0
 20
0.0
 11
0.21
 21
0.297
 12
0.0
 22
0.0
 32
0.0
 14
0.0
 24
0.0
 34
0.0
 15
0.21
 25
0.297
 35
0.0
146
0.0
 13
0.0
 23
0.0
 33
0.0
 16
1.0
 26
0.0
 36
0.0
 17
0.0
 27
1.0
 37
0.0
 76
     0
330
1F
331
29
  0
MATERIAL
  5
45
102
{ACAD_REACTORS
330
43
102
}
330
43
100
AcDbMaterial
  1
ByBlock
 72
     1
 94
      127
  0
MATERIAL
  5
44
102
{ACAD_REACTORS
330
43
102
}
330
43
100
AcDbMaterial
  1
ByLayer
 72
     1
 94
      127
  0
MATERIAL
  5
46
102
{ACAD_REACTORS
330
43
102
}
330
43
100
AcDbMaterial
  1
Global
 72
     1
 94
      127
  0
MLEADERSTYLE
  5
6C
102
{ACAD_REACTORS
330
6B
102
}
330
6B
100
AcDbMLeaderStyle
170
     2
171
     1
172
     0
 90
        2
 40
0.0
 41
0.0
173
     1
 91
-1056964608
340
14
 92
       -2
290
     1
 42
2.0
291
     1
 43
8.0
  3
Standard
341
0
 44
4.0
300

342
11
174
     1
178
     6
175
     1
176
     0
 93
-1056964608
 45
4.0
292
     0
297
     0
 46
4.0
343
0
 94
-1056964608
 47
1.0
 49
1.0
140
1.0
293
     1
141
0.0
294
     1
177
     0
142
1.0
295
     0
296
     0
143
3.75
1001
ACAD_MLEADERVER
1070
     2
  0
MLINESTYLE
  5
18
102
{ACAD_REACTORS
330
17
102
}
330
17
100
AcDbMlineStyle
  2
Standard
 70
     0
  3

 62
   256
 51
90.0
 52
90.0
 71
     2
 49
0.5
 62
   256
  6
BYLAYER
 49
-0.5
 62
   256
  6
BYLAYER
  0
ACDBPLACEHOLDER
  5
F
102
{ACAD_REACTORS
330
E
102
}
330
E
  0
SCALE
  5
48
102
{ACAD_REACTORS
330
47
102
}
330
47
100
AcDbScale
 70
     0
300
1:1
140
1.0
141
1.0
290
     1
  0
SCALE
  5
49
102
{ACAD_REACTORS
330
47
102
}
330
47
100
AcDbScale
 70
     0
300
1:2
140
1.0
141
2.0
290
     0
  0
SCALE
  5
4A
102
{ACAD_REACTORS
330
47
102
}
330
47
100
AcDbScale
 70
     0
300
1:4
140
1.0
141
4.0
290
     0
  0
SCALE
  5
4B
102
{ACAD_REACTORS
330
47
102
}
330
47
100
AcDbScale
 70
     0
300
1:5
140
1.0
141
5.0
290
     0
  0
SCALE
  5
4C
102
{ACAD_REACTORS
330
47
102
}
330
47
100
AcDbScale
 70
     0
300
1:8
140
1.0
141
8.0
290
     0
  0
SCALE
  5
4D
102
{ACAD_REACTORS
330
47
102
}
330
47
100
AcDbScale
 70
     0
300
1:10
140
1.0
141
10.0
290
     0
  0
SCALE
  5
4E
102
{ACAD_REACTORS
330
47
102
}
330
47
100
AcDbScale
 70
     0
300
1:16
140
1.0
141
16.0
290
     0
  0
SCALE
  5
4F
102
{ACAD_REACTORS
330
47
102
}
330
47
100
AcDbScale
 70
     0
300
1:20
140
1.0
141
20.0
290
     0
  0
SCALE
  5
50
102
{ACAD_REACTORS
330
47
102
}
330
47
100
AcDbScale
 70
     0
300
1:30
140
1.0
141
30.0
290
     0
  0
SCALE
  5
51
102
{ACAD_REACTORS
330
47
102
}
330
47
100
AcDbScale
 70
     0
300
1:40
140
1.0
141
40.0
290
     0
  0
SCALE
  5
52
102
{ACAD_REACTORS
330
47
102
}
330
47
100
AcDbScale
 70
     0
300
1:50
140
1.0
141
50.0
290
     0
  0
SCALE
  5
53
102
{ACAD_REACTORS
330
47
102
}
330
47
100
AcDbScale
 70
     0
300
1:100
140
1.0
141
100.0
290
     0
  0
SCALE
  5
54
102
{ACAD_REACTORS
330
47
102
}
330
47
100
AcDbScale
 70
     0
300
2:1
140
2.0
141
1.0
290
     0
  0
SCALE
  5
55
102
{ACAD_REACTORS
330
47
102
}
330
47
100
AcDbScale
 70
     0
300
4:1
140
4.0
141
1.0
290
     0
  0
SCALE
  5
56
102
{ACAD_REACTORS
330
47
102
}
330
47
100
AcDbScale
 70
     0
300
8:1
140
8.0
141
1.0
290
     0
  0
SCALE
  5
57
102
{ACAD_REACTORS
330
47
102
}
330
47
100
AcDbScale
 70
     0
300
10:1
140
10.0
141
1.0
290
     0
  0
SCALE
  5
58
102
{ACAD_REACTORS
330
47
102
}
330
47
100
AcDbScale
 70
     0
300
100:1
140
100.0
141
1.0
290
     0
  0
SCALE
  5
59
102
{ACAD_REACTORS
330
47
102
}
330
47
100
AcDbScale
 70
     0
300
1/128" = 1'-0"
140
0.0078125
141
12.0
290
     0
  0
SCALE
  5
5A
102
{ACAD_REACTORS
330
47
102
}
330
47
100
AcDbScale
 70
     0
300
1/64" = 1'-0"
140
0.015625
141
12.0
290
     0
  0
SCALE
  5
5B
102
{ACAD_REACTORS
330
47
102
}
330
47
100
AcDbScale
 70
     0
300
1/32" = 1'-0"
140
0.03125
141
12.0
290
     0
  0
SCALE
  5
5C
102
{ACAD_REACTORS
330
47
102
}
330
47
100
AcDbScale
 70
     0
300
1/16" = 1'-0"
140
0.0625
141
12.0
290
     0
  0
SCALE
  5
5D
102
{ACAD_REACTORS
330
47
102
}
330
47
100
AcDbScale
 70
     0
300
3/32" = 1'-0"
140
0.09375
141
12.0
290
     0
  0
SCALE
  5
5E
102
{ACAD_REACTORS
330
47
102
}
330
47
100
AcDbScale
 70
     0
300
1/8" = 1'-0"
140
0.125
141
12.0
290
     0
  0
SCALE
  5
5F
102
{ACAD_REACTORS
330
47
102
}
330
47
100
AcDbScale
 70
     0
300
3/16" = 1'-0"
140
0.1875
141
12.0
290
     0
  0
SCALE
  5
60
102
{ACAD_REACTORS
330
47
102
}
330
47
100
AcDbScale
 70
     0
300
1/4" = 1'-0"
140
0.25
141
12.0
290
     0
  0
SCALE
  5
61
102
{ACAD_REACTORS
330
47
102
}
330
47
100
AcDbScale
 70
     0
300
3/8" = 1'-0"
140
0.375
141
12.0
290
     0
  0
SCALE
  5
62
102
{ACAD_REACTORS
330
47
102
}
330
47
100
AcDbScale
 70
     0
300
1/2" = 1'-0"
140
0.5
141
12.0
290
     0
  0
SCALE
  5
63
102
{ACAD_REACTORS
330
47
102
}
330
47
100
AcDbScale
 70
     0
300
3/4" = 1'-0"
140
0.75
141
12.0
290
     0
  0
SCALE
  5
64
102
{ACAD_REACTORS
330
47
102
}
330
47
100
AcDbScale
 70
     0
300
1" = 1'-0"
140
1.0
141
12.0
290
     0
  0
SCALE
  5
65
102
{ACAD_REACTORS
330
47
102
}
330
47
100
AcDbScale
 70
     0
300
1-1/2" = 1'-0"
140
1.5
141
12.0
290
     0
  0
SCALE
  5
66
102
{ACAD_REACTORS
330
47
102
}
330
47
100
AcDbScale
 70
     0
300
3" = 1'-0"
140
3.0
141
12.0
290
     0
  0
SCALE
  5
67
102
{ACAD_REACTORS
330
47
102
}
330
47
100
AcDbScale
 70
     0
300
6" = 1'-0"
140
6.0
141
12.0
290
     0
  0
SCALE
  5
68
102
{ACAD_REACTORS
330
47
102
}
330
47
100
AcDbScale
 70
     0
300
1'-0" = 1'-0"
140
12.0
141
12.0
290
     0
  0
TABLESTYLE
  5
6A
102
{ACAD_REACTORS
330
69
102
}
102
{ACAD_XDICTIONARY
360
555
102
}
330
69
100
AcDbTableStyle
  3
Standard
 70
     0
 71
     0
 40
0.06
 41
0.06
280
     0
281
     0
  7
Standard
140
4.5
170
     2
 62
     0
 63
   257
283
     0
 90
        4
 91
        0
  1

274
    -2
284
     1
 64
     0
275
    -2
285
     1
 65
     0
276
    -2
286
     1
 66
     0
277
    -2
287
     1
 67
     0
278
    -2
288
     1
 68
     0
279
    -2
289
     1
 69
     0
  7
Standard
140
6.0
170
     5
 62
     0
 63
   257
283
     0
 90
        4
 91
        0
  1

274
    -2
284
     1
 64
     0
275
    -2
285
     1
 65
     0
276
    -2
286
     1
 66
     0
277
    -2
287
     1
 67
     0
278
    -2
288
     1
 68
     0
279
    -2
289
     1
 69
     0
  7
Standard
140
4.5
170
     5
 62
     0
 63
   257
283
     0
 90
        4
 91
        0
  1

274
    -2
284
     1
 64
     0
275
    -2
285
     1
 65
     0
276
    -2
286
     1
 66
     0
277
    -2
287
     1
 67
     0
278
    -2
288
     1
 68
     0
279
    -2
289
     1
 69
     0
  0
VISUALSTYLE
  5
2F
102
{ACAD_REACTORS
330
2A
102
}
330
2A
100
AcDbVisualStyle
  2
2dWireframe
 70
     4
 71
     0
 72
     2
 73
     0
 90
        0
 40
0.6
 41
30.0
 62
     5
 63
     7
421
 16777215
 74
     1
 91
        4
 64
     7
 65
   257
 75
     1
175
     1
 42
1.0
 92
        0
 66
   257
 43
1.0
 76
     1
 77
     6
 78
     2
 67
     7
 79
     5
170
     0
171
     0
290
     0
174
     0
 93
        1
 44
0.0
173
     0
291
     0
 45
0.0
  0
VISUALSTYLE
  5
32
102
{ACAD_REACTORS
330
2A
102
}
330
2A
100
AcDbVisualStyle
  2
Basic
 70
     7
 71
     1
 72
     0
 73
     1
 90
        0
 40
0.6
 41
30.0
 62
     5
 63
     7
421
 16777215
 74
     0
 91
        4
 64
     7
 65
   257
 75
     1
175
     1
 42
1.0
 92
        8
 66
     7
 43
1.0
 76
     1
 77
     6
 78
     2
 67
     7
 79
     5
170
     0
171
     0
290
     0
174
     0
 93
        1
 44
0.0
173
     0
291
     1
 45
0.0
  0
VISUALSTYLE
  5
36
102
{ACAD_REACTORS
330
2A
102
}
330
2A
100
AcDbVisualStyle
  2
Brighten
 70
    12
 71
     2
 72
     2
 73
     0
 90
        0
 40
0.6
 41
30.0
 62
     5
 63
     7
421
 16777215
 74
     1
 91
        4
 64
     7
 65
   257
 75
     1
175
     1
 42
1.0
 92
        8
 66
     7
 43
1.0
 76
     1
 77
     6
 78
     2
 67
     7
 79
     5
170
     0
171
     0
290
     0
174
     0
 93
        1
 44
50.0
173
     0
291
     1
 45
0.0
  0
VISUALSTYLE
  5
3A
102
{ACAD_REACTORS
330
2A
102
}
330
2A
100
AcDbVisualStyle
  2
ColorChange
 70
    16
 71
     2
 72
     2
 73
     3
 90
        0
 40
0.6
 41
30.0
 62
     5
 63
     8
421
  8421504
 74
     1
 91
        4
 64
     7
 65
   257
 75
     1
175
     1
 42
1.0
 92
        8
 66
     8
424
  8421504
 43
1.0
 76
     1
 77
     6
 78
     2
 67
     7
 79
     5
170
     0
171
     0
290
     0
174
     0
 93
        1
 44
0.0
173
     0
291
     1
 45
0.0
  0
VISUALSTYLE
  5
34
102
{ACAD_REACTORS
330
2A
102
}
330
2A
100
AcDbVisualStyle
  2
Conceptual
 70
     9
 71
     3
 72
     2
 73
     0
 90
        0
 40
0.6
 41
30.0
 62
     5
 63
     7
421
 16777215
 74
     2
 91
        2
 64
     7
 65
   257
 75
     1
175
     1
 42
179.0
 92
        8
 66
     7
 43
1.0
 76
     1
 77
     6
 78
     2
 67
     7
 79
     3
170
     0
171
     0
290
     0
174
     0
 93
        1
 44
0.0
173
     0
291
     0
 45
0.0
  0
VISUALSTYLE
  5
35
102
{ACAD_REACTORS
330
2A
102
}
330
2A
100
AcDbVisualStyle
  2
Dim
 70
    11
 71
     2
 72
     2
 73
     0
 90
        0
 40
0.6
 41
30.0
 62
     5
 63
     7
421
 16777215
 74
     1
 91
        4
 64
     7
 65
   257
 75
     1
175
     1
 42
1.0
 92
        8
 66
     7
 43
1.0
 76
     1
 77
     6
 78
     2
 67
     7
 79
     5
170
     0
171
     0
290
     0
174
     0
 93
        1
 44
-50.0
173
     0
291
     1
 45
0.0
  0
VISUALSTYLE
  5
3D
102
{ACAD_REACTORS
330
2A
102
}
330
2A
100
AcDbVisualStyle
  2
EdgeColorOff
 70
    22
 71
     2
 72
     2
 73
     0
 90
        0
 40
0.6
 41
30.0
 62
     5
 63
     7
421
 16777215
 74
     1
 91
        4
 64
     7
 65
   257
 75
     1
175
     1
 42
1.0
 92
        8
 66
     7
 43
1.0
 76
     1
 77
     6
 78
     2
 67
     7
 79
     5
170
     0
171
     0
290
     0
174
     0
 93
        1
 44
0.0
173
     0
291
     1
 45
0.0
  0
VISUALSTYLE
  5
39
102
{ACAD_REACTORS
330
2A
102
}
330
2A
100
AcDbVisualStyle
  2
Facepattern
 70
    15
 71
     2
 72
     2
 73
     0
 90
        0
 40
0.6
 41
30.0
 62
     5
 63
     7
421
 16777215
 74
     1
 91
        4
 64
     7
 65
   257
 75
     1
175
     1
 42
1.0
 92
        8
 66
     7
 43
1.0
 76
     1
 77
     6
 78
     2
 67
     7
 79
     5
170
     0
171
     0
290
     0
174
     0
 93
        1
 44
0.0
173
     0
291
     1
 45
0.0
  0
VISUALSTYLE
  5
2B
102
{ACAD_REACTORS
330
2A
102
}
330
2A
100
AcDbVisualStyle
  2
Flat
 70
     0
 71
     2
 72
     1
 73
     1
 90
        2
 40
0.6
 41
30.0
 62
     5
 63
     7
421
 16777215
 74
     0
 91
        0
 64
     7
 65
   257
 75
     1
175
     1
 42
1.0
 92
        8
 66
     7
 43
1.0
 76
     1
 77
     6
 78
     2
 67
     7
 79
     5
170
     0
171
     0
290
     0
174
     0
 93
       13
 44
0.0
173
     0
291
     1
 45
0.0
  0
VISUALSTYLE
  5
2C
102
{ACAD_REACTORS
330
2A
102
}
330
2A
100
AcDbVisualStyle
  2
FlatWithEdges
 70
     1
 71
     2
 72
     1
 73
     1
 90
        2
 40
0.6
 41
30.0
 62
     5
 63
     7
421
 16777215
 74
     1
 91
        0
 64
     7
 65
   257
 75
     1
175
     1
 42
1.0
 92
        0
 66
   257
 43
1.0
 76
     1
 77
     6
 78
     2
 67
     7
 79
     5
170
     0
171
     0
290
     0
174
     0
 93
       13
 44
0.0
173
     0
291
     1
 45
0.0
  0
VISUALSTYLE
  5
2D
102
{ACAD_REACTORS
330
2A
102
}
330
2A
100
AcDbVisualStyle
  2
Gouraud
 70
     2
 71
     2
 72
     2
 73
     1
 90
        2
 40
0.6
 41
30.0
 62
     5
 63
     7
421
 16777215
 74
     0
 91
        0
 64
     7
 65
   257
 75
     1
175
     1
 42
1.0
 92
        0
 66
     7
 43
1.0
 76
     1
 77
     6
 78
     2
 67
     7
 79
     5
170
     0
171
     0
290
     0
174
     0
 93
       13
 44
0.0
173
     0
291
     1
 45
0.0
  0
VISUALSTYLE
  5
2E
102
{ACAD_REACTORS
330
2A
102
}
330
2A
100
AcDbVisualStyle
  2
GouraudWithEdges
 70
     3
 71
     2
 72
     2
 73
     1
 90
        2
 40
0.6
 41
30.0
 62
     5
 63
     7
421
 16777215
 74
     1
 91
        0
 64
     7
 65
   257
 75
     1
175
     1
 42
1.0
 92
        0
 66
   257
 43
1.0
 76
     1
 77
     6
 78
     2
 67
     7
 79
     5
170
     0
171
     0
290
     0
174
     0
 93
       13
 44
0.0
173
     0
291
     1
 45
0.0
  0
VISUALSTYLE
  5
31
102
{ACAD_REACTORS
330
2A
102
}
330
2A
100
AcDbVisualStyle
  2
Hidden
 70
     6
 71
     1
 72
     2
 73
     2
 90
        0
 40
0.6
 41
30.0
 62
     5
 63
     7
421
 16777215
 74
     2
 91
        2
 64
     7
 65
   257
 75
     2
175
     1
 42
40.0
 92
        0
 66
   257
 43
1.0
 76
     1
 77
     6
 78
     2
 67
     7
 79
     3
170
     0
171
     0
290
     0
174
     0
 93
        1
 44
0.0
173
     0
291
     0
 45
0.0
  0
VISUALSTYLE
  5
3B
102
{ACAD_REACTORS
330
2A
102
}
330
2A
100
AcDbVisualStyle
  2
JitterOff
 70
    20
 71
     2
 72
     2
 73
     0
 90
        0
 40
0.6
 41
30.0
 62
     5
 63
     7
421
 16777215
 74
     1
 91
        4
 64
     7
 65
   257
 75
     1
175
     1
 42
1.0
 92
       10
 66
     7
 43
1.0
 76
     1
 77
     6
 78
     2
 67
     7
 79
     5
170
     0
171
     0
290
     0
174
     0
 93
        1
 44
0.0
173
     0
291
     1
 45
0.0
  0
VISUALSTYLE
  5
38
102
{ACAD_REACTORS
330
2A
102
}
330
2A
100
AcDbVisualStyle
  2
Linepattern
 70
    14
 71
     2
 72
     2
 73
     0
 90
        0
 40
0.6
 41
30.0
 62
     5
 63
     7
421
 16777215
 74
     1
 91
        4
 64
     7
 65
   257
 75
     7
175
     7
 42
1.0
 92
        8
 66
     7
 43
1.0
 76
     1
 77
     6
 78
     2
 67
     7
 79
     5
170
     0
171
     0
290
     0
174
     0
 93
        1
 44
0.0
173
     0
291
     1
 45
0.0
  0
VISUALSTYLE
  5
3C
102
{ACAD_REACTORS
330
2A
102
}
330
2A
100
AcDbVisualStyle
  2
OverhangOff
 70
    21
 71
     2
 72
     2
 73
     0
 90
        0
 40
0.6
 41
30.0
 62
     5
 63
     7
421
 16777215
 74
     1
 91
        4
 64
     7
 65
   257
 75
     1
175
     1
 42
1.0
 92
        9
 66
     7
 43
1.0
 76
     1
 77
     6
 78
     2
 67
     7
 79
     5
170
     0
171
     0
290
     0
174
     0
 93
        1
 44
0.0
173
     0
291
     1
 45
0.0
  0
VISUALSTYLE
  5
33
102
{ACAD_REACTORS
330
2A
102
}
330
2A
100
AcDbVisualStyle
  2
Realistic
 70
     8
 71
     2
 72
     3
 73
     0
 90
        2
 40
0.6
 41
30.0
 62
     5
 63
     7
421
 16777215
 74
     0
 91
        0
 64
     7
 65
   257
 75
     1
175
     1
 42
1.0
 92
        8
 66
   257
 43
1.0
 76
     1
 77
     6
 78
     2
 67
     7
 79
     3
170
     0
171
     0
290
     0
174
     0
 93
       13
 44
0.0
173
     0
291
     0
 45
0.0
  0
VISUALSTYLE
  5
42
102
{ACAD_REACTORS
330
2A
102
}
330
2A
100
AcDbVisualStyle
  2
Shaded
 70
    27
 71
     2
 72
     2
 73
     1
 90
        2
 40
0.6
 41
30.0
 62
     5
 63
     7
421
 16777215
 74
     0
 91
        4
 64
     7
 65
   257
 75
     1
175
     1
 42
1.0
 92
        8
 66
   257
 43
1.0
 76
     1
 77
     6
 78
     2
 67
     8
425
  7895160
 79
     3
170
     0
171
     0
290
     0
174
     0
 93
        5
 44
0.0
173
     0
291
     0
 45
0.0
  0
VISUALSTYLE
  5
41
102
{ACAD_REACTORS
330
2A
102
}
330
2A
100
AcDbVisualStyle
  2
Shaded with edges
 70
    26
 71
     2
 72
     2
 73
     1
 90
        2
 40
0.6
 41
30.0
 62
     5
 63
     7
421
 16777215
 74
     1
 91
       10
 64
     7
 65
   257
 75
     2
175
     1
 42
1.0
 92
        8
 66
   257
 43
1.0
 76
     1
 77
     6
 78
     2
 67
     7
 79
     3
170
     0
171
     0
290
     0
174
     0
 93
        5
 44
0.0
173
     0
291
     0
 45
0.0
  0
VISUALSTYLE
  5
3E
102
{ACAD_REACTORS
330
2A
102
}
330
2A
100
AcDbVisualStyle
  2
Shades of Gray
 70
    23
 71
     2
 72
     2
 73
     3
 90
        0
 40
0.6
 41
30.0
 62
     5
 63
     7
421
 16777215
 74
     2
 91
        2
 64
     7
 65
     7
 75
     1
175
     1
 42
40.0
 92
        8
 66
     7
 43
1.0
 76
     1
 77
     6
 78
     2
 67
     7
 79
     3
170
     0
171
     0
290
     0
174
     0
 93
        1
 44
0.0
173
     0
291
     0
 45
0.0
  0
VISUALSTYLE
  5
3F
102
{ACAD_REACTORS
330
2A
102
}
330
2A
100
AcDbVisualStyle
  2
Sketchy
 70
    24
 71
     1
 72
     2
 73
     2
 90
        0
 40
0.6
 41
30.0
 62
     5
 63
     7
421
 16777215
 74
     2
 91
        2
 64
     7
 65
     7
 75
     1
175
     1
 42
40.0
 92
       11
 66
     7
 43
1.0
 76
     1
 77
     6
 78
     2
 67
     7
 79
     6
170
     0
171
     0
290
     0
174
     0
 93
        1
 44
0.0
173
     0
291
     0
 45
0.0
  0
VISUALSTYLE
  5
37
102
{ACAD_REACTORS
330
2A
102
}
330
2A
100
AcDbVisualStyle
  2
Thicken
 70
    13
 71
     2
 72
     2
 73
     0
 90
        0
 40
0.6
 41
30.0
 62
     5
 63
     7
421
 16777215
 74
     1
 91
        4
 64
     7
 65
   257
 75
     1
175
     1
 42
1.0
 92
       12
 66
     7
 43
1.0
 76
     1
 77
     6
 78
     2
 67
     7
 79
     5
170
     0
171
     0
290
     0
174
     0
 93
        1
 44
0.0
173
     0
291
     1
 45
0.0
  0
VISUALSTYLE
  5
30
102
{ACAD_REACTORS
330
2A
102
}
330
2A
100
AcDbVisualStyle
  2
Wireframe
 70
     5
 71
     0
 72
     2
 73
     0
 90
        0
 40
0.6
 41
30.0
 62
     5
 63
     7
421
 16777215
 74
     1
 91
        4
 64
     7
 65
   257
 75
     1
175
     1
 42
1.0
 92
        0
 66
   257
 43
1.0
 76
     1
 77
     6
 78
     2
 67
     7
 79
     3
170
     0
171
     0
290
     0
174
     0
 93
        1
 44
0.0
173
     0
291
     0
 45
0.0
  0
VISUALSTYLE
  5
40
102
{ACAD_REACTORS
330
2A
102
}
330
2A
100
AcDbVisualStyle
  2
X-Ray
 70
    25
 71
     2
 72
     2
 73
     1
 90
        1
 40
0.5
 41
30.0
 62
     5
 63
     7
421
 16777215
 74
     1
 91
        0
 64
     7
 65
   257
 75
     1
175
     1
 42
1.0
 92
        8
 66
     7
 43
1.0
 76
     1
 77
     6
 78
     2
 67
     7
 79
     3
170
     0
171
     0
290
     0
174
     0
 93
       13
 44
0.0
173
     0
291
     0
 45
0.0
  0
DICTIONARYVAR
  5
554
102
{ACAD_REACTORS
330
553
102
}
330
553
100
DictionaryVariables
280
     0
  1
1:1
  0
DICTIONARYVAR
  5
55A
102
{ACAD_REACTORS
330
553
102
}
330
553
100
DictionaryVariables
280
     0
  1
Standard
  0
DICTIONARYVAR
  5
559
102
{ACAD_REACTORS
330
553
102
}
330
553
100
DictionaryVariables
280
     0
  1
Standard
  0
DICTIONARY
  5
555
330
6A
100
AcDbDictionary
280
     1
281
     1
  3
ACAD_ROUNDTRIP_2008_TABLESTYLE_CELLSTYLEMAP
360
556
  0
CELLSTYLEMAP
  5
556
102
{ACAD_REACTORS
330
555
102
}
330
555
100
AcDbCellStyleMap
 90
        3
300
CELLSTYLE
  1
TABLEFORMAT_BEGIN
 90
        5
170
     1
 91
        0
 92
    32768
 62
   257
 93
        1
300
CONTENTFORMAT
  1
CONTENTFORMAT_BEGIN
 90
        0
 91
        0
 92
        4
 93
        0
300

 40
0.0
140
1.0
 94
        5
 62
     0
340
11
144
6.0
309
CONTENTFORMAT_END
171
     1
301
MARGIN
  1
CELLMARGIN_BEGIN
 40
1.5
 40
1.5
 40
1.5
 40
1.5
 40
1.5
 40
1.5
309
CELLMARGIN_END
 94
        6
 95
        1
302
GRIDFORMAT
  1
GRIDFORMAT_BEGIN
 90
        0
 91
        1
 62
     0
 92
       -2
340
14
 93
        0
 40
0.045
309
GRIDFORMAT_END
 95
        2
302
GRIDFORMAT
  1
GRIDFORMAT_BEGIN
 90
        0
 91
        1
 62
     0
 92
       -2
340
14
 93
        0
 40
0.045
309
GRIDFORMAT_END
 95
        4
302
GRIDFORMAT
  1
GRIDFORMAT_BEGIN
 90
        0
 91
        1
 62
     0
 92
       -2
340
14
 93
        0
 40
0.045
309
GRIDFORMAT_END
 95
        8
302
GRIDFORMAT
  1
GRIDFORMAT_BEGIN
 90
        0
 91
        1
 62
     0
 92
       -2
340
14
 93
        0
 40
0.045
309
GRIDFORMAT_END
 95
       16
302
GRIDFORMAT
  1
GRIDFORMAT_BEGIN
 90
        0
 91
        1
 62
     0
 92
       -2
340
14
 93
        0
 40
0.045
309
GRIDFORMAT_END
 95
       32
302
GRIDFORMAT
  1
GRIDFORMAT_BEGIN
 90
        0
 91
        1
 62
     0
 92
       -2
340
14
 93
        0
 40
0.045
309
GRIDFORMAT_END
309
TABLEFORMAT_END
  1
CELLSTYLE_BEGIN
 90
        1
 91
        1
300
_TITLE
309
CELLSTYLE_END
300
CELLSTYLE
  1
TABLEFORMAT_BEGIN
 90
        5
170
     1
 91
        0
 92
        0
 62
   257
 93
        1
300
CONTENTFORMAT
  1
CONTENTFORMAT_BEGIN
 90
        0
 91
        0
 92
        4
 93
        0
300

 40
0.0
140
1.0
 94
        5
 62
     0
340
11
144
4.5
309
CONTENTFORMAT_END
171
     1
301
MARGIN
  1
CELLMARGIN_BEGIN
 40
1.5
 40
1.5
 40
1.5
 40
1.5
 40
1.5
 40
1.5
309
CELLMARGIN_END
 94
        6
 95
        1
302
GRIDFORMAT
  1
GRIDFORMAT_BEGIN
 90
        0
 91
        1
 62
     0
 92
       -2
340
14
 93
        0
 40
0.045
309
GRIDFORMAT_END
 95
        2
302
GRIDFORMAT
  1
GRIDFORMAT_BEGIN
 90
        0
 91
        1
 62
     0
 92
       -2
340
14
 93
        0
 40
0.045
309
GRIDFORMAT_END
 95
        4
302
GRIDFORMAT
  1
GRIDFORMAT_BEGIN
 90
        0
 91
        1
 62
     0
 92
       -2
340
14
 93
        0
 40
0.045
309
GRIDFORMAT_END
 95
        8
302
GRIDFORMAT
  1
GRIDFORMAT_BEGIN
 90
        0
 91
        1
 62
     0
 92
       -2
340
14
 93
        0
 40
0.045
309
GRIDFORMAT_END
 95
       16
302
GRIDFORMAT
  1
GRIDFORMAT_BEGIN
 90
        0
 91
        1
 62
     0
 92
       -2
340
14
 93
        0
 40
0.045
309
GRIDFORMAT_END
 95
       32
302
GRIDFORMAT
  1
GRIDFORMAT_BEGIN
 90
        0
 91
        1
 62
     0
 92
       -2
340
14
 93
        0
 40
0.045
309
GRIDFORMAT_END
309
TABLEFORMAT_END
  1
CELLSTYLE_BEGIN
 90
        2
 91
        1
300
_HEADER
309
CELLSTYLE_END
300
CELLSTYLE
  1
TABLEFORMAT_BEGIN
 90
        5
170
     1
 91
        0
 92
        0
 62
   257
 93
        1
300
CONTENTFORMAT
  1
CONTENTFORMAT_BEGIN
 90
        0
 91
        0
 92
        4
 93
        0
300

 40
0.0
140
1.0
 94
        2
 62
     0
340
11
144
4.5
309
CONTENTFORMAT_END
171
     1
301
MARGIN
  1
CELLMARGIN_BEGIN
 40
1.5
 40
1.5
 40
1.5
 40
1.5
 40
1.5
 40
1.5
309
CELLMARGIN_END
 94
        6
 95
        1
302
GRIDFORMAT
  1
GRIDFORMAT_BEGIN
 90
        0
 91
        1
 62
     0
 92
       -2
340
14
 93
        0
 40
0.045
309
GRIDFORMAT_END
 95
        2
302
GRIDFORMAT
  1
GRIDFORMAT_BEGIN
 90
        0
 91
        1
 62
     0
 92
       -2
340
14
 93
        0
 40
0.045
309
GRIDFORMAT_END
 95
        4
302
GRIDFORMAT
  1
GRIDFORMAT_BEGIN
 90
        0
 91
        1
 62
     0
 92
       -2
340
14
 93
        0
 40
0.045
309
GRIDFORMAT_END
 95
        8
302
GRIDFORMAT
  1
GRIDFORMAT_BEGIN
 90
        0
 91
        1
 62
     0
 92
       -2
340
14
 93
        0
 40
0.045
309
GRIDFORMAT_END
 95
       16
302
GRIDFORMAT
  1
GRIDFORMAT_BEGIN
 90
        0
 91
        1
 62
     0
 92
       -2
340
14
 93
        0
 40
0.045
309
GRIDFORMAT_END
 95
       32
302
GRIDFORMAT
  1
GRIDFORMAT_BEGIN
 90
        0
 91
        1
 62
     0
 92
       -2
340
14
 93
        0
 40
0.045
309
GRIDFORMAT_END
309
TABLEFORMAT_END
  1
CELLSTYLE_BEGIN
 90
        3
 91
        2
300
_DATA
309
CELLSTYLE_END
  0
ENDSEC
  0
EOF
