  0
SECTION
  2
HEADER
  9
$ACADVER
  1
AC1021
  9
$ACADMAINTVER
 70
    25
  9
$DWGCODEPAGE
  3
ANSI_1250
  9
$INSBASE
 10
0.0
 20
0.0
 30
0.0
  9
$EXTMIN
 10
0.0
 20
0.0
 30
0.0
  9
$EXTMAX
 10
0.21
 20
0.297
 30
0.0
  9
$LIMMIN
 10
0.0
 20
0.0
  9
$LIMMAX
 10
0.21
 20
0.297
  9
$ORTHOMODE
 70
     0
  9
$REGENMODE
 70
     1
  9
$FILLMODE
 70
     1
  9
$QTEXTMODE
 70
     0
  9
$MIRRTEXT
 70
     1
  9
$LTSCALE
 40
1.0
  9
$ATTMODE
 70
     1
  9
$TEXTSIZE
 40
0.0035
  9
$TRACEWID
 40
1.0
  9
$TEXTSTYLE
  7
Standard
  9
$CLAYER
  8
0
  9
$CELTYPE
  6
ByLayer
  9
$CECOLOR
 62
   256
  9
$CELTSCALE
 40
1.0
  9
$DISPSILH
 70
     0
  9
$DIMSCALE
 40
1.0
  9
$DIMASZ
 40
0.003302
  9
$DIMEXO
 40
0.001
  9
$DIMDLI
 40
3.75
  9
$DIMRND
 40
0.0
  9
$DIMDLE
 40
0.0
  9
$DIMEXE
 40
0.001
  9
$DIMTP
 40
0.0
  9
$DIMTM
 40
0.0
  9
$DIMTXT
 40
0.0035
  9
$DIMCEN
 40
2.5
  9
$DIMTSZ
 40
0.0
  9
$DIMTOL
 70
     0
  9
$DIMLIM
 70
     0
  9
$DIMTIH
 70
     1
  9
$DIMTOH
 70
     1
  9
$DIMSE1
 70
     0
  9
$DIMSE2
 70
     0
  9
$DIMTAD
 70
     1
  9
$DIMZIN
 70
     0
  9
$DIMBLK
  1

  9
$DIMASO
 70
     1
  9
$DIMSHO
 70
     1
  9
$DIMPOST
  1

  9
$DIMAPOST
  1

  9
$DIMALT
 70
     0
  9
$DIMALTD
 70
     3
  9
$DIMALTF
 40
39.3700787402
  9
$DIMLFAC
 40
50.0
  9
$DIMTOFL
 70
     1
  9
$DIMTVP
 40
0.0
  9
$DIMTIX
 70
     0
  9
$DIMSOXD
 70
     0
  9
$DIMSAH
 70
     0
  9
$DIMBLK1
  1

  9
$DIMBLK2
  1

  9
$DIMSTYLE
  2
ISO-25
  9
$DIMCLRD
 70
     0
  9
$DIMCLRE
 70
     0
  9
$DIMCLRT
 70
     0
  9
$DIMTFAC
 40
1.0
  9
$DIMGAP
 40
0.001524
  9
$DIMJUST
 70
     0
  9
$DIMSD1
 70
     0
  9
$DIMSD2
 70
     0
  9
$DIMTOLJ
 70
     0
  9
$DIMTZIN
 70
     0
  9
$DIMALTZ
 70
     0
  9
$DIMALTTZ
 70
     0
  9
$DIMUPT
 70
     0
  9
$DIMDEC
 70
     2
  9
$DIMTDEC
 70
     2
  9
$DIMALTU
 70
     2
  9
$DIMALTTD
 70
     3
  9
$DIMTXSTY
  7
Standard
  9
$DIMAUNIT
 70
     0
  9
$DIMADEC
 70
     2
  9
$DIMALTRND
 40
0.0
  9
$DIMAZIN
 70
     0
  9
$DIMDSEP
 70
    44
  9
$DIMATFIT
 70
     3
  9
$DIMFRAC
 70
     0
  9
$DIMLDRBLK
  1

  9
$DIMLUNIT
 70
     2
  9
$DIMLWD
 70
    -2
  9
$DIMLWE
 70
    -2
  9
$DIMTMOVE
 70
     0
  9
$DIMFXL
 40
1.0
  9
$DIMFXLON
 70
     0
  9
$DIMJOGANG
 40
0.7853981634
  9
$DIMTFILL
 70
     0
  9
$DIMTFILLCLR
 70
     0
  9
$DIMARCSYM
 70
     0
  9
$DIMLTYPE
  6

  9
$DIMLTEX1
  6

  9
$DIMLTEX2
  6

  9
$LUNITS
 70
     2
  9
$LUPREC
 70
     2
  9
$SKETCHINC
 40
1.0
  9
$FILLETRAD
 40
10.0
  9
$AUNITS
 70
     0
  9
$AUPREC
 70
     2
  9
$MENU
  1
.
  9
$ELEVATION
 40
0.0
  9
$PELEVATION
 40
0.0
  9
$THICKNESS
 40
0.0
  9
$LIMCHECK
 70
     0
  9
$CHAMFERA
 40
0.0
  9
$CHAMFERB
 40
0.0
  9
$CHAMFERC
 40
0.0
  9
$CHAMFERD
 40
0.0
  9
$SKPOLY
 70
     0
  9
$TDCREATE
 40
2458074.525080081
  9
$TDUCREATE
 40
2458074.483413415
  9
$TDUPDATE
 40
2458074.525080313
  9
$TDUUPDATE
 40
2458074.483413646
  9
$TDINDWG
 40
0.0000000116
  9
$TDUSRTIMER
 40
0.0000000116
  9
$USRTIMER
 70
     1
  9
$ANGBASE
 50
0.0
  9
$ANGDIR
 70
     0
  9
$PDMODE
 70
     0
  9
$PDSIZE
 40
-1.0
  9
$PLINEWID
 40
0.0
  9
$SPLFRAME
 70
     0
  9
$SPLINETYPE
 70
     6
  9
$SPLINESEGS
 70
     8
  9
$HANDSEED
  5
1F5
  9
$SURFTAB1
 70
     6
  9
$SURFTAB2
 70
     6
  9
$SURFTYPE
 70
     6
  9
$SURFU
 70
     6
  9
$SURFV
 70
     6
  9
$UCSBASE
  2

  9
$UCSNAME
  2

  9
$UCSORG
 10
0.0
 20
0.0
 30
0.0
  9
$UCSXDIR
 10
1.0
 20
0.0
 30
0.0
  9
$UCSYDIR
 10
0.0
 20
1.0
 30
0.0
  9
$UCSORTHOREF
  2

  9
$UCSORTHOVIEW
 70
     0
  9
$UCSORGTOP
 10
0.0
 20
0.0
 30
0.0
  9
$UCSORGBOTTOM
 10
0.0
 20
0.0
 30
0.0
  9
$UCSORGLEFT
 10
0.0
 20
0.0
 30
0.0
  9
$UCSORGRIGHT
 10
0.0
 20
0.0
 30
0.0
  9
$UCSORGFRONT
 10
0.0
 20
0.0
 30
0.0
  9
$UCSORGBACK
 10
0.0
 20
0.0
 30
0.0
  9
$PUCSBASE
  2

  9
$PUCSNAME
  2

  9
$PUCSORG
 10
0.0
 20
0.0
 30
0.0
  9
$PUCSXDIR
 10
1.0
 20
0.0
 30
0.0
  9
$PUCSYDIR
 10
0.0
 20
1.0
 30
0.0
  9
$PUCSORTHOREF
  2

  9
$PUCSORTHOVIEW
 70
     0
  9
$PUCSORGTOP
 10
0.0
 20
0.0
 30
0.0
  9
$PUCSORGBOTTOM
 10
0.0
 20
0.0
 30
0.0
  9
$PUCSORGLEFT
 10
0.0
 20
0.0
 30
0.0
  9
$PUCSORGRIGHT
 10
0.0
 20
0.0
 30
0.0
  9
$PUCSORGFRONT
 10
0.0
 20
0.0
 30
0.0
  9
$PUCSORGBACK
 10
0.0
 20
0.0
 30
0.0
  9
$USERI1
 70
     0
  9
$USERI2
 70
     0
  9
$USERI3
 70
     0
  9
$USERI4
 70
     0
  9
$USERI5
 70
     0
  9
$USERR1
 40
0.0
  9
$USERR2
 40
0.0
  9
$USERR3
 40
0.0
  9
$USERR4
 40
0.0
  9
$USERR5
 40
0.0
  9
$WORLDVIEW
 70
     1
  9
$SHADEDGE
 70
     3
  9
$SHADEDIF
 70
    70
  9
$TILEMODE
 70
     1
  9
$MAXACTVP
 70
    64
  9
$PINSBASE
 10
0.0
 20
0.0
 30
0.0
  9
$PLIMCHECK
 70
     0
  9
$PEXTMIN
 10
1.0000000000E+20
 20
1.0000000000E+20
 30
1.0000000000E+20
  9
$PEXTMAX
 10
-1.0000000000E+20
 20
-1.0000000000E+20
 30
-1.0000000000E+20
  9
$PLIMMIN
 10
0.0
 20
0.0
  9
$PLIMMAX
 10
420.0
 20
297.0
  9
$UNITMODE
 70
     0
  9
$VISRETAIN
 70
     1
  9
$PLINEGEN
 70
     0
  9
$PSLTSCALE
 70
     1
  9
$TREEDEPTH
 70
  3020
  9
$CMLSTYLE
  2
Standard
  9
$CMLJUST
 70
     0
  9
$CMLSCALE
 40
20.0
  9
$PROXYGRAPHICS
 70
     1
  9
$MEASUREMENT
 70
     1
  9
$CELWEIGHT
370
    -1
  9
$ENDCAPS
280
     0
  9
$JOINSTYLE
280
     0
  9
$LWDISPLAY
290
     1
  9
$INSUNITS
 70
     4
  9
$HYPERLINKBASE
  1

  9
$STYLESHEET
  1

  9
$XEDIT
290
     1
  9
$CEPSNTYPE
380
     0
  9
$PSTYLEMODE
290
     1
  9
$FINGERPRINTGUID
  2
{4638F6CC-FF3B-4BD7-BD69-71CD1820F14E}
  9
$VERSIONGUID
  2
{FAEB1C32-E019-11D5-929B-00C0DF256EC4}
  9
$EXTNAMES
290
     1
  9
$PSVPSCALE
 40
0.0
  9
$OLESTARTUP
290
     0
  9
$SORTENTS
280
   127
  9
$INDEXCTL
280
     0
  9
$HIDETEXT
280
     1
  9
$XCLIPFRAME
290
     0
  9
$HALOGAP
280
     0
  9
$OBSCOLOR
 70
   257
  9
$OBSLTYPE
280
     0
  9
$INTERSECTIONDISPLAY
280
     0
  9
$INTERSECTIONCOLOR
 70
   257
  9
$DIMASSOC
280
     2
  9
$PROJECTNAME
  1

  9
$CAMERADISPLAY
290
     0
  9
$LENSLENGTH
 40
50.0
  9
$CAMERAHEIGHT
 40
0.0
  9
$STEPSPERSEC
 40
2.0
  9
$STEPSIZE
 40
6.0
  9
$3DDWFPREC
 40
2.0
  9
$PSOLWIDTH
 40
5.0
  9
$PSOLHEIGHT
 40
80.0
  9
$LOFTANG1
 40
1.5707963268
  9
$LOFTANG2
 40
1.5707963268
  9
$LOFTMAG1
 40
0.0
  9
$LOFTMAG2
 40
0.0
  9
$LOFTPARAM
 70
     7
  9
$LOFTNORMALS
280
     1
  9
$LATITUDE
 40
37.795
  9
$LONGITUDE
 40
-122.394
  9
$NORTHDIRECTION
 40
0.0
  9
$TIMEZONE
 70
 -8000
  9
$LIGHTGLYPHDISPLAY
280
     1
  9
$TILEMODELIGHTSYNCH
280
     1
  9
$CMATERIAL
347
44
  9
$SOLIDHIST
280
     0
  9
$SHOWHIST
280
     1
  9
$DWFFRAME
280
     2
  9
$DGNFRAME
280
     2
  9
$REALWORLDSCALE
290
     1
  9
$INTERFERECOLOR
 62
   256
  9
$CSHADOW
280
     0
  9
$SHADOWPLANELOCATION
 40
0.0
  0
ENDSEC
  0
SECTION
  2
CLASSES
  0
CLASS
  1
ACDBDICTIONARYWDFLT
  2
AcDbDictionaryWithDefault
  3
ObjectDBX Classes
 90
        0
 91
        4
280
     0
281
     0
  0
CLASS
  1
VISUALSTYLE
  2
AcDbVisualStyle
  3
ObjectDBX Classes
 90
     4095
 91
        4
280
     0
281
     0
  0
CLASS
  1
MATERIAL
  2
AcDbMaterial
  3
ObjectDBX Classes
 90
     1153
 91
        4
280
     0
281
     0
  0
CLASS
  1
SCALE
  2
AcDbScale
  3
ObjectDBX Classes
 90
     1153
 91
        4
280
     0
281
     0
  0
CLASS
  1
TABLESTYLE
  2
AcDbTableStyle
  3
ObjectDBX Classes
 90
     4095
 91
        4
280
     0
281
     0
  0
CLASS
  1
MLEADERSTYLE
  2
AcDbMLeaderStyle
  3
ACDB_MLEADERSTYLE_CLASS
 90
     4095
 91
        4
280
     0
281
     0
  0
CLASS
  1
SUN
  2
AcDbSun
  3
SCENEOE
 90
     1153
 91
        4
280
     0
281
     0
  0
CLASS
  1
DICTIONARYVAR
  2
AcDbDictionaryVar
  3
ObjectDBX Classes
 90
        0
 91
        4
280
     0
281
     0
  0
CLASS
  1
CELLSTYLEMAP
  2
AcDbCellStyleMap
  3
ObjectDBX Classes
 90
     1152
 91
        4
280
     0
281
     0
  0
ENDSEC
  0
SECTION
  2
TABLES
  0
TABLE
  2
VPORT
  5
8
330
0
100
AcDbSymbolTable
 70
     1
  0
VPORT
  5
29
330
8
100
AcDbSymbolTableRecord
100
AcDbViewportTableRecord
  2
*Active
 70
     0
 10
0.0
 20
0.0
 11
1.0
 21
1.0
 12
0.105
 22
0.1485
 13
0.0
 23
0.0
 14
10.0
 24
10.0
 15
10.0
 25
10.0
 16
0.0
 26
0.0
 36
1.0
 17
0.0
 27
0.0
 37
0.0
 40
0.297
 41
0.7070707071
 42
50.0
 43
0.0
 44
0.0
 50
0.0
 51
0.0
 71
     0
 72
  2000
 73
     1
 74
     3
 75
     0
 76
     0
 77
     0
 78
     0
281
     0
 65
     1
110
0.0
120
0.0
130
0.0
111
1.0
121
0.0
131
0.0
112
0.0
122
1.0
132
0.0
 79
     0
146
0.0
 60
     3
 61
     5
292
     1
282
     1
141
0.0
142
0.0
 63
   250
361
6D
  0
ENDTAB
  0
TABLE
  2
LTYPE
  5
5
330
0
100
AcDbSymbolTable
 70
     6
  0
LTYPE
  5
14
330
5
100
AcDbSymbolTableRecord
100
AcDbLinetypeTableRecord
  2
ByBlock
 70
     0
  3

 72
    65
 73
     0
 40
0.0
  0
LTYPE
  5
15
330
5
100
AcDbSymbolTableRecord
100
AcDbLinetypeTableRecord
  2
ByLayer
 70
     0
  3

 72
    65
 73
     0
 40
0.0
  0
LTYPE
  5
16
330
5
100
AcDbSymbolTableRecord
100
AcDbLinetypeTableRecord
  2
Continuous
 70
     0
  3
Solid line
 72
    65
 73
     0
 40
0.0
  0
LTYPE
  5
6E
330
5
100
AcDbSymbolTableRecord
100
AcDbLinetypeTableRecord
  2
HIDDEN
 70
     0
  3
Hidden __ __ __ __ __ __ __ __ __ __ __ __ __ __
 72
    65
 73
     2
 40
0.001905
 49
0.00127
 74
     0
 49
-0.000635
 74
     0
  0
LTYPE
  5
6F
330
5
100
AcDbSymbolTableRecord
100
AcDbLinetypeTableRecord
  2
PHANTOM
 70
     0
  3
Phantom ______  __  __  ______  __  __  ______
 72
    65
 73
     6
 40
0.0127
 49
0.00635
 74
     0
 49
-0.00127
 74
     0
 49
0.00127
 74
     0
 49
-0.00127
 74
     0
 49
0.00127
 74
     0
 49
-0.00127
 74
     0
  0
LTYPE
  5
70
330
5
100
AcDbSymbolTableRecord
100
AcDbLinetypeTableRecord
  2
CENTER
 70
     0
  3
Center ____ _ ____ _ ____ _ ____ _ ____ _ ____
 72
    65
 73
     4
 40
0.01016
 49
0.00635
 74
     0
 49
-0.00127
 74
     0
 49
0.00127
 74
     0
 49
-0.00127
 74
     0
  0
LTYPE
  5
71
330
5
100
AcDbSymbolTableRecord
100
AcDbLinetypeTableRecord
  2
CENTERX2
 70
     0
  3
Center (2x) ________  __  ________  __  _____
 72
    65
 73
     4
 40
0.02032
 49
0.0127
 74
     0
 49
-0.00254
 74
     0
 49
0.00254
 74
     0
 49
-0.00254
 74
     0
  0
LTYPE
  5
72
330
5
100
AcDbSymbolTableRecord
100
AcDbLinetypeTableRecord
  2
DOT2
 70
     0
  3
Dot (.5x) ........................................
 72
    65
 73
     2
 40
0.000635
 49
0.0
 74
     0
 49
-0.000635
 74
     0
  0
ENDTAB
  0
TABLE
  2
LAYER
  5
2
330
0
100
AcDbSymbolTable
 70
     1
  0
LAYER
  5
10
330
2
100
AcDbSymbolTableRecord
100
AcDbLayerTableRecord
  2
0
 70
     0
 62
     7
  6
Continuous
370
    -3
390
F
347
46
  0
ENDTAB
  0
TABLE
  2
STYLE
  5
3
330
0
100
AcDbSymbolTable
 70
     1
  0
STYLE
  5
11
330
3
100
AcDbSymbolTableRecord
100
AcDbTextStyleTableRecord
  2
Standard
 70
     0
 40
0.0
 41
1.0
 50
0.0
 71
     0
 42
0.0035
  3
txt
  4

  0
ENDTAB
  0
TABLE
  2
VIEW
  5
6
330
0
100
AcDbSymbolTable
 70
     0
  0
ENDTAB
  0
TABLE
  2
UCS
  5
7
330
0
100
AcDbSymbolTable
 70
     0
  0
ENDTAB
  0
TABLE
  2
APPID
  5
9
330
0
100
AcDbSymbolTable
 70
     2
  0
APPID
  5
12
330
9
100
AcDbSymbolTableRecord
100
AcDbRegAppTableRecord
  2
ACAD
 70
     0
  0
APPID
  5
1EF
330
9
100
AcDbSymbolTableRecord
100
AcDbRegAppTableRecord
  2
ACAD_MLEADERVER
 70
     0
  0
ENDTAB
  0
TABLE
  2
DIMSTYLE
  5
A
330
0
100
AcDbSymbolTable
 70
     1
100
AcDbDimStyleTable
  0
DIMSTYLE
105
27
330
A
100
AcDbSymbolTableRecord
100
AcDbDimStyleTableRecord
  2
ISO-25
 70
     0
 41
2.5
 42
0.625
 43
3.75
 44
1.25
 73
     0
 74
     0
 77
     1
 78
     8
140
2.5
141
2.5
143
0.0393700787
147
0.625
171
     3
172
     1
178
     0
271
     2
272
     2
274
     3
278
    44
283
     0
284
     8
340
11
  0
ENDTAB
  0
TABLE
  2
BLOCK_RECORD
  5
1
330
0
100
AcDbSymbolTable
 70
     1
  0
BLOCK_RECORD
  5
1F
330
1
100
AcDbSymbolTableRecord
100
AcDbBlockTableRecord
  2
*Model_Space
340
22
 70
     0
280
     1
281
     0
  0
BLOCK_RECORD
  5
1B
330
1
100
AcDbSymbolTableRecord
100
AcDbBlockTableRecord
  2
*Paper_Space
340
1E
 70
     0
280
     1
281
     0
  0
BLOCK_RECORD
  5
23
330
1
100
AcDbSymbolTableRecord
100
AcDbBlockTableRecord
  2
*Paper_Space0
340
26
 70
     0
280
     1
281
     0
  0
ENDTAB
  0
ENDSEC
  0
SECTION
  2
BLOCKS
  0
BLOCK
  5
20
330
1F
100
AcDbEntity
  8
0
100
AcDbBlockBegin
  2
*Model_Space
 70
     0
 10
0.0
 20
0.0
 30
0.0
  3
*Model_Space
  1

  0
ENDBLK
  5
21
330
1F
100
AcDbEntity
  8
0
100
AcDbBlockEnd
  0
BLOCK
  5
1C
330
1B
100
AcDbEntity
 67
     1
  8
0
100
AcDbBlockBegin
  2
*Paper_Space
 70
     0
 10
0.0
 20
0.0
 30
0.0
  3
*Paper_Space
  1

  0
ENDBLK
  5
1D
330
1B
100
AcDbEntity
 67
     1
  8
0
100
AcDbBlockEnd
  0
BLOCK
  5
24
330
23
100
AcDbEntity
  8
0
100
AcDbBlockBegin
  2
*Paper_Space0
 70
     0
 10
0.0
 20
0.0
 30
0.0
  3
*Paper_Space0
  1

  0
ENDBLK
  5
25
330
23
100
AcDbEntity
  8
0
100
AcDbBlockEnd
  0
ENDSEC
  0
SECTION
  2
ENTITIES
  0
LINE
  5
73
330
1F
100
AcDbEntity
  8
0
  6
Continuous
 62
     7
370
    25
100
AcDbLine
 10
0.1118255339
 20
0.1587726878
 30
0.0
 11
0.1118297173
 21
0.1587728345
 31
0.0
  0
LINE
  5
74
330
1F
100
AcDbEntity
  8
0
  6
Continuous
 62
     7
370
    25
100
AcDbLine
 10
0.111565534
 20
0.1587726878
 30
0.0
 11
0.1118255339
 21
0.1587726878
 31
0.0
  0
ARC
  5
75
330
1F
100
AcDbEntity
  8
0
  6
Continuous
 62
     7
370
    25
100
AcDbCircle
 10
0.1115655341
 20
0.158832688
 30
0.0
 40
0.00006
100
AcDbArc
 50
180.0
 51
270.0
  0
LINE
  5
76
330
1F
100
AcDbEntity
  8
0
  6
Continuous
 62
     7
370
    25
100
AcDbLine
 10
0.1106227429
 20
0.175435688
 30
0.0
 11
0.1234366913
 21
0.175435688
 31
0.0
  0
LINE
  5
77
330
1F
100
AcDbEntity
  8
0
  6
Continuous
 62
     7
370
    25
100
AcDbLine
 10
0.1237406356
 20
0.176109688
 30
0.0
 11
0.1103187994
 21
0.176109688
 31
0.0
  0
LINE
  5
78
330
1F
100
AcDbEntity
  8
0
  6
Continuous
 62
     7
370
    25
100
AcDbLine
 10
0.1093667172
 20
0.1853640055
 30
0.0
 11
0.1093667172
 21
0.1883211278
 31
0.0
  0
LINE
  5
79
330
1F
100
AcDbEntity
  8
0
  6
Continuous
 62
     7
370
    25
100
AcDbLine
 10
0.1093667172
 20
0.1886689245
 30
0.0
 11
0.1093667172
 21
0.1916258072
 31
0.0
  0
LINE
  5
7A
330
1F
100
AcDbEntity
  8
0
  6
Continuous
 62
     7
370
    25
100
AcDbLine
 10
0.1086927173
 20
0.1916258072
 30
0.0
 11
0.1086927173
 21
0.1853640055
 31
0.0
  0
ARC
  5
7B
330
1F
100
AcDbEntity
  8
0
  6
Continuous
 62
     7
370
    25
100
AcDbCircle
 10
0.1211993753
 20
0.1966759593
 30
0.0
 40
0.0020939445529941
100
AcDbArc
 50
269.4620975046
 51
319.8595449737
  0
ARC
  5
7C
330
1F
100
AcDbEntity
  8
0
  6
Continuous
 62
     7
370
    25
100
AcDbCircle
 10
0.1211972872
 20
0.1966806853
 30
0.0
 40
0.0014246868588356
100
AcDbArc
 50
269.2933845108
 51
319.4183892653
  0
LINE
  5
7D
330
1F
100
AcDbEntity
  8
0
  6
Continuous
 62
     7
370
    25
100
AcDbLine
 10
0.1128797172
 20
0.191107161
 30
0.0
 11
0.1211797173
 21
0.191107161
 31
0.0
  0
LINE
  5
7E
330
1F
100
AcDbEntity
  8
0
  6
Continuous
 62
     7
370
    25
100
AcDbLine
 10
0.1211797173
 20
0.1917811607
 30
0.0
 11
0.1128797172
 21
0.1917811607
 31
0.0
  0
LINE
  5
7F
330
1F
100
AcDbEntity
  8
0
  6
Continuous
 62
     7
370
    25
100
AcDbLine
 10
0.1247171075
 20
0.1987216412
 30
0.0
 11
0.1222793086
 21
0.195753883
 31
0.0
  0
LINE
  5
80
330
1F
100
AcDbEntity
  8
0
  6
Continuous
 62
     7
370
    25
100
AcDbLine
 10
0.1228001256
 20
0.1953260695
 30
0.0
 11
0.1246927173
 21
0.1976300942
 31
0.0
  0
LINE
  5
81
330
1F
100
AcDbEntity
  8
0
  6
Continuous
 62
     7
370
    25
100
AcDbLine
 10
0.1093667172
 20
0.1878585624
 30
0.0
 11
0.1113303451
 21
0.1865245949
 31
0.0
  0
LINE
  5
82
330
1F
100
AcDbEntity
  8
0
  6
Continuous
 62
     7
370
    25
100
AcDbLine
 10
0.1117090894
 20
0.1870821153
 30
0.0
 11
0.1093667172
 21
0.1886733769
 31
0.0
  0
LINE
  5
83
330
1F
100
AcDbEntity
  8
0
  6
Continuous
 62
     7
370
    25
100
AcDbLine
 10
0.1226365347
 20
0.1803633015
 30
0.0
 11
0.1246927173
 21
0.1809800225
 31
0.0
  0
LINE
  5
84
330
1F
100
AcDbEntity
  8
0
  6
Continuous
 62
     7
370
    25
100
AcDbLine
 10
0.1246927173
 20
0.1816836863
 30
0.0
 11
0.1224429007
 21
0.1810088881
 31
0.0
  0
LINE
  5
85
330
1F
100
AcDbEntity
  8
0
  6
Continuous
 62
     7
370
    25
100
AcDbLine
 10
0.1211797173
 20
0.1952561068
 30
0.0
 11
0.1128797172
 21
0.1952561068
 31
0.0
  0
LINE
  5
86
330
1F
100
AcDbEntity
  8
0
  6
Continuous
 62
     7
370
    25
100
AcDbLine
 10
0.1128797172
 20
0.194582107
 30
0.0
 11
0.1211797173
 21
0.194582107
 31
0.0
  0
ARC
  5
87
330
1F
100
AcDbEntity
  8
0
  6
Continuous
 62
     7
370
    25
100
AcDbCircle
 10
0.121294779
 20
0.1856416737
 30
0.0
 40
0.0047729325999642
100
AcDbArc
 50
268.618629471
 51
283.9189140327
  0
ARC
  5
88
330
1F
100
AcDbEntity
  8
0
  6
Continuous
 62
     7
370
    25
100
AcDbCircle
 10
0.1212905736
 20
0.1856613177
 30
0.0
 40
0.0054663138209395
100
AcDbArc
 50
268.8379678673
 51
284.2544335304
  0
LINE
  5
89
330
1F
100
AcDbEntity
  8
0
  6
Continuous
 62
     7
370
    25
100
AcDbLine
 10
0.1246927173
 20
0.1920288633
 30
0.0
 11
0.1246927173
 21
0.1916258072
 31
0.0
  0
LINE
  5
8A
330
1F
100
AcDbEntity
  8
0
  6
Continuous
 62
     7
370
    25
100
AcDbLine
 10
0.1253667171
 20
0.1916258072
 30
0.0
 11
0.1253667171
 21
0.1920288633
 31
0.0
  0
ARC
  5
8B
330
1F
100
AcDbEntity
  8
0
  6
Continuous
 62
     7
370
    25
100
AcDbCircle
 10
0.1211818181
 20
0.197909521
 30
0.0
 40
0.002042173218363
100
AcDbArc
 50
269.9410592095
 51
322.7979014285
  0
ARC
  5
8C
330
1F
100
AcDbEntity
  8
0
  6
Continuous
 62
     7
370
    25
100
AcDbCircle
 10
0.1211816122
 20
0.1979099397
 30
0.0
 40
0.001368592362154
100
AcDbArc
 50
269.9206703969
 51
322.7497187919
  0
LINE
  5
8D
330
1F
100
AcDbEntity
  8
0
  6
Continuous
 62
     7
370
    25
100
AcDbLine
 10
0.1117884247
 20
0.1970815336
 30
0.0
 11
0.1092984246
 21
0.2003712665
 31
0.0
  0
LINE
  5
8E
330
1F
100
AcDbEntity
  8
0
  6
Continuous
 62
     7
370
    25
100
AcDbLine
 10
0.1093667172
 20
0.199164251
 30
0.0
 11
0.1112510098
 21
0.1966747653
 31
0.0
  0
LINE
  5
8F
330
1F
100
AcDbEntity
  8
0
  6
Continuous
 62
     7
370
    25
100
AcDbLine
 10
0.1086927173
 20
0.1920288633
 30
0.0
 11
0.1086927173
 21
0.1916258072
 31
0.0
  0
LINE
  5
90
330
1F
100
AcDbEntity
  8
0
  6
Continuous
 62
     7
370
    25
100
AcDbLine
 10
0.1093667172
 20
0.1916258072
 30
0.0
 11
0.1093667172
 21
0.1920288633
 31
0.0
  0
ARC
  5
91
330
1F
100
AcDbEntity
  8
0
  6
Continuous
 62
     7
370
    25
100
AcDbCircle
 10
0.1212280534
 20
0.1933897253
 30
0.0
 40
0.0016092906711431
100
AcDbArc
 50
268.2788268875
 51
311.8549284535
  0
ARC
  5
92
330
1F
100
AcDbEntity
  8
0
  6
Continuous
 62
     7
370
    25
100
AcDbCircle
 10
0.1212340825
 20
0.1933721262
 30
0.0
 40
0.0022656175579843
100
AcDbArc
 50
268.6250139663
 51
312.9432473596
  0
LINE
  5
93
330
1F
100
AcDbEntity
  8
0
  6
Continuous
 62
     7
370
    25
100
AcDbLine
 10
0.1253667171
 20
0.1920288633
 30
0.0
 11
0.1253667171
 21
0.1968381321
 31
0.0
  0
LINE
  5
94
330
1F
100
AcDbEntity
  8
0
  6
Continuous
 62
     7
370
    25
100
AcDbLine
 10
0.1246927173
 20
0.1968381321
 30
0.0
 11
0.1246927173
 21
0.1945734393
 31
0.0
  0
LINE
  5
95
330
1F
100
AcDbEntity
  8
0
  6
Continuous
 62
     7
370
    25
100
AcDbLine
 10
0.1246927173
 20
0.194299147
 30
0.0
 11
0.1246927173
 21
0.1920288633
 31
0.0
  0
LINE
  5
96
330
1F
100
AcDbEntity
  8
0
  6
Continuous
 62
     7
370
    25
100
AcDbLine
 10
0.1211797173
 20
0.1965413486
 30
0.0
 11
0.1128797172
 21
0.1965413486
 31
0.0
  0
LINE
  5
97
330
1F
100
AcDbEntity
  8
0
  6
Continuous
 62
     7
370
    25
100
AcDbLine
 10
0.1128797172
 20
0.1958673488
 30
0.0
 11
0.1211797173
 21
0.1958673488
 31
0.0
  0
LINE
  5
98
330
1F
100
AcDbEntity
  8
0
  6
Continuous
 62
     7
370
    25
100
AcDbLine
 10
0.1117801262
 20
0.195753883
 30
0.0
 11
0.1093423271
 21
0.1987216412
 31
0.0
  0
LINE
  5
99
330
1F
100
AcDbEntity
  8
0
  6
Continuous
 62
     7
370
    25
100
AcDbLine
 10
0.1093667172
 20
0.1976300942
 30
0.0
 11
0.1112593086
 21
0.1953260695
 31
0.0
  0
LINE
  5
9A
330
1F
100
AcDbEntity
  8
0
  6
Continuous
 62
     7
370
    25
100
AcDbLine
 10
0.1093667172
 20
0.1920288633
 30
0.0
 11
0.1093667172
 21
0.194299147
 31
0.0
  0
LINE
  5
9B
330
1F
100
AcDbEntity
  8
0
  6
Continuous
 62
     7
370
    25
100
AcDbLine
 10
0.1093667172
 20
0.1945734393
 30
0.0
 11
0.1093667172
 21
0.1968381321
 31
0.0
  0
LINE
  5
9C
330
1F
100
AcDbEntity
  8
0
  6
Continuous
 62
     7
370
    25
100
AcDbLine
 10
0.1086927173
 20
0.1968381321
 30
0.0
 11
0.1086927173
 21
0.1920288633
 31
0.0
  0
ARC
  5
9D
330
1F
100
AcDbEntity
  8
0
  6
Continuous
 62
     7
370
    25
100
AcDbCircle
 10
0.112860156
 20
0.1966761709
 30
0.0
 40
0.0020941552509778
100
AcDbArc
 50
220.1431673863
 51
270.5351981271
  0
ARC
  5
9E
330
1F
100
AcDbEntity
  8
0
  6
Continuous
 62
     7
370
    25
100
AcDbCircle
 10
0.1128587172
 20
0.1966731075
 30
0.0
 40
0.0014171563239969
100
AcDbArc
 50
220.4391512694
 51
270.849063286
  0
LINE
  5
9F
330
1F
100
AcDbEntity
  8
0
  6
Continuous
 62
     7
370
    25
100
AcDbLine
 10
0.1246927173
 20
0.1790062266
 30
0.0
 11
0.1246927173
 21
0.1785423586
 31
0.0
  0
LINE
  5
A0
330
1F
100
AcDbEntity
  8
0
  6
Continuous
 62
     7
370
    25
100
AcDbLine
 10
0.1253667171
 20
0.1785423586
 30
0.0
 11
0.1253667171
 21
0.1790062266
 31
0.0
  0
LINE
  5
A1
330
1F
100
AcDbEntity
  8
0
  6
Continuous
 62
     7
370
    25
100
AcDbLine
 10
0.1093667172
 20
0.1809800225
 30
0.0
 11
0.1114229004
 21
0.1803633015
 31
0.0
  0
LINE
  5
A2
330
1F
100
AcDbEntity
  8
0
  6
Continuous
 62
     7
370
    25
100
AcDbLine
 10
0.1116165341
 20
0.1810088881
 30
0.0
 11
0.1093667172
 21
0.1816836863
 31
0.0
  0
LINE
  5
A3
330
1F
100
AcDbEntity
  8
0
  6
Continuous
 62
     7
370
    25
100
AcDbLine
 10
0.1093667172
 20
0.1936219524
 30
0.0
 11
0.1112818469
 21
0.1917136287
 31
0.0
  0
LINE
  5
A4
330
1F
100
AcDbEntity
  8
0
  6
Continuous
 62
     7
370
    25
100
AcDbLine
 10
0.1117575876
 20
0.1921910667
 30
0.0
 11
0.1093627574
 21
0.1945773851
 31
0.0
  0
LINE
  5
A5
330
1F
100
AcDbEntity
  8
0
  6
Continuous
 62
     7
370
    25
100
AcDbLine
 10
0.1086927173
 20
0.1790062266
 30
0.0
 11
0.1086927173
 21
0.1785423586
 31
0.0
  0
LINE
  5
A6
330
1F
100
AcDbEntity
  8
0
  6
Continuous
 62
     7
370
    25
100
AcDbLine
 10
0.1093667172
 20
0.1785423586
 30
0.0
 11
0.1093667172
 21
0.1790062266
 31
0.0
  0
LINE
  5
A7
330
1F
100
AcDbEntity
  8
0
  6
Continuous
 62
     7
370
    25
100
AcDbLine
 10
0.1246927173
 20
0.1971211731
 30
0.0
 11
0.1246927173
 21
0.1968381321
 31
0.0
  0
LINE
  5
A8
330
1F
100
AcDbEntity
  8
0
  6
Continuous
 62
     7
370
    25
100
AcDbLine
 10
0.1253667171
 20
0.1968381321
 30
0.0
 11
0.1253667171
 21
0.1971211731
 31
0.0
  0
LINE
  5
A9
330
1F
100
AcDbEntity
  8
0
  6
Continuous
 62
     7
370
    25
100
AcDbLine
 10
0.1227775879
 20
0.1917136287
 30
0.0
 11
0.1246927173
 21
0.1936219524
 31
0.0
  0
LINE
  5
AA
330
1F
100
AcDbEntity
  8
0
  6
Continuous
 62
     7
370
    25
100
AcDbLine
 10
0.1246966775
 20
0.1945773851
 30
0.0
 11
0.1223018475
 21
0.1921910667
 31
0.0
  0
LINE
  5
AB
330
1F
100
AcDbEntity
  8
0
  6
Continuous
 62
     7
370
    25
100
AcDbLine
 10
0.1253667171
 20
0.1772515816
 30
0.0
 11
0.1253667171
 21
0.1785423586
 31
0.0
  0
LINE
  5
AC
330
1F
100
AcDbEntity
  8
0
  6
Continuous
 62
     7
370
    25
100
AcDbLine
 10
0.1246927173
 20
0.1785423586
 30
0.0
 11
0.1246927173
 21
0.1772515816
 31
0.0
  0
ARC
  5
AD
330
1F
100
AcDbEntity
  8
0
  6
Continuous
 62
     7
370
    25
100
AcDbCircle
 10
0.1128776539
 20
0.1979095961
 30
0.0
 40
0.0020422483008818
100
AcDbArc
 50
217.2031455351
 51
270.0578854827
  0
ARC
  5
AE
330
1F
100
AcDbEntity
  8
0
  6
Continuous
 62
     7
370
    25
100
AcDbCircle
 10
0.1128773461
 20
0.1979089764
 30
0.0
 40
0.0013676298646311
100
AcDbArc
 50
217.2302502309
 51
270.0993356966
  0
LINE
  5
AF
330
1F
100
AcDbEntity
  8
0
  6
Continuous
 62
     7
370
    25
100
AcDbLine
 10
0.1253667171
 20
0.1790062266
 30
0.0
 11
0.1253667171
 21
0.1849604612
 31
0.0
  0
LINE
  5
B0
330
1F
100
AcDbEntity
  8
0
  6
Continuous
 62
     7
370
    25
100
AcDbLine
 10
0.1246927173
 20
0.1849604612
 30
0.0
 11
0.1246927173
 21
0.1816354727
 31
0.0
  0
LINE
  5
B1
330
1F
100
AcDbEntity
  8
0
  6
Continuous
 62
     7
370
    25
100
AcDbLine
 10
0.1246927173
 20
0.1812458088
 30
0.0
 11
0.1246927173
 21
0.1790062266
 31
0.0
  0
ARC
  5
B2
330
1F
100
AcDbEntity
  8
0
  6
Continuous
 62
     7
370
    25
100
AcDbCircle
 10
0.1127955067
 20
0.1889732528
 30
0.0
 40
0.0021809867935069
100
AcDbArc
 50
240.1235690884
 51
272.2128067846
  0
ARC
  5
B3
330
1F
100
AcDbEntity
  8
0
  6
Continuous
 62
     7
370
    25
100
AcDbCircle
 10
0.1127901292
 20
0.1889450887
 30
0.0
 40
0.0028266162931833
100
AcDbArc
 50
238.9060948148
 51
271.8162618956
  0
LINE
  5
B4
330
1F
100
AcDbEntity
  8
0
  6
Continuous
 62
     7
370
    25
100
AcDbLine
 10
0.1086927173
 20
0.1971211731
 30
0.0
 11
0.1086927173
 21
0.1968381321
 31
0.0
  0
LINE
  5
B5
330
1F
100
AcDbEntity
  8
0
  6
Continuous
 62
     7
370
    25
100
AcDbLine
 10
0.1093667172
 20
0.1968381321
 30
0.0
 11
0.1093667172
 21
0.1971211731
 31
0.0
  0
LINE
  5
B6
330
1F
100
AcDbEntity
  8
0
  6
Continuous
 62
     7
370
    25
100
AcDbLine
 10
0.1093667172
 20
0.1790062266
 30
0.0
 11
0.1093667172
 21
0.1812458088
 31
0.0
  0
LINE
  5
B7
330
1F
100
AcDbEntity
  8
0
  6
Continuous
 62
     7
370
    25
100
AcDbLine
 10
0.1093667172
 20
0.1816354727
 30
0.0
 11
0.1093667172
 21
0.1849604612
 31
0.0
  0
LINE
  5
B8
330
1F
100
AcDbEntity
  8
0
  6
Continuous
 62
     7
370
    25
100
AcDbLine
 10
0.1086927173
 20
0.1849604612
 30
0.0
 11
0.1086927173
 21
0.1790062266
 31
0.0
  0
LINE
  5
B9
330
1F
100
AcDbEntity
  8
0
  6
Continuous
 62
     7
370
    25
100
AcDbLine
 10
0.1253667171
 20
0.1971211731
 30
0.0
 11
0.1253667171
 21
0.200021392
 31
0.0
  0
LINE
  5
BA
330
1F
100
AcDbEntity
  8
0
  6
Continuous
 62
     7
370
    25
100
AcDbLine
 10
0.1246927173
 20
0.200021392
 30
0.0
 11
0.1246927173
 21
0.1986919486
 31
0.0
  0
LINE
  5
BB
330
1F
100
AcDbEntity
  8
0
  6
Continuous
 62
     7
370
    25
100
AcDbLine
 10
0.1246927173
 20
0.1984892952
 30
0.0
 11
0.1246927173
 21
0.1971211731
 31
0.0
  0
LINE
  5
BC
330
1F
100
AcDbEntity
  8
0
  6
Continuous
 62
     7
370
    25
100
AcDbLine
 10
0.1128797172
 20
0.1861198925
 30
0.0
 11
0.1211797173
 21
0.1861198925
 31
0.0
  0
LINE
  5
BD
330
1F
100
AcDbEntity
  8
0
  6
Continuous
 62
     7
370
    25
100
AcDbLine
 10
0.1211797173
 20
0.1867938923
 30
0.0
 11
0.1128797172
 21
0.1867938923
 31
0.0
  0
LINE
  5
BE
330
1F
100
AcDbEntity
  8
0
  6
Continuous
 62
     7
370
    25
100
AcDbLine
 10
0.1093667172
 20
0.1971211731
 30
0.0
 11
0.1093667172
 21
0.1984892952
 31
0.0
  0
LINE
  5
BF
330
1F
100
AcDbEntity
  8
0
  6
Continuous
 62
     7
370
    25
100
AcDbLine
 10
0.1093667172
 20
0.1986919486
 30
0.0
 11
0.1093667172
 21
0.200021392
 31
0.0
  0
LINE
  5
C0
330
1F
100
AcDbEntity
  8
0
  6
Continuous
 62
     7
370
    25
100
AcDbLine
 10
0.1086927173
 20
0.200021392
 30
0.0
 11
0.1086927173
 21
0.1971211731
 31
0.0
  0
ARC
  5
C1
330
1F
100
AcDbEntity
  8
0
  6
Continuous
 62
     7
370
    25
100
AcDbCircle
 10
0.1127726083
 20
0.1857140689
 30
0.0
 40
0.0048451247125814
100
AcDbArc
 50
256.1957399039
 51
271.266713658
  0
ARC
  5
C2
330
1F
100
AcDbEntity
  8
0
  6
Continuous
 62
     7
370
    25
100
AcDbCircle
 10
0.1127705617
 20
0.1856761345
 30
0.0
 40
0.0054810934141405
100
AcDbArc
 50
255.7664777383
 51
271.1411155538
  0
LINE
  5
C3
330
1F
100
AcDbEntity
  8
0
  6
Continuous
 62
     7
370
    25
100
AcDbLine
 10
0.1246927173
 20
0.1853640055
 30
0.0
 11
0.1246927173
 21
0.1849604612
 31
0.0
  0
LINE
  5
C4
330
1F
100
AcDbEntity
  8
0
  6
Continuous
 62
     7
370
    25
100
AcDbLine
 10
0.1253667171
 20
0.1849604612
 30
0.0
 11
0.1253667171
 21
0.1853640055
 31
0.0
  0
LINE
  5
C5
330
1F
100
AcDbEntity
  8
0
  6
Continuous
 62
     7
370
    25
100
AcDbLine
 10
0.12272909
 20
0.1865245949
 30
0.0
 11
0.1246927173
 21
0.1878585624
 31
0.0
  0
LINE
  5
C6
330
1F
100
AcDbEntity
  8
0
  6
Continuous
 62
     7
370
    25
100
AcDbLine
 10
0.1246927173
 20
0.1886733769
 30
0.0
 11
0.1223503454
 21
0.1870821153
 31
0.0
  0
LINE
  5
C7
330
1F
100
AcDbEntity
  8
0
  6
Continuous
 62
     7
370
    25
100
AcDbLine
 10
0.1086927173
 20
0.1853640055
 30
0.0
 11
0.1086927173
 21
0.1849604612
 31
0.0
  0
LINE
  5
C8
330
1F
100
AcDbEntity
  8
0
  6
Continuous
 62
     7
370
    25
100
AcDbLine
 10
0.1093667172
 20
0.1849604612
 30
0.0
 11
0.1093667172
 21
0.1853640055
 31
0.0
  0
ARC
  5
C9
330
1F
100
AcDbEntity
  8
0
  6
Continuous
 62
     7
370
    25
100
AcDbCircle
 10
0.1128270381
 20
0.1933778347
 30
0.0
 40
0.0015975427398996
100
AcDbArc
 50
227.9765516441
 51
271.8896733978
  0
ARC
  5
CA
330
1F
100
AcDbEntity
  8
0
  6
Continuous
 62
     7
370
    25
100
AcDbCircle
 10
0.1128286638
 20
0.193380851
 30
0.0
 40
0.0022742631900076
100
AcDbArc
 50
227.1454305082
 51
271.2863010754
  0
LINE
  5
CB
330
1F
100
AcDbEntity
  8
0
  6
Continuous
 62
     7
370
    25
100
AcDbLine
 10
0.1093667172
 20
0.1772515816
 30
0.0
 11
0.1093667172
 21
0.1785423586
 31
0.0
  0
LINE
  5
CC
330
1F
100
AcDbEntity
  8
0
  6
Continuous
 62
     7
370
    25
100
AcDbLine
 10
0.1086927173
 20
0.1785423586
 30
0.0
 11
0.1086927173
 21
0.1772515816
 31
0.0
  0
LINE
  5
CD
330
1F
100
AcDbEntity
  8
0
  6
Continuous
 62
     7
370
    25
100
AcDbLine
 10
0.1246927173
 20
0.2001678812
 30
0.0
 11
0.1246927173
 21
0.200021392
 31
0.0
  0
LINE
  5
CE
330
1F
100
AcDbEntity
  8
0
  6
Continuous
 62
     7
370
    25
100
AcDbLine
 10
0.1253667171
 20
0.200021392
 30
0.0
 11
0.1253667171
 21
0.2001678812
 31
0.0
  0
LINE
  5
CF
330
1F
100
AcDbEntity
  8
0
  6
Continuous
 62
     7
370
    25
100
AcDbLine
 10
0.1128797172
 20
0.1801961281
 30
0.0
 11
0.1211797173
 21
0.1801961281
 31
0.0
  0
LINE
  5
D0
330
1F
100
AcDbEntity
  8
0
  6
Continuous
 62
     7
370
    25
100
AcDbLine
 10
0.1211797173
 20
0.1808701282
 30
0.0
 11
0.1128797172
 21
0.1808701282
 31
0.0
  0
LINE
  5
D1
330
1F
100
AcDbEntity
  8
0
  6
Continuous
 62
     7
370
    25
100
AcDbLine
 10
0.1253667171
 20
0.1853640055
 30
0.0
 11
0.1253667171
 21
0.1916258072
 31
0.0
  0
LINE
  5
D2
330
1F
100
AcDbEntity
  8
0
  6
Continuous
 62
     7
370
    25
100
AcDbLine
 10
0.1246927173
 20
0.1916258072
 30
0.0
 11
0.1246927173
 21
0.1886689245
 31
0.0
  0
LINE
  5
D3
330
1F
100
AcDbEntity
  8
0
  6
Continuous
 62
     7
370
    25
100
AcDbLine
 10
0.1246927173
 20
0.1883211278
 30
0.0
 11
0.1246927173
 21
0.1853640055
 31
0.0
  0
ARC
  5
D4
330
1F
100
AcDbEntity
  8
0
  6
Continuous
 62
     7
370
    25
100
AcDbCircle
 10
0.1212661105
 20
0.1889643885
 30
0.0
 40
0.0021722148595243
100
AcDbArc
 50
267.7206341592
 51
299.9429831956
  0
ARC
  5
D5
330
1F
100
AcDbEntity
  8
0
  6
Continuous
 62
     7
370
    25
100
AcDbCircle
 10
0.1212649672
 20
0.1889616991
 30
0.0
 40
0.0028430849541648
100
AcDbArc
 50
268.2817286069
 51
300.9959039033
  0
LINE
  5
D6
330
1F
100
AcDbEntity
  8
0
  6
Continuous
 62
     7
370
    25
100
AcDbLine
 10
0.1247610099
 20
0.2003712665
 30
0.0
 11
0.1222710104
 21
0.1970815336
 31
0.0
  0
LINE
  5
D7
330
1F
100
AcDbEntity
  8
0
  6
Continuous
 62
     7
370
    25
100
AcDbLine
 10
0.122808425
 20
0.1966747653
 30
0.0
 11
0.1246927173
 21
0.199164251
 31
0.0
  0
LINE
  5
D8
330
1F
100
AcDbEntity
  8
0
  6
Continuous
 62
     7
370
    25
100
AcDbLine
 10
0.1086927173
 20
0.2001678812
 30
0.0
 11
0.1086927173
 21
0.200021392
 31
0.0
  0
LINE
  5
D9
330
1F
100
AcDbEntity
  8
0
  6
Continuous
 62
     7
370
    25
100
AcDbLine
 10
0.1093667172
 20
0.200021392
 30
0.0
 11
0.1093667172
 21
0.2001678812
 31
0.0
  0
ARC
  5
DA
330
1F
100
AcDbEntity
  8
0
  6
Continuous
 62
     7
370
    25
100
AcDbCircle
 10
0.1284179429
 20
0.1725477857
 30
0.0
 40
0.000167
100
AcDbArc
 50
270.0
 51
90.0
  0
LINE
  5
DB
330
1F
100
AcDbEntity
  8
0
  6
Continuous
 62
     7
370
    25
100
AcDbLine
 10
0.1284179433
 20
0.1727147858
 30
0.0
 11
0.1284010537
 21
0.1727147858
 31
0.0
  0
LINE
  5
DC
330
1F
100
AcDbEntity
  8
0
  6
Continuous
 62
     7
370
    25
100
AcDbLine
 10
0.1284010537
 20
0.1723807859
 30
0.0
 11
0.1284179433
 21
0.1723807859
 31
0.0
  0
ARC
  5
DD
330
1F
100
AcDbEntity
  8
0
  6
Continuous
 62
     7
370
    25
100
AcDbCircle
 10
0.1284010548
 20
0.1725477857
 30
0.0
 40
0.000167
100
AcDbArc
 50
270.0
 51
90.0
  0
LINE
  5
DE
330
1F
100
AcDbEntity
  8
0
  6
Continuous
 62
     7
370
    25
100
AcDbLine
 10
0.1284010537
 20
0.1727147858
 30
0.0
 11
0.1275200946
 21
0.1727147858
 31
0.0
  0
LINE
  5
DF
330
1F
100
AcDbEntity
  8
0
  6
Continuous
 62
     7
370
    25
100
AcDbLine
 10
0.1275204058
 20
0.1723807859
 30
0.0
 11
0.1284010537
 21
0.1723807859
 31
0.0
  0
LINE
  5
E0
330
1F
100
AcDbEntity
  8
0
  6
Continuous
 62
     7
370
    25
100
AcDbLine
 10
0.1275192971
 20
0.1727147858
 30
0.0
 11
0.1267197175
 21
0.1727147858
 31
0.0
  0
LINE
  5
E1
330
1F
100
AcDbEntity
  8
0
  6
Continuous
 62
     7
370
    25
100
AcDbLine
 10
0.1267197175
 20
0.1723807859
 30
0.0
 11
0.1275193663
 21
0.1723807859
 31
0.0
  0
LINE
  5
E2
330
1F
100
AcDbEntity
  8
0
  6
Continuous
 62
     7
370
    25
100
AcDbLine
 10
0.1118297173
 20
0.1194228803
 30
0.0
 11
0.1122097172
 21
0.1194228803
 31
0.0
  0
LINE
  5
E3
330
1F
100
AcDbEntity
  8
0
  6
Continuous
 62
     7
370
    25
100
AcDbLine
 10
0.1218497176
 20
0.1194228803
 30
0.0
 11
0.1222297175
 21
0.1194228803
 31
0.0
  0
LINE
  5
E4
330
1F
100
AcDbEntity
  8
0
  6
Continuous
 62
     7
370
    25
100
AcDbLine
 10
0.1122097172
 20
0.1202228796
 30
0.0
 11
0.1218497176
 21
0.1202228796
 31
0.0
  0
LINE
  5
E5
330
1F
100
AcDbEntity
  8
0
  6
Continuous
 62
     7
370
    25
100
AcDbLine
 10
0.1103187994
 20
0.1594356882
 30
0.0
 11
0.1237406356
 21
0.1594356882
 31
0.0
  0
LINE
  5
E6
330
1F
100
AcDbEntity
  8
0
  6
Continuous
 62
     7
370
    25
100
AcDbLine
 10
0.1234366913
 20
0.160109688
 30
0.0
 11
0.1106227429
 21
0.160109688
 31
0.0
  0
LINE
  5
E7
330
1F
100
AcDbEntity
  8
0
  6
Continuous
 62
     7
370
    25
100
AcDbLine
 10
0.1105297173
 20
0.1582726883
 30
0.0
 11
0.1105297173
 21
0.1588836884
 31
0.0
  0
LINE
  5
E8
330
1F
100
AcDbEntity
  8
0
  6
Continuous
 62
     7
370
    25
100
AcDbLine
 10
0.1075297173
 20
0.1582726883
 30
0.0
 11
0.1105297173
 21
0.1582726883
 31
0.0
  0
LINE
  5
E9
330
1F
100
AcDbEntity
  8
0
  6
Continuous
 62
     7
370
    25
100
AcDbLine
 10
0.1075297173
 20
0.1584934877
 30
0.0
 11
0.1075297173
 21
0.1582726883
 31
0.0
  0
LWPOLYLINE
  5
EA
330
1F
100
AcDbEntity
  8
0
  6
Continuous
 62
     7
370
    25
100
AcDbPolyline
 90
        3
 70
   128
 43
0.0
 10
0.1102496309
 20
0.1588327884
 10
0.1102658638
 20
0.1588596093
 10
0.1102751702
 20
0.1588868653
  0
ARC
  5
EB
330
1F
100
AcDbEntity
  8
0
  6
Continuous
 62
     7
370
    25
100
AcDbCircle
 10
0.1090297173
 20
0.159772688
 30
0.0
 40
0.0015400000000001
100
AcDbArc
 50
316.0130366871
 51
322.3870484363
  0
LINE
  5
EC
330
1F
100
AcDbEntity
  8
0
  6
Continuous
 62
     7
370
    25
100
AcDbLine
 10
0.126529717
 20
0.177272688
 30
0.0
 11
0.1253667171
 21
0.177272688
 31
0.0
  0
LINE
  5
ED
330
1F
100
AcDbEntity
  8
0
  6
Continuous
 62
     7
370
    25
100
AcDbLine
 10
0.1246927173
 20
0.177272688
 30
0.0
 11
0.1235297175
 21
0.177272688
 31
0.0
  0
LINE
  5
EE
330
1F
100
AcDbEntity
  8
0
  6
Continuous
 62
     7
370
    25
100
AcDbLine
 10
0.126529717
 20
0.177051888
 30
0.0
 11
0.126529717
 21
0.177272688
 31
0.0
  0
LINE
  5
EF
330
1F
100
AcDbEntity
  8
0
  6
Continuous
 62
     7
370
    25
100
AcDbLine
 10
0.1235297175
 20
0.177272688
 30
0.0
 11
0.1235297175
 21
0.176661688
 31
0.0
  0
ARC
  5
F0
330
1F
100
AcDbEntity
  8
0
  6
Continuous
 62
     7
370
    25
100
AcDbCircle
 10
0.1250297173
 20
0.175772688
 30
0.0
 40
0.00154
100
AcDbArc
 50
136.0130366871
 51
142.3870484363
  0
LWPOLYLINE
  5
F1
330
1F
100
AcDbEntity
  8
0
  6
Continuous
 62
     7
370
    25
100
AcDbPolyline
 90
        3
 70
   128
 43
0.0
 10
0.1238098033
 20
0.1767125873
 10
0.1237935705
 20
0.1766857672
 10
0.1237842639
 20
0.1766585106
  0
LINE
  5
F2
330
1F
100
AcDbEntity
  8
0
  6
Continuous
 62
     7
370
    25
100
AcDbLine
 10
0.1105297173
 20
0.176661688
 30
0.0
 11
0.1105297173
 21
0.177272688
 31
0.0
  0
LWPOLYLINE
  5
F3
330
1F
100
AcDbEntity
  8
0
  6
Continuous
 62
     7
370
    25
100
AcDbPolyline
 90
        3
 70
   128
 43
0.0
 10
0.1102751702
 20
0.1766585106
 10
0.1102658638
 20
0.1766857672
 10
0.1102496309
 20
0.1767125873
  0
ARC
  5
F4
330
1F
100
AcDbEntity
  8
0
  6
Continuous
 62
     7
370
    25
100
AcDbCircle
 10
0.1090297173
 20
0.175772688
 30
0.0
 40
0.00154
100
AcDbArc
 50
37.6129515637
 51
43.986963313
  0
LINE
  5
F5
330
1F
100
AcDbEntity
  8
0
  6
Continuous
 62
     7
370
    25
100
AcDbLine
 10
0.1075297173
 20
0.177272688
 30
0.0
 11
0.1075297173
 21
0.177051888
 31
0.0
  0
LINE
  5
F6
330
1F
100
AcDbEntity
  8
0
  6
Continuous
 62
     7
370
    25
100
AcDbLine
 10
0.1105297173
 20
0.177272688
 30
0.0
 11
0.1093667172
 21
0.177272688
 31
0.0
  0
LINE
  5
F7
330
1F
100
AcDbEntity
  8
0
  6
Continuous
 62
     7
370
    25
100
AcDbLine
 10
0.1086927173
 20
0.177272688
 30
0.0
 11
0.1075297173
 21
0.177272688
 31
0.0
  0
LINE
  5
F8
330
1F
100
AcDbEntity
  8
0
  6
Continuous
 62
     7
370
    25
100
AcDbLine
 10
0.126529717
 20
0.1582726883
 30
0.0
 11
0.126529717
 21
0.1584934877
 31
0.0
  0
LINE
  5
F9
330
1F
100
AcDbEntity
  8
0
  6
Continuous
 62
     7
370
    25
100
AcDbLine
 10
0.1235297175
 20
0.1582726883
 30
0.0
 11
0.126529717
 21
0.1582726883
 31
0.0
  0
LWPOLYLINE
  5
FA
330
1F
100
AcDbEntity
  8
0
  6
Continuous
 62
     7
370
    25
100
AcDbPolyline
 90
        3
 70
   128
 43
0.0
 10
0.1237842639
 20
0.1588868653
 10
0.1237935705
 20
0.1588596093
 10
0.1238098033
 20
0.1588327884
  0
ARC
  5
FB
330
1F
100
AcDbEntity
  8
0
  6
Continuous
 62
     7
370
    25
100
AcDbCircle
 10
0.1250297173
 20
0.159772688
 30
0.0
 40
0.00154
100
AcDbArc
 50
217.6129515637
 51
223.9869633129
  0
LINE
  5
FC
330
1F
100
AcDbEntity
  8
0
  6
Continuous
 62
     7
370
    25
100
AcDbLine
 10
0.1235297175
 20
0.1588836884
 30
0.0
 11
0.1235297175
 21
0.1582726883
 31
0.0
  0
LINE
  5
FD
330
1F
100
AcDbEntity
  8
0
  6
Continuous
 62
     7
370
    25
100
AcDbLine
 10
0.1115055342
 20
0.1588326882
 30
0.0
 11
0.1115055342
 21
0.1588836884
 31
0.0
  0
ARC
  5
FE
330
1F
100
AcDbEntity
  8
0
  6
Continuous
 62
     7
370
    25
100
AcDbCircle
 10
0.1363823363
 20
0.1677678665
 30
0.0
 40
0.0296494218787891
100
AcDbArc
 50
168.3882732611
 51
191.6117267389
  0
ARC
  5
FF
330
1F
100
AcDbEntity
  8
0
  6
Continuous
 62
     7
370
    25
100
AcDbCircle
 10
0.1090297173
 20
0.1851789174
 30
0.0
 40
0.0003844822443367
100
AcDbArc
 50
28.7765975679
 51
151.2234024321
  0
ARC
  5
100
330
1F
100
AcDbEntity
  8
0
  6
Continuous
 62
     7
370
    25
100
AcDbCircle
 10
0.1090995628
 20
0.1915184358
 30
0.0
 40
0.0002879238107496
100
AcDbArc
 50
21.8955770196
 51
104.0390632636
  0
ARC
  5
101
330
1F
100
AcDbEntity
  8
0
  6
Continuous
 62
     7
370
    25
100
AcDbCircle
 10
0.1089719244
 20
0.1914948143
 30
0.0
 40
0.0003084084107995
100
AcDbArc
 50
79.1994512312
 51
154.8659033573
  0
ARC
  5
102
330
1F
100
AcDbEntity
  8
0
  6
Continuous
 62
     7
370
    25
100
AcDbCircle
 10
0.1227620717
 20
0.1958106831
 30
0.0
 40
0.0004860931279913
100
AcDbArc
 50
186.7103501931
 51
274.4912705757
  0
LINE
  5
103
330
1F
100
AcDbEntity
  8
0
  6
Continuous
 62
     7
370
    25
100
AcDbLine
 10
0.1211797173
 20
0.194582107
 30
0.0
 11
0.1211797173
 21
0.1952561068
 31
0.0
  0
LINE
  5
104
330
1F
100
AcDbEntity
  8
0
  6
Continuous
 62
     7
370
    25
100
AcDbLine
 10
0.1128797172
 20
0.191107161
 30
0.0
 11
0.1128797172
 21
0.1917811607
 31
0.0
  0
LINE
  5
105
330
1F
100
AcDbEntity
  8
0
  6
Continuous
 62
     7
370
    25
100
AcDbLine
 10
0.1211797173
 20
0.1917811607
 30
0.0
 11
0.1211797173
 21
0.191107161
 31
0.0
  0
ARC
  5
106
330
1F
100
AcDbEntity
  8
0
  6
Continuous
 62
     7
370
    25
100
AcDbCircle
 10
0.1250297173
 20
0.200167882
 30
0.0
 40
0.000337
100
AcDbArc
 50
0.0
 51
180.0
  0
ARC
  5
107
330
1F
100
AcDbEntity
  8
0
  6
Continuous
 62
     7
370
    25
100
AcDbCircle
 10
0.1090297173
 20
0.200167882
 30
0.0
 40
0.000337
100
AcDbArc
 50
0.0
 51
180.0
  0
ELLIPSE
  5
108
330
1F
100
AcDbEntity
  8
0
  6
Continuous
 62
     7
370
    25
100
AcDbEllipse
 10
0.1250297173
 20
0.1985712829
 30
0.0
 11
0.0003308462714919635
 21
-0.0001184622048368555
 31
0.0
210
0.0
220
0.0
230
1.0
 40
0.5411623915
 41
2.689486406172897
 42
2.950196899107596
  0
ELLIPSE
  5
109
330
1F
100
AcDbEntity
  8
0
  6
Continuous
 62
     7
370
    25
100
AcDbEllipse
 10
0.1250297173
 20
0.1985712829
 30
0.0
 11
0.0001472222015778679
 21
0.0004111684105487512
 31
0.0
210
0.0
220
0.0
230
1.0
 40
0.7372678736
 41
1.379400572312764
 42
2.022902574211695
  0
ARC
  5
10A
330
1F
100
AcDbEntity
  8
0
  6
Continuous
 62
     7
370
    25
100
AcDbCircle
 10
0.1227621009
 20
0.1958107047
 30
0.0
 40
0.0004861245797086
100
AcDbArc
 50
186.712473241
 51
274.4862669587
  0
ELLIPSE
  5
10B
330
1F
100
AcDbEntity
  8
0
  6
Continuous
 62
     7
370
    25
100
AcDbEllipse
 10
0.1090297173
 20
0.1884949065
 30
0.0
 11
0.0003360778586704028
 21
0.0001779825296105986
 31
0.0
210
0.0
220
0.0
230
1.0
 40
0.1399761425
 41
5.565689788362016
 42
6.209191074385518
  0
ELLIPSE
  5
10C
330
1F
100
AcDbEntity
  8
0
  6
Continuous
 62
     7
370
    25
100
AcDbEllipse
 10
0.1090297173
 20
0.1884949065
 30
0.0
 11
-0.0002215774065394138
 21
0.0004183964599358269
 31
0.0
210
0.0
220
0.0
230
1.0
 40
0.606874788
 41
3.994893461566779
 42
4.638394747590132
  0
ARC
  5
10D
330
1F
100
AcDbEntity
  8
0
  6
Continuous
 62
     7
370
    25
100
AcDbCircle
 10
0.1114389983
 20
0.1868581905
 30
0.0
 40
0.0003508440145508
100
AcDbArc
 50
251.9593932114
 51
39.6611596771
  0
ELLIPSE
  5
10E
330
1F
100
AcDbEntity
  8
0
  6
Continuous
 62
     7
370
    25
100
AcDbEllipse
 10
0.1250297173
 20
0.1814329324
 30
0.0
 11
0.0002658420190303767
 21
0.0003572774880639951
 31
0.0
210
0.0
220
0.0
230
1.0
 40
0.5797061584
 41
1.835640884716379
 42
2.479729810826127
  0
ELLIPSE
  5
10F
330
1F
100
AcDbEntity
  8
0
  6
Continuous
 62
     7
370
    25
100
AcDbEllipse
 10
0.1250297173
 20
0.1814329324
 30
0.0
 11
0.000325249888717738
 21
-0.0002420110138331433
 31
0.0
210
0.0
220
0.0
230
1.0
 40
0.36449939
 41
3.406437211511135
 42
4.050526137620913
  0
ARC
  5
110
330
1F
100
AcDbEntity
  8
0
  6
Continuous
 62
     7
370
    25
100
AcDbCircle
 10
0.1225501153
 20
0.1807460607
 30
0.0
 40
0.0002838542053582
100
AcDbArc
 50
112.1919170764
 51
192.1959331761
  0
ARC
  5
111
330
1F
100
AcDbEntity
  8
0
  6
Continuous
 62
     7
370
    25
100
AcDbCircle
 10
0.122596337
 20
0.1806844694
 30
0.0
 40
0.0003236737005463
100
AcDbArc
 50
179.7122510829
 51
277.1340936323
  0
LINE
  5
112
330
1F
100
AcDbEntity
  8
0
  6
Continuous
 62
     7
370
    25
100
AcDbLine
 10
0.1128797172
 20
0.194582107
 30
0.0
 11
0.1128797172
 21
0.1952561068
 31
0.0
  0
LINE
  5
113
330
1F
100
AcDbEntity
  8
0
  6
Continuous
 62
     7
370
    25
100
AcDbLine
 10
0.1211797173
 20
0.1952561068
 30
0.0
 11
0.1211797173
 21
0.194582107
 31
0.0
  0
LINE
  5
114
330
1F
100
AcDbEntity
  8
0
  6
Continuous
 62
     7
370
    25
100
AcDbLine
 10
0.1211797173
 20
0.1805331283
 30
0.0
 11
0.1211797173
 21
0.1808701282
 31
0.0
  0
LINE
  5
115
330
1F
100
AcDbEntity
  8
0
  6
Continuous
 62
     7
370
    25
100
AcDbLine
 10
0.1211797173
 20
0.1801961281
 30
0.0
 11
0.1211797173
 21
0.1805331283
 31
0.0
  0
ARC
  5
116
330
1F
100
AcDbEntity
  8
0
  6
Continuous
 62
     7
370
    25
100
AcDbCircle
 10
0.1226014439
 20
0.1807045992
 30
0.0
 40
0.0003431053651731
100
AcDbArc
 50
117.5126355627
 51
275.8627370388
  0
ARC
  5
117
330
1F
100
AcDbEntity
  8
0
  6
Continuous
 62
     7
370
    25
100
AcDbCircle
 10
0.1250297172
 20
0.1914407191
 30
0.0
 40
0.0003844821530077
100
AcDbArc
 50
28.7766016176
 51
151.2233983824
  0
ARC
  5
118
330
1F
100
AcDbEntity
  8
0
  6
Continuous
 62
     7
370
    25
100
AcDbCircle
 10
0.1250714087
 20
0.1919851075
 30
0.0
 40
0.0002985324683216
100
AcDbArc
 50
8.428193633
 51
98.0278685817
  0
ARC
  5
119
330
1F
100
AcDbEntity
  8
0
  6
Continuous
 62
     7
370
    25
100
AcDbCircle
 10
0.1249952199
 20
0.191975481
 30
0.0
 40
0.0003071766689089
100
AcDbArc
 50
83.5518310313
 51
169.992106754
  0
ARC
  5
11A
330
1F
100
AcDbEntity
  8
0
  6
Continuous
 62
     7
370
    25
100
AcDbCircle
 10
0.1232476913
 20
0.1978135278
 30
0.0
 40
0.0012205413163176
100
AcDbArc
 50
216.8505049023
 51
248.9064524461
  0
LINE
  5
11B
330
1F
100
AcDbEntity
  8
0
  6
Continuous
 62
     7
370
    25
100
AcDbLine
 10
0.1211797173
 20
0.1958673488
 30
0.0
 11
0.1211797173
 21
0.1965413486
 31
0.0
  0
ARC
  5
11C
330
1F
100
AcDbEntity
  8
0
  6
Continuous
 62
     7
370
    25
100
AcDbCircle
 10
0.110811647
 20
0.1978136388
 30
0.0
 40
0.0012206853154781
100
AcDbArc
 50
291.0959741667
 51
323.148051278
  0
ARC
  5
11D
330
1F
100
AcDbEntity
  8
0
  6
Continuous
 62
     7
370
    25
100
AcDbCircle
 10
0.1090297173
 20
0.1914407186
 30
0.0
 40
0.0003844824758467
100
AcDbArc
 50
28.7766603834
 51
151.2233396166
  0
ARC
  5
11E
330
1F
100
AcDbEntity
  8
0
  6
Continuous
 62
     7
370
    25
100
AcDbCircle
 10
0.1090714083
 20
0.1919851068
 30
0.0
 40
0.0002985330682533
100
AcDbArc
 50
8.4283059758
 51
98.0277683873
  0
ARC
  5
11F
330
1F
100
AcDbEntity
  8
0
  6
Continuous
 62
     7
370
    25
100
AcDbCircle
 10
0.1089952194
 20
0.1919754817
 30
0.0
 40
0.0003071760423805
100
AcDbArc
 50
83.5517006442
 51
169.9922189185
  0
ARC
  5
120
330
1F
100
AcDbEntity
  8
0
  6
Continuous
 62
     7
370
    25
100
AcDbCircle
 10
0.122662018
 20
0.1920742238
 30
0.0
 40
0.0003786489586691
100
AcDbArc
 50
162.0264236318
 51
287.7742265848
  0
LINE
  5
121
330
1F
100
AcDbEntity
  8
0
  6
Continuous
 62
     7
370
    25
100
AcDbLine
 10
0.1211797173
 20
0.191107161
 30
0.0
 11
0.1211797173
 21
0.1917811607
 31
0.0
  0
ARC
  5
122
330
1F
100
AcDbEntity
  8
0
  6
Continuous
 62
     7
370
    25
100
AcDbCircle
 10
0.1250297172
 20
0.1919534349
 30
0.0
 40
0.0003453380634593
100
AcDbArc
 50
12.6161985228
 51
167.3838014772
  0
ARC
  5
123
330
1F
100
AcDbEntity
  8
0
  6
Continuous
 62
     7
370
    25
100
AcDbCircle
 10
0.1250714079
 20
0.196794378
 30
0.0
 40
0.0002985329514196
100
AcDbArc
 50
8.4278325951
 51
98.0277094405
  0
ARC
  5
124
330
1F
100
AcDbEntity
  8
0
  6
Continuous
 62
     7
370
    25
100
AcDbCircle
 10
0.1249952229
 20
0.1967847487
 30
0.0
 40
0.0003071797571174
100
AcDbArc
 50
83.5524497618
 51
169.9920082026
  0
LINE
  5
125
330
1F
100
AcDbEntity
  8
0
  6
Continuous
 62
     7
370
    25
100
AcDbLine
 10
0.1128797172
 20
0.1958673488
 30
0.0
 11
0.1128797172
 21
0.1965413486
 31
0.0
  0
LINE
  5
126
330
1F
100
AcDbEntity
  8
0
  6
Continuous
 62
     7
370
    25
100
AcDbLine
 10
0.1211797173
 20
0.1965413486
 30
0.0
 11
0.1211797173
 21
0.1958673488
 31
0.0
  0
ELLIPSE
  5
127
330
1F
100
AcDbEntity
  8
0
  6
Continuous
 62
     7
370
    25
100
AcDbEllipse
 10
0.1090297173
 20
0.1985712829
 30
0.0
 11
-0.0001472222015778679
 21
0.0004111684105487234
 31
0.0
210
0.0
220
0.0
230
1.0
 40
0.7372678736
 41
4.260282732967959
 42
4.903784734866756
  0
ELLIPSE
  5
128
330
1F
100
AcDbEntity
  8
0
  6
Continuous
 62
     7
370
    25
100
AcDbEllipse
 10
0.1090297173
 20
0.1985712829
 30
0.0
 11
0.0003308462714919497
 21
0.0001184622048368556
 31
0.0
210
0.0
220
0.0
230
1.0
 40
0.5411623915
 41
0.191395754482069
 42
0.4521062474166471
  0
ARC
  5
129
330
1F
100
AcDbEntity
  8
0
  6
Continuous
 62
     7
370
    25
100
AcDbCircle
 10
0.1112973323
 20
0.1958107066
 30
0.0
 40
0.0004861264683064
100
AcDbArc
 50
265.5138773273
 51
353.2873181497
  0
ARC
  5
12A
330
1F
100
AcDbEntity
  8
0
  6
Continuous
 62
     7
370
    25
100
AcDbCircle
 10
0.1090297173
 20
0.1919534346
 30
0.0
 40
0.0003453382290639
100
AcDbArc
 50
12.6162505357
 51
167.3837494643
  0
ARC
  5
12B
330
1F
100
AcDbEntity
  8
0
  6
Continuous
 62
     7
370
    25
100
AcDbCircle
 10
0.1090714076
 20
0.1967943773
 30
0.0
 40
0.0002985335513483
100
AcDbArc
 50
8.4279449375
 51
98.0276092465
  0
ARC
  5
12C
330
1F
100
AcDbEntity
  8
0
  6
Continuous
 62
     7
370
    25
100
AcDbCircle
 10
0.1089952223
 20
0.1967847494
 30
0.0
 40
0.0003071791305636
100
AcDbArc
 50
83.552319373
 51
169.9921203688
  0
LINE
  5
12D
330
1F
100
AcDbEntity
  8
0
  6
Continuous
 62
     7
370
    25
100
AcDbLine
 10
0.1128797172
 20
0.1952561068
 30
0.0
 11
0.1128797172
 21
0.194582107
 31
0.0
  0
ARC
  5
12E
330
1F
100
AcDbEntity
  8
0
  6
Continuous
 62
     7
370
    25
100
AcDbCircle
 10
0.1112974337
 20
0.1958104978
 30
0.0
 40
0.0004859262151596
100
AcDbArc
 50
265.5000284746
 51
353.3189565919
  0
LINE
  5
12F
330
1F
100
AcDbEntity
  8
0
  6
Continuous
 62
     7
370
    25
100
AcDbLine
 10
0.1253667171
 20
0.1785423586
 30
0.0
 11
0.1246927173
 21
0.1785423586
 31
0.0
  0
ARC
  5
130
330
1F
100
AcDbEntity
  8
0
  6
Continuous
 62
     7
370
    25
100
AcDbCircle
 10
0.1251171178
 20
0.1787549887
 30
0.0
 40
0.0003541472392848
100
AcDbArc
 50
45.1874565042
 51
104.2877466406
  0
ARC
  5
131
330
1F
100
AcDbEntity
  8
0
  6
Continuous
 62
     7
370
    25
100
AcDbCircle
 10
0.1249573995
 20
0.1786997125
 30
0.0
 40
0.0004049784124182
100
AcDbArc
 50
79.7134136525
 51
130.8113832027
  0
ELLIPSE
  5
132
330
1F
100
AcDbEntity
  8
0
  6
Continuous
 62
     7
370
    25
100
AcDbEllipse
 10
0.1090297173
 20
0.1814329324
 30
0.0
 11
0.0003252498887177241
 21
0.0002420110138330601
 31
0.0
210
0.0
220
0.0
230
1.0
 40
0.36449939
 41
5.374251823148755
 42
6.018340749258051
  0
ELLIPSE
  5
133
330
1F
100
AcDbEntity
  8
0
  6
Continuous
 62
     7
370
    25
100
AcDbEllipse
 10
0.1090297173
 20
0.1814329324
 30
0.0
 11
-0.0002658420190303213
 21
0.0003572774880639951
 31
0.0
210
0.0
220
0.0
230
1.0
 40
0.5797061584
 41
3.803455496353781
 42
4.447544422463105
  0
ARC
  5
134
330
1F
100
AcDbEntity
  8
0
  6
Continuous
 62
     7
370
    25
100
AcDbCircle
 10
0.1114579926
 20
0.1807046082
 30
0.0
 40
0.0003431059336931
100
AcDbArc
 50
264.1296328944
 51
62.478755644
  0
ELLIPSE
  5
135
330
1F
100
AcDbEntity
  8
0
  6
Continuous
 62
     7
370
    25
100
AcDbEllipse
 10
0.1090297173
 20
0.1944334981
 30
0.0
 11
0.00033600857986682
 21
0.0001395298411880353
 31
0.0
210
0.0
220
0.0
230
1.0
 40
0.1851279822
 41
0.0767247430726712
 42
0.5667763657206019
  0
ELLIPSE
  5
136
330
1F
100
AcDbEntity
  8
0
  6
Continuous
 62
     7
370
    25
100
AcDbEllipse
 10
0.1090297173
 20
0.1944334981
 30
0.0
 11
-0.0001809404455567626
 21
0.0004357314652861655
 31
0.0
210
0.0
220
0.0
230
1.0
 40
0.652478449
 41
4.145612614664401
 42
4.789113723457636
  0
ARC
  5
137
330
1F
100
AcDbEntity
  8
0
  6
Continuous
 62
     7
370
    25
100
AcDbCircle
 10
0.1113973979
 20
0.1920742322
 30
0.0
 40
0.0003786646938281
100
AcDbArc
 50
252.2325842237
 51
17.9714587645
  0
LINE
  5
138
330
1F
100
AcDbEntity
  8
0
  6
Continuous
 62
     7
370
    25
100
AcDbLine
 10
0.1093667172
 20
0.1785423586
 30
0.0
 11
0.1086927173
 21
0.1785423586
 31
0.0
  0
ARC
  5
139
330
1F
100
AcDbEntity
  8
0
  6
Continuous
 62
     7
370
    25
100
AcDbCircle
 10
0.1091171176
 20
0.1787549873
 30
0.0
 40
0.0003541485133916
100
AcDbArc
 50
45.1875698988
 51
104.2876396799
  0
ARC
  5
13A
330
1F
100
AcDbEntity
  8
0
  6
Continuous
 62
     7
370
    25
100
AcDbCircle
 10
0.108957399
 20
0.178699714
 30
0.0
 40
0.0004049770333145
100
AcDbArc
 50
79.7133071039
 51
130.8114801005
  0
ARC
  5
13B
330
1F
100
AcDbEntity
  8
0
  6
Continuous
 62
     7
370
    25
100
AcDbCircle
 10
0.1250297172
 20
0.1967627053
 30
0.0
 40
0.0003453377001784
100
AcDbArc
 50
12.6159292328
 51
167.3840707672
  0
ARC
  5
13C
330
1F
100
AcDbEntity
  8
0
  6
Continuous
 62
     7
370
    25
100
AcDbCircle
 10
0.1250452921
 20
0.197107808
 30
0.0
 40
0.0003217027740553
100
AcDbArc
 50
2.3810173241
 51
92.7749925617
  0
ARC
  5
13D
330
1F
100
AcDbEntity
  8
0
  6
Continuous
 62
     7
370
    25
100
AcDbCircle
 10
0.1250168289
 20
0.1971048681
 30
0.0
 40
0.0003245214651937
100
AcDbArc
 50
87.7239134854
 51
177.1200766288
  0
ELLIPSE
  5
13E
330
1F
100
AcDbEntity
  8
0
  6
Continuous
 62
     7
370
    25
100
AcDbEllipse
 10
0.1250297173
 20
0.1944334981
 30
0.0
 11
0.000180940445556721
 21
0.0004357314652861655
 31
0.0
210
0.0
220
0.0
230
1.0
 40
0.652478449
 41
1.494071583721976
 42
2.137572692515203
  0
ELLIPSE
  5
13F
330
1F
100
AcDbEntity
  8
0
  6
Continuous
 62
     7
370
    25
100
AcDbEllipse
 10
0.1250297173
 20
0.1944334981
 30
0.0
 11
0.00033600857986682
 21
-0.0001395298411879797
 31
0.0
210
0.0
220
0.0
230
1.0
 40
0.1851279822
 41
2.574816287869108
 42
3.06486791051669
  0
ARC
  5
140
330
1F
100
AcDbEntity
  8
0
  6
Continuous
 62
     7
370
    25
100
AcDbCircle
 10
0.122662036
 20
0.1920742311
 30
0.0
 40
0.0003786638993851
100
AcDbArc
 50
162.0283235906
 51
287.767597529
  0
ARC
  5
141
330
1F
100
AcDbEntity
  8
0
  6
Continuous
 62
     7
370
    25
100
AcDbCircle
 10
0.1108118227
 20
0.1978133631
 30
0.0
 40
0.0012203648910709
100
AcDbArc
 50
291.092939174
 51
323.1536502816
  0
LINE
  5
142
330
1F
100
AcDbEntity
  8
0
  6
Continuous
 62
     7
370
    25
100
AcDbLine
 10
0.1128797172
 20
0.1965413486
 30
0.0
 11
0.1128797172
 21
0.1958673488
 31
0.0
  0
ARC
  5
143
330
1F
100
AcDbEntity
  8
0
  6
Continuous
 62
     7
370
    25
100
AcDbCircle
 10
0.1250297172
 20
0.1785731349
 30
0.0
 40
0.0005487597733429
100
AcDbArc
 50
52.1125841631
 51
127.8874158369
  0
ARC
  5
144
330
1F
100
AcDbEntity
  8
0
  6
Continuous
 62
     7
370
    25
100
AcDbCircle
 10
0.1251171176
 20
0.1847092222
 30
0.0
 40
0.0003541482051249
100
AcDbArc
 50
45.1875450914
 51
104.2876580534
  0
ARC
  5
145
330
1F
100
AcDbEntity
  8
0
  6
Continuous
 62
     7
370
    25
100
AcDbCircle
 10
0.1249573998
 20
0.184653946
 30
0.0
 40
0.0004049794642917
100
AcDbArc
 50
79.7134847909
 51
130.8113120643
  0
ARC
  5
146
330
1F
100
AcDbEntity
  8
0
  6
Continuous
 62
     7
370
    25
100
AcDbCircle
 10
0.1115493284
 20
0.1868981661
 30
0.0
 40
0.0002436372989902
100
AcDbArc
 50
337.0985128056
 51
49.0316124375
  0
ARC
  5
147
330
1F
100
AcDbEntity
  8
0
  6
Continuous
 62
     7
370
    25
100
AcDbCircle
 10
0.1114342611
 20
0.1868513261
 30
0.0
 40
0.0003428723416605
100
AcDbArc
 50
252.3645735894
 51
351.9574174859
  0
LINE
  5
148
330
1F
100
AcDbEntity
  8
0
  6
Continuous
 62
     7
370
    25
100
AcDbLine
 10
0.1128797172
 20
0.1867938923
 30
0.0
 11
0.1128797172
 21
0.1861198925
 31
0.0
  0
ARC
  5
149
330
1F
100
AcDbEntity
  8
0
  6
Continuous
 62
     7
370
    25
100
AcDbCircle
 10
0.1090297173
 20
0.1967627049
 30
0.0
 40
0.0003453378657808
100
AcDbArc
 50
12.6159812453
 51
167.3840187547
  0
ARC
  5
14A
330
1F
100
AcDbEntity
  8
0
  6
Continuous
 62
     7
370
    25
100
AcDbCircle
 10
0.1090452916
 20
0.1971078074
 30
0.0
 40
0.0003217033680095
100
AcDbArc
 50
2.3811231955
 51
92.7748993063
  0
ARC
  5
14B
330
1F
100
AcDbEntity
  8
0
  6
Continuous
 62
     7
370
    25
100
AcDbCircle
 10
0.1090168283
 20
0.1971048688
 30
0.0
 40
0.0003245208469638
100
AcDbArc
 50
87.7237857703
 51
177.1201854198
  0
ARC
  5
14C
330
1F
100
AcDbEntity
  8
0
  6
Continuous
 62
     7
370
    25
100
AcDbCircle
 10
0.1090297173
 20
0.178573134
 30
0.0
 40
0.0005487605700011
100
AcDbArc
 50
52.1126365656
 51
127.8873634344
  0
ARC
  5
14D
330
1F
100
AcDbEntity
  8
0
  6
Continuous
 62
     7
370
    25
100
AcDbCircle
 10
0.1091171173
 20
0.1847092208
 30
0.0
 40
0.0003541494792478
100
AcDbArc
 50
45.1876584868
 51
104.2875510919
  0
ARC
  5
14E
330
1F
100
AcDbEntity
  8
0
  6
Continuous
 62
     7
370
    25
100
AcDbCircle
 10
0.1089573993
 20
0.1846539475
 30
0.0
 40
0.0004049780851787
100
AcDbArc
 50
79.7133782422
 51
130.8114089622
  0
ARC
  5
14F
330
1F
100
AcDbEntity
  8
0
  6
Continuous
 62
     7
370
    25
100
AcDbCircle
 10
0.1250297172
 20
0.1970981327
 30
0.0
 40
0.0003377866006787
100
AcDbArc
 50
3.9111762709
 51
176.0888237291
  0
ARC
  5
150
330
1F
100
AcDbEntity
  8
0
  6
Continuous
 62
     7
370
    25
100
AcDbCircle
 10
0.1250452909
 20
0.2000080257
 30
0.0
 40
0.0003217040424123
100
AcDbArc
 50
2.3812447778
 51
92.774765108
  0
ARC
  5
151
330
1F
100
AcDbEntity
  8
0
  6
Continuous
 62
     7
370
    25
100
AcDbCircle
 10
0.125016833
 20
0.2000050827
 30
0.0
 40
0.0003245257225766
100
AcDbArc
 50
87.7246572515
 51
177.1193328627
  0
LINE
  5
152
330
1F
100
AcDbEntity
  8
0
  6
Continuous
 62
     7
370
    25
100
AcDbLine
 10
0.1211797173
 20
0.1867938923
 30
0.0
 11
0.1211797173
 21
0.1861198925
 31
0.0
  0
LINE
  5
153
330
1F
100
AcDbEntity
  8
0
  6
Continuous
 62
     7
370
    25
100
AcDbLine
 10
0.1128797172
 20
0.1864568924
 30
0.0
 11
0.1128797172
 21
0.1867938923
 31
0.0
  0
LINE
  5
154
330
1F
100
AcDbEntity
  8
0
  6
Continuous
 62
     7
370
    25
100
AcDbLine
 10
0.1128797172
 20
0.1861198925
 30
0.0
 11
0.1128797172
 21
0.1864568924
 31
0.0
  0
ARC
  5
155
330
1F
100
AcDbEntity
  8
0
  6
Continuous
 62
     7
370
    25
100
AcDbCircle
 10
0.1090297173
 20
0.1970981324
 30
0.0
 40
0.0003377867126771
100
AcDbArc
 50
3.9112225374
 51
176.0887774626
  0
ARC
  5
156
330
1F
100
AcDbEntity
  8
0
  6
Continuous
 62
     7
370
    25
100
AcDbCircle
 10
0.1090452904
 20
0.200008025
 30
0.0
 40
0.0003217046363809
100
AcDbArc
 50
2.3813506506
 51
92.7746718512
  0
ARC
  5
157
330
1F
100
AcDbEntity
  8
0
  6
Continuous
 62
     7
370
    25
100
AcDbCircle
 10
0.1090168323
 20
0.2000050833
 30
0.0
 40
0.0003245251043018
100
AcDbArc
 50
87.724529533
 51
177.1194416572
  0
ARC
  5
158
330
1F
100
AcDbEntity
  8
0
  6
Continuous
 62
     7
370
    25
100
AcDbCircle
 10
0.1115093644
 20
0.1807460684
 30
0.0
 40
0.000283811913293
100
AcDbArc
 50
347.8006306277
 51
67.8540910895
  0
ARC
  5
159
330
1F
100
AcDbEntity
  8
0
  6
Continuous
 62
     7
370
    25
100
AcDbCircle
 10
0.1114630938
 20
0.1806844721
 30
0.0
 40
0.0003236776309624
100
AcDbArc
 50
262.8687704536
 51
0.2872797358
  0
LINE
  5
15A
330
1F
100
AcDbEntity
  8
0
  6
Continuous
 62
     7
370
    25
100
AcDbLine
 10
0.1128797172
 20
0.1808701282
 30
0.0
 11
0.1128797172
 21
0.1801961281
 31
0.0
  0
ARC
  5
15B
330
1F
100
AcDbEntity
  8
0
  6
Continuous
 62
     7
370
    25
100
AcDbCircle
 10
0.1250297172
 20
0.1845273681
 30
0.0
 40
0.0005487609047622
100
AcDbArc
 50
52.1126760837
 51
127.8873239163
  0
ARC
  5
15C
330
1F
100
AcDbEntity
  8
0
  6
Continuous
 62
     7
370
    25
100
AcDbCircle
 10
0.1250995637
 20
0.1852566361
 30
0.0
 40
0.0002879220915294
100
AcDbArc
 50
21.8952824959
 51
104.0393475307
  0
ARC
  5
15D
330
1F
100
AcDbEntity
  8
0
  6
Continuous
 62
     7
370
    25
100
AcDbCircle
 10
0.1249719247
 20
0.1852330122
 30
0.0
 40
0.0003084087683604
100
AcDbArc
 50
79.1995222196
 51
154.8658477537
  0
ELLIPSE
  5
15E
330
1F
100
AcDbEntity
  8
0
  6
Continuous
 62
     7
370
    25
100
AcDbEllipse
 10
0.1250297173
 20
0.1884949065
 30
0.0
 11
0.0002215774065394694
 21
0.0004183964599357993
 31
0.0
210
0.0
220
0.0
230
1.0
 40
0.606874788
 41
1.644790559589447
 42
2.288291845612998
  0
ELLIPSE
  5
15F
330
1F
100
AcDbEntity
  8
0
  6
Continuous
 62
     7
370
    25
100
AcDbEllipse
 10
0.1250297173
 20
0.1884949065
 30
0.0
 11
0.0003360778586704028
 21
-0.0001779825296106819
 31
0.0
210
0.0
220
0.0
230
1.0
 40
0.1399761425
 41
3.21558688638486
 42
3.859088172407929
  0
ARC
  5
160
330
1F
100
AcDbEntity
  8
0
  6
Continuous
 62
     7
370
    25
100
AcDbCircle
 10
0.1225101196
 20
0.1868981657
 30
0.0
 40
0.0002436498319117
100
AcDbArc
 50
130.9767925685
 51
202.9001573461
  0
ARC
  5
161
330
1F
100
AcDbEntity
  8
0
  6
Continuous
 62
     7
370
    25
100
AcDbCircle
 10
0.1226251528
 20
0.1868513107
 30
0.0
 40
0.0003428500453005
100
AcDbArc
 50
188.040520031
 51
287.6472873783
  0
ARC
  5
162
330
1F
100
AcDbEntity
  8
0
  6
Continuous
 62
     7
370
    25
100
AcDbCircle
 10
0.1090297173
 20
0.1845273672
 30
0.0
 40
0.0005487617014232
100
AcDbArc
 50
52.1127284861
 51
127.8872715139
  0
ARC
  5
163
330
1F
100
AcDbEntity
  8
0
  6
Continuous
 62
     7
370
    25
100
AcDbCircle
 10
0.1090995634
 20
0.1852566352
 30
0.0
 40
0.0002879228130788
100
AcDbArc
 50
21.8954039999
 51
104.0392362833
  0
ARC
  5
164
330
1F
100
AcDbEntity
  8
0
  6
Continuous
 62
     7
370
    25
100
AcDbCircle
 10
0.1089719242
 20
0.1852330131
 30
0.0
 40
0.0003084080004545
100
AcDbArc
 50
79.1993920276
 51
154.865962561
  0
ARC
  5
165
330
1F
100
AcDbEntity
  8
0
  6
Continuous
 62
     7
370
    25
100
AcDbCircle
 10
0.1113974645
 20
0.1920740808
 30
0.0
 40
0.000378540864365
100
AcDbArc
 50
252.2159860812
 51
18.0280057401
  0
LINE
  5
166
330
1F
100
AcDbEntity
  8
0
  6
Continuous
 62
     7
370
    25
100
AcDbLine
 10
0.1128797172
 20
0.1917811607
 30
0.0
 11
0.1128797172
 21
0.191107161
 31
0.0
  0
ARC
  5
167
330
1F
100
AcDbEntity
  8
0
  6
Continuous
 62
     7
370
    25
100
AcDbCircle
 10
0.1250297172
 20
0.199998349
 30
0.0
 40
0.0003377867793714
100
AcDbArc
 50
3.9116195753
 51
176.0883804247
  0
ARC
  5
168
330
1F
100
AcDbEntity
  8
0
  6
Continuous
 62
     7
370
    25
100
AcDbCircle
 10
0.1250297173
 20
0.200167882
 30
0.0
 40
0.000337
100
AcDbArc
 50
0.0
 51
90.0
  0
ARC
  5
169
330
1F
100
AcDbEntity
  8
0
  6
Continuous
 62
     7
370
    25
100
AcDbCircle
 10
0.1250297173
 20
0.200167882
 30
0.0
 40
0.000337
100
AcDbArc
 50
90.0
 51
180.0
  0
LINE
  5
16A
330
1F
100
AcDbEntity
  8
0
  6
Continuous
 62
     7
370
    25
100
AcDbLine
 10
0.1128797172
 20
0.1805331283
 30
0.0
 11
0.1128797172
 21
0.1808701282
 31
0.0
  0
LINE
  5
16B
330
1F
100
AcDbEntity
  8
0
  6
Continuous
 62
     7
370
    25
100
AcDbLine
 10
0.1128797172
 20
0.1801961281
 30
0.0
 11
0.1128797172
 21
0.1805331283
 31
0.0
  0
LINE
  5
16C
330
1F
100
AcDbEntity
  8
0
  6
Continuous
 62
     7
370
    25
100
AcDbLine
 10
0.1211797173
 20
0.1808701282
 30
0.0
 11
0.1211797173
 21
0.1801961281
 31
0.0
  0
ARC
  5
16D
330
1F
100
AcDbEntity
  8
0
  6
Continuous
 62
     7
370
    25
100
AcDbCircle
 10
0.1250297172
 20
0.1851789179
 30
0.0
 40
0.000384481921499
100
AcDbArc
 50
28.7765388023
 51
151.2234611977
  0
ARC
  5
16E
330
1F
100
AcDbEntity
  8
0
  6
Continuous
 62
     7
370
    25
100
AcDbCircle
 10
0.1250995631
 20
0.1915184366
 30
0.0
 40
0.0002879230892021
100
AcDbArc
 50
21.8954555171
 51
104.0391745095
  0
ARC
  5
16F
330
1F
100
AcDbEntity
  8
0
  6
Continuous
 62
     7
370
    25
100
AcDbCircle
 10
0.1249719249
 20
0.1914948135
 30
0.0
 40
0.0003084091787098
100
AcDbArc
 50
79.1995814235
 51
154.8657885499
  0
ARC
  5
170
330
1F
100
AcDbEntity
  8
0
  6
Continuous
 62
     7
370
    25
100
AcDbCircle
 10
0.1226203824
 20
0.1868581074
 30
0.0
 40
0.0003507706605623
100
AcDbArc
 50
140.274823529
 51
288.0595815592
  0
LINE
  5
171
330
1F
100
AcDbEntity
  8
0
  6
Continuous
 62
     7
370
    25
100
AcDbLine
 10
0.1211797173
 20
0.1864568924
 30
0.0
 11
0.1211797173
 21
0.1867938923
 31
0.0
  0
LINE
  5
172
330
1F
100
AcDbEntity
  8
0
  6
Continuous
 62
     7
370
    25
100
AcDbLine
 10
0.1211797173
 20
0.1861198925
 30
0.0
 11
0.1211797173
 21
0.1864568924
 31
0.0
  0
ARC
  5
173
330
1F
100
AcDbEntity
  8
0
  6
Continuous
 62
     7
370
    25
100
AcDbCircle
 10
0.1232477878
 20
0.1978136381
 30
0.0
 40
0.0012206846655557
100
AcDbArc
 50
216.8519304722
 51
248.9040135035
  0
ARC
  5
174
330
1F
100
AcDbEntity
  8
0
  6
Continuous
 62
     7
370
    25
100
AcDbCircle
 10
0.1090297173
 20
0.1999983487
 30
0.0
 40
0.0003377868913721
100
AcDbArc
 50
3.9116658421
 51
176.0883341579
  0
ARC
  5
175
330
1F
100
AcDbEntity
  8
0
  6
Continuous
 62
     7
370
    25
100
AcDbCircle
 10
0.1090297173
 20
0.200167882
 30
0.0
 40
0.000337
100
AcDbArc
 50
0.0
 51
90.0
  0
ARC
  5
176
330
1F
100
AcDbEntity
  8
0
  6
Continuous
 62
     7
370
    25
100
AcDbCircle
 10
0.1090297173
 20
0.200167882
 30
0.0
 40
0.000337
100
AcDbArc
 50
90.0
 51
180.0
  0
LINE
  5
177
330
1F
100
AcDbEntity
  8
0
  6
Continuous
 62
     7
370
    25
100
AcDbLine
 10
0.1103187173
 20
0.1588836884
 30
0.0
 11
0.1118297173
 21
0.1588836884
 31
0.0
  0
LINE
  5
178
330
1F
100
AcDbEntity
  8
0
  6
Continuous
 62
     7
370
    25
100
AcDbLine
 10
0.1122097172
 20
0.1588836884
 30
0.0
 11
0.1218497176
 21
0.1588836884
 31
0.0
  0
LINE
  5
179
330
1F
100
AcDbEntity
  8
0
  6
Continuous
 62
     7
370
    25
100
AcDbLine
 10
0.1222297175
 20
0.1588836884
 30
0.0
 11
0.1237407167
 21
0.1588836884
 31
0.0
  0
ARC
  5
17A
330
1F
100
AcDbEntity
  8
0
  6
Continuous
 62
     7
370
    25
100
AcDbCircle
 10
0.1103187173
 20
0.159183688
 30
0.0
 40
0.0003
100
AcDbArc
 50
243.2160532841
 51
270.0
  0
ARC
  5
17B
330
1F
100
AcDbEntity
  8
0
  6
Continuous
 62
     7
370
    25
100
AcDbCircle
 10
0.1103187173
 20
0.176361688
 30
0.0
 40
0.0003
100
AcDbArc
 50
90.0
 51
116.7839467163
  0
ARC
  5
17C
330
1F
100
AcDbEntity
  8
0
  6
Continuous
 62
     7
370
    25
100
AcDbCircle
 10
0.1237407173
 20
0.176361688
 30
0.0
 40
0.0003
100
AcDbArc
 50
63.2160532842
 51
90.0
  0
LINE
  5
17D
330
1F
100
AcDbEntity
  8
0
  6
Continuous
 62
     7
370
    25
100
AcDbLine
 10
0.1103187173
 20
0.176661688
 30
0.0
 11
0.1237407167
 21
0.176661688
 31
0.0
  0
ARC
  5
17E
330
1F
100
AcDbEntity
  8
0
  6
Continuous
 62
     7
370
    25
100
AcDbCircle
 10
0.1237407173
 20
0.159183688
 30
0.0
 40
0.0003
100
AcDbArc
 50
270.0
 51
296.783946716
  0
ARC
  5
17F
330
1F
100
AcDbEntity
  8
0
  6
Continuous
 62
     7
370
    25
100
AcDbCircle
 10
0.1274585431
 20
0.1725473275
 30
0.0
 40
0.0001757487869732
100
AcDbArc
 50
289.7378261154
 51
69.8739935617
  0
ARC
  5
180
330
1F
100
AcDbEntity
  8
0
  6
Continuous
 62
     7
370
    25
100
AcDbCircle
 10
0.1274584431
 20
0.1725485043
 30
0.0
 40
0.0001758651391474
100
AcDbArc
 50
289.9954785185
 51
70.0652633769
  0
LINE
  5
181
330
1F
100
AcDbEntity
  8
0
  6
Continuous
 62
     7
370
    25
100
AcDbLine
 10
0.1122097172
 20
0.1601226877
 30
0.0
 11
0.1118297173
 21
0.1601226877
 31
0.0
  0
LINE
  5
182
330
1F
100
AcDbEntity
  8
0
  6
Continuous
 62
     7
370
    25
100
AcDbLine
 10
0.1122097172
 20
0.1539028322
 30
0.0
 11
0.1122097172
 21
0.1594356882
 31
0.0
  0
LINE
  5
183
330
1F
100
AcDbEntity
  8
0
  6
Continuous
 62
     7
370
    25
100
AcDbLine
 10
0.1122097172
 20
0.160109688
 30
0.0
 11
0.1122097172
 21
0.1601226877
 31
0.0
  0
LINE
  5
184
330
1F
100
AcDbEntity
  8
0
  6
Continuous
 62
     7
370
    25
100
AcDbLine
 10
0.1118297173
 20
0.1539028322
 30
0.0
 11
0.1118297173
 21
0.1594356882
 31
0.0
  0
LINE
  5
185
330
1F
100
AcDbEntity
  8
0
  6
Continuous
 62
     7
370
    25
100
AcDbLine
 10
0.1118297173
 20
0.160109688
 30
0.0
 11
0.1118297173
 21
0.1601226877
 31
0.0
  0
LINE
  5
186
330
1F
100
AcDbEntity
  8
0
  6
Continuous
 62
     7
370
    25
100
AcDbLine
 10
0.1122097172
 20
0.1539028322
 30
0.0
 11
0.1122097172
 21
0.1345683586
 31
0.0
  0
LINE
  5
187
330
1F
100
AcDbEntity
  8
0
  6
Continuous
 62
     7
370
    25
100
AcDbLine
 10
0.1118297173
 20
0.1539028322
 30
0.0
 11
0.1118297173
 21
0.1345683586
 31
0.0
  0
LINE
  5
188
330
1F
100
AcDbEntity
  8
0
  6
Continuous
 62
     7
370
    25
100
AcDbLine
 10
0.1122097172
 20
0.1210389482
 30
0.0
 11
0.1118297173
 21
0.1210389482
 31
0.0
  0
LINE
  5
189
330
1F
100
AcDbEntity
  8
0
  6
Continuous
 62
     7
370
    25
100
AcDbLine
 10
0.1122097172
 20
0.1345683586
 30
0.0
 11
0.1122097172
 21
0.1210389482
 31
0.0
  0
LINE
  5
18A
330
1F
100
AcDbEntity
  8
0
  6
Continuous
 62
     7
370
    25
100
AcDbLine
 10
0.1118297173
 20
0.1345683586
 30
0.0
 11
0.1118297173
 21
0.1210389482
 31
0.0
  0
LINE
  5
18B
330
1F
100
AcDbEntity
  8
0
  6
Continuous
 62
     7
370
    25
100
AcDbLine
 10
0.1122097172
 20
0.1210389482
 30
0.0
 11
0.1122097172
 21
0.1194228803
 31
0.0
  0
LINE
  5
18C
330
1F
100
AcDbEntity
  8
0
  6
Continuous
 62
     7
370
    25
100
AcDbLine
 10
0.1118297173
 20
0.1210389482
 30
0.0
 11
0.1118297173
 21
0.1194228803
 31
0.0
  0
LINE
  5
18D
330
1F
100
AcDbEntity
  8
0
  6
Continuous
 62
     7
370
    25
100
AcDbLine
 10
0.1222297175
 20
0.1601226877
 30
0.0
 11
0.1218497176
 21
0.1601226877
 31
0.0
  0
LINE
  5
18E
330
1F
100
AcDbEntity
  8
0
  6
Continuous
 62
     7
370
    25
100
AcDbLine
 10
0.1222297175
 20
0.1539028322
 30
0.0
 11
0.1222297175
 21
0.1594356882
 31
0.0
  0
LINE
  5
18F
330
1F
100
AcDbEntity
  8
0
  6
Continuous
 62
     7
370
    25
100
AcDbLine
 10
0.1222297175
 20
0.160109688
 30
0.0
 11
0.1222297175
 21
0.1601226877
 31
0.0
  0
LINE
  5
190
330
1F
100
AcDbEntity
  8
0
  6
Continuous
 62
     7
370
    25
100
AcDbLine
 10
0.1218497176
 20
0.1539028322
 30
0.0
 11
0.1218497176
 21
0.1594356882
 31
0.0
  0
LINE
  5
191
330
1F
100
AcDbEntity
  8
0
  6
Continuous
 62
     7
370
    25
100
AcDbLine
 10
0.1218497176
 20
0.160109688
 30
0.0
 11
0.1218497176
 21
0.1601226877
 31
0.0
  0
LINE
  5
192
330
1F
100
AcDbEntity
  8
0
  6
Continuous
 62
     7
370
    25
100
AcDbLine
 10
0.1222297175
 20
0.1539028322
 30
0.0
 11
0.1222297175
 21
0.1345683586
 31
0.0
  0
LINE
  5
193
330
1F
100
AcDbEntity
  8
0
  6
Continuous
 62
     7
370
    25
100
AcDbLine
 10
0.1218497176
 20
0.1539028322
 30
0.0
 11
0.1218497176
 21
0.1345683586
 31
0.0
  0
LINE
  5
194
330
1F
100
AcDbEntity
  8
0
  6
Continuous
 62
     7
370
    25
100
AcDbLine
 10
0.1222297175
 20
0.1210389482
 30
0.0
 11
0.1218497176
 21
0.1210389482
 31
0.0
  0
LINE
  5
195
330
1F
100
AcDbEntity
  8
0
  6
Continuous
 62
     7
370
    25
100
AcDbLine
 10
0.1222297175
 20
0.1345683586
 30
0.0
 11
0.1222297175
 21
0.1210389482
 31
0.0
  0
LINE
  5
196
330
1F
100
AcDbEntity
  8
0
  6
Continuous
 62
     7
370
    25
100
AcDbLine
 10
0.1218497176
 20
0.1345683586
 30
0.0
 11
0.1218497176
 21
0.1210389482
 31
0.0
  0
LINE
  5
197
330
1F
100
AcDbEntity
  8
0
  6
Continuous
 62
     7
370
    25
100
AcDbLine
 10
0.1222297175
 20
0.1210389482
 30
0.0
 11
0.1222297175
 21
0.1194228803
 31
0.0
  0
LINE
  5
198
330
1F
100
AcDbEntity
  8
0
  6
Continuous
 62
     7
370
    25
100
AcDbLine
 10
0.1218497176
 20
0.1210389482
 30
0.0
 11
0.1218497176
 21
0.1194228803
 31
0.0
  0
LINE
  5
199
330
1F
100
AcDbEntity
  8
0
  6
Continuous
 62
     7
370
    25
100
AcDbLine
 10
0.1222524209
 20
0.1594356882
 30
0.0
 11
0.1229070134
 21
0.1594356882
 31
0.0
  0
LINE
  5
19A
330
1F
100
AcDbEntity
  8
0
  6
Continuous
 62
     7
370
    25
100
AcDbLine
 10
0.1229070134
 20
0.160109688
 30
0.0
 11
0.1222524209
 21
0.160109688
 31
0.0
  0
ARC
  5
19B
330
1F
100
AcDbEntity
  8
0
  6
Continuous
 62
     7
370
    25
100
AcDbCircle
 10
0.1228697173
 20
0.160062688
 30
0.0
 40
0.00006
100
AcDbArc
 50
51.5667936591
 51
90.0
  0
ARC
  5
19C
330
1F
100
AcDbEntity
  8
0
  6
Continuous
 62
     7
370
    25
100
AcDbCircle
 10
0.1222897173
 20
0.160062688
 30
0.0
 40
0.00006
100
AcDbArc
 50
90.0
 51
128.4332063409
  0
LINE
  5
19D
330
1F
100
AcDbEntity
  8
0
  6
Continuous
 62
     7
370
    25
100
AcDbLine
 10
0.1222897167
 20
0.1601226877
 30
0.0
 11
0.1228697176
 21
0.1601226877
 31
0.0
  0
ARC
  5
19E
330
1F
100
AcDbEntity
  8
0
  6
Continuous
 62
     7
370
    25
100
AcDbCircle
 10
0.1228697173
 20
0.159482688
 30
0.0
 40
0.00006
100
AcDbArc
 50
270.0
 51
308.4332063409
  0
ARC
  5
19F
330
1F
100
AcDbEntity
  8
0
  6
Continuous
 62
     7
370
    25
100
AcDbCircle
 10
0.1222897173
 20
0.159482688
 30
0.0
 40
0.00006
100
AcDbArc
 50
231.5667936591
 51
270.0
  0
LINE
  5
1A0
330
1F
100
AcDbEntity
  8
0
  6
Continuous
 62
     7
370
    25
100
AcDbLine
 10
0.1228697176
 20
0.1594226884
 30
0.0
 11
0.1222897167
 21
0.1594226884
 31
0.0
  0
LINE
  5
1A1
330
1F
100
AcDbEntity
  8
0
  6
Continuous
 62
     7
370
    25
100
AcDbLine
 10
0.1111524211
 20
0.1594356882
 30
0.0
 11
0.1118070133
 21
0.1594356882
 31
0.0
  0
ARC
  5
1A2
330
1F
100
AcDbEntity
  8
0
  6
Continuous
 62
     7
370
    25
100
AcDbCircle
 10
0.1117697173
 20
0.159482688
 30
0.0
 40
0.00006
100
AcDbArc
 50
270.0
 51
308.4332063409
  0
LINE
  5
1A3
330
1F
100
AcDbEntity
  8
0
  6
Continuous
 62
     7
370
    25
100
AcDbLine
 10
0.1117697172
 20
0.1594226884
 30
0.0
 11
0.1111897172
 21
0.1594226884
 31
0.0
  0
ARC
  5
1A4
330
1F
100
AcDbEntity
  8
0
  6
Continuous
 62
     7
370
    25
100
AcDbCircle
 10
0.1111897173
 20
0.159482688
 30
0.0
 40
0.00006
100
AcDbArc
 50
231.5667936591
 51
270.0
  0
LINE
  5
1A5
330
1F
100
AcDbEntity
  8
0
  6
Continuous
 62
     7
370
    25
100
AcDbLine
 10
0.1118070133
 20
0.160109688
 30
0.0
 11
0.1111524211
 21
0.160109688
 31
0.0
  0
LINE
  5
1A6
330
1F
100
AcDbEntity
  8
0
  6
Continuous
 62
     7
370
    25
100
AcDbLine
 10
0.1111897172
 20
0.1601226877
 30
0.0
 11
0.1117697172
 21
0.1601226877
 31
0.0
  0
ARC
  5
1A7
330
1F
100
AcDbEntity
  8
0
  6
Continuous
 62
     7
370
    25
100
AcDbCircle
 10
0.1117697173
 20
0.160062688
 30
0.0
 40
0.00006
100
AcDbArc
 50
51.5667936591
 51
90.0
  0
ARC
  5
1A8
330
1F
100
AcDbEntity
  8
0
  6
Continuous
 62
     7
370
    25
100
AcDbCircle
 10
0.1111897173
 20
0.160062688
 30
0.0
 40
0.00006
100
AcDbArc
 50
90.0
 51
128.4332063409
  0
ARC
  5
1A9
330
1F
100
AcDbEntity
  8
0
  6
Continuous
 62
     7
370
    25
100
AcDbCircle
 10
0.1094613428
 20
0.1765187848
 30
0.0
 40
0.0007386055309574
100
AcDbArc
 50
17.8062481622
 51
97.1904709076
  0
LWPOLYLINE
  5
1AA
330
1F
100
AcDbEntity
  8
0
  6
Continuous
 62
     7
370
    25
100
AcDbPolyline
 90
       93
 70
   128
 43
0.0
 10
0.1238948686
 20
0.1767446497
 10
0.1238685234
 20
0.1765901475
 10
0.1238352258
 20
0.1764363176
 10
0.1237950106
 20
0.1762833166
 10
0.1237479158
 20
0.1761312999
 10
0.1236939926
 20
0.1759804221
 10
0.1236332936
 20
0.1758308366
 10
0.123565882
 20
0.1756826954
 10
0.1234918256
 20
0.1755361492
 10
0.1234111996
 20
0.1753913469
 10
0.1233240862
 20
0.1752484358
 10
0.1232305737
 20
0.1751075611
 10
0.1231307562
 20
0.1749688662
 10
0.1230247374
 20
0.1748324918
 10
0.1229126234
 20
0.1746985767
 10
0.1227945299
 20
0.1745672569
 10
0.1226705749
 20
0.1744386662
 10
0.1225408859
 20
0.1743129351
 10
0.1224055929
 20
0.1741901915
 10
0.1222648354
 20
0.1740705602
 10
0.1221187563
 20
0.1739541628
 10
0.1219675036
 20
0.1738411175
 10
0.1218112297
 20
0.1737315395
 10
0.1216500957
 20
0.1736255398
 10
0.1214842649
 20
0.1735232266
 10
0.1213139053
 20
0.1734247034
 10
0.1211391909
 20
0.1733300709
 10
0.1209602971
 20
0.173239425
 10
0.1207774086
 20
0.1731528582
 10
0.1205907102
 20
0.1730704581
 10
0.1204003914
 20
0.1729923083
 10
0.1202066465
 20
0.1729184889
 10
0.120009671
 20
0.1728490745
 10
0.1198096664
 20
0.1727841358
 10
0.1196068354
 20
0.1727237388
 10
0.1194013841
 20
0.1726679446
 10
0.1191935225
 20
0.1726168104
 10
0.1189834602
 20
0.1725703879
 10
0.1187714131
 20
0.1725287246
 10
0.1185575946
 20
0.1724918624
 10
0.1183422227
 20
0.1724598392
 10
0.1181255169
 20
0.1724326872
 10
0.1179076965
 20
0.1724104344
 10
0.1176889838
 20
0.1723931032
 10
0.1174696012
 20
0.172380711
 10
0.1172497709
 20
0.1723732706
 10
0.1170297171
 20
0.1723707896
 10
0.1168096633
 20
0.1723732706
 10
0.1165898336
 20
0.172380711
 10
0.1163704504
 20
0.1723931032
 10
0.1161517377
 20
0.1724104344
 10
0.1159339179
 20
0.1724326872
 10
0.1157172121
 20
0.1724598392
 10
0.1155018402
 20
0.1724918624
 10
0.1152880217
 20
0.1725287246
 10
0.115075974
 20
0.1725703879
 10
0.1148659123
 20
0.1726168104
 10
0.1146580501
 20
0.1726679446
 10
0.1144525994
 20
0.1727237388
 10
0.1142497684
 20
0.1727841358
 10
0.1140497638
 20
0.1728490745
 10
0.1138527889
 20
0.1729184889
 10
0.1136590434
 20
0.1729923083
 10
0.1134687246
 20
0.1730704581
 10
0.1132820256
 20
0.1731528582
 10
0.1130991371
 20
0.173239425
 10
0.1129202442
 20
0.1733300709
 10
0.1127455292
 20
0.1734247034
 10
0.1125751693
 20
0.1735232266
 10
0.1124093385
 20
0.1736255398
 10
0.1122482045
 20
0.1737315395
 10
0.1120919315
 20
0.1738411175
 10
0.1119406782
 20
0.1739541628
 10
0.1117945988
 20
0.1740705602
 10
0.1116538413
 20
0.1741901915
 10
0.1115185492
 20
0.1743129351
 10
0.1113888596
 20
0.1744386662
 10
0.1112649049
 20
0.1745672569
 10
0.1111468105
 20
0.1746985767
 10
0.1110346968
 20
0.1748324918
 10
0.110928678
 20
0.1749688662
 10
0.1108288614
 20
0.1751075611
 10
0.1107353489
 20
0.1752484358
 10
0.1106482352
 20
0.1753913469
 10
0.1105676091
 20
0.1755361492
 10
0.1104935524
 20
0.1756826954
 10
0.1104261404
 20
0.1758308366
 10
0.1103654419
 20
0.1759804221
 10
0.1103115183
 20
0.1761312999
 10
0.1102644245
 20
0.1762833166
 10
0.1102242085
 20
0.1764363176
 10
0.1101909111
 20
0.1765901475
 10
0.1101645662
 20
0.1767446497
  0
ARC
  5
1AB
330
1F
100
AcDbEntity
  8
0
  6
Continuous
 62
     7
370
    25
100
AcDbCircle
 10
0.1245980915
 20
0.1765187857
 30
0.0
 40
0.0007386047267057
100
AcDbArc
 50
82.809494107
 51
162.193801411
  0
LINE
  5
1AC
330
1F
100
AcDbEntity
  8
0
  6
Continuous
 62
     7
370
    25
100
AcDbLine
 10
0.1246905418
 20
0.1772515816
 30
0.0
 11
0.1259197171
 21
0.1772515816
 31
0.0
  0
ARC
  5
1AD
330
1F
100
AcDbEntity
  8
0
  6
Continuous
 62
     7
370
    25
100
AcDbCircle
 10
0.1260197167
 20
0.1765444737
 30
0.0
 40
0.0007141438748872
100
AcDbArc
 50
11.4218263377
 51
98.0494226074
  0
LINE
  5
1AE
330
1F
100
AcDbEntity
  8
0
  6
Continuous
 62
     7
370
    25
100
AcDbLine
 10
0.1267197175
 20
0.1677726882
 30
0.0
 11
0.1267197175
 21
0.1766858962
 31
0.0
  0
ARC
  5
1AF
330
1F
100
AcDbEntity
  8
0
  6
Continuous
 62
     7
370
    25
100
AcDbCircle
 10
0.1255904522
 20
0.168004273
 30
0.0
 40
0.0011527669883429
100
AcDbArc
 50
262.1180538462
 51
348.4107150115
  0
LINE
  5
1B0
330
1F
100
AcDbEntity
  8
0
  6
Continuous
 62
     7
370
    25
100
AcDbLine
 10
0.1185770638
 20
0.1668623965
 30
0.0
 11
0.1254323704
 21
0.1668623965
 31
0.0
  0
ARC
  5
1B1
330
1F
100
AcDbEntity
  8
0
  6
Continuous
 62
     7
370
    25
100
AcDbCircle
 10
0.1184189821
 20
0.1680042722
 30
0.0
 40
0.0011527662297973
100
AcDbArc
 50
191.5892537216
 51
277.8819524097
  0
LINE
  5
1B2
330
1F
100
AcDbEntity
  8
0
  6
Continuous
 62
     7
370
    25
100
AcDbLine
 10
0.1170297171
 20
0.1677726882
 30
0.0
 11
0.1172897173
 21
0.1677726882
 31
0.0
  0
LINE
  5
1B3
330
1F
100
AcDbEntity
  8
0
  6
Continuous
 62
     7
370
    25
100
AcDbLine
 10
0.1170297171
 20
0.1680413883
 30
0.0
 11
0.1170297171
 21
0.1677726882
 31
0.0
  0
LINE
  5
1B4
330
1F
100
AcDbEntity
  8
0
  6
Continuous
 62
     7
370
    25
100
AcDbLine
 10
0.1167697175
 20
0.1680413883
 30
0.0
 11
0.1170297171
 21
0.1680413883
 31
0.0
  0
LINE
  5
1B5
330
1F
100
AcDbEntity
  8
0
  6
Continuous
 62
     7
370
    25
100
AcDbLine
 10
0.1073397173
 20
0.1680413883
 30
0.0
 11
0.1073397173
 21
0.1766858962
 31
0.0
  0
ARC
  5
1B6
330
1F
100
AcDbEntity
  8
0
  6
Continuous
 62
     7
370
    25
100
AcDbCircle
 10
0.1080397173
 20
0.1765444748
 30
0.0
 40
0.0007141428450251
100
AcDbArc
 50
81.9505333731
 51
168.5782467226
  0
LINE
  5
1B7
330
1F
100
AcDbEntity
  8
0
  6
Continuous
 62
     7
370
    25
100
AcDbLine
 10
0.1081397173
 20
0.1772515816
 30
0.0
 11
0.1093688928
 21
0.1772515816
 31
0.0
  0
LWPOLYLINE
  5
1B8
330
1F
100
AcDbEntity
  8
0
  6
Continuous
 62
     7
370
    25
100
AcDbPolyline
 90
       17
 70
   128
 43
0.0
 10
0.1089797173
 20
0.1716752135
 10
0.1089835233
 20
0.1716616832
 10
0.108994362
 20
0.1716502135
 10
0.1090105831
 20
0.1716425495
 10
0.1090297173
 20
0.1716398578
 10
0.1090488515
 20
0.1716425495
 10
0.1090650726
 20
0.1716502135
 10
0.1090759113
 20
0.1716616832
 10
0.1090797173
 20
0.1716752135
 10
0.1090759113
 20
0.1716887434
 10
0.1090650726
 20
0.1717002135
 10
0.1090488515
 20
0.1717078774
 10
0.1090297173
 20
0.1717105689
 10
0.1090105831
 20
0.1717078774
 10
0.108994362
 20
0.1717002135
 10
0.1089835233
 20
0.1716887434
 10
0.1089797173
 20
0.1716752135
  0
LWPOLYLINE
  5
1B9
330
1F
100
AcDbEntity
  8
0
  6
Continuous
 62
     7
370
    25
100
AcDbPolyline
 90
       17
 70
   128
 43
0.0
 10
0.1089797173
 20
0.1749324519
 10
0.1089835233
 20
0.1749189219
 10
0.108994362
 20
0.1749074519
 10
0.1090105831
 20
0.1748997878
 10
0.1090297173
 20
0.1748970965
 10
0.1090488515
 20
0.1748997878
 10
0.1090650726
 20
0.1749074519
 10
0.1090759113
 20
0.1749189219
 10
0.1090797173
 20
0.1749324519
 10
0.1090759113
 20
0.1749459819
 10
0.1090650726
 20
0.1749574519
 10
0.1090488515
 20
0.174965116
 10
0.1090297173
 20
0.1749678073
 10
0.1090105831
 20
0.174965116
 10
0.108994362
 20
0.1749574519
 10
0.1089835233
 20
0.1749459819
 10
0.1089797173
 20
0.1749324519
  0
LWPOLYLINE
  5
1BA
330
1F
100
AcDbEntity
  8
0
  6
Continuous
 62
     7
370
    25
100
AcDbPolyline
 90
       17
 70
   128
 43
0.0
 10
0.1196597178
 20
0.1682888757
 10
0.119663523
 20
0.1682753461
 10
0.1196743615
 20
0.1682638758
 10
0.1196905835
 20
0.1682562118
 10
0.1197097178
 20
0.1682535206
 10
0.119728852
 20
0.1682562118
 10
0.1197450729
 20
0.1682638758
 10
0.1197559114
 20
0.1682753461
 10
0.1197597177
 20
0.1682888757
 10
0.1197559114
 20
0.168302406
 10
0.1197450729
 20
0.1683138757
 10
0.119728852
 20
0.1683215403
 10
0.1197097178
 20
0.1683242314
 10
0.1196905835
 20
0.1683215403
 10
0.1196743615
 20
0.1683138757
 10
0.119663523
 20
0.168302406
 10
0.1196597178
 20
0.1682888757
  0
LWPOLYLINE
  5
1BB
330
1F
100
AcDbEntity
  8
0
  6
Continuous
 62
     7
370
    25
100
AcDbPolyline
 90
       17
 70
   128
 43
0.0
 10
0.1249797173
 20
0.1716752135
 10
0.1249835236
 20
0.1716616832
 10
0.1249943621
 20
0.1716502135
 10
0.1250105829
 20
0.1716425495
 10
0.1250297172
 20
0.1716398578
 10
0.1250488515
 20
0.1716425495
 10
0.1250650723
 20
0.1716502135
 10
0.1250759108
 20
0.1716616832
 10
0.1250797172
 20
0.1716752135
 10
0.1250759108
 20
0.1716887434
 10
0.1250650723
 20
0.1717002135
 10
0.1250488515
 20
0.1717078774
 10
0.1250297172
 20
0.1717105689
 10
0.1250105829
 20
0.1717078774
 10
0.1249943621
 20
0.1717002135
 10
0.1249835236
 20
0.1716887434
 10
0.1249797173
 20
0.1716752135
  0
LWPOLYLINE
  5
1BC
330
1F
100
AcDbEntity
  8
0
  6
Continuous
 62
     7
370
    25
100
AcDbPolyline
 90
       17
 70
   128
 43
0.0
 10
0.1249797173
 20
0.1682888757
 10
0.1249835236
 20
0.1682753461
 10
0.1249943621
 20
0.1682638758
 10
0.1250105829
 20
0.1682562118
 10
0.1250297172
 20
0.1682535206
 10
0.1250488515
 20
0.1682562118
 10
0.1250650723
 20
0.1682638758
 10
0.1250759108
 20
0.1682753461
 10
0.1250797172
 20
0.1682888757
 10
0.1250759108
 20
0.168302406
 10
0.1250650723
 20
0.1683138757
 10
0.1250488515
 20
0.1683215403
 10
0.1250297172
 20
0.1683242314
 10
0.1250105829
 20
0.1683215403
 10
0.1249943621
 20
0.1683138757
 10
0.1249835236
 20
0.168302406
 10
0.1249797173
 20
0.1682888757
  0
LWPOLYLINE
  5
1BD
330
1F
100
AcDbEntity
  8
0
  6
Continuous
 62
     7
370
    25
100
AcDbPolyline
 90
       17
 70
   128
 43
0.0
 10
0.1249797173
 20
0.1749324519
 10
0.1249835236
 20
0.1749189219
 10
0.1249943621
 20
0.1749074519
 10
0.1250105829
 20
0.1748997878
 10
0.1250297172
 20
0.1748970965
 10
0.1250488515
 20
0.1748997878
 10
0.1250650723
 20
0.1749074519
 10
0.1250759108
 20
0.1749189219
 10
0.1250797172
 20
0.1749324519
 10
0.1250759108
 20
0.1749459819
 10
0.1250650723
 20
0.1749574519
 10
0.1250488515
 20
0.174965116
 10
0.1250297172
 20
0.1749678073
 10
0.1250105829
 20
0.174965116
 10
0.1249943621
 20
0.1749574519
 10
0.1249835236
 20
0.1749459819
 10
0.1249797173
 20
0.1749324519
  0
LINE
  5
1BE
330
1F
100
AcDbEntity
  8
0
  6
Continuous
 62
     7
370
    25
100
AcDbLine
 10
0.1185770638
 20
0.1665936958
 30
0.0
 11
0.1254323704
 21
0.1665936958
 31
0.0
  0
ARC
  5
1BF
330
1F
100
AcDbEntity
  8
0
  6
Continuous
 62
     7
370
    25
100
AcDbCircle
 10
0.1184189827
 20
0.1677355724
 30
0.0
 40
0.0011527670223081
100
AcDbArc
 50
191.5892906419
 51
277.8819154894
  0
LINE
  5
1C0
330
1F
100
AcDbEntity
  8
0
  6
Continuous
 62
     7
370
    25
100
AcDbLine
 10
0.1172897173
 20
0.1675039875
 30
0.0
 11
0.1172897173
 21
0.1677726882
 31
0.0
  0
LINE
  5
1C1
330
1F
100
AcDbEntity
  8
0
  6
Continuous
 62
     7
370
    25
100
AcDbLine
 10
0.1267197175
 20
0.1675039875
 30
0.0
 11
0.1267197175
 21
0.1677726882
 31
0.0
  0
ARC
  5
1C2
330
1F
100
AcDbEntity
  8
0
  6
Continuous
 62
     7
370
    25
100
AcDbCircle
 10
0.1255904516
 20
0.1677355732
 30
0.0
 40
0.0011527677808531
100
AcDbArc
 50
262.1180907665
 51
348.4106780913
  0
LINE
  5
1C3
330
1F
100
AcDbEntity
  8
0
  6
Continuous
 62
     7
370
    25
100
AcDbLine
 10
0.1170297171
 20
0.1675039875
 30
0.0
 11
0.1170297171
 21
0.1677726882
 31
0.0
  0
LINE
  5
1C4
330
1F
100
AcDbEntity
  8
0
  6
Continuous
 62
     7
370
    25
100
AcDbLine
 10
0.1170297171
 20
0.1675039875
 30
0.0
 11
0.1172897173
 21
0.1675039875
 31
0.0
  0
LINE
  5
1C5
330
1F
100
AcDbEntity
  8
0
  6
Continuous
 62
     7
370
    25
100
AcDbLine
 10
0.1073397173
 20
0.1680413883
 30
0.0
 11
0.1073397173
 21
0.1677726882
 31
0.0
  0
ARC
  5
1C6
330
1F
100
AcDbEntity
  8
0
  6
Continuous
 62
     7
370
    25
100
AcDbCircle
 10
0.1084689818
 20
0.1678098045
 30
0.0
 40
0.0011527660180599
100
AcDbArc
 50
82.118043179
 51
168.4107553792
  0
ARC
  5
1C7
330
1F
100
AcDbEntity
  8
0
  6
Continuous
 62
     7
370
    25
100
AcDbCircle
 10
0.1084689819
 20
0.1675411035
 30
0.0
 40
0.0011527662559873
100
AcDbArc
 50
82.1180482992
 51
168.4107148881
  0
ARC
  5
1C8
330
1F
100
AcDbEntity
  8
0
  6
Continuous
 62
     7
370
    25
100
AcDbCircle
 10
0.1245980917
 20
0.1590265908
 30
0.0
 40
0.0007386052667459
100
AcDbArc
 50
197.8062581538
 51
277.1904787651
  0
LWPOLYLINE
  5
1C9
330
1F
100
AcDbEntity
  8
0
  6
Continuous
 62
     7
370
    25
100
AcDbPolyline
 90
       93
 70
   128
 43
0.0
 10
0.1101645662
 20
0.1588007258
 10
0.1101909111
 20
0.1589552282
 10
0.1102242085
 20
0.1591090583
 10
0.1102644245
 20
0.1592620598
 10
0.1103115183
 20
0.1594140767
 10
0.1103654419
 20
0.159564954
 10
0.1104261404
 20
0.159714539
 10
0.1104935524
 20
0.1598626803
 10
0.1105676091
 20
0.1600092267
 10
0.1106482352
 20
0.160154029
 10
0.1107353489
 20
0.1602969407
 10
0.1108288614
 20
0.1604378151
 10
0.110928678
 20
0.1605765103
 10
0.1110346968
 20
0.1607128846
 10
0.1111468105
 20
0.1608467995
 10
0.1112649049
 20
0.1609781193
 10
0.1113888596
 20
0.1611067103
 10
0.1115185492
 20
0.1612324404
 10
0.1116538413
 20
0.1613551842
 10
0.1117945988
 20
0.1614748155
 10
0.1119406782
 20
0.1615912139
 10
0.1120919315
 20
0.1617042588
 10
0.1122482045
 20
0.1618138372
 10
0.1124093385
 20
0.1619198357
 10
0.1125751693
 20
0.1620221495
 10
0.1127455292
 20
0.1621206724
 10
0.1129202442
 20
0.1622153055
 10
0.1130991371
 20
0.162305951
 10
0.1132820256
 20
0.1623925184
 10
0.1134687246
 20
0.1624749183
 10
0.1136590434
 20
0.1625530671
 10
0.1138527889
 20
0.1626268875
 10
0.1140497638
 20
0.1626963018
 10
0.1142497684
 20
0.1627612399
 10
0.1144525994
 20
0.1628216373
 10
0.1146580501
 20
0.1628774308
 10
0.1148659123
 20
0.1629285657
 10
0.115075974
 20
0.1629749881
 10
0.1152880217
 20
0.1630166518
 10
0.1155018402
 20
0.1630535137
 10
0.1157172121
 20
0.1630855369
 10
0.1159339179
 20
0.1631126892
 10
0.1161517377
 20
0.163134942
 10
0.1163704504
 20
0.1631522726
 10
0.1165898336
 20
0.1631646656
 10
0.1168096633
 20
0.1631721055
 10
0.1170297171
 20
0.1631745862
 10
0.1172497709
 20
0.1631721055
 10
0.1174696012
 20
0.1631646656
 10
0.1176889838
 20
0.1631522726
 10
0.1179076965
 20
0.163134942
 10
0.1181255169
 20
0.1631126892
 10
0.1183422227
 20
0.1630855369
 10
0.1185575946
 20
0.1630535137
 10
0.1187714131
 20
0.1630166518
 10
0.1189834602
 20
0.1629749881
 10
0.1191935225
 20
0.1629285657
 10
0.1194013841
 20
0.1628774308
 10
0.1196068354
 20
0.1628216373
 10
0.1198096664
 20
0.1627612399
 10
0.120009671
 20
0.1626963018
 10
0.1202066465
 20
0.1626268875
 10
0.1204003914
 20
0.1625530671
 10
0.1205907102
 20
0.1624749183
 10
0.1207774086
 20
0.1623925184
 10
0.1209602971
 20
0.162305951
 10
0.1211391909
 20
0.1622153055
 10
0.1213139053
 20
0.1621206724
 10
0.1214842649
 20
0.1620221495
 10
0.1216500957
 20
0.1619198357
 10
0.1218112297
 20
0.1618138372
 10
0.1219675036
 20
0.1617042588
 10
0.1221187563
 20
0.1615912139
 10
0.1222648354
 20
0.1614748155
 10
0.1224055929
 20
0.1613551842
 10
0.1225408859
 20
0.1612324404
 10
0.1226705749
 20
0.1611067103
 10
0.1227945299
 20
0.1609781193
 10
0.1229126234
 20
0.1608467995
 10
0.1230247374
 20
0.1607128846
 10
0.1231307562
 20
0.1605765103
 10
0.1232305737
 20
0.1604378151
 10
0.1233240862
 20
0.1602969407
 10
0.1234111996
 20
0.160154029
 10
0.1234918256
 20
0.1600092267
 10
0.123565882
 20
0.1598626803
 10
0.1236332936
 20
0.159714539
 10
0.1236939926
 20
0.159564954
 10
0.1237479158
 20
0.1594140767
 10
0.1237950106
 20
0.1592620598
 10
0.1238352258
 20
0.1591090583
 10
0.1238685234
 20
0.1589552282
 10
0.1238948686
 20
0.1588007258
  0
ARC
  5
1CA
330
1F
100
AcDbEntity
  8
0
  6
Continuous
 62
     7
370
    25
100
AcDbCircle
 10
0.1094613425
 20
0.1590265917
 30
0.0
 40
0.0007386060710003
100
AcDbArc
 50
262.8095562204
 51
342.193692273
  0
LINE
  5
1CB
330
1F
100
AcDbEntity
  8
0
  6
Continuous
 62
     7
370
    25
100
AcDbLine
 10
0.1093688928
 20
0.1582937943
 30
0.0
 11
0.1081397173
 21
0.1582937943
 31
0.0
  0
ARC
  5
1CC
330
1F
100
AcDbEntity
  8
0
  6
Continuous
 62
     7
370
    25
100
AcDbCircle
 10
0.1080397178
 20
0.159000902
 30
0.0
 40
0.0007141436288018
100
AcDbArc
 50
191.4218442465
 51
278.0494136775
  0
LINE
  5
1CD
330
1F
100
AcDbEntity
  8
0
  6
Continuous
 62
     7
370
    25
100
AcDbLine
 10
0.1073397173
 20
0.1677726882
 30
0.0
 11
0.1073397173
 21
0.1588594793
 31
0.0
  0
LINE
  5
1CE
330
1F
100
AcDbEntity
  8
0
  6
Continuous
 62
     7
370
    25
100
AcDbLine
 10
0.115482371
 20
0.1686829793
 30
0.0
 11
0.1086270637
 21
0.1686829793
 31
0.0
  0
ARC
  5
1CF
330
1F
100
AcDbEntity
  8
0
  6
Continuous
 62
     7
370
    25
100
AcDbCircle
 10
0.1156404525
 20
0.1675411031
 30
0.0
 40
0.0011527666628405
100
AcDbArc
 50
11.5893033024
 51
97.8819381998
  0
LINE
  5
1D0
330
1F
100
AcDbEntity
  8
0
  6
Continuous
 62
     7
370
    25
100
AcDbLine
 10
0.1170297171
 20
0.1677726882
 30
0.0
 11
0.1167697175
 21
0.1677726882
 31
0.0
  0
LINE
  5
1D1
330
1F
100
AcDbEntity
  8
0
  6
Continuous
 62
     7
370
    25
100
AcDbLine
 10
0.1267197175
 20
0.1675039875
 30
0.0
 11
0.1267197175
 21
0.1588594793
 31
0.0
  0
ARC
  5
1D2
330
1F
100
AcDbEntity
  8
0
  6
Continuous
 62
     7
370
    25
100
AcDbCircle
 10
0.1260197161
 20
0.1590009031
 30
0.0
 40
0.0007141446586646
100
AcDbArc
 50
261.9506303419
 51
348.5780826934
  0
LINE
  5
1D3
330
1F
100
AcDbEntity
  8
0
  6
Continuous
 62
     7
370
    25
100
AcDbLine
 10
0.1259197171
 20
0.1582937943
 30
0.0
 11
0.1246905418
 21
0.1582937943
 31
0.0
  0
LWPOLYLINE
  5
1D4
330
1F
100
AcDbEntity
  8
0
  6
Continuous
 62
     7
370
    25
100
AcDbPolyline
 90
       17
 70
   128
 43
0.0
 10
0.1250797172
 20
0.1638701629
 10
0.1250759108
 20
0.1638836919
 10
0.1250650723
 20
0.1638951623
 10
0.1250488515
 20
0.1639028262
 10
0.1250297172
 20
0.163905518
 10
0.1250105829
 20
0.1639028262
 10
0.1249943621
 20
0.1638951623
 10
0.1249835236
 20
0.1638836919
 10
0.1249797173
 20
0.1638701629
 10
0.1249835236
 20
0.1638566326
 10
0.1249943621
 20
0.1638451623
 10
0.1250105829
 20
0.1638374983
 10
0.1250297172
 20
0.1638348078
 10
0.1250488515
 20
0.1638374983
 10
0.1250650723
 20
0.1638451623
 10
0.1250759108
 20
0.1638566326
 10
0.1250797172
 20
0.1638701629
  0
LWPOLYLINE
  5
1D5
330
1F
100
AcDbEntity
  8
0
  6
Continuous
 62
     7
370
    25
100
AcDbPolyline
 90
       17
 70
   128
 43
0.0
 10
0.1250797172
 20
0.160612924
 10
0.1250759108
 20
0.1606264543
 10
0.1250650723
 20
0.1606379246
 10
0.1250488515
 20
0.1606455885
 10
0.1250297172
 20
0.1606482791
 10
0.1250105829
 20
0.1606455885
 10
0.1249943621
 20
0.1606379246
 10
0.1249835236
 20
0.1606264543
 10
0.1249797173
 20
0.160612924
 10
0.1249835236
 20
0.1605993938
 10
0.1249943621
 20
0.1605879246
 10
0.1250105829
 20
0.1605802595
 10
0.1250297172
 20
0.1605775689
 10
0.1250488515
 20
0.1605802595
 10
0.1250650723
 20
0.1605879246
 10
0.1250759108
 20
0.1605993938
 10
0.1250797172
 20
0.160612924
  0
LWPOLYLINE
  5
1D6
330
1F
100
AcDbEntity
  8
0
  6
Continuous
 62
     7
370
    25
100
AcDbPolyline
 90
       17
 70
   128
 43
0.0
 10
0.114399717
 20
0.1672565
 10
0.1143959112
 20
0.1672700297
 10
0.1143850727
 20
0.1672815
 10
0.1143688513
 20
0.167289164
 10
0.114349717
 20
0.1672918551
 10
0.1143305833
 20
0.167289164
 10
0.1143143619
 20
0.1672815
 10
0.1143035234
 20
0.1672700297
 10
0.1142997171
 20
0.1672565
 10
0.1143035234
 20
0.1672429704
 10
0.1143143619
 20
0.1672315001
 10
0.1143305833
 20
0.1672238361
 10
0.114349717
 20
0.1672211449
 10
0.1143688513
 20
0.1672238361
 10
0.1143850727
 20
0.1672315001
 10
0.1143959112
 20
0.1672429704
 10
0.114399717
 20
0.1672565
  0
LWPOLYLINE
  5
1D7
330
1F
100
AcDbEntity
  8
0
  6
Continuous
 62
     7
370
    25
100
AcDbPolyline
 90
       17
 70
   128
 43
0.0
 10
0.1090797173
 20
0.1638701629
 10
0.1090759113
 20
0.1638836919
 10
0.1090650726
 20
0.1638951623
 10
0.1090488515
 20
0.1639028262
 10
0.1090297173
 20
0.163905518
 10
0.1090105831
 20
0.1639028262
 10
0.108994362
 20
0.1638951623
 10
0.1089835233
 20
0.1638836919
 10
0.1089797173
 20
0.1638701629
 10
0.1089835233
 20
0.1638566326
 10
0.108994362
 20
0.1638451623
 10
0.1090105831
 20
0.1638374983
 10
0.1090297173
 20
0.1638348078
 10
0.1090488515
 20
0.1638374983
 10
0.1090650726
 20
0.1638451623
 10
0.1090759113
 20
0.1638566326
 10
0.1090797173
 20
0.1638701629
  0
LWPOLYLINE
  5
1D8
330
1F
100
AcDbEntity
  8
0
  6
Continuous
 62
     7
370
    25
100
AcDbPolyline
 90
       17
 70
   128
 43
0.0
 10
0.1090797173
 20
0.1672565
 10
0.1090759113
 20
0.1672700297
 10
0.1090650726
 20
0.1672815
 10
0.1090488515
 20
0.167289164
 10
0.1090297173
 20
0.1672918551
 10
0.1090105831
 20
0.167289164
 10
0.108994362
 20
0.1672815
 10
0.1089835233
 20
0.1672700297
 10
0.1089797173
 20
0.1672565
 10
0.1089835233
 20
0.1672429704
 10
0.108994362
 20
0.1672315001
 10
0.1090105831
 20
0.1672238361
 10
0.1090297173
 20
0.1672211449
 10
0.1090488515
 20
0.1672238361
 10
0.1090650726
 20
0.1672315001
 10
0.1090759113
 20
0.1672429704
 10
0.1090797173
 20
0.1672565
  0
LWPOLYLINE
  5
1D9
330
1F
100
AcDbEntity
  8
0
  6
Continuous
 62
     7
370
    25
100
AcDbPolyline
 90
       17
 70
   128
 43
0.0
 10
0.1090797173
 20
0.160612924
 10
0.1090759113
 20
0.1606264543
 10
0.1090650726
 20
0.1606379246
 10
0.1090488515
 20
0.1606455885
 10
0.1090297173
 20
0.1606482791
 10
0.1090105831
 20
0.1606455885
 10
0.108994362
 20
0.1606379246
 10
0.1089835233
 20
0.1606264543
 10
0.1089797173
 20
0.160612924
 10
0.1089835233
 20
0.1605993938
 10
0.108994362
 20
0.1605879246
 10
0.1090105831
 20
0.1605802595
 10
0.1090297173
 20
0.1605775689
 10
0.1090488515
 20
0.1605802595
 10
0.1090650726
 20
0.1605879246
 10
0.1090759113
 20
0.1605993938
 10
0.1090797173
 20
0.160612924
  0
LINE
  5
1DA
330
1F
100
AcDbEntity
  8
0
  6
Continuous
 62
     7
370
    25
100
AcDbLine
 10
0.115482371
 20
0.16895168
 30
0.0
 11
0.1086270637
 21
0.16895168
 31
0.0
  0
ARC
  5
1DB
330
1F
100
AcDbEntity
  8
0
  6
Continuous
 62
     7
370
    25
100
AcDbCircle
 10
0.1156404526
 20
0.167809804
 30
0.0
 40
0.0011527664249123
100
AcDbArc
 50
11.5892628113
 51
97.88194332
  0
LINE
  5
1DC
330
1F
100
AcDbEntity
  8
0
  6
Continuous
 62
     7
370
    25
100
AcDbLine
 10
0.1167697175
 20
0.1680413883
 30
0.0
 11
0.1167697175
 21
0.1677726882
 31
0.0
  0
LINE
  5
1DD
330
1F
100
AcDbEntity
  8
0
  6
Continuous
 62
     7
370
    18
100
AcDbLine
 10
0.1114502184
 20
0.0794228802
 30
0.0
 11
0.1222297173
 21
0.0794228802
 31
0.0
  0
LINE
  5
1DE
330
1F
100
AcDbEntity
  8
0
  6
Continuous
 62
     7
370
    18
100
AcDbLine
 10
0.1522297173
 20
0.1194228802
 30
0.0
 11
0.1522297173
 21
0.1395977841
 31
0.0
  0
LINE
  5
1DF
330
1F
100
AcDbEntity
  8
0
  6
Continuous
 62
     7
370
    18
100
AcDbLine
 10
0.1599297173
 20
0.159772688
 30
0.0
 11
0.1599297173
 21
0.201067882
 31
0.0
  0
LINE
  5
1E0
330
1F
100
AcDbEntity
  8
0
  6
Continuous
 62
     7
370
    18
100
AcDbLine
 10
0.1259297173
 20
0.235067882
 30
0.0
 11
0.1081297173
 21
0.235067882
 31
0.0
  0
LINE
  5
1E1
330
1F
100
AcDbEntity
  8
0
  6
Continuous
 62
     7
370
    18
100
AcDbLine
 10
0.0741297173
 20
0.201067882
 30
0.0
 11
0.0741297173
 21
0.159772688
 31
0.0
  0
LINE
  5
1E2
330
1F
100
AcDbEntity
  8
0
  6
Continuous
 62
     7
370
    18
100
AcDbLine
 10
0.0818297173
 20
0.1395977841
 30
0.0
 11
0.0818297173
 21
0.1194228802
 31
0.0
  0
ARC
  5
1E3
330
1F
100
AcDbEntity
  8
0
  6
Continuous
 62
     7
370
    18
100
AcDbCircle
 10
0.1114502184
 20
0.0994228802
 30
0.0
 40
0.02
100
AcDbArc
 50
181.0975641827
 51
270.0
  0
ARC
  5
1E4
330
1F
100
AcDbEntity
  8
0
  6
Continuous
 62
     7
370
    18
100
AcDbCircle
 10
0.1222297173
 20
0.0994228802
 30
0.0
 40
0.02
100
AcDbArc
 50
270.0
 51
0.0
  0
ARC
  5
1E5
330
1F
100
AcDbEntity
  8
0
  6
Continuous
 62
     7
370
    18
100
AcDbCircle
 10
0.1185103858
 20
0.1237825459
 30
0.0
 40
0.034
100
AcDbArc
 50
314.2369582559
 51
352.6329393899
  0
ARC
  5
1E6
330
1F
100
AcDbEntity
  8
0
  6
Continuous
 62
     7
370
    18
100
AcDbCircle
 10
0.1259589055
 20
0.161181214
 30
0.0
 40
0.034
100
AcDbArc
 50
320.5943461264
 51
357.6257147796
  0
ARC
  5
1E7
330
1F
100
AcDbEntity
  8
0
  6
Continuous
 62
     7
370
    18
100
AcDbCircle
 10
0.1259297173
 20
0.201067882
 30
0.0
 40
0.034
100
AcDbArc
 50
0.0
 51
90.0
  0
ARC
  5
1E8
330
1F
100
AcDbEntity
  8
0
  6
Continuous
 62
     7
370
    18
100
AcDbCircle
 10
0.1081297173
 20
0.201067882
 30
0.0
 40
0.034
100
AcDbArc
 50
90.0
 51
180.0
  0
ARC
  5
1E9
330
1F
100
AcDbEntity
  8
0
  6
Continuous
 62
     7
370
    18
100
AcDbCircle
 10
0.1081005291
 20
0.161181214
 30
0.0
 40
0.034
100
AcDbArc
 50
182.3742852204
 51
219.4056538736
  0
ARC
  5
1EA
330
1F
100
AcDbEntity
  8
0
  6
Continuous
 62
     7
370
    18
100
AcDbCircle
 10
0.1156486308
 20
0.1229273181
 30
0.0
 40
0.034
100
AcDbArc
 50
185.9160805574
 51
224.6339319504
  0
ENDSEC
  0
SECTION
  2
OBJECTS
  0
DICTIONARY
  5
C
330
0
100
AcDbDictionary
281
     1
  3
ACAD_DETAILVIEWSTYLE
350
1F3
  3
ACAD_GROUP
350
D
  3
ACAD_LAYOUT
350
1A
  3
ACAD_MATERIAL
350
43
  3
ACAD_MLEADERSTYLE
350
6B
  3
ACAD_MLINESTYLE
350
17
  3
ACAD_PLOTSETTINGS
350
19
  3
ACAD_PLOTSTYLENAME
350
E
  3
ACAD_SCALELIST
350
47
  3
ACAD_SECTIONVIEWSTYLE
350
1F4
  3
ACAD_TABLESTYLE
350
69
  3
ACAD_VISUALSTYLE
350
2A
  3
ACDB_RECOMPOSE_DATA
350
1F0
  3
AcDbVariableDictionary
350
1EB
  0
SUN
  5
6D
330
29
100
AcDbSun
 90
        1
290
     0
 63
     7
421
 16777215
 40
1.0
291
     1
 91
  2455826
 92
 54000000
292
     0
 70
     2
 71
   256
280
     1
  0
DICTIONARY
  5
1F3
102
{ACAD_REACTORS
330
C
102
}
330
C
100
AcDbDictionary
281
     1
  0
DICTIONARY
  5
D
102
{ACAD_REACTORS
330
C
102
}
330
C
100
AcDbDictionary
281
     1
  0
DICTIONARY
  5
1A
102
{ACAD_REACTORS
330
C
102
}
330
C
100
AcDbDictionary
281
     1
  3
Layout1
350
1E
  3
Layout2
350
26
  3
Model
350
22
  0
DICTIONARY
  5
43
102
{ACAD_REACTORS
330
C
102
}
330
C
100
AcDbDictionary
281
     1
  3
ByBlock
350
45
  3
ByLayer
350
44
  3
Global
350
46
  0
DICTIONARY
  5
6B
102
{ACAD_REACTORS
330
C
102
}
330
C
100
AcDbDictionary
281
     1
  3
Standard
350
6C
  0
DICTIONARY
  5
17
102
{ACAD_REACTORS
330
C
102
}
330
C
100
AcDbDictionary
281
     1
  3
Standard
350
18
  0
DICTIONARY
  5
19
102
{ACAD_REACTORS
330
C
102
}
330
C
100
AcDbDictionary
281
     1
  0
ACDBDICTIONARYWDFLT
  5
E
102
{ACAD_REACTORS
330
C
102
}
330
C
100
AcDbDictionary
281
     1
  3
Normal
350
F
100
AcDbDictionaryWithDefault
340
F
  0
DICTIONARY
  5
47
102
{ACAD_REACTORS
330
C
102
}
330
C
100
AcDbDictionary
281
     1
  3
A0
350
48
  3
A1
350
49
  3
A2
350
4A
  3
A3
350
4B
  3
A4
350
4C
  3
A5
350
4D
  3
A6
350
4E
  3
A7
350
4F
  3
A8
350
50
  3
A9
350
51
  3
B0
350
52
  3
B1
350
53
  3
B2
350
54
  3
B3
350
55
  3
B4
350
56
  3
B5
350
57
  3
B6
350
58
  3
B7
350
59
  3
B8
350
5A
  3
B9
350
5B
  3
C0
350
5C
  3
C1
350
5D
  3
C2
350
5E
  3
C3
350
5F
  3
C4
350
60
  3
C5
350
61
  3
C6
350
62
  3
C7
350
63
  3
C8
350
64
  3
C9
350
65
  3
D0
350
66
  3
D1
350
67
  3
D2
350
68
  0
DICTIONARY
  5
1F4
102
{ACAD_REACTORS
330
C
102
}
330
C
100
AcDbDictionary
281
     1
  0
DICTIONARY
  5
69
102
{ACAD_REACTORS
330
C
102
}
330
C
100
AcDbDictionary
281
     1
  3
Standard
350
6A
  0
DICTIONARY
  5
2A
102
{ACAD_REACTORS
330
C
102
}
330
C
100
AcDbDictionary
281
     1
  3
2dWireframe
350
2F
  3
Basic
350
32
  3
Brighten
350
36
  3
ColorChange
350
3A
  3
Conceptual
350
34
  3
Dim
350
35
  3
EdgeColorOff
350
3D
  3
Facepattern
350
39
  3
Flat
350
2B
  3
FlatWithEdges
350
2C
  3
Gouraud
350
2D
  3
GouraudWithEdges
350
2E
  3
Hidden
350
31
  3
JitterOff
350
3B
  3
Linepattern
350
38
  3
OverhangOff
350
3C
  3
Realistic
350
33
  3
Shaded
350
42
  3
Shaded with edges
350
41
  3
Shades of Gray
350
3E
  3
Sketchy
350
3F
  3
Thicken
350
37
  3
Wireframe
350
30
  3
X-Ray
350
40
  0
XRECORD
  5
1F0
102
{ACAD_REACTORS
330
C
102
}
330
C
100
AcDbXrecord
280
     1
 90
        1
330
6A
  0
DICTIONARY
  5
1EB
102
{ACAD_REACTORS
330
C
102
}
330
C
100
AcDbDictionary
281
     1
  3
CANNOSCALE
350
1EC
  3
CMLEADERSTYLE
350
1F2
  3
CTABLESTYLE
350
1F1
  0
LAYOUT
  5
1E
102
{ACAD_REACTORS
330
1A
102
}
330
1A
100
AcDbPlotSettings
  1

  2
none_device
  4

  6

 40
0.0
 41
0.0
 42
0.0
 43
0.0
 44
0.0
 45
0.0
 46
0.0
 47
0.0
 48
0.0
 49
0.0
140
0.0
141
0.0
142
1.0
143
1.0
 70
   688
 72
     1
 73
     0
 74
     5
  7

 75
    16
 76
     0
 77
     2
 78
   300
147
1.0
148
0.0
149
0.0
100
AcDbLayout
  1
Layout1
 70
     1
 71
     1
 10
0.0
 20
0.0
 11
420.0
 21
297.0
 12
0.0
 22
0.0
 32
0.0
 14
1.0000000000E+20
 24
1.0000000000E+20
 34
1.0000000000E+20
 15
-1.0000000000E+20
 25
-1.0000000000E+20
 35
-1.0000000000E+20
146
0.0
 13
0.0
 23
0.0
 33
0.0
 16
1.0
 26
0.0
 36
0.0
 17
0.0
 27
1.0
 37
0.0
 76
     0
330
1B
  0
LAYOUT
  5
26
102
{ACAD_REACTORS
330
1A
102
}
330
1A
100
AcDbPlotSettings
  1

  2
none_device
  4

  6

 40
0.0
 41
0.0
 42
0.0
 43
0.0
 44
0.0
 45
0.0
 46
0.0
 47
0.0
 48
0.0
 49
0.0
140
0.0
141
0.0
142
1.0
143
1.0
 70
   688
 72
     1
 73
     0
 74
     5
  7

 75
    16
 76
     0
 77
     2
 78
   300
147
1.0
148
0.0
149
0.0
100
AcDbLayout
  1
Layout2
 70
     1
 71
     2
 10
0.0
 20
0.0
 11
0.0
 21
0.0
 12
0.0
 22
0.0
 32
0.0
 14
0.0
 24
0.0
 34
0.0
 15
0.0
 25
0.0
 35
0.0
146
0.0
 13
0.0
 23
0.0
 33
0.0
 16
1.0
 26
0.0
 36
0.0
 17
0.0
 27
1.0
 37
0.0
 76
     0
330
23
  0
LAYOUT
  5
22
102
{ACAD_REACTORS
330
1A
102
}
330
1A
100
AcDbPlotSettings
  1

  2
none_device
  4
Letter_(8.50_x_11.00_Inches)
  6

 40
6.35
 41
6.35
 42
6.35000508
 43
6.35000508
 44
215.9
 45
279.4
 46
0.0
 47
0.0
 48
0.0
 49
0.0
140
0.0
141
0.0
142
1.0
143
1.0
 70
  1712
 72
     1
 73
     0
 74
     0
  7

 75
     0
 76
     0
 77
     2
 78
   300
147
1.0
148
0.0
149
0.0
100
AcDbLayout
  1
Model
 70
     1
 71
     0
 10
0.0
 20
0.0
 11
0.21
 21
0.297
 12
0.0
 22
0.0
 32
0.0
 14
0.0
 24
0.0
 34
0.0
 15
0.21
 25
0.297
 35
0.0
146
0.0
 13
0.0
 23
0.0
 33
0.0
 16
1.0
 26
0.0
 36
0.0
 17
0.0
 27
1.0
 37
0.0
 76
     0
330
1F
331
29
  0
MATERIAL
  5
45
102
{ACAD_REACTORS
330
43
102
}
330
43
100
AcDbMaterial
  1
ByBlock
 72
     1
 94
      127
  0
MATERIAL
  5
44
102
{ACAD_REACTORS
330
43
102
}
330
43
100
AcDbMaterial
  1
ByLayer
 72
     1
 94
      127
  0
MATERIAL
  5
46
102
{ACAD_REACTORS
330
43
102
}
330
43
100
AcDbMaterial
  1
Global
 72
     1
 94
      127
  0
MLEADERSTYLE
  5
6C
102
{ACAD_REACTORS
330
6B
102
}
330
6B
100
AcDbMLeaderStyle
170
     2
171
     1
172
     0
 90
        2
 40
0.0
 41
0.0
173
     1
 91
-1056964608
340
14
 92
       -2
290
     1
 42
2.0
291
     1
 43
8.0
  3
Standard
341
0
 44
4.0
300

342
11
174
     1
178
     6
175
     1
176
     0
 93
-1056964608
 45
4.0
292
     0
297
     0
 46
4.0
343
0
 94
-1056964608
 47
1.0
 49
1.0
140
1.0
293
     1
141
0.0
294
     1
177
     0
142
1.0
295
     0
296
     0
143
3.75
1001
ACAD_MLEADERVER
1070
     2
  0
MLINESTYLE
  5
18
102
{ACAD_REACTORS
330
17
102
}
330
17
100
AcDbMlineStyle
  2
Standard
 70
     0
  3

 62
   256
 51
90.0
 52
90.0
 71
     2
 49
0.5
 62
   256
  6
BYLAYER
 49
-0.5
 62
   256
  6
BYLAYER
  0
ACDBPLACEHOLDER
  5
F
102
{ACAD_REACTORS
330
E
102
}
330
E
  0
SCALE
  5
48
102
{ACAD_REACTORS
330
47
102
}
330
47
100
AcDbScale
 70
     0
300
1:1
140
1.0
141
1.0
290
     1
  0
SCALE
  5
49
102
{ACAD_REACTORS
330
47
102
}
330
47
100
AcDbScale
 70
     0
300
1:2
140
1.0
141
2.0
290
     0
  0
SCALE
  5
4A
102
{ACAD_REACTORS
330
47
102
}
330
47
100
AcDbScale
 70
     0
300
1:4
140
1.0
141
4.0
290
     0
  0
SCALE
  5
4B
102
{ACAD_REACTORS
330
47
102
}
330
47
100
AcDbScale
 70
     0
300
1:5
140
1.0
141
5.0
290
     0
  0
SCALE
  5
4C
102
{ACAD_REACTORS
330
47
102
}
330
47
100
AcDbScale
 70
     0
300
1:8
140
1.0
141
8.0
290
     0
  0
SCALE
  5
4D
102
{ACAD_REACTORS
330
47
102
}
330
47
100
AcDbScale
 70
     0
300
1:10
140
1.0
141
10.0
290
     0
  0
SCALE
  5
4E
102
{ACAD_REACTORS
330
47
102
}
330
47
100
AcDbScale
 70
     0
300
1:16
140
1.0
141
16.0
290
     0
  0
SCALE
  5
4F
102
{ACAD_REACTORS
330
47
102
}
330
47
100
AcDbScale
 70
     0
300
1:20
140
1.0
141
20.0
290
     0
  0
SCALE
  5
50
102
{ACAD_REACTORS
330
47
102
}
330
47
100
AcDbScale
 70
     0
300
1:30
140
1.0
141
30.0
290
     0
  0
SCALE
  5
51
102
{ACAD_REACTORS
330
47
102
}
330
47
100
AcDbScale
 70
     0
300
1:40
140
1.0
141
40.0
290
     0
  0
SCALE
  5
52
102
{ACAD_REACTORS
330
47
102
}
330
47
100
AcDbScale
 70
     0
300
1:50
140
1.0
141
50.0
290
     0
  0
SCALE
  5
53
102
{ACAD_REACTORS
330
47
102
}
330
47
100
AcDbScale
 70
     0
300
1:100
140
1.0
141
100.0
290
     0
  0
SCALE
  5
54
102
{ACAD_REACTORS
330
47
102
}
330
47
100
AcDbScale
 70
     0
300
2:1
140
2.0
141
1.0
290
     0
  0
SCALE
  5
55
102
{ACAD_REACTORS
330
47
102
}
330
47
100
AcDbScale
 70
     0
300
4:1
140
4.0
141
1.0
290
     0
  0
SCALE
  5
56
102
{ACAD_REACTORS
330
47
102
}
330
47
100
AcDbScale
 70
     0
300
8:1
140
8.0
141
1.0
290
     0
  0
SCALE
  5
57
102
{ACAD_REACTORS
330
47
102
}
330
47
100
AcDbScale
 70
     0
300
10:1
140
10.0
141
1.0
290
     0
  0
SCALE
  5
58
102
{ACAD_REACTORS
330
47
102
}
330
47
100
AcDbScale
 70
     0
300
100:1
140
100.0
141
1.0
290
     0
  0
SCALE
  5
59
102
{ACAD_REACTORS
330
47
102
}
330
47
100
AcDbScale
 70
     0
300
1/128" = 1'-0"
140
0.0078125
141
12.0
290
     0
  0
SCALE
  5
5A
102
{ACAD_REACTORS
330
47
102
}
330
47
100
AcDbScale
 70
     0
300
1/64" = 1'-0"
140
0.015625
141
12.0
290
     0
  0
SCALE
  5
5B
102
{ACAD_REACTORS
330
47
102
}
330
47
100
AcDbScale
 70
     0
300
1/32" = 1'-0"
140
0.03125
141
12.0
290
     0
  0
SCALE
  5
5C
102
{ACAD_REACTORS
330
47
102
}
330
47
100
AcDbScale
 70
     0
300
1/16" = 1'-0"
140
0.0625
141
12.0
290
     0
  0
SCALE
  5
5D
102
{ACAD_REACTORS
330
47
102
}
330
47
100
AcDbScale
 70
     0
300
3/32" = 1'-0"
140
0.09375
141
12.0
290
     0
  0
SCALE
  5
5E
102
{ACAD_REACTORS
330
47
102
}
330
47
100
AcDbScale
 70
     0
300
1/8" = 1'-0"
140
0.125
141
12.0
290
     0
  0
SCALE
  5
5F
102
{ACAD_REACTORS
330
47
102
}
330
47
100
AcDbScale
 70
     0
300
3/16" = 1'-0"
140
0.1875
141
12.0
290
     0
  0
SCALE
  5
60
102
{ACAD_REACTORS
330
47
102
}
330
47
100
AcDbScale
 70
     0
300
1/4" = 1'-0"
140
0.25
141
12.0
290
     0
  0
SCALE
  5
61
102
{ACAD_REACTORS
330
47
102
}
330
47
100
AcDbScale
 70
     0
300
3/8" = 1'-0"
140
0.375
141
12.0
290
     0
  0
SCALE
  5
62
102
{ACAD_REACTORS
330
47
102
}
330
47
100
AcDbScale
 70
     0
300
1/2" = 1'-0"
140
0.5
141
12.0
290
     0
  0
SCALE
  5
63
102
{ACAD_REACTORS
330
47
102
}
330
47
100
AcDbScale
 70
     0
300
3/4" = 1'-0"
140
0.75
141
12.0
290
     0
  0
SCALE
  5
64
102
{ACAD_REACTORS
330
47
102
}
330
47
100
AcDbScale
 70
     0
300
1" = 1'-0"
140
1.0
141
12.0
290
     0
  0
SCALE
  5
65
102
{ACAD_REACTORS
330
47
102
}
330
47
100
AcDbScale
 70
     0
300
1-1/2" = 1'-0"
140
1.5
141
12.0
290
     0
  0
SCALE
  5
66
102
{ACAD_REACTORS
330
47
102
}
330
47
100
AcDbScale
 70
     0
300
3" = 1'-0"
140
3.0
141
12.0
290
     0
  0
SCALE
  5
67
102
{ACAD_REACTORS
330
47
102
}
330
47
100
AcDbScale
 70
     0
300
6" = 1'-0"
140
6.0
141
12.0
290
     0
  0
SCALE
  5
68
102
{ACAD_REACTORS
330
47
102
}
330
47
100
AcDbScale
 70
     0
300
1'-0" = 1'-0"
140
12.0
141
12.0
290
     0
  0
TABLESTYLE
  5
6A
102
{ACAD_REACTORS
330
69
102
}
102
{ACAD_XDICTIONARY
360
1ED
102
}
330
69
100
AcDbTableStyle
  3
Standard
 70
     0
 71
     0
 40
0.06
 41
0.06
280
     0
281
     0
  7
Standard
140
4.5
170
     2
 62
     0
 63
   257
283
     0
 90
        4
 91
        0
  1

274
    -2
284
     1
 64
     0
275
    -2
285
     1
 65
     0
276
    -2
286
     1
 66
     0
277
    -2
287
     1
 67
     0
278
    -2
288
     1
 68
     0
279
    -2
289
     1
 69
     0
  7
Standard
140
6.0
170
     5
 62
     0
 63
   257
283
     0
 90
        4
 91
        0
  1

274
    -2
284
     1
 64
     0
275
    -2
285
     1
 65
     0
276
    -2
286
     1
 66
     0
277
    -2
287
     1
 67
     0
278
    -2
288
     1
 68
     0
279
    -2
289
     1
 69
     0
  7
Standard
140
4.5
170
     5
 62
     0
 63
   257
283
     0
 90
        4
 91
        0
  1

274
    -2
284
     1
 64
     0
275
    -2
285
     1
 65
     0
276
    -2
286
     1
 66
     0
277
    -2
287
     1
 67
     0
278
    -2
288
     1
 68
     0
279
    -2
289
     1
 69
     0
  0
VISUALSTYLE
  5
2F
102
{ACAD_REACTORS
330
2A
102
}
330
2A
100
AcDbVisualStyle
  2
2dWireframe
 70
     4
 71
     0
 72
     2
 73
     0
 90
        0
 40
0.6
 41
30.0
 62
     5
 63
     7
421
 16777215
 74
     1
 91
        4
 64
     7
 65
   257
 75
     1
175
     1
 42
1.0
 92
        0
 66
   257
 43
1.0
 76
     1
 77
     6
 78
     2
 67
     7
 79
     5
170
     0
171
     0
290
     0
174
     0
 93
        1
 44
0.0
173
     0
291
     0
 45
0.0
  0
VISUALSTYLE
  5
32
102
{ACAD_REACTORS
330
2A
102
}
330
2A
100
AcDbVisualStyle
  2
Basic
 70
     7
 71
     1
 72
     0
 73
     1
 90
        0
 40
0.6
 41
30.0
 62
     5
 63
     7
421
 16777215
 74
     0
 91
        4
 64
     7
 65
   257
 75
     1
175
     1
 42
1.0
 92
        8
 66
     7
 43
1.0
 76
     1
 77
     6
 78
     2
 67
     7
 79
     5
170
     0
171
     0
290
     0
174
     0
 93
        1
 44
0.0
173
     0
291
     1
 45
0.0
  0
VISUALSTYLE
  5
36
102
{ACAD_REACTORS
330
2A
102
}
330
2A
100
AcDbVisualStyle
  2
Brighten
 70
    12
 71
     2
 72
     2
 73
     0
 90
        0
 40
0.6
 41
30.0
 62
     5
 63
     7
421
 16777215
 74
     1
 91
        4
 64
     7
 65
   257
 75
     1
175
     1
 42
1.0
 92
        8
 66
     7
 43
1.0
 76
     1
 77
     6
 78
     2
 67
     7
 79
     5
170
     0
171
     0
290
     0
174
     0
 93
        1
 44
50.0
173
     0
291
     1
 45
0.0
  0
VISUALSTYLE
  5
3A
102
{ACAD_REACTORS
330
2A
102
}
330
2A
100
AcDbVisualStyle
  2
ColorChange
 70
    16
 71
     2
 72
     2
 73
     3
 90
        0
 40
0.6
 41
30.0
 62
     5
 63
     8
421
  8421504
 74
     1
 91
        4
 64
     7
 65
   257
 75
     1
175
     1
 42
1.0
 92
        8
 66
     8
424
  8421504
 43
1.0
 76
     1
 77
     6
 78
     2
 67
     7
 79
     5
170
     0
171
     0
290
     0
174
     0
 93
        1
 44
0.0
173
     0
291
     1
 45
0.0
  0
VISUALSTYLE
  5
34
102
{ACAD_REACTORS
330
2A
102
}
330
2A
100
AcDbVisualStyle
  2
Conceptual
 70
     9
 71
     3
 72
     2
 73
     0
 90
        0
 40
0.6
 41
30.0
 62
     5
 63
     7
421
 16777215
 74
     2
 91
        2
 64
     7
 65
   257
 75
     1
175
     1
 42
179.0
 92
        8
 66
     7
 43
1.0
 76
     1
 77
     6
 78
     2
 67
     7
 79
     3
170
     0
171
     0
290
     0
174
     0
 93
        1
 44
0.0
173
     0
291
     0
 45
0.0
  0
VISUALSTYLE
  5
35
102
{ACAD_REACTORS
330
2A
102
}
330
2A
100
AcDbVisualStyle
  2
Dim
 70
    11
 71
     2
 72
     2
 73
     0
 90
        0
 40
0.6
 41
30.0
 62
     5
 63
     7
421
 16777215
 74
     1
 91
        4
 64
     7
 65
   257
 75
     1
175
     1
 42
1.0
 92
        8
 66
     7
 43
1.0
 76
     1
 77
     6
 78
     2
 67
     7
 79
     5
170
     0
171
     0
290
     0
174
     0
 93
        1
 44
-50.0
173
     0
291
     1
 45
0.0
  0
VISUALSTYLE
  5
3D
102
{ACAD_REACTORS
330
2A
102
}
330
2A
100
AcDbVisualStyle
  2
EdgeColorOff
 70
    22
 71
     2
 72
     2
 73
     0
 90
        0
 40
0.6
 41
30.0
 62
     5
 63
     7
421
 16777215
 74
     1
 91
        4
 64
     7
 65
   257
 75
     1
175
     1
 42
1.0
 92
        8
 66
     7
 43
1.0
 76
     1
 77
     6
 78
     2
 67
     7
 79
     5
170
     0
171
     0
290
     0
174
     0
 93
        1
 44
0.0
173
     0
291
     1
 45
0.0
  0
VISUALSTYLE
  5
39
102
{ACAD_REACTORS
330
2A
102
}
330
2A
100
AcDbVisualStyle
  2
Facepattern
 70
    15
 71
     2
 72
     2
 73
     0
 90
        0
 40
0.6
 41
30.0
 62
     5
 63
     7
421
 16777215
 74
     1
 91
        4
 64
     7
 65
   257
 75
     1
175
     1
 42
1.0
 92
        8
 66
     7
 43
1.0
 76
     1
 77
     6
 78
     2
 67
     7
 79
     5
170
     0
171
     0
290
     0
174
     0
 93
        1
 44
0.0
173
     0
291
     1
 45
0.0
  0
VISUALSTYLE
  5
2B
102
{ACAD_REACTORS
330
2A
102
}
330
2A
100
AcDbVisualStyle
  2
Flat
 70
     0
 71
     2
 72
     1
 73
     1
 90
        2
 40
0.6
 41
30.0
 62
     5
 63
     7
421
 16777215
 74
     0
 91
        0
 64
     7
 65
   257
 75
     1
175
     1
 42
1.0
 92
        8
 66
     7
 43
1.0
 76
     1
 77
     6
 78
     2
 67
     7
 79
     5
170
     0
171
     0
290
     0
174
     0
 93
       13
 44
0.0
173
     0
291
     1
 45
0.0
  0
VISUALSTYLE
  5
2C
102
{ACAD_REACTORS
330
2A
102
}
330
2A
100
AcDbVisualStyle
  2
FlatWithEdges
 70
     1
 71
     2
 72
     1
 73
     1
 90
        2
 40
0.6
 41
30.0
 62
     5
 63
     7
421
 16777215
 74
     1
 91
        0
 64
     7
 65
   257
 75
     1
175
     1
 42
1.0
 92
        0
 66
   257
 43
1.0
 76
     1
 77
     6
 78
     2
 67
     7
 79
     5
170
     0
171
     0
290
     0
174
     0
 93
       13
 44
0.0
173
     0
291
     1
 45
0.0
  0
VISUALSTYLE
  5
2D
102
{ACAD_REACTORS
330
2A
102
}
330
2A
100
AcDbVisualStyle
  2
Gouraud
 70
     2
 71
     2
 72
     2
 73
     1
 90
        2
 40
0.6
 41
30.0
 62
     5
 63
     7
421
 16777215
 74
     0
 91
        0
 64
     7
 65
   257
 75
     1
175
     1
 42
1.0
 92
        0
 66
     7
 43
1.0
 76
     1
 77
     6
 78
     2
 67
     7
 79
     5
170
     0
171
     0
290
     0
174
     0
 93
       13
 44
0.0
173
     0
291
     1
 45
0.0
  0
VISUALSTYLE
  5
2E
102
{ACAD_REACTORS
330
2A
102
}
330
2A
100
AcDbVisualStyle
  2
GouraudWithEdges
 70
     3
 71
     2
 72
     2
 73
     1
 90
        2
 40
0.6
 41
30.0
 62
     5
 63
     7
421
 16777215
 74
     1
 91
        0
 64
     7
 65
   257
 75
     1
175
     1
 42
1.0
 92
        0
 66
   257
 43
1.0
 76
     1
 77
     6
 78
     2
 67
     7
 79
     5
170
     0
171
     0
290
     0
174
     0
 93
       13
 44
0.0
173
     0
291
     1
 45
0.0
  0
VISUALSTYLE
  5
31
102
{ACAD_REACTORS
330
2A
102
}
330
2A
100
AcDbVisualStyle
  2
Hidden
 70
     6
 71
     1
 72
     2
 73
     2
 90
        0
 40
0.6
 41
30.0
 62
     5
 63
     7
421
 16777215
 74
     2
 91
        2
 64
     7
 65
   257
 75
     2
175
     1
 42
40.0
 92
        0
 66
   257
 43
1.0
 76
     1
 77
     6
 78
     2
 67
     7
 79
     3
170
     0
171
     0
290
     0
174
     0
 93
        1
 44
0.0
173
     0
291
     0
 45
0.0
  0
VISUALSTYLE
  5
3B
102
{ACAD_REACTORS
330
2A
102
}
330
2A
100
AcDbVisualStyle
  2
JitterOff
 70
    20
 71
     2
 72
     2
 73
     0
 90
        0
 40
0.6
 41
30.0
 62
     5
 63
     7
421
 16777215
 74
     1
 91
        4
 64
     7
 65
   257
 75
     1
175
     1
 42
1.0
 92
       10
 66
     7
 43
1.0
 76
     1
 77
     6
 78
     2
 67
     7
 79
     5
170
     0
171
     0
290
     0
174
     0
 93
        1
 44
0.0
173
     0
291
     1
 45
0.0
  0
VISUALSTYLE
  5
38
102
{ACAD_REACTORS
330
2A
102
}
330
2A
100
AcDbVisualStyle
  2
Linepattern
 70
    14
 71
     2
 72
     2
 73
     0
 90
        0
 40
0.6
 41
30.0
 62
     5
 63
     7
421
 16777215
 74
     1
 91
        4
 64
     7
 65
   257
 75
     7
175
     7
 42
1.0
 92
        8
 66
     7
 43
1.0
 76
     1
 77
     6
 78
     2
 67
     7
 79
     5
170
     0
171
     0
290
     0
174
     0
 93
        1
 44
0.0
173
     0
291
     1
 45
0.0
  0
VISUALSTYLE
  5
3C
102
{ACAD_REACTORS
330
2A
102
}
330
2A
100
AcDbVisualStyle
  2
OverhangOff
 70
    21
 71
     2
 72
     2
 73
     0
 90
        0
 40
0.6
 41
30.0
 62
     5
 63
     7
421
 16777215
 74
     1
 91
        4
 64
     7
 65
   257
 75
     1
175
     1
 42
1.0
 92
        9
 66
     7
 43
1.0
 76
     1
 77
     6
 78
     2
 67
     7
 79
     5
170
     0
171
     0
290
     0
174
     0
 93
        1
 44
0.0
173
     0
291
     1
 45
0.0
  0
VISUALSTYLE
  5
33
102
{ACAD_REACTORS
330
2A
102
}
330
2A
100
AcDbVisualStyle
  2
Realistic
 70
     8
 71
     2
 72
     3
 73
     0
 90
        2
 40
0.6
 41
30.0
 62
     5
 63
     7
421
 16777215
 74
     0
 91
        0
 64
     7
 65
   257
 75
     1
175
     1
 42
1.0
 92
        8
 66
   257
 43
1.0
 76
     1
 77
     6
 78
     2
 67
     7
 79
     3
170
     0
171
     0
290
     0
174
     0
 93
       13
 44
0.0
173
     0
291
     0
 45
0.0
  0
VISUALSTYLE
  5
42
102
{ACAD_REACTORS
330
2A
102
}
330
2A
100
AcDbVisualStyle
  2
Shaded
 70
    27
 71
     2
 72
     2
 73
     1
 90
        2
 40
0.6
 41
30.0
 62
     5
 63
     7
421
 16777215
 74
     0
 91
        4
 64
     7
 65
   257
 75
     1
175
     1
 42
1.0
 92
        8
 66
   257
 43
1.0
 76
     1
 77
     6
 78
     2
 67
     8
425
  7895160
 79
     3
170
     0
171
     0
290
     0
174
     0
 93
        5
 44
0.0
173
     0
291
     0
 45
0.0
  0
VISUALSTYLE
  5
41
102
{ACAD_REACTORS
330
2A
102
}
330
2A
100
AcDbVisualStyle
  2
Shaded with edges
 70
    26
 71
     2
 72
     2
 73
     1
 90
        2
 40
0.6
 41
30.0
 62
     5
 63
     7
421
 16777215
 74
     1
 91
       10
 64
     7
 65
   257
 75
     2
175
     1
 42
1.0
 92
        8
 66
   257
 43
1.0
 76
     1
 77
     6
 78
     2
 67
     7
 79
     3
170
     0
171
     0
290
     0
174
     0
 93
        5
 44
0.0
173
     0
291
     0
 45
0.0
  0
VISUALSTYLE
  5
3E
102
{ACAD_REACTORS
330
2A
102
}
330
2A
100
AcDbVisualStyle
  2
Shades of Gray
 70
    23
 71
     2
 72
     2
 73
     3
 90
        0
 40
0.6
 41
30.0
 62
     5
 63
     7
421
 16777215
 74
     2
 91
        2
 64
     7
 65
     7
 75
     1
175
     1
 42
40.0
 92
        8
 66
     7
 43
1.0
 76
     1
 77
     6
 78
     2
 67
     7
 79
     3
170
     0
171
     0
290
     0
174
     0
 93
        1
 44
0.0
173
     0
291
     0
 45
0.0
  0
VISUALSTYLE
  5
3F
102
{ACAD_REACTORS
330
2A
102
}
330
2A
100
AcDbVisualStyle
  2
Sketchy
 70
    24
 71
     1
 72
     2
 73
     2
 90
        0
 40
0.6
 41
30.0
 62
     5
 63
     7
421
 16777215
 74
     2
 91
        2
 64
     7
 65
     7
 75
     1
175
     1
 42
40.0
 92
       11
 66
     7
 43
1.0
 76
     1
 77
     6
 78
     2
 67
     7
 79
     6
170
     0
171
     0
290
     0
174
     0
 93
        1
 44
0.0
173
     0
291
     0
 45
0.0
  0
VISUALSTYLE
  5
37
102
{ACAD_REACTORS
330
2A
102
}
330
2A
100
AcDbVisualStyle
  2
Thicken
 70
    13
 71
     2
 72
     2
 73
     0
 90
        0
 40
0.6
 41
30.0
 62
     5
 63
     7
421
 16777215
 74
     1
 91
        4
 64
     7
 65
   257
 75
     1
175
     1
 42
1.0
 92
       12
 66
     7
 43
1.0
 76
     1
 77
     6
 78
     2
 67
     7
 79
     5
170
     0
171
     0
290
     0
174
     0
 93
        1
 44
0.0
173
     0
291
     1
 45
0.0
  0
VISUALSTYLE
  5
30
102
{ACAD_REACTORS
330
2A
102
}
330
2A
100
AcDbVisualStyle
  2
Wireframe
 70
     5
 71
     0
 72
     2
 73
     0
 90
        0
 40
0.6
 41
30.0
 62
     5
 63
     7
421
 16777215
 74
     1
 91
        4
 64
     7
 65
   257
 75
     1
175
     1
 42
1.0
 92
        0
 66
   257
 43
1.0
 76
     1
 77
     6
 78
     2
 67
     7
 79
     3
170
     0
171
     0
290
     0
174
     0
 93
        1
 44
0.0
173
     0
291
     0
 45
0.0
  0
VISUALSTYLE
  5
40
102
{ACAD_REACTORS
330
2A
102
}
330
2A
100
AcDbVisualStyle
  2
X-Ray
 70
    25
 71
     2
 72
     2
 73
     1
 90
        1
 40
0.5
 41
30.0
 62
     5
 63
     7
421
 16777215
 74
     1
 91
        0
 64
     7
 65
   257
 75
     1
175
     1
 42
1.0
 92
        8
 66
     7
 43
1.0
 76
     1
 77
     6
 78
     2
 67
     7
 79
     3
170
     0
171
     0
290
     0
174
     0
 93
       13
 44
0.0
173
     0
291
     0
 45
0.0
  0
DICTIONARYVAR
  5
1EC
102
{ACAD_REACTORS
330
1EB
102
}
330
1EB
100
DictionaryVariables
280
     0
  1
1:1
  0
DICTIONARYVAR
  5
1F2
102
{ACAD_REACTORS
330
1EB
102
}
330
1EB
100
DictionaryVariables
280
     0
  1
Standard
  0
DICTIONARYVAR
  5
1F1
102
{ACAD_REACTORS
330
1EB
102
}
330
1EB
100
DictionaryVariables
280
     0
  1
Standard
  0
DICTIONARY
  5
1ED
330
6A
100
AcDbDictionary
280
     1
281
     1
  3
ACAD_ROUNDTRIP_2008_TABLESTYLE_CELLSTYLEMAP
360
1EE
  0
CELLSTYLEMAP
  5
1EE
102
{ACAD_REACTORS
330
1ED
102
}
330
1ED
100
AcDbCellStyleMap
 90
        3
300
CELLSTYLE
  1
TABLEFORMAT_BEGIN
 90
        5
170
     1
 91
        0
 92
    32768
 62
   257
 93
        1
300
CONTENTFORMAT
  1
CONTENTFORMAT_BEGIN
 90
        0
 91
        0
 92
        4
 93
        0
300

 40
0.0
140
1.0
 94
        5
 62
     0
340
11
144
6.0
309
CONTENTFORMAT_END
171
     1
301
MARGIN
  1
CELLMARGIN_BEGIN
 40
1.5
 40
1.5
 40
1.5
 40
1.5
 40
1.5
 40
1.5
309
CELLMARGIN_END
 94
        6
 95
        1
302
GRIDFORMAT
  1
GRIDFORMAT_BEGIN
 90
        0
 91
        1
 62
     0
 92
       -2
340
14
 93
        0
 40
0.045
309
GRIDFORMAT_END
 95
        2
302
GRIDFORMAT
  1
GRIDFORMAT_BEGIN
 90
        0
 91
        1
 62
     0
 92
       -2
340
14
 93
        0
 40
0.045
309
GRIDFORMAT_END
 95
        4
302
GRIDFORMAT
  1
GRIDFORMAT_BEGIN
 90
        0
 91
        1
 62
     0
 92
       -2
340
14
 93
        0
 40
0.045
309
GRIDFORMAT_END
 95
        8
302
GRIDFORMAT
  1
GRIDFORMAT_BEGIN
 90
        0
 91
        1
 62
     0
 92
       -2
340
14
 93
        0
 40
0.045
309
GRIDFORMAT_END
 95
       16
302
GRIDFORMAT
  1
GRIDFORMAT_BEGIN
 90
        0
 91
        1
 62
     0
 92
       -2
340
14
 93
        0
 40
0.045
309
GRIDFORMAT_END
 95
       32
302
GRIDFORMAT
  1
GRIDFORMAT_BEGIN
 90
        0
 91
        1
 62
     0
 92
       -2
340
14
 93
        0
 40
0.045
309
GRIDFORMAT_END
309
TABLEFORMAT_END
  1
CELLSTYLE_BEGIN
 90
        1
 91
        1
300
_TITLE
309
CELLSTYLE_END
300
CELLSTYLE
  1
TABLEFORMAT_BEGIN
 90
        5
170
     1
 91
        0
 92
        0
 62
   257
 93
        1
300
CONTENTFORMAT
  1
CONTENTFORMAT_BEGIN
 90
        0
 91
        0
 92
        4
 93
        0
300

 40
0.0
140
1.0
 94
        5
 62
     0
340
11
144
4.5
309
CONTENTFORMAT_END
171
     1
301
MARGIN
  1
CELLMARGIN_BEGIN
 40
1.5
 40
1.5
 40
1.5
 40
1.5
 40
1.5
 40
1.5
309
CELLMARGIN_END
 94
        6
 95
        1
302
GRIDFORMAT
  1
GRIDFORMAT_BEGIN
 90
        0
 91
        1
 62
     0
 92
       -2
340
14
 93
        0
 40
0.045
309
GRIDFORMAT_END
 95
        2
302
GRIDFORMAT
  1
GRIDFORMAT_BEGIN
 90
        0
 91
        1
 62
     0
 92
       -2
340
14
 93
        0
 40
0.045
309
GRIDFORMAT_END
 95
        4
302
GRIDFORMAT
  1
GRIDFORMAT_BEGIN
 90
        0
 91
        1
 62
     0
 92
       -2
340
14
 93
        0
 40
0.045
309
GRIDFORMAT_END
 95
        8
302
GRIDFORMAT
  1
GRIDFORMAT_BEGIN
 90
        0
 91
        1
 62
     0
 92
       -2
340
14
 93
        0
 40
0.045
309
GRIDFORMAT_END
 95
       16
302
GRIDFORMAT
  1
GRIDFORMAT_BEGIN
 90
        0
 91
        1
 62
     0
 92
       -2
340
14
 93
        0
 40
0.045
309
GRIDFORMAT_END
 95
       32
302
GRIDFORMAT
  1
GRIDFORMAT_BEGIN
 90
        0
 91
        1
 62
     0
 92
       -2
340
14
 93
        0
 40
0.045
309
GRIDFORMAT_END
309
TABLEFORMAT_END
  1
CELLSTYLE_BEGIN
 90
        2
 91
        1
300
_HEADER
309
CELLSTYLE_END
300
CELLSTYLE
  1
TABLEFORMAT_BEGIN
 90
        5
170
     1
 91
        0
 92
        0
 62
   257
 93
        1
300
CONTENTFORMAT
  1
CONTENTFORMAT_BEGIN
 90
        0
 91
        0
 92
        4
 93
        0
300

 40
0.0
140
1.0
 94
        2
 62
     0
340
11
144
4.5
309
CONTENTFORMAT_END
171
     1
301
MARGIN
  1
CELLMARGIN_BEGIN
 40
1.5
 40
1.5
 40
1.5
 40
1.5
 40
1.5
 40
1.5
309
CELLMARGIN_END
 94
        6
 95
        1
302
GRIDFORMAT
  1
GRIDFORMAT_BEGIN
 90
        0
 91
        1
 62
     0
 92
       -2
340
14
 93
        0
 40
0.045
309
GRIDFORMAT_END
 95
        2
302
GRIDFORMAT
  1
GRIDFORMAT_BEGIN
 90
        0
 91
        1
 62
     0
 92
       -2
340
14
 93
        0
 40
0.045
309
GRIDFORMAT_END
 95
        4
302
GRIDFORMAT
  1
GRIDFORMAT_BEGIN
 90
        0
 91
        1
 62
     0
 92
       -2
340
14
 93
        0
 40
0.045
309
GRIDFORMAT_END
 95
        8
302
GRIDFORMAT
  1
GRIDFORMAT_BEGIN
 90
        0
 91
        1
 62
     0
 92
       -2
340
14
 93
        0
 40
0.045
309
GRIDFORMAT_END
 95
       16
302
GRIDFORMAT
  1
GRIDFORMAT_BEGIN
 90
        0
 91
        1
 62
     0
 92
       -2
340
14
 93
        0
 40
0.045
309
GRIDFORMAT_END
 95
       32
302
GRIDFORMAT
  1
GRIDFORMAT_BEGIN
 90
        0
 91
        1
 62
     0
 92
       -2
340
14
 93
        0
 40
0.045
309
GRIDFORMAT_END
309
TABLEFORMAT_END
  1
CELLSTYLE_BEGIN
 90
        3
 91
        2
300
_DATA
309
CELLSTYLE_END
  0
ENDSEC
  0
EOF
