  0
SECTION
  2
HEADER
  9
$ACADVER
  1
AC1021
  9
$ACADMAINTVER
 70
    25
  9
$DWGCODEPAGE
  3
ANSI_1250
  9
$INSBASE
 10
0.0
 20
0.0
 30
0.0
  9
$EXTMIN
 10
0.0
 20
0.0
 30
0.0
  9
$EXTMAX
 10
0.21
 20
0.297
 30
0.0
  9
$LIMMIN
 10
0.0
 20
0.0
  9
$LIMMAX
 10
0.21
 20
0.297
  9
$ORTHOMODE
 70
     0
  9
$REGENMODE
 70
     1
  9
$FILLMODE
 70
     1
  9
$QTEXTMODE
 70
     0
  9
$MIRRTEXT
 70
     1
  9
$LTSCALE
 40
1.0
  9
$ATTMODE
 70
     1
  9
$TEXTSIZE
 40
0.0035
  9
$TRACEWID
 40
1.0
  9
$TEXTSTYLE
  7
Standard
  9
$CLAYER
  8
0
  9
$CELTYPE
  6
ByLayer
  9
$CECOLOR
 62
   256
  9
$CELTSCALE
 40
1.0
  9
$DISPSILH
 70
     0
  9
$DIMSCALE
 40
1.0
  9
$DIMASZ
 40
0.003302
  9
$DIMEXO
 40
0.001
  9
$DIMDLI
 40
3.75
  9
$DIMRND
 40
0.0
  9
$DIMDLE
 40
0.0
  9
$DIMEXE
 40
0.001
  9
$DIMTP
 40
0.0
  9
$DIMTM
 40
0.0
  9
$DIMTXT
 40
0.0035
  9
$DIMCEN
 40
2.5
  9
$DIMTSZ
 40
0.0
  9
$DIMTOL
 70
     0
  9
$DIMLIM
 70
     0
  9
$DIMTIH
 70
     1
  9
$DIMTOH
 70
     1
  9
$DIMSE1
 70
     0
  9
$DIMSE2
 70
     0
  9
$DIMTAD
 70
     1
  9
$DIMZIN
 70
     0
  9
$DIMBLK
  1

  9
$DIMASO
 70
     1
  9
$DIMSHO
 70
     1
  9
$DIMPOST
  1

  9
$DIMAPOST
  1

  9
$DIMALT
 70
     0
  9
$DIMALTD
 70
     3
  9
$DIMALTF
 40
39.3700787402
  9
$DIMLFAC
 40
50.0
  9
$DIMTOFL
 70
     1
  9
$DIMTVP
 40
0.0
  9
$DIMTIX
 70
     0
  9
$DIMSOXD
 70
     0
  9
$DIMSAH
 70
     0
  9
$DIMBLK1
  1

  9
$DIMBLK2
  1

  9
$DIMSTYLE
  2
ISO-25
  9
$DIMCLRD
 70
     0
  9
$DIMCLRE
 70
     0
  9
$DIMCLRT
 70
     0
  9
$DIMTFAC
 40
1.0
  9
$DIMGAP
 40
0.001524
  9
$DIMJUST
 70
     0
  9
$DIMSD1
 70
     0
  9
$DIMSD2
 70
     0
  9
$DIMTOLJ
 70
     0
  9
$DIMTZIN
 70
     0
  9
$DIMALTZ
 70
     0
  9
$DIMALTTZ
 70
     0
  9
$DIMUPT
 70
     0
  9
$DIMDEC
 70
     2
  9
$DIMTDEC
 70
     2
  9
$DIMALTU
 70
     2
  9
$DIMALTTD
 70
     3
  9
$DIMTXSTY
  7
Standard
  9
$DIMAUNIT
 70
     0
  9
$DIMADEC
 70
     2
  9
$DIMALTRND
 40
0.0
  9
$DIMAZIN
 70
     0
  9
$DIMDSEP
 70
    44
  9
$DIMATFIT
 70
     3
  9
$DIMFRAC
 70
     0
  9
$DIMLDRBLK
  1

  9
$DIMLUNIT
 70
     2
  9
$DIMLWD
 70
    -2
  9
$DIMLWE
 70
    -2
  9
$DIMTMOVE
 70
     0
  9
$DIMFXL
 40
1.0
  9
$DIMFXLON
 70
     0
  9
$DIMJOGANG
 40
0.7853981634
  9
$DIMTFILL
 70
     0
  9
$DIMTFILLCLR
 70
     0
  9
$DIMARCSYM
 70
     0
  9
$DIMLTYPE
  6

  9
$DIMLTEX1
  6

  9
$DIMLTEX2
  6

  9
$LUNITS
 70
     2
  9
$LUPREC
 70
     2
  9
$SKETCHINC
 40
1.0
  9
$FILLETRAD
 40
10.0
  9
$AUNITS
 70
     0
  9
$AUPREC
 70
     2
  9
$MENU
  1
.
  9
$ELEVATION
 40
0.0
  9
$PELEVATION
 40
0.0
  9
$THICKNESS
 40
0.0
  9
$LIMCHECK
 70
     0
  9
$CHAMFERA
 40
0.0
  9
$CHAMFERB
 40
0.0
  9
$CHAMFERC
 40
0.0
  9
$CHAMFERD
 40
0.0
  9
$SKPOLY
 70
     0
  9
$TDCREATE
 40
2458074.525529352
  9
$TDUCREATE
 40
2458074.483862685
  9
$TDUPDATE
 40
2458074.525529595
  9
$TDUUPDATE
 40
2458074.483862928
  9
$TDINDWG
 40
0.0000000116
  9
$TDUSRTIMER
 40
0.0000000116
  9
$USRTIMER
 70
     1
  9
$ANGBASE
 50
0.0
  9
$ANGDIR
 70
     0
  9
$PDMODE
 70
     0
  9
$PDSIZE
 40
-1.0
  9
$PLINEWID
 40
0.0
  9
$SPLFRAME
 70
     0
  9
$SPLINETYPE
 70
     6
  9
$SPLINESEGS
 70
     8
  9
$HANDSEED
  5
20E
  9
$SURFTAB1
 70
     6
  9
$SURFTAB2
 70
     6
  9
$SURFTYPE
 70
     6
  9
$SURFU
 70
     6
  9
$SURFV
 70
     6
  9
$UCSBASE
  2

  9
$UCSNAME
  2

  9
$UCSORG
 10
0.0
 20
0.0
 30
0.0
  9
$UCSXDIR
 10
1.0
 20
0.0
 30
0.0
  9
$UCSYDIR
 10
0.0
 20
1.0
 30
0.0
  9
$UCSORTHOREF
  2

  9
$UCSORTHOVIEW
 70
     0
  9
$UCSORGTOP
 10
0.0
 20
0.0
 30
0.0
  9
$UCSORGBOTTOM
 10
0.0
 20
0.0
 30
0.0
  9
$UCSORGLEFT
 10
0.0
 20
0.0
 30
0.0
  9
$UCSORGRIGHT
 10
0.0
 20
0.0
 30
0.0
  9
$UCSORGFRONT
 10
0.0
 20
0.0
 30
0.0
  9
$UCSORGBACK
 10
0.0
 20
0.0
 30
0.0
  9
$PUCSBASE
  2

  9
$PUCSNAME
  2

  9
$PUCSORG
 10
0.0
 20
0.0
 30
0.0
  9
$PUCSXDIR
 10
1.0
 20
0.0
 30
0.0
  9
$PUCSYDIR
 10
0.0
 20
1.0
 30
0.0
  9
$PUCSORTHOREF
  2

  9
$PUCSORTHOVIEW
 70
     0
  9
$PUCSORGTOP
 10
0.0
 20
0.0
 30
0.0
  9
$PUCSORGBOTTOM
 10
0.0
 20
0.0
 30
0.0
  9
$PUCSORGLEFT
 10
0.0
 20
0.0
 30
0.0
  9
$PUCSORGRIGHT
 10
0.0
 20
0.0
 30
0.0
  9
$PUCSORGFRONT
 10
0.0
 20
0.0
 30
0.0
  9
$PUCSORGBACK
 10
0.0
 20
0.0
 30
0.0
  9
$USERI1
 70
     0
  9
$USERI2
 70
     0
  9
$USERI3
 70
     0
  9
$USERI4
 70
     0
  9
$USERI5
 70
     0
  9
$USERR1
 40
0.0
  9
$USERR2
 40
0.0
  9
$USERR3
 40
0.0
  9
$USERR4
 40
0.0
  9
$USERR5
 40
0.0
  9
$WORLDVIEW
 70
     1
  9
$SHADEDGE
 70
     3
  9
$SHADEDIF
 70
    70
  9
$TILEMODE
 70
     1
  9
$MAXACTVP
 70
    64
  9
$PINSBASE
 10
0.0
 20
0.0
 30
0.0
  9
$PLIMCHECK
 70
     0
  9
$PEXTMIN
 10
1.0000000000E+20
 20
1.0000000000E+20
 30
1.0000000000E+20
  9
$PEXTMAX
 10
-1.0000000000E+20
 20
-1.0000000000E+20
 30
-1.0000000000E+20
  9
$PLIMMIN
 10
0.0
 20
0.0
  9
$PLIMMAX
 10
420.0
 20
297.0
  9
$UNITMODE
 70
     0
  9
$VISRETAIN
 70
     1
  9
$PLINEGEN
 70
     0
  9
$PSLTSCALE
 70
     1
  9
$TREEDEPTH
 70
  3020
  9
$CMLSTYLE
  2
Standard
  9
$CMLJUST
 70
     0
  9
$CMLSCALE
 40
20.0
  9
$PROXYGRAPHICS
 70
     1
  9
$MEASUREMENT
 70
     1
  9
$CELWEIGHT
370
    -1
  9
$ENDCAPS
280
     0
  9
$JOINSTYLE
280
     0
  9
$LWDISPLAY
290
     1
  9
$INSUNITS
 70
     4
  9
$HYPERLINKBASE
  1

  9
$STYLESHEET
  1

  9
$XEDIT
290
     1
  9
$CEPSNTYPE
380
     0
  9
$PSTYLEMODE
290
     1
  9
$FINGERPRINTGUID
  2
{8B92B742-CC33-4446-A72D-9C059EF23A16}
  9
$VERSIONGUID
  2
{FAEB1C32-E019-11D5-929B-00C0DF256EC4}
  9
$EXTNAMES
290
     1
  9
$PSVPSCALE
 40
0.0
  9
$OLESTARTUP
290
     0
  9
$SORTENTS
280
   127
  9
$INDEXCTL
280
     0
  9
$HIDETEXT
280
     1
  9
$XCLIPFRAME
290
     0
  9
$HALOGAP
280
     0
  9
$OBSCOLOR
 70
   257
  9
$OBSLTYPE
280
     0
  9
$INTERSECTIONDISPLAY
280
     0
  9
$INTERSECTIONCOLOR
 70
   257
  9
$DIMASSOC
280
     2
  9
$PROJECTNAME
  1

  9
$CAMERADISPLAY
290
     0
  9
$LENSLENGTH
 40
50.0
  9
$CAMERAHEIGHT
 40
0.0
  9
$STEPSPERSEC
 40
2.0
  9
$STEPSIZE
 40
6.0
  9
$3DDWFPREC
 40
2.0
  9
$PSOLWIDTH
 40
5.0
  9
$PSOLHEIGHT
 40
80.0
  9
$LOFTANG1
 40
1.5707963268
  9
$LOFTANG2
 40
1.5707963268
  9
$LOFTMAG1
 40
0.0
  9
$LOFTMAG2
 40
0.0
  9
$LOFTPARAM
 70
     7
  9
$LOFTNORMALS
280
     1
  9
$LATITUDE
 40
37.795
  9
$LONGITUDE
 40
-122.394
  9
$NORTHDIRECTION
 40
0.0
  9
$TIMEZONE
 70
 -8000
  9
$LIGHTGLYPHDISPLAY
280
     1
  9
$TILEMODELIGHTSYNCH
280
     1
  9
$CMATERIAL
347
44
  9
$SOLIDHIST
280
     0
  9
$SHOWHIST
280
     1
  9
$DWFFRAME
280
     2
  9
$DGNFRAME
280
     2
  9
$REALWORLDSCALE
290
     1
  9
$INTERFERECOLOR
 62
   256
  9
$CSHADOW
280
     0
  9
$SHADOWPLANELOCATION
 40
0.0
  0
ENDSEC
  0
SECTION
  2
CLASSES
  0
CLASS
  1
ACDBDICTIONARYWDFLT
  2
AcDbDictionaryWithDefault
  3
ObjectDBX Classes
 90
        0
 91
        4
280
     0
281
     0
  0
CLASS
  1
VISUALSTYLE
  2
AcDbVisualStyle
  3
ObjectDBX Classes
 90
     4095
 91
        4
280
     0
281
     0
  0
CLASS
  1
MATERIAL
  2
AcDbMaterial
  3
ObjectDBX Classes
 90
     1153
 91
        4
280
     0
281
     0
  0
CLASS
  1
SCALE
  2
AcDbScale
  3
ObjectDBX Classes
 90
     1153
 91
        4
280
     0
281
     0
  0
CLASS
  1
TABLESTYLE
  2
AcDbTableStyle
  3
ObjectDBX Classes
 90
     4095
 91
        4
280
     0
281
     0
  0
CLASS
  1
MLEADERSTYLE
  2
AcDbMLeaderStyle
  3
ACDB_MLEADERSTYLE_CLASS
 90
     4095
 91
        4
280
     0
281
     0
  0
CLASS
  1
SUN
  2
AcDbSun
  3
SCENEOE
 90
     1153
 91
        4
280
     0
281
     0
  0
CLASS
  1
DICTIONARYVAR
  2
AcDbDictionaryVar
  3
ObjectDBX Classes
 90
        0
 91
        4
280
     0
281
     0
  0
CLASS
  1
CELLSTYLEMAP
  2
AcDbCellStyleMap
  3
ObjectDBX Classes
 90
     1152
 91
        4
280
     0
281
     0
  0
ENDSEC
  0
SECTION
  2
TABLES
  0
TABLE
  2
VPORT
  5
8
330
0
100
AcDbSymbolTable
 70
     1
  0
VPORT
  5
29
330
8
100
AcDbSymbolTableRecord
100
AcDbViewportTableRecord
  2
*Active
 70
     0
 10
0.0
 20
0.0
 11
1.0
 21
1.0
 12
0.105
 22
0.1485
 13
0.0
 23
0.0
 14
10.0
 24
10.0
 15
10.0
 25
10.0
 16
0.0
 26
0.0
 36
1.0
 17
0.0
 27
0.0
 37
0.0
 40
0.297
 41
0.7070707071
 42
50.0
 43
0.0
 44
0.0
 50
0.0
 51
0.0
 71
     0
 72
  2000
 73
     1
 74
     3
 75
     0
 76
     0
 77
     0
 78
     0
281
     0
 65
     1
110
0.0
120
0.0
130
0.0
111
1.0
121
0.0
131
0.0
112
0.0
122
1.0
132
0.0
 79
     0
146
0.0
 60
     3
 61
     5
292
     1
282
     1
141
0.0
142
0.0
 63
   250
361
6D
  0
ENDTAB
  0
TABLE
  2
LTYPE
  5
5
330
0
100
AcDbSymbolTable
 70
     6
  0
LTYPE
  5
14
330
5
100
AcDbSymbolTableRecord
100
AcDbLinetypeTableRecord
  2
ByBlock
 70
     0
  3

 72
    65
 73
     0
 40
0.0
  0
LTYPE
  5
15
330
5
100
AcDbSymbolTableRecord
100
AcDbLinetypeTableRecord
  2
ByLayer
 70
     0
  3

 72
    65
 73
     0
 40
0.0
  0
LTYPE
  5
16
330
5
100
AcDbSymbolTableRecord
100
AcDbLinetypeTableRecord
  2
Continuous
 70
     0
  3
Solid line
 72
    65
 73
     0
 40
0.0
  0
LTYPE
  5
6E
330
5
100
AcDbSymbolTableRecord
100
AcDbLinetypeTableRecord
  2
HIDDEN
 70
     0
  3
Hidden __ __ __ __ __ __ __ __ __ __ __ __ __ __
 72
    65
 73
     2
 40
0.001905
 49
0.00127
 74
     0
 49
-0.000635
 74
     0
  0
LTYPE
  5
6F
330
5
100
AcDbSymbolTableRecord
100
AcDbLinetypeTableRecord
  2
PHANTOM
 70
     0
  3
Phantom ______  __  __  ______  __  __  ______
 72
    65
 73
     6
 40
0.0127
 49
0.00635
 74
     0
 49
-0.00127
 74
     0
 49
0.00127
 74
     0
 49
-0.00127
 74
     0
 49
0.00127
 74
     0
 49
-0.00127
 74
     0
  0
LTYPE
  5
70
330
5
100
AcDbSymbolTableRecord
100
AcDbLinetypeTableRecord
  2
CENTER
 70
     0
  3
Center ____ _ ____ _ ____ _ ____ _ ____ _ ____
 72
    65
 73
     4
 40
0.01016
 49
0.00635
 74
     0
 49
-0.00127
 74
     0
 49
0.00127
 74
     0
 49
-0.00127
 74
     0
  0
LTYPE
  5
71
330
5
100
AcDbSymbolTableRecord
100
AcDbLinetypeTableRecord
  2
CENTERX2
 70
     0
  3
Center (2x) ________  __  ________  __  _____
 72
    65
 73
     4
 40
0.02032
 49
0.0127
 74
     0
 49
-0.00254
 74
     0
 49
0.00254
 74
     0
 49
-0.00254
 74
     0
  0
LTYPE
  5
72
330
5
100
AcDbSymbolTableRecord
100
AcDbLinetypeTableRecord
  2
DOT2
 70
     0
  3
Dot (.5x) ........................................
 72
    65
 73
     2
 40
0.000635
 49
0.0
 74
     0
 49
-0.000635
 74
     0
  0
ENDTAB
  0
TABLE
  2
LAYER
  5
2
330
0
100
AcDbSymbolTable
 70
     1
  0
LAYER
  5
10
330
2
100
AcDbSymbolTableRecord
100
AcDbLayerTableRecord
  2
0
 70
     0
 62
     7
  6
Continuous
370
    -3
390
F
347
46
  0
ENDTAB
  0
TABLE
  2
STYLE
  5
3
330
0
100
AcDbSymbolTable
 70
     1
  0
STYLE
  5
11
330
3
100
AcDbSymbolTableRecord
100
AcDbTextStyleTableRecord
  2
Standard
 70
     0
 40
0.0
 41
1.0
 50
0.0
 71
     0
 42
0.0035
  3
txt
  4

  0
ENDTAB
  0
TABLE
  2
VIEW
  5
6
330
0
100
AcDbSymbolTable
 70
     0
  0
ENDTAB
  0
TABLE
  2
UCS
  5
7
330
0
100
AcDbSymbolTable
 70
     0
  0
ENDTAB
  0
TABLE
  2
APPID
  5
9
330
0
100
AcDbSymbolTable
 70
     2
  0
APPID
  5
12
330
9
100
AcDbSymbolTableRecord
100
AcDbRegAppTableRecord
  2
ACAD
 70
     0
  0
APPID
  5
208
330
9
100
AcDbSymbolTableRecord
100
AcDbRegAppTableRecord
  2
ACAD_MLEADERVER
 70
     0
  0
ENDTAB
  0
TABLE
  2
DIMSTYLE
  5
A
330
0
100
AcDbSymbolTable
 70
     1
100
AcDbDimStyleTable
  0
DIMSTYLE
105
27
330
A
100
AcDbSymbolTableRecord
100
AcDbDimStyleTableRecord
  2
ISO-25
 70
     0
 41
2.5
 42
0.625
 43
3.75
 44
1.25
 73
     0
 74
     0
 77
     1
 78
     8
140
2.5
141
2.5
143
0.0393700787
147
0.625
171
     3
172
     1
178
     0
271
     2
272
     2
274
     3
278
    44
283
     0
284
     8
340
11
  0
ENDTAB
  0
TABLE
  2
BLOCK_RECORD
  5
1
330
0
100
AcDbSymbolTable
 70
     1
  0
BLOCK_RECORD
  5
1F
330
1
100
AcDbSymbolTableRecord
100
AcDbBlockTableRecord
  2
*Model_Space
340
22
 70
     0
280
     1
281
     0
  0
BLOCK_RECORD
  5
1B
330
1
100
AcDbSymbolTableRecord
100
AcDbBlockTableRecord
  2
*Paper_Space
340
1E
 70
     0
280
     1
281
     0
  0
BLOCK_RECORD
  5
23
330
1
100
AcDbSymbolTableRecord
100
AcDbBlockTableRecord
  2
*Paper_Space0
340
26
 70
     0
280
     1
281
     0
  0
ENDTAB
  0
ENDSEC
  0
SECTION
  2
BLOCKS
  0
BLOCK
  5
20
330
1F
100
AcDbEntity
  8
0
100
AcDbBlockBegin
  2
*Model_Space
 70
     0
 10
0.0
 20
0.0
 30
0.0
  3
*Model_Space
  1

  0
ENDBLK
  5
21
330
1F
100
AcDbEntity
  8
0
100
AcDbBlockEnd
  0
BLOCK
  5
1C
330
1B
100
AcDbEntity
 67
     1
  8
0
100
AcDbBlockBegin
  2
*Paper_Space
 70
     0
 10
0.0
 20
0.0
 30
0.0
  3
*Paper_Space
  1

  0
ENDBLK
  5
1D
330
1B
100
AcDbEntity
 67
     1
  8
0
100
AcDbBlockEnd
  0
BLOCK
  5
24
330
23
100
AcDbEntity
  8
0
100
AcDbBlockBegin
  2
*Paper_Space0
 70
     0
 10
0.0
 20
0.0
 30
0.0
  3
*Paper_Space0
  1

  0
ENDBLK
  5
25
330
23
100
AcDbEntity
  8
0
100
AcDbBlockEnd
  0
ENDSEC
  0
SECTION
  2
ENTITIES
  0
LINE
  5
73
330
1F
100
AcDbEntity
  8
0
  6
Continuous
 62
     7
370
    25
100
AcDbLine
 10
0.0849901675
 20
0.187889408
 30
0.0
 11
0.0849901675
 21
0.1844287376
 31
0.0
  0
LINE
  5
74
330
1F
100
AcDbEntity
  8
0
  6
Continuous
 62
     7
370
    25
100
AcDbLine
 10
0.0861961675
 20
0.1844287376
 30
0.0
 11
0.0861961675
 21
0.187889408
 31
0.0
  0
LINE
  5
75
330
1F
100
AcDbEntity
  8
0
  6
Continuous
 62
     7
370
    25
100
AcDbLine
 10
0.0861961675
 20
0.187889408
 30
0.0
 11
0.0861961675
 21
0.1939959039
 31
0.0
  0
LINE
  5
76
330
1F
100
AcDbEntity
  8
0
  6
Continuous
 62
     7
370
    25
100
AcDbLine
 10
0.0849901675
 20
0.1939959039
 30
0.0
 11
0.0849901675
 21
0.187889408
 31
0.0
  0
LINE
  5
77
330
1F
100
AcDbEntity
  8
0
  6
Continuous
 62
     7
370
    25
100
AcDbLine
 10
0.0923835932
 20
0.1845989039
 30
0.0
 11
0.0861961675
 21
0.1845989039
 31
0.0
  0
LINE
  5
78
330
1F
100
AcDbEntity
  8
0
  6
Continuous
 62
     7
370
    25
100
AcDbLine
 10
0.0849901675
 20
0.1845989039
 30
0.0
 11
0.0788027418
 21
0.1845989039
 31
0.0
  0
LINE
  5
79
330
1F
100
AcDbEntity
  8
0
  6
Continuous
 62
     7
370
    25
100
AcDbLine
 10
0.0793501155
 20
0.1833929039
 30
0.0
 11
0.0918362195
 21
0.1833929039
 31
0.0
  0
ARC
  5
7A
330
1F
100
AcDbEntity
  8
0
  6
Continuous
 62
     7
370
    25
100
AcDbCircle
 10
0.0712223955
 20
0.1806560863
 30
0.0
 40
0.0004238454434675
100
AcDbArc
 50
0.0
 51
66.7956588034
  0
ARC
  5
7B
330
1F
100
AcDbEntity
  8
0
  6
Continuous
 62
     7
370
    25
100
AcDbCircle
 10
0.0712223955
 20
0.1806560863
 30
0.0
 40
0.0004238454434675
100
AcDbArc
 50
113.2043411966
 51
246.7956588034
  0
ARC
  5
7C
330
1F
100
AcDbEntity
  8
0
  6
Continuous
 62
     7
370
    25
100
AcDbCircle
 10
0.0712223955
 20
0.1806560863
 30
0.0
 40
0.0004238454434675
100
AcDbArc
 50
293.2043411966
 51
0.0
  0
ARC
  5
7D
330
1F
100
AcDbEntity
  8
0
  6
Continuous
 62
     7
370
    25
100
AcDbCircle
 10
0.0648516235
 20
0.1762360863
 30
0.0
 40
0.0004238454434675
100
AcDbArc
 50
23.2043411966
 51
66.7956588034
  0
ARC
  5
7E
330
1F
100
AcDbEntity
  8
0
  6
Continuous
 62
     7
370
    25
100
AcDbCircle
 10
0.0648516235
 20
0.1762360863
 30
0.0
 40
0.0004238454434675
100
AcDbArc
 50
113.2043411966
 51
246.7956588034
  0
ARC
  5
7F
330
1F
100
AcDbEntity
  8
0
  6
Continuous
 62
     7
370
    25
100
AcDbCircle
 10
0.0648516235
 20
0.1762360863
 30
0.0
 40
0.0004238454434675
100
AcDbArc
 50
293.2043411966
 51
336.7956588034
  0
ARC
  5
80
330
1F
100
AcDbEntity
  8
0
  6
Continuous
 62
     7
370
    25
100
AcDbCircle
 10
0.0743369278
 20
0.1835854475
 30
0.0
 40
0.0004238454434675
100
AcDbArc
 50
0.2767391304
 51
247.0723979338
  0
ARC
  5
81
330
1F
100
AcDbEntity
  8
0
  6
Continuous
 62
     7
370
    25
100
AcDbCircle
 10
0.0743369278
 20
0.1835854475
 30
0.0
 40
0.0004238454434675
100
AcDbArc
 50
293.4810803271
 51
314.286909486
  0
ARC
  5
82
330
1F
100
AcDbEntity
  8
0
  6
Continuous
 62
     7
370
    25
100
AcDbCircle
 10
0.1145861582
 20
0.1839959039
 30
0.0
 40
0.0004238454434675
100
AcDbArc
 50
203.2043411966
 51
336.7956588034
  0
ARC
  5
83
330
1F
100
AcDbEntity
  8
0
  6
Continuous
 62
     7
370
    25
100
AcDbCircle
 10
0.1145861582
 20
0.1839959039
 30
0.0
 40
0.0004238454434675
100
AcDbArc
 50
23.2043411966
 51
156.7956588034
  0
ARC
  5
84
330
1F
100
AcDbEntity
  8
0
  6
Continuous
 62
     7
370
    25
100
AcDbCircle
 10
0.1046001768
 20
0.1679959039
 30
0.0
 40
0.0004238454434675
100
AcDbArc
 50
270.0
 51
336.7956588034
  0
ARC
  5
85
330
1F
100
AcDbEntity
  8
0
  6
Continuous
 62
     7
370
    25
100
AcDbCircle
 10
0.1046001768
 20
0.1679959039
 30
0.0
 40
0.0004238454434675
100
AcDbArc
 50
23.2043411966
 51
156.7956588034
  0
ARC
  5
86
330
1F
100
AcDbEntity
  8
0
  6
Continuous
 62
     7
370
    25
100
AcDbCircle
 10
0.1046001768
 20
0.1679959039
 30
0.0
 40
0.0004238454434675
100
AcDbArc
 50
203.2043411966
 51
270.0
  0
ARC
  5
87
330
1F
100
AcDbEntity
  8
0
  6
Continuous
 62
     7
370
    25
100
AcDbCircle
 10
0.1095931675
 20
0.1839959039
 30
0.0
 40
0.0004238454434675
100
AcDbArc
 50
270.0
 51
336.7956588034
  0
ARC
  5
88
330
1F
100
AcDbEntity
  8
0
  6
Continuous
 62
     7
370
    25
100
AcDbCircle
 10
0.1095931675
 20
0.1839959039
 30
0.0
 40
0.0004238454434675
100
AcDbArc
 50
23.2043411966
 51
156.7956588034
  0
ARC
  5
89
330
1F
100
AcDbEntity
  8
0
  6
Continuous
 62
     7
370
    25
100
AcDbCircle
 10
0.1095931675
 20
0.1839959039
 30
0.0
 40
0.0004238454434675
100
AcDbArc
 50
203.2043411966
 51
270.0
  0
ARC
  5
8A
330
1F
100
AcDbEntity
  8
0
  6
Continuous
 62
     7
370
    25
100
AcDbCircle
 10
0.0712223955
 20
0.1848760863
 30
0.0
 40
0.0004238454434675
100
AcDbArc
 50
0.6955918793
 51
246.7956588034
  0
ARC
  5
8B
330
1F
100
AcDbEntity
  8
0
  6
Continuous
 62
     7
370
    25
100
AcDbCircle
 10
0.0712223955
 20
0.1848760863
 30
0.0
 40
0.0004238454434675
100
AcDbArc
 50
293.2043411966
 51
314.286909486
  0
ARC
  5
8C
330
1F
100
AcDbEntity
  8
0
  6
Continuous
 62
     7
370
    25
100
AcDbCircle
 10
0.0712223955
 20
0.1675960863
 30
0.0
 40
0.0004238454434675
100
AcDbArc
 50
45.713090514
 51
66.7956588034
  0
ARC
  5
8D
330
1F
100
AcDbEntity
  8
0
  6
Continuous
 62
     7
370
    25
100
AcDbCircle
 10
0.0712223955
 20
0.1675960863
 30
0.0
 40
0.0004238454434675
100
AcDbArc
 50
113.2043411966
 51
359.3044081207
  0
ARC
  5
8E
330
1F
100
AcDbEntity
  8
0
  6
Continuous
 62
     7
370
    25
100
AcDbCircle
 10
0.0996071861
 20
0.1679959039
 30
0.0
 40
0.0004238454434675
100
AcDbArc
 50
270.0
 51
336.7956588034
  0
ARC
  5
8F
330
1F
100
AcDbEntity
  8
0
  6
Continuous
 62
     7
370
    25
100
AcDbCircle
 10
0.0996071861
 20
0.1679959039
 30
0.0
 40
0.0004238454434675
100
AcDbArc
 50
23.2043411966
 51
156.7956588034
  0
ARC
  5
90
330
1F
100
AcDbEntity
  8
0
  6
Continuous
 62
     7
370
    25
100
AcDbCircle
 10
0.0996071861
 20
0.1679959039
 30
0.0
 40
0.0004238454434675
100
AcDbArc
 50
203.2043411966
 51
270.0
  0
ARC
  5
91
330
1F
100
AcDbEntity
  8
0
  6
Continuous
 62
     7
370
    25
100
AcDbCircle
 10
0.0712223955
 20
0.1718160863
 30
0.0
 40
0.0004238454434675
100
AcDbArc
 50
0.0
 51
66.7956588034
  0
ARC
  5
92
330
1F
100
AcDbEntity
  8
0
  6
Continuous
 62
     7
370
    25
100
AcDbCircle
 10
0.0712223955
 20
0.1718160863
 30
0.0
 40
0.0004238454434675
100
AcDbArc
 50
113.2043411966
 51
246.7956588034
  0
ARC
  5
93
330
1F
100
AcDbEntity
  8
0
  6
Continuous
 62
     7
370
    25
100
AcDbCircle
 10
0.0712223955
 20
0.1718160863
 30
0.0
 40
0.0004238454434675
100
AcDbArc
 50
293.2043411966
 51
0.0
  0
ARC
  5
94
330
1F
100
AcDbEntity
  8
0
  6
Continuous
 62
     7
370
    25
100
AcDbCircle
 10
0.0680370095
 20
0.1861960863
 30
0.0
 40
0.0004238454434675
100
AcDbArc
 50
144.713017807
 51
246.7956588034
  0
ARC
  5
95
330
1F
100
AcDbEntity
  8
0
  6
Continuous
 62
     7
370
    25
100
AcDbCircle
 10
0.0680370095
 20
0.1861960863
 30
0.0
 40
0.0004238454434675
100
AcDbArc
 50
293.2043411966
 51
314.286909486
  0
ARC
  5
96
330
1F
100
AcDbEntity
  8
0
  6
Continuous
 62
     7
370
    25
100
AcDbCircle
 10
0.0680370095
 20
0.1861960863
 30
0.0
 40
0.0004238454434675
100
AcDbArc
 50
0.6955918793
 51
144.713017807
  0
ARC
  5
97
330
1F
100
AcDbEntity
  8
0
  6
Continuous
 62
     7
370
    25
100
AcDbCircle
 10
0.0996071861
 20
0.1839959039
 30
0.0
 40
0.0004238454434675
100
AcDbArc
 50
270.0
 51
336.7956588034
  0
ARC
  5
98
330
1F
100
AcDbEntity
  8
0
  6
Continuous
 62
     7
370
    25
100
AcDbCircle
 10
0.0996071861
 20
0.1839959039
 30
0.0
 40
0.0004238454434675
100
AcDbArc
 50
23.2043411966
 51
156.7956588034
  0
ARC
  5
99
330
1F
100
AcDbEntity
  8
0
  6
Continuous
 62
     7
370
    25
100
AcDbCircle
 10
0.0996071861
 20
0.1839959039
 30
0.0
 40
0.0004238454434675
100
AcDbArc
 50
203.2043411966
 51
270.0
  0
ARC
  5
9A
330
1F
100
AcDbEntity
  8
0
  6
Continuous
 62
     7
370
    25
100
AcDbCircle
 10
0.1095931675
 20
0.1679959039
 30
0.0
 40
0.0004238454434675
100
AcDbArc
 50
270.0
 51
336.7956588034
  0
ARC
  5
9B
330
1F
100
AcDbEntity
  8
0
  6
Continuous
 62
     7
370
    25
100
AcDbCircle
 10
0.1095931675
 20
0.1679959039
 30
0.0
 40
0.0004238454434675
100
AcDbArc
 50
23.2043411966
 51
156.7956588034
  0
ARC
  5
9C
330
1F
100
AcDbEntity
  8
0
  6
Continuous
 62
     7
370
    25
100
AcDbCircle
 10
0.1095931675
 20
0.1679959039
 30
0.0
 40
0.0004238454434675
100
AcDbArc
 50
203.2043411966
 51
270.0
  0
ARC
  5
9D
330
1F
100
AcDbEntity
  8
0
  6
Continuous
 62
     7
370
    25
100
AcDbCircle
 10
0.1145861582
 20
0.1679959039
 30
0.0
 40
0.0004238454434675
100
AcDbArc
 50
270.0
 51
336.7956588034
  0
ARC
  5
9E
330
1F
100
AcDbEntity
  8
0
  6
Continuous
 62
     7
370
    25
100
AcDbCircle
 10
0.1145861582
 20
0.1679959039
 30
0.0
 40
0.0004238454434675
100
AcDbArc
 50
23.2043411966
 51
156.7956588034
  0
ARC
  5
9F
330
1F
100
AcDbEntity
  8
0
  6
Continuous
 62
     7
370
    25
100
AcDbCircle
 10
0.1145861582
 20
0.1679959039
 30
0.0
 40
0.0004238454434675
100
AcDbArc
 50
203.2043411966
 51
270.0
  0
ARC
  5
A0
330
1F
100
AcDbEntity
  8
0
  6
Continuous
 62
     7
370
    25
100
AcDbCircle
 10
0.0680370095
 20
0.1711060863
 30
0.0
 40
0.0004238454434675
100
AcDbArc
 50
35.7697636753
 51
66.7956588034
  0
ARC
  5
A1
330
1F
100
AcDbEntity
  8
0
  6
Continuous
 62
     7
370
    25
100
AcDbCircle
 10
0.0680370095
 20
0.1711060863
 30
0.0
 40
0.0004238454434675
100
AcDbArc
 50
113.2043411966
 51
246.7956588034
  0
ARC
  5
A2
330
1F
100
AcDbEntity
  8
0
  6
Continuous
 62
     7
370
    25
100
AcDbCircle
 10
0.0680370095
 20
0.1711060863
 30
0.0
 40
0.0004238454434675
100
AcDbArc
 50
293.2043411966
 51
349.361081282
  0
ARC
  5
A3
330
1F
100
AcDbEntity
  8
0
  6
Continuous
 62
     7
370
    25
100
AcDbCircle
 10
0.1046001768
 20
0.1839959039
 30
0.0
 40
0.0004238454434675
100
AcDbArc
 50
270.0
 51
336.7956588034
  0
ARC
  5
A4
330
1F
100
AcDbEntity
  8
0
  6
Continuous
 62
     7
370
    25
100
AcDbCircle
 10
0.1046001768
 20
0.1839959039
 30
0.0
 40
0.0004238454434675
100
AcDbArc
 50
23.2043411966
 51
156.7956588034
  0
ARC
  5
A5
330
1F
100
AcDbEntity
  8
0
  6
Continuous
 62
     7
370
    25
100
AcDbCircle
 10
0.1046001768
 20
0.1839959039
 30
0.0
 40
0.0004238454434675
100
AcDbArc
 50
203.2043411966
 51
270.0
  0
ARC
  5
A6
330
1F
100
AcDbEntity
  8
0
  6
Continuous
 62
     7
370
    25
100
AcDbCircle
 10
0.1195791489
 20
0.1839959039
 30
0.0
 40
0.0004238454434675
100
AcDbArc
 50
203.2043411966
 51
336.7956588034
  0
ARC
  5
A7
330
1F
100
AcDbEntity
  8
0
  6
Continuous
 62
     7
370
    25
100
AcDbCircle
 10
0.1195791489
 20
0.1839959039
 30
0.0
 40
0.0004238454434675
100
AcDbArc
 50
23.2043411966
 51
156.7956588034
  0
ARC
  5
A8
330
1F
100
AcDbEntity
  8
0
  6
Continuous
 62
     7
370
    25
100
AcDbCircle
 10
0.0680370095
 20
0.1813660863
 30
0.0
 40
0.0004238454434675
100
AcDbArc
 50
10.638918718
 51
66.7956588034
  0
ARC
  5
A9
330
1F
100
AcDbEntity
  8
0
  6
Continuous
 62
     7
370
    25
100
AcDbCircle
 10
0.0680370095
 20
0.1813660863
 30
0.0
 40
0.0004238454434675
100
AcDbArc
 50
113.2043411966
 51
246.7956588034
  0
ARC
  5
AA
330
1F
100
AcDbEntity
  8
0
  6
Continuous
 62
     7
370
    25
100
AcDbCircle
 10
0.0680370095
 20
0.1813660863
 30
0.0
 40
0.0004238454434675
100
AcDbArc
 50
293.2043411966
 51
324.2302363247
  0
ARC
  5
AB
330
1F
100
AcDbEntity
  8
0
  6
Continuous
 62
     7
370
    25
100
AcDbCircle
 10
0.0648516235
 20
0.1820760863
 30
0.0
 40
0.0004238454434675
100
AcDbArc
 50
10.638918718
 51
66.7956588034
  0
ARC
  5
AC
330
1F
100
AcDbEntity
  8
0
  6
Continuous
 62
     7
370
    25
100
AcDbCircle
 10
0.0648516235
 20
0.1820760863
 30
0.0
 40
0.0004238454434675
100
AcDbArc
 50
113.2043411966
 51
246.7956588034
  0
ARC
  5
AD
330
1F
100
AcDbEntity
  8
0
  6
Continuous
 62
     7
370
    25
100
AcDbCircle
 10
0.0648516235
 20
0.1820760863
 30
0.0
 40
0.0004238454434675
100
AcDbArc
 50
293.2043411966
 51
324.2302363247
  0
ARC
  5
AE
330
1F
100
AcDbEntity
  8
0
  6
Continuous
 62
     7
370
    25
100
AcDbCircle
 10
0.0680370095
 20
0.1662760863
 30
0.0
 40
0.0004238454434675
100
AcDbArc
 50
45.713090514
 51
66.7956588034
  0
ARC
  5
AF
330
1F
100
AcDbEntity
  8
0
  6
Continuous
 62
     7
370
    25
100
AcDbCircle
 10
0.0680370095
 20
0.1662760863
 30
0.0
 40
0.0004238454434675
100
AcDbArc
 50
113.2043411966
 51
359.3044081207
  0
ARC
  5
B0
330
1F
100
AcDbEntity
  8
0
  6
Continuous
 62
     7
370
    25
100
AcDbCircle
 10
0.0743903638
 20
0.172522204
 30
0.0
 40
0.0004238454434675
100
AcDbArc
 50
0.2767391304
 51
67.0723979338
  0
ARC
  5
B1
330
1F
100
AcDbEntity
  8
0
  6
Continuous
 62
     7
370
    25
100
AcDbCircle
 10
0.0743903638
 20
0.172522204
 30
0.0
 40
0.0004238454434675
100
AcDbArc
 50
113.4810803271
 51
247.0723979338
  0
ARC
  5
B2
330
1F
100
AcDbEntity
  8
0
  6
Continuous
 62
     7
370
    25
100
AcDbCircle
 10
0.0743903638
 20
0.172522204
 30
0.0
 40
0.0004238454434675
100
AcDbArc
 50
293.4810803271
 51
0.2767391304
  0
ARC
  5
B3
330
1F
100
AcDbEntity
  8
0
  6
Continuous
 62
     7
370
    25
100
AcDbCircle
 10
0.0648516235
 20
0.1703960863
 30
0.0
 40
0.0004238454434675
100
AcDbArc
 50
35.7697636753
 51
66.7956588034
  0
ARC
  5
B4
330
1F
100
AcDbEntity
  8
0
  6
Continuous
 62
     7
370
    25
100
AcDbCircle
 10
0.0648516235
 20
0.1703960863
 30
0.0
 40
0.0004238454434675
100
AcDbArc
 50
113.2043411966
 51
246.7956588034
  0
ARC
  5
B5
330
1F
100
AcDbEntity
  8
0
  6
Continuous
 62
     7
370
    25
100
AcDbCircle
 10
0.0648516235
 20
0.1703960863
 30
0.0
 40
0.0004238454434675
100
AcDbArc
 50
293.2043411966
 51
349.361081282
  0
ARC
  5
B6
330
1F
100
AcDbEntity
  8
0
  6
Continuous
 62
     7
370
    25
100
AcDbCircle
 10
0.0743724255
 20
0.1762360863
 30
0.0
 40
0.0004238454434675
100
AcDbArc
 50
23.2043411966
 51
67.0723979338
  0
ARC
  5
B7
330
1F
100
AcDbEntity
  8
0
  6
Continuous
 62
     7
370
    25
100
AcDbCircle
 10
0.0743724255
 20
0.1762360863
 30
0.0
 40
0.0004238454434675
100
AcDbArc
 50
113.4810803271
 51
247.0723979338
  0
ARC
  5
B8
330
1F
100
AcDbEntity
  8
0
  6
Continuous
 62
     7
370
    25
100
AcDbCircle
 10
0.0743724255
 20
0.1762360863
 30
0.0
 40
0.0004238454434675
100
AcDbArc
 50
293.4810803271
 51
336.7956588034
  0
ARC
  5
B9
330
1F
100
AcDbEntity
  8
0
  6
Continuous
 62
     7
370
    25
100
AcDbCircle
 10
0.0648516235
 20
0.1875160863
 30
0.0
 40
0.0004238454434675
100
AcDbArc
 50
152.5907175057
 51
246.7956588034
  0
ARC
  5
BA
330
1F
100
AcDbEntity
  8
0
  6
Continuous
 62
     7
370
    25
100
AcDbCircle
 10
0.0648516235
 20
0.1875160863
 30
0.0
 40
0.0004238454434675
100
AcDbArc
 50
293.2043411966
 51
314.286909486
  0
ARC
  5
BB
330
1F
100
AcDbEntity
  8
0
  6
Continuous
 62
     7
370
    25
100
AcDbCircle
 10
0.0648516235
 20
0.1875160863
 30
0.0
 40
0.0004238454434675
100
AcDbArc
 50
0.6955918793
 51
152.5907175057
  0
ARC
  5
BC
330
1F
100
AcDbEntity
  8
0
  6
Continuous
 62
     7
370
    25
100
AcDbCircle
 10
0.0744077815
 20
0.1689160863
 30
0.0
 40
0.0004238454434675
100
AcDbArc
 50
45.713090514
 51
67.0723979338
  0
ARC
  5
BD
330
1F
100
AcDbEntity
  8
0
  6
Continuous
 62
     7
370
    25
100
AcDbCircle
 10
0.0744077815
 20
0.1689160863
 30
0.0
 40
0.0004238454434675
100
AcDbArc
 50
113.4810803271
 51
359.3044081207
  0
ARC
  5
BE
330
1F
100
AcDbEntity
  8
0
  6
Continuous
 62
     7
370
    25
100
AcDbCircle
 10
0.0712223955
 20
0.1762360863
 30
0.0
 40
0.0004238454434675
100
AcDbArc
 50
0.0
 51
66.7956588034
  0
ARC
  5
BF
330
1F
100
AcDbEntity
  8
0
  6
Continuous
 62
     7
370
    25
100
AcDbCircle
 10
0.0712223955
 20
0.1762360863
 30
0.0
 40
0.0004238454434675
100
AcDbArc
 50
113.2043411966
 51
246.7956588034
  0
ARC
  5
C0
330
1F
100
AcDbEntity
  8
0
  6
Continuous
 62
     7
370
    25
100
AcDbCircle
 10
0.0712223955
 20
0.1762360863
 30
0.0
 40
0.0004238454434675
100
AcDbArc
 50
293.2043411966
 51
0.0
  0
ARC
  5
C1
330
1F
100
AcDbEntity
  8
0
  6
Continuous
 62
     7
370
    25
100
AcDbCircle
 10
0.0648516235
 20
0.1649560863
 30
0.0
 40
0.0004238454434675
100
AcDbArc
 50
45.713090514
 51
66.7956588034
  0
ARC
  5
C2
330
1F
100
AcDbEntity
  8
0
  6
Continuous
 62
     7
370
    25
100
AcDbCircle
 10
0.0648516235
 20
0.1649560863
 30
0.0
 40
0.0004238454434675
100
AcDbArc
 50
113.2043411966
 51
359.3044081207
  0
ARC
  5
C3
330
1F
100
AcDbEntity
  8
0
  6
Continuous
 62
     7
370
    25
100
AcDbCircle
 10
0.0743544487
 20
0.1799579738
 30
0.0
 40
0.0004238454434675
100
AcDbArc
 50
293.4810803271
 51
67.0723979338
  0
ARC
  5
C4
330
1F
100
AcDbEntity
  8
0
  6
Continuous
 62
     7
370
    25
100
AcDbCircle
 10
0.0743544487
 20
0.1799579738
 30
0.0
 40
0.0004238454434675
100
AcDbArc
 50
113.4810803271
 51
247.0723979338
  0
ARC
  5
C5
330
1F
100
AcDbEntity
  8
0
  6
Continuous
 62
     7
370
    25
100
AcDbCircle
 10
0.1195791489
 20
0.1679959039
 30
0.0
 40
0.0004238454434675
100
AcDbArc
 50
270.0
 51
336.7956588034
  0
ARC
  5
C6
330
1F
100
AcDbEntity
  8
0
  6
Continuous
 62
     7
370
    25
100
AcDbCircle
 10
0.1195791489
 20
0.1679959039
 30
0.0
 40
0.0004238454434675
100
AcDbArc
 50
23.2043411966
 51
156.7956588034
  0
ARC
  5
C7
330
1F
100
AcDbEntity
  8
0
  6
Continuous
 62
     7
370
    25
100
AcDbCircle
 10
0.1195791489
 20
0.1679959039
 30
0.0
 40
0.0004238454434675
100
AcDbArc
 50
203.2043411966
 51
270.0
  0
ARC
  5
C8
330
1F
100
AcDbEntity
  8
0
  6
Continuous
 62
     7
370
    25
100
AcDbCircle
 10
0.0680370095
 20
0.1762360863
 30
0.0
 40
0.0004238454434675
100
AcDbArc
 50
23.2043411966
 51
66.7956588034
  0
ARC
  5
C9
330
1F
100
AcDbEntity
  8
0
  6
Continuous
 62
     7
370
    25
100
AcDbCircle
 10
0.0680370095
 20
0.1762360863
 30
0.0
 40
0.0004238454434675
100
AcDbArc
 50
113.2043411966
 51
246.7956588034
  0
ARC
  5
CA
330
1F
100
AcDbEntity
  8
0
  6
Continuous
 62
     7
370
    25
100
AcDbCircle
 10
0.0680370095
 20
0.1762360863
 30
0.0
 40
0.0004238454434675
100
AcDbArc
 50
293.2043411966
 51
336.7956588034
  0
LINE
  5
CB
330
1F
100
AcDbEntity
  8
0
  6
Continuous
 62
     7
370
    25
100
AcDbLine
 10
0.0759031675
 20
0.1831171805
 30
0.0
 11
0.0746408172
 21
0.183640289
 31
0.0
  0
LINE
  5
CC
330
1F
100
AcDbEntity
  8
0
  6
Continuous
 62
     7
370
    25
100
AcDbLine
 10
0.074040977
 20
0.1838888583
 30
0.0
 11
0.0715262849
 21
0.1849309277
 31
0.0
  0
LINE
  5
CD
330
1F
100
AcDbEntity
  8
0
  6
Continuous
 62
     7
370
    25
100
AcDbLine
 10
0.0709264447
 20
0.185179497
 30
0.0
 11
0.0683408989
 21
0.1862509277
 31
0.0
  0
LINE
  5
CE
330
1F
100
AcDbEntity
  8
0
  6
Continuous
 62
     7
370
    25
100
AcDbLine
 10
0.0677410587
 20
0.186499497
 30
0.0
 11
0.0651555129
 21
0.1875709277
 31
0.0
  0
LINE
  5
CF
330
1F
100
AcDbEntity
  8
0
  6
Continuous
 62
     7
370
    25
100
AcDbLine
 10
0.0645556727
 20
0.187819497
 30
0.0
 11
0.0617301692
 21
0.1889903644
 31
0.0
  0
LINE
  5
D0
330
1F
100
AcDbEntity
  8
0
  6
Continuous
 62
     7
370
    25
100
AcDbLine
 10
0.0616023058
 20
0.1886818082
 30
0.0
 11
0.0644278093
 21
0.1875109408
 31
0.0
  0
LINE
  5
D1
330
1F
100
AcDbEntity
  8
0
  6
Continuous
 62
     7
370
    25
100
AcDbLine
 10
0.0650276495
 20
0.1872623715
 30
0.0
 11
0.0676131953
 21
0.1861909408
 31
0.0
  0
LINE
  5
D2
330
1F
100
AcDbEntity
  8
0
  6
Continuous
 62
     7
370
    25
100
AcDbLine
 10
0.0682130355
 20
0.1859423715
 30
0.0
 11
0.0707985813
 21
0.1848709408
 31
0.0
  0
LINE
  5
D3
330
1F
100
AcDbEntity
  8
0
  6
Continuous
 62
     7
370
    25
100
AcDbLine
 10
0.0713984215
 20
0.1846223715
 30
0.0
 11
0.0739131136
 21
0.183580302
 31
0.0
  0
LINE
  5
D4
330
1F
100
AcDbEntity
  8
0
  6
Continuous
 62
     7
370
    25
100
AcDbLine
 10
0.0745129538
 20
0.1833317327
 30
0.0
 11
0.0759031675
 21
0.1827556387
 31
0.0
  0
LINE
  5
D5
330
1F
100
AcDbEntity
  8
0
  6
Continuous
 62
     7
370
    25
100
AcDbLine
 10
0.0759031675
 20
0.1697165339
 30
0.0
 11
0.0745838075
 21
0.1691698011
 31
0.0
  0
LINE
  5
D6
330
1F
100
AcDbEntity
  8
0
  6
Continuous
 62
     7
370
    25
100
AcDbLine
 10
0.0739839673
 20
0.1689212318
 30
0.0
 11
0.0713984215
 21
0.1678498011
 31
0.0
  0
LINE
  5
D7
330
1F
100
AcDbEntity
  8
0
  6
Continuous
 62
     7
370
    25
100
AcDbLine
 10
0.0707985813
 20
0.1676012318
 30
0.0
 11
0.0682130355
 21
0.1665298011
 31
0.0
  0
LINE
  5
D8
330
1F
100
AcDbEntity
  8
0
  6
Continuous
 62
     7
370
    25
100
AcDbLine
 10
0.0676131953
 20
0.1662812318
 30
0.0
 11
0.0650276495
 21
0.1652098011
 31
0.0
  0
LINE
  5
D9
330
1F
100
AcDbEntity
  8
0
  6
Continuous
 62
     7
370
    25
100
AcDbLine
 10
0.0644278093
 20
0.1649612318
 30
0.0
 11
0.0616023058
 21
0.1637903644
 31
0.0
  0
LINE
  5
DA
330
1F
100
AcDbEntity
  8
0
  6
Continuous
 62
     7
370
    25
100
AcDbLine
 10
0.0617301692
 20
0.1634818082
 30
0.0
 11
0.0645556727
 21
0.1646526756
 31
0.0
  0
LINE
  5
DB
330
1F
100
AcDbEntity
  8
0
  6
Continuous
 62
     7
370
    25
100
AcDbLine
 10
0.0651555129
 20
0.1649012449
 30
0.0
 11
0.0677410587
 21
0.1659726756
 31
0.0
  0
LINE
  5
DC
330
1F
100
AcDbEntity
  8
0
  6
Continuous
 62
     7
370
    25
100
AcDbLine
 10
0.0683408989
 20
0.1662212449
 30
0.0
 11
0.0709264447
 21
0.1672926756
 31
0.0
  0
LINE
  5
DD
330
1F
100
AcDbEntity
  8
0
  6
Continuous
 62
     7
370
    25
100
AcDbLine
 10
0.0715262849
 20
0.1675412449
 30
0.0
 11
0.0741118307
 21
0.1686126756
 31
0.0
  0
LINE
  5
DE
330
1F
100
AcDbEntity
  8
0
  6
Continuous
 62
     7
370
    25
100
AcDbLine
 10
0.0747116709
 20
0.1688612449
 30
0.0
 11
0.0759031675
 21
0.1693549921
 31
0.0
  0
LINE
  5
DF
330
1F
100
AcDbEntity
  8
0
  6
Continuous
 62
     7
370
    25
100
AcDbLine
 10
0.0759031675
 20
0.1764030863
 30
0.0
 11
0.0746206045
 21
0.1764030863
 31
0.0
  0
LINE
  5
E0
330
1F
100
AcDbEntity
  8
0
  6
Continuous
 62
     7
370
    25
100
AcDbLine
 10
0.0746206045
 20
0.1760690863
 30
0.0
 11
0.0759031675
 21
0.1760690863
 31
0.0
  0
LINE
  5
E1
330
1F
100
AcDbEntity
  8
0
  6
Continuous
 62
     7
370
    25
100
AcDbLine
 10
0.0708058359
 20
0.1718943362
 30
0.0
 11
0.0682463919
 21
0.1713238543
 31
0.0
  0
LINE
  5
E2
330
1F
100
AcDbEntity
  8
0
  6
Continuous
 62
     7
370
    25
100
AcDbLine
 10
0.0683190551
 20
0.1709978542
 30
0.0
 11
0.070878499
 21
0.1715683361
 31
0.0
  0
LINE
  5
E3
330
1F
100
AcDbEntity
  8
0
  6
Continuous
 62
     7
370
    25
100
AcDbLine
 10
0.0676204499
 20
0.1711843362
 30
0.0
 11
0.0650610059
 21
0.1706138543
 31
0.0
  0
LINE
  5
E4
330
1F
100
AcDbEntity
  8
0
  6
Continuous
 62
     7
370
    25
100
AcDbLine
 10
0.0651336691
 20
0.1702878542
 30
0.0
 11
0.067693113
 21
0.1708583361
 31
0.0
  0
LINE
  5
E5
330
1F
100
AcDbEntity
  8
0
  6
Continuous
 62
     7
370
    25
100
AcDbLine
 10
0.070878499
 20
0.1809038365
 30
0.0
 11
0.0683190551
 21
0.1814743184
 31
0.0
  0
LINE
  5
E6
330
1F
100
AcDbEntity
  8
0
  6
Continuous
 62
     7
370
    25
100
AcDbLine
 10
0.0682463919
 20
0.1811483183
 30
0.0
 11
0.0708058359
 21
0.1805778364
 31
0.0
  0
LINE
  5
E7
330
1F
100
AcDbEntity
  8
0
  6
Continuous
 62
     7
370
    25
100
AcDbLine
 10
0.067693113
 20
0.1816138365
 30
0.0
 11
0.0651336691
 21
0.1821843184
 31
0.0
  0
LINE
  5
E8
330
1F
100
AcDbEntity
  8
0
  6
Continuous
 62
     7
370
    25
100
AcDbLine
 10
0.0650610059
 20
0.1818583183
 30
0.0
 11
0.0676204499
 21
0.1812878364
 31
0.0
  0
LINE
  5
E9
330
1F
100
AcDbEntity
  8
0
  6
Continuous
 62
     7
370
    25
100
AcDbLine
 10
0.0713568681
 20
0.173028566
 30
0.0
 11
0.0742163301
 21
0.1739780381
 31
0.0
  0
LINE
  5
EA
330
1F
100
AcDbEntity
  8
0
  6
Continuous
 62
     7
370
    25
100
AcDbLine
 10
0.074214633
 20
0.1743294058
 30
0.0
 11
0.071294334
 21
0.173359733
 31
0.0
  0
LINE
  5
EB
330
1F
100
AcDbEntity
  8
0
  6
Continuous
 62
     7
370
    25
100
AcDbLine
 10
0.071294334
 20
0.1791124396
 30
0.0
 11
0.0741961847
 21
0.1781488925
 31
0.0
  0
LINE
  5
EC
330
1F
100
AcDbEntity
  8
0
  6
Continuous
 62
     7
370
    25
100
AcDbLine
 10
0.0741944821
 20
0.178501389
 30
0.0
 11
0.0713568681
 21
0.1794436066
 31
0.0
  0
LINE
  5
ED
330
1F
100
AcDbEntity
  8
0
  6
Continuous
 62
     7
370
    25
100
AcDbLine
 10
0.0741718113
 20
0.1831950935
 30
0.0
 11
0.074185569
 21
0.1803467213
 31
0.0
  0
LINE
  5
EE
330
1F
100
AcDbEntity
  8
0
  6
Continuous
 62
     7
370
    25
100
AcDbLine
 10
0.0741893321
 20
0.1795676197
 30
0.0
 11
0.0741949667
 21
0.1784010654
 31
0.0
  0
LINE
  5
EF
330
1F
100
AcDbEntity
  8
0
  6
Continuous
 62
     7
370
    25
100
AcDbLine
 10
0.0741960189
 20
0.1781832198
 30
0.0
 11
0.0742035459
 21
0.1766248338
 31
0.0
  0
LINE
  5
F0
330
1F
100
AcDbEntity
  8
0
  6
Continuous
 62
     7
370
    25
100
AcDbLine
 10
0.074207309
 20
0.1758457322
 30
0.0
 11
0.0742147982
 21
0.1742951885
 31
0.0
  0
LINE
  5
F1
330
1F
100
AcDbEntity
  8
0
  6
Continuous
 62
     7
370
    25
100
AcDbLine
 10
0.0742158471
 20
0.1740780404
 30
0.0
 11
0.0742214842
 21
0.1729109515
 31
0.0
  0
LINE
  5
F2
330
1F
100
AcDbEntity
  8
0
  6
Continuous
 62
     7
370
    25
100
AcDbLine
 10
0.0742252473
 20
0.1721318499
 30
0.0
 11
0.0742389019
 21
0.1693048338
 31
0.0
  0
LINE
  5
F3
330
1F
100
AcDbEntity
  8
0
  6
Continuous
 62
     7
370
    25
100
AcDbLine
 10
0.074572898
 20
0.169306447
 30
0.0
 11
0.0745592434
 21
0.1721334631
 31
0.0
  0
LINE
  5
F4
330
1F
100
AcDbEntity
  8
0
  6
Continuous
 62
     7
370
    25
100
AcDbLine
 10
0.0745554803
 20
0.1729125648
 30
0.0
 11
0.0745413051
 21
0.1758473454
 31
0.0
  0
LINE
  5
F5
330
1F
100
AcDbEntity
  8
0
  6
Continuous
 62
     7
370
    25
100
AcDbLine
 10
0.074537542
 20
0.176626447
 30
0.0
 11
0.0745233282
 21
0.1795692329
 31
0.0
  0
LINE
  5
F6
330
1F
100
AcDbEntity
  8
0
  6
Continuous
 62
     7
370
    25
100
AcDbLine
 10
0.0745195651
 20
0.1803483346
 30
0.0
 11
0.0745058074
 21
0.1831967067
 31
0.0
  0
LINE
  5
F7
330
1F
100
AcDbEntity
  8
0
  6
Continuous
 62
     7
370
    25
100
AcDbLine
 10
0.0708328368
 20
0.1764030863
 30
0.0
 11
0.0682851884
 21
0.1764030863
 31
0.0
  0
LINE
  5
F8
330
1F
100
AcDbEntity
  8
0
  6
Continuous
 62
     7
370
    25
100
AcDbLine
 10
0.0682851884
 20
0.1760690863
 30
0.0
 11
0.0708328368
 21
0.1760690863
 31
0.0
  0
LINE
  5
F9
330
1F
100
AcDbEntity
  8
0
  6
Continuous
 62
     7
370
    25
100
AcDbLine
 10
0.0676474508
 20
0.1764030863
 30
0.0
 11
0.0650998024
 21
0.1764030863
 31
0.0
  0
LINE
  5
FA
330
1F
100
AcDbEntity
  8
0
  6
Continuous
 62
     7
370
    25
100
AcDbLine
 10
0.0650998024
 20
0.1760690863
 30
0.0
 11
0.0676474508
 21
0.1760690863
 31
0.0
  0
LINE
  5
FB
330
1F
100
AcDbEntity
  8
0
  6
Continuous
 62
     7
370
    25
100
AcDbLine
 10
0.0644620648
 20
0.1764030863
 30
0.0
 11
0.0616662375
 21
0.1764030863
 31
0.0
  0
LINE
  5
FC
330
1F
100
AcDbEntity
  8
0
  6
Continuous
 62
     7
370
    25
100
AcDbLine
 10
0.0616662375
 20
0.1760690863
 30
0.0
 11
0.0644620648
 21
0.1760690863
 31
0.0
  0
LINE
  5
FD
330
1F
100
AcDbEntity
  8
0
  6
Continuous
 62
     7
370
    25
100
AcDbLine
 10
0.0646846235
 20
0.1871265276
 30
0.0
 11
0.0646846235
 21
0.182465645
 31
0.0
  0
LINE
  5
FE
330
1F
100
AcDbEntity
  8
0
  6
Continuous
 62
     7
370
    25
100
AcDbLine
 10
0.0646846235
 20
0.1816865276
 30
0.0
 11
0.0646846235
 21
0.176625645
 31
0.0
  0
LINE
  5
FF
330
1F
100
AcDbEntity
  8
0
  6
Continuous
 62
     7
370
    25
100
AcDbLine
 10
0.0646846235
 20
0.1758465276
 30
0.0
 11
0.0646846235
 21
0.170785645
 31
0.0
  0
LINE
  5
100
330
1F
100
AcDbEntity
  8
0
  6
Continuous
 62
     7
370
    25
100
AcDbLine
 10
0.0646846235
 20
0.1700065276
 30
0.0
 11
0.0646846235
 21
0.165345645
 31
0.0
  0
LINE
  5
101
330
1F
100
AcDbEntity
  8
0
  6
Continuous
 62
     7
370
    25
100
AcDbLine
 10
0.0650186235
 20
0.165345645
 30
0.0
 11
0.0650186235
 21
0.1700065276
 31
0.0
  0
LINE
  5
102
330
1F
100
AcDbEntity
  8
0
  6
Continuous
 62
     7
370
    25
100
AcDbLine
 10
0.0650186235
 20
0.170785645
 30
0.0
 11
0.0650186235
 21
0.1758465276
 31
0.0
  0
LINE
  5
103
330
1F
100
AcDbEntity
  8
0
  6
Continuous
 62
     7
370
    25
100
AcDbLine
 10
0.0650186235
 20
0.176625645
 30
0.0
 11
0.0650186235
 21
0.1816865276
 31
0.0
  0
LINE
  5
104
330
1F
100
AcDbEntity
  8
0
  6
Continuous
 62
     7
370
    25
100
AcDbLine
 10
0.0650186235
 20
0.182465645
 30
0.0
 11
0.0650186235
 21
0.1871265276
 31
0.0
  0
LINE
  5
105
330
1F
100
AcDbEntity
  8
0
  6
Continuous
 62
     7
370
    25
100
AcDbLine
 10
0.0678700095
 20
0.1858065276
 30
0.0
 11
0.0678700095
 21
0.181755645
 31
0.0
  0
LINE
  5
106
330
1F
100
AcDbEntity
  8
0
  6
Continuous
 62
     7
370
    25
100
AcDbLine
 10
0.0678700095
 20
0.1809765276
 30
0.0
 11
0.0678700095
 21
0.176625645
 31
0.0
  0
LINE
  5
107
330
1F
100
AcDbEntity
  8
0
  6
Continuous
 62
     7
370
    25
100
AcDbLine
 10
0.0678700095
 20
0.1758465276
 30
0.0
 11
0.0678700095
 21
0.171495645
 31
0.0
  0
LINE
  5
108
330
1F
100
AcDbEntity
  8
0
  6
Continuous
 62
     7
370
    25
100
AcDbLine
 10
0.0678700095
 20
0.1707165276
 30
0.0
 11
0.0678700095
 21
0.166665645
 31
0.0
  0
LINE
  5
109
330
1F
100
AcDbEntity
  8
0
  6
Continuous
 62
     7
370
    25
100
AcDbLine
 10
0.0682040095
 20
0.166665645
 30
0.0
 11
0.0682040095
 21
0.1707165276
 31
0.0
  0
LINE
  5
10A
330
1F
100
AcDbEntity
  8
0
  6
Continuous
 62
     7
370
    25
100
AcDbLine
 10
0.0682040095
 20
0.171495645
 30
0.0
 11
0.0682040095
 21
0.1758465276
 31
0.0
  0
LINE
  5
10B
330
1F
100
AcDbEntity
  8
0
  6
Continuous
 62
     7
370
    25
100
AcDbLine
 10
0.0682040095
 20
0.176625645
 30
0.0
 11
0.0682040095
 21
0.1809765276
 31
0.0
  0
LINE
  5
10C
330
1F
100
AcDbEntity
  8
0
  6
Continuous
 62
     7
370
    25
100
AcDbLine
 10
0.0682040095
 20
0.181755645
 30
0.0
 11
0.0682040095
 21
0.1858065276
 31
0.0
  0
LINE
  5
10D
330
1F
100
AcDbEntity
  8
0
  6
Continuous
 62
     7
370
    25
100
AcDbLine
 10
0.0710553955
 20
0.1844865276
 30
0.0
 11
0.0710553955
 21
0.181045645
 31
0.0
  0
LINE
  5
10E
330
1F
100
AcDbEntity
  8
0
  6
Continuous
 62
     7
370
    25
100
AcDbLine
 10
0.0710553955
 20
0.1802665276
 30
0.0
 11
0.0710553955
 21
0.176625645
 31
0.0
  0
LINE
  5
10F
330
1F
100
AcDbEntity
  8
0
  6
Continuous
 62
     7
370
    25
100
AcDbLine
 10
0.0710553955
 20
0.1758465276
 30
0.0
 11
0.0710553955
 21
0.172205645
 31
0.0
  0
LINE
  5
110
330
1F
100
AcDbEntity
  8
0
  6
Continuous
 62
     7
370
    25
100
AcDbLine
 10
0.0710553955
 20
0.1714265276
 30
0.0
 11
0.0710553955
 21
0.167985645
 31
0.0
  0
LINE
  5
111
330
1F
100
AcDbEntity
  8
0
  6
Continuous
 62
     7
370
    25
100
AcDbLine
 10
0.0713893955
 20
0.167985645
 30
0.0
 11
0.0713893955
 21
0.1714265276
 31
0.0
  0
LINE
  5
112
330
1F
100
AcDbEntity
  8
0
  6
Continuous
 62
     7
370
    25
100
AcDbLine
 10
0.0713893955
 20
0.172205645
 30
0.0
 11
0.0713893955
 21
0.1730393666
 31
0.0
  0
LINE
  5
113
330
1F
100
AcDbEntity
  8
0
  6
Continuous
 62
     7
370
    25
100
AcDbLine
 10
0.0713893955
 20
0.1733912978
 30
0.0
 11
0.0713893955
 21
0.1758465276
 31
0.0
  0
LINE
  5
114
330
1F
100
AcDbEntity
  8
0
  6
Continuous
 62
     7
370
    25
100
AcDbLine
 10
0.0713893955
 20
0.176625645
 30
0.0
 11
0.0713893955
 21
0.1790808748
 31
0.0
  0
LINE
  5
115
330
1F
100
AcDbEntity
  8
0
  6
Continuous
 62
     7
370
    25
100
AcDbLine
 10
0.0713893955
 20
0.179432806
 30
0.0
 11
0.0713893955
 21
0.1802665276
 31
0.0
  0
LINE
  5
116
330
1F
100
AcDbEntity
  8
0
  6
Continuous
 62
     7
370
    25
100
AcDbLine
 10
0.0713893955
 20
0.181045645
 30
0.0
 11
0.0713893955
 21
0.1844865276
 31
0.0
  0
LINE
  5
117
330
1F
100
AcDbEntity
  8
0
  6
Continuous
 62
     7
370
    25
100
AcDbLine
 10
0.1239031675
 20
0.1841629039
 30
0.0
 11
0.0952831675
 21
0.1841629039
 31
0.0
  0
LINE
  5
118
330
1F
100
AcDbEntity
  8
0
  6
Continuous
 62
     7
370
    25
100
AcDbLine
 10
0.0952831675
 20
0.1838289039
 30
0.0
 11
0.1239031675
 21
0.1838289039
 31
0.0
  0
LINE
  5
119
330
1F
100
AcDbEntity
  8
0
  6
Continuous
 62
     7
370
    25
100
AcDbLine
 10
0.1239031675
 20
0.1681629039
 30
0.0
 11
0.0952831675
 21
0.1681629039
 31
0.0
  0
LINE
  5
11A
330
1F
100
AcDbEntity
  8
0
  6
Continuous
 62
     7
370
    25
100
AcDbLine
 10
0.0952831675
 20
0.1678289039
 30
0.0
 11
0.1239031675
 21
0.1678289039
 31
0.0
  0
LINE
  5
11B
330
1F
100
AcDbEntity
  8
0
  6
Continuous
 62
     7
370
    25
100
AcDbLine
 10
0.0788822497
 20
0.1676589039
 30
0.0
 11
0.0923040853
 21
0.1676589039
 31
0.0
  0
LINE
  5
11C
330
1F
100
AcDbEntity
  8
0
  6
Continuous
 62
     7
370
    25
100
AcDbLine
 10
0.0920001419
 20
0.1683329039
 30
0.0
 11
0.0791861931
 21
0.1683329039
 31
0.0
  0
ARC
  5
11D
330
1F
100
AcDbEntity
  8
0
  6
Continuous
 62
     7
370
    25
100
AcDbCircle
 10
0.1449813932
 20
0.1807710017
 30
0.0
 40
0.000167
100
AcDbArc
 50
270.0
 51
90.0
  0
LINE
  5
11E
330
1F
100
AcDbEntity
  8
0
  6
Continuous
 62
     7
370
    25
100
AcDbLine
 10
0.1449813932
 20
0.1809380017
 30
0.0
 11
0.144964505
 21
0.1809380017
 31
0.0
  0
LINE
  5
11F
330
1F
100
AcDbEntity
  8
0
  6
Continuous
 62
     7
370
    25
100
AcDbLine
 10
0.144964505
 20
0.1806040017
 30
0.0
 11
0.1449813932
 21
0.1806040017
 31
0.0
  0
ARC
  5
120
330
1F
100
AcDbEntity
  8
0
  6
Continuous
 62
     7
370
    25
100
AcDbCircle
 10
0.144964505
 20
0.1807710017
 30
0.0
 40
0.000167
100
AcDbArc
 50
270.0
 51
90.0
  0
LINE
  5
121
330
1F
100
AcDbEntity
  8
0
  6
Continuous
 62
     7
370
    25
100
AcDbLine
 10
0.144964505
 20
0.1809380017
 30
0.0
 11
0.1440835446
 21
0.1809380017
 31
0.0
  0
LINE
  5
122
330
1F
100
AcDbEntity
  8
0
  6
Continuous
 62
     7
370
    25
100
AcDbLine
 10
0.1440838559
 20
0.1806040017
 30
0.0
 11
0.144964505
 21
0.1806040017
 31
0.0
  0
LINE
  5
123
330
1F
100
AcDbEntity
  8
0
  6
Continuous
 62
     7
370
    25
100
AcDbLine
 10
0.1440827479
 20
0.1809380017
 30
0.0
 11
0.1432831675
 21
0.1809380017
 31
0.0
  0
LINE
  5
124
330
1F
100
AcDbEntity
  8
0
  6
Continuous
 62
     7
370
    25
100
AcDbLine
 10
0.1432831675
 20
0.1806040017
 30
0.0
 11
0.1440828161
 21
0.1806040017
 31
0.0
  0
LINE
  5
125
330
1F
100
AcDbEntity
  8
0
  6
Continuous
 62
     7
370
    25
100
AcDbLine
 10
0.1283931675
 20
0.1276460961
 30
0.0
 11
0.1287731675
 21
0.1276460961
 31
0.0
  0
LINE
  5
126
330
1F
100
AcDbEntity
  8
0
  6
Continuous
 62
     7
370
    25
100
AcDbLine
 10
0.1384131675
 20
0.1276460961
 30
0.0
 11
0.1387931675
 21
0.1276460961
 31
0.0
  0
LINE
  5
127
330
1F
100
AcDbEntity
  8
0
  6
Continuous
 62
     7
370
    25
100
AcDbLine
 10
0.1287731675
 20
0.1284460961
 30
0.0
 11
0.1384131675
 21
0.1284460961
 31
0.0
  0
LINE
  5
128
330
1F
100
AcDbEntity
  8
0
  6
Continuous
 62
     7
370
    25
100
AcDbLine
 10
0.1268822497
 20
0.1676589039
 30
0.0
 11
0.1403040853
 21
0.1676589039
 31
0.0
  0
LINE
  5
129
330
1F
100
AcDbEntity
  8
0
  6
Continuous
 62
     7
370
    25
100
AcDbLine
 10
0.1400001419
 20
0.1683329039
 30
0.0
 11
0.1271861931
 21
0.1683329039
 31
0.0
  0
ARC
  5
12A
330
1F
100
AcDbEntity
  8
0
  6
Continuous
 62
     7
370
    25
100
AcDbCircle
 10
0.1415931675
 20
0.1839959039
 30
0.0
 40
0.0309
100
AcDbArc
 50
360.0
 51
90.0
  0
LINE
  5
12B
330
1F
100
AcDbEntity
  8
0
  6
Continuous
 62
     7
370
    25
100
AcDbLine
 10
0.1724931675
 20
0.1839959039
 30
0.0
 11
0.1724931675
 21
0.1679959039
 31
0.0
  0
ARC
  5
12C
330
1F
100
AcDbEntity
  8
0
  6
Continuous
 62
     7
370
    25
100
AcDbCircle
 10
0.1415931675
 20
0.1679959039
 30
0.0
 40
0.0309
100
AcDbArc
 50
331.6736101178
 51
360.0
  0
LINE
  5
12D
330
1F
100
AcDbEntity
  8
0
  6
Continuous
 62
     7
370
    25
100
AcDbLine
 10
0.1687931675
 20
0.1176460961
 30
0.0
 11
0.1687931675
 21
0.1533340486
 31
0.0
  0
ARC
  5
12E
330
1F
100
AcDbEntity
  8
0
  6
Continuous
 62
     7
370
    25
100
AcDbCircle
 10
0.1387931675
 20
0.1176460961
 30
0.0
 40
0.03
100
AcDbArc
 50
270.0
 51
360.0
  0
LINE
  5
12F
330
1F
100
AcDbEntity
  8
0
  6
Continuous
 62
     7
370
    25
100
AcDbLine
 10
0.1283931675
 20
0.0876460961
 30
0.0
 11
0.1387931675
 21
0.0876460961
 31
0.0
  0
ARC
  5
130
330
1F
100
AcDbEntity
  8
0
  6
Continuous
 62
     7
370
    25
100
AcDbCircle
 10
0.1283931675
 20
0.1176460961
 30
0.0
 40
0.03
100
AcDbArc
 50
180.0
 51
270.0
  0
LINE
  5
131
330
1F
100
AcDbEntity
  8
0
  6
Continuous
 62
     7
370
    25
100
AcDbLine
 10
0.0983931675
 20
0.1176460961
 30
0.0
 11
0.0983931675
 21
0.1370959039
 31
0.0
  0
LINE
  5
132
330
1F
100
AcDbEntity
  8
0
  6
Continuous
 62
     7
370
    25
100
AcDbLine
 10
0.0983931675
 20
0.1370959039
 30
0.0
 11
0.0752919288
 21
0.1370959039
 31
0.0
  0
ARC
  5
133
330
1F
100
AcDbEntity
  8
0
  6
Continuous
 62
     7
370
    25
100
AcDbCircle
 10
0.0616023058
 20
0.1637903644
 30
0.0
 40
0.03
100
AcDbArc
 50
180.0
 51
297.1499469345
  0
LINE
  5
134
330
1F
100
AcDbEntity
  8
0
  6
Continuous
 62
     7
370
    25
100
AcDbLine
 10
0.0316662375
 20
0.1888360863
 30
0.0
 11
0.0316023058
 21
0.1637903644
 31
0.0
  0
ARC
  5
135
330
1F
100
AcDbEntity
  8
0
  6
Continuous
 62
     7
370
    25
100
AcDbCircle
 10
0.0616662375
 20
0.1888360863
 30
0.0
 40
0.03
100
AcDbArc
 50
80.4150273303
 51
180.0
  0
ARC
  5
136
330
1F
100
AcDbEntity
  8
0
  6
Continuous
 62
     7
370
    25
100
AcDbCircle
 10
0.0855931675
 20
0.1939959039
 30
0.0
 40
0.0309
100
AcDbArc
 50
42.5610495521
 51
127.7831010846
  0
LINE
  5
137
330
1F
100
AcDbEntity
  8
0
  6
Continuous
 62
     7
370
    25
100
AcDbLine
 10
0.1415931675
 20
0.2148959039
 30
0.0
 11
0.1083527808
 21
0.2148959039
 31
0.0
  0
ARC
  5
138
330
1F
100
AcDbEntity
  8
0
  6
Continuous
 62
     7
370
    25
100
AcDbCircle
 10
0.0855931675
 20
0.1880600747
 30
0.0
 40
0.0006266866120358
100
AcDbArc
 50
195.8030668692
 51
344.1969331308
  0
ELLIPSE
  5
139
330
1F
100
AcDbEntity
  8
0
  6
Continuous
 62
     7
370
    25
100
AcDbEllipse
 10
0.0855931675
 20
0.1839959039
 30
0.0
 11
0.0005588415306991139
 21
0.0005588415306991278
 31
0.0
210
0.0
220
0.0
230
1.0
 40
0.4053141634
 41
4.327309839336468
 42
5.898106166131318
  0
ELLIPSE
  5
13A
330
1F
100
AcDbEntity
  8
0
  6
Continuous
 62
     7
370
    25
100
AcDbEllipse
 10
0.0855931675
 20
0.1839959039
 30
0.0
 11
-0.0005588415306991139
 21
0.0005588415306991278
 31
0.0
210
0.0
220
0.0
230
1.0
 40
0.4053141634
 41
0.3850791410482995
 42
1.955875467843127
  0
ARC
  5
13B
330
1F
100
AcDbEntity
  8
0
  6
Continuous
 62
     7
370
    25
100
AcDbCircle
 10
0.0855931675
 20
0.1939959039
 30
0.0
 40
0.000603
100
AcDbArc
 50
0.0
 51
180.0
  0
ARC
  5
13C
330
1F
100
AcDbEntity
  8
0
  6
Continuous
 62
     7
370
    25
100
AcDbCircle
 10
0.0855071299
 20
0.1879889507
 30
0.0
 40
0.0005264587789724
100
AcDbArc
 50
190.8990844528
 51
279.4058729042
  0
ARC
  5
13D
330
1F
100
AcDbEntity
  8
0
  6
Continuous
 62
     7
370
    25
100
AcDbCircle
 10
0.0856680483
 20
0.1880049749
 30
0.0
 40
0.0005406159339656
100
AcDbArc
 50
262.0383546554
 51
347.6566879876
  0
LINE
  5
13E
330
1F
100
AcDbEntity
  8
0
  6
Continuous
 62
     7
370
    25
100
AcDbLine
 10
0.1404139136
 20
0.1847259039
 30
0.0
 11
0.1267724214
 21
0.1847259039
 31
0.0
  0
LINE
  5
13F
330
1F
100
AcDbEntity
  8
0
  6
Continuous
 62
     7
370
    25
100
AcDbLine
 10
0.1403084827
 20
0.1843459039
 30
0.0
 11
0.1268778523
 21
0.1843459039
 31
0.0
  0
ARC
  5
140
330
1F
100
AcDbEntity
  8
0
  6
Continuous
 62
     7
370
    25
100
AcDbCircle
 10
0.0617020996
 20
0.1888212253
 30
0.0
 40
0.0001714524495212
100
AcDbArc
 50
80.5773328197
 51
234.4051685456
  0
ARC
  5
141
330
1F
100
AcDbEntity
  8
0
  6
Continuous
 62
     7
370
    25
100
AcDbCircle
 10
0.0617076456
 20
0.1636497416
 30
0.0
 40
0.0001757021458581
100
AcDbArc
 50
126.8366822148
 51
265.3476745884
  0
LWPOLYLINE
  5
142
330
1F
100
AcDbEntity
  8
0
  6
Continuous
 62
     7
370
    25
100
AcDbPolyline
 90
        3
 70
   128
 43
0.0
 10
0.0617301692
 20
0.1634818082
 10
0.0617195642
 20
0.1634781468
 10
0.0616933945
 20
0.1634746184
  0
ELLIPSE
  5
143
330
1F
100
AcDbEntity
  8
0
  6
Continuous
 62
     7
370
    25
100
AcDbEllipse
 10
0.0712223955
 20
0.1731598806
 30
0.0
 11
0.0001586598962158847
 21
-0.000114495385879293
 31
0.0
210
0.0
220
0.0
230
1.0
 40
0.4551765528
 41
4.149663640583356
 42
5.965814712682825
  0
ELLIPSE
  5
144
330
1F
100
AcDbEntity
  8
0
  6
Continuous
 62
     7
370
    25
100
AcDbEllipse
 10
0.0712223955
 20
0.1731598806
 30
0.0
 11
0.0001412493186738751
 21
0.0001957336714423219
 31
0.0
210
0.0
220
0.0
230
1.0
 40
0.4551765528
 41
0.5627253398013893
 42
1.888166921291573
  0
ARC
  5
145
330
1F
100
AcDbEntity
  8
0
  6
Continuous
 62
     7
370
    25
100
AcDbCircle
 10
0.0744422346
 20
0.1742303257
 30
0.0
 40
0.0002101971969217
100
AcDbArc
 50
177.2914171627
 51
194.5764358304
  0
ELLIPSE
  5
146
330
1F
100
AcDbEntity
  8
0
  6
Continuous
 62
     7
370
    25
100
AcDbEllipse
 10
0.0743626036
 20
0.1782695994
 30
0.0
 11
-0.0001421985232465256
 21
0.0001960495131730911
 31
0.0
210
0.0
220
0.0
230
1.0
 40
0.4528569605
 41
0.5627182834373677
 42
1.253432788662283
  0
ELLIPSE
  5
147
330
1F
100
AcDbEntity
  8
0
  6
Continuous
 62
     7
370
    25
100
AcDbEllipse
 10
0.0743626036
 20
0.1782695994
 30
0.0
 11
0.0001581082099601921
 21
0.0001146789584202668
 31
0.0
210
0.0
220
0.0
230
1.0
 40
0.4574899833
 41
2.133514610232308
 42
2.82422911545703
  0
ELLIPSE
  5
148
330
1F
100
AcDbEntity
  8
0
  6
Continuous
 62
     7
370
    25
100
AcDbEllipse
 10
0.0712223955
 20
0.179312292
 30
0.0
 11
-0.0001412493186738612
 21
0.0001957336714423219
 31
0.0
210
0.0
220
0.0
230
1.0
 40
0.4551765528
 41
1.253425732298239
 42
2.578867313788574
  0
ELLIPSE
  5
149
330
1F
100
AcDbEntity
  8
0
  6
Continuous
 62
     7
370
    25
100
AcDbEllipse
 10
0.0712223955
 20
0.179312292
 30
0.0
 11
0.0001586598962158847
 21
0.000114495385879293
 31
0.0
210
0.0
220
0.0
230
1.0
 40
0.4551765528
 41
0.3173705944969773
 42
2.133521666596285
  0
ARC
  5
14A
330
1F
100
AcDbEntity
  8
0
  6
Continuous
 62
     7
370
    25
100
AcDbCircle
 10
0.0617003187
 20
0.1762360863
 30
0.0
 40
0.0001704421571445
100
AcDbArc
 50
101.5344817196
 51
258.4655182804
  0
ARC
  5
14B
330
1F
100
AcDbEntity
  8
0
  6
Continuous
 62
     7
370
    25
100
AcDbCircle
 10
0.0788821675
 20
0.1845849039
 30
0.0
 40
0.0003
100
AcDbArc
 50
90.0
 51
116.7839467198
  0
LINE
  5
14C
330
1F
100
AcDbEntity
  8
0
  6
Continuous
 62
     7
370
    25
100
AcDbLine
 10
0.0788821675
 20
0.1848849039
 30
0.0
 11
0.0849901675
 21
0.1848849039
 31
0.0
  0
LINE
  5
14D
330
1F
100
AcDbEntity
  8
0
  6
Continuous
 62
     7
370
    25
100
AcDbLine
 10
0.0861961675
 20
0.1848849039
 30
0.0
 11
0.0923041675
 21
0.1848849039
 31
0.0
  0
ARC
  5
14E
330
1F
100
AcDbEntity
  8
0
  6
Continuous
 62
     7
370
    25
100
AcDbCircle
 10
0.0923041675
 20
0.1845849039
 30
0.0
 40
0.0003
100
AcDbArc
 50
63.2160532822
 51
90.0
  0
ARC
  5
14F
330
1F
100
AcDbEntity
  8
0
  6
Continuous
 62
     7
370
    25
100
AcDbCircle
 10
0.0923041675
 20
0.1674069039
 30
0.0
 40
0.0003
100
AcDbArc
 50
270.0
 51
296.7839467142
  0
LINE
  5
150
330
1F
100
AcDbEntity
  8
0
  6
Continuous
 62
     7
370
    25
100
AcDbLine
 10
0.0788821675
 20
0.1671069039
 30
0.0
 11
0.0923041675
 21
0.1671069039
 31
0.0
  0
ARC
  5
151
330
1F
100
AcDbEntity
  8
0
  6
Continuous
 62
     7
370
    25
100
AcDbCircle
 10
0.0788821675
 20
0.1674069039
 30
0.0
 40
0.0003
100
AcDbArc
 50
243.2160532839
 51
270.0
  0
LINE
  5
152
330
1F
100
AcDbEntity
  8
0
  6
Continuous
 62
     7
370
    25
100
AcDbLine
 10
0.0952831675
 20
0.1675959039
 30
0.0
 11
0.0994670256
 21
0.1675959039
 31
0.0
  0
LINE
  5
153
330
1F
100
AcDbEntity
  8
0
  6
Continuous
 62
     7
370
    25
100
AcDbLine
 10
0.0997473466
 20
0.1675959039
 30
0.0
 11
0.1044600163
 21
0.1675959039
 31
0.0
  0
LINE
  5
154
330
1F
100
AcDbEntity
  8
0
  6
Continuous
 62
     7
370
    25
100
AcDbLine
 10
0.1047403373
 20
0.1675959039
 30
0.0
 11
0.109453007
 21
0.1675959039
 31
0.0
  0
LINE
  5
155
330
1F
100
AcDbEntity
  8
0
  6
Continuous
 62
     7
370
    25
100
AcDbLine
 10
0.109733328
 20
0.1675959039
 30
0.0
 11
0.1144459977
 21
0.1675959039
 31
0.0
  0
LINE
  5
156
330
1F
100
AcDbEntity
  8
0
  6
Continuous
 62
     7
370
    25
100
AcDbLine
 10
0.1147263187
 20
0.1675959039
 30
0.0
 11
0.1194389884
 21
0.1675959039
 31
0.0
  0
LINE
  5
157
330
1F
100
AcDbEntity
  8
0
  6
Continuous
 62
     7
370
    25
100
AcDbLine
 10
0.1197193094
 20
0.1675959039
 30
0.0
 11
0.1239031675
 21
0.1675959039
 31
0.0
  0
LINE
  5
158
330
1F
100
AcDbEntity
  8
0
  6
Continuous
 62
     7
370
    25
100
AcDbLine
 10
0.1239031675
 20
0.1843959039
 30
0.0
 11
0.1197193094
 21
0.1843959039
 31
0.0
  0
LINE
  5
159
330
1F
100
AcDbEntity
  8
0
  6
Continuous
 62
     7
370
    25
100
AcDbLine
 10
0.1194389884
 20
0.1843959039
 30
0.0
 11
0.1147263187
 21
0.1843959039
 31
0.0
  0
LINE
  5
15A
330
1F
100
AcDbEntity
  8
0
  6
Continuous
 62
     7
370
    25
100
AcDbLine
 10
0.1144459977
 20
0.1843959039
 30
0.0
 11
0.109733328
 21
0.1843959039
 31
0.0
  0
LINE
  5
15B
330
1F
100
AcDbEntity
  8
0
  6
Continuous
 62
     7
370
    25
100
AcDbLine
 10
0.109453007
 20
0.1843959039
 30
0.0
 11
0.1047403373
 21
0.1843959039
 31
0.0
  0
LINE
  5
15C
330
1F
100
AcDbEntity
  8
0
  6
Continuous
 62
     7
370
    25
100
AcDbLine
 10
0.1044600163
 20
0.1843959039
 30
0.0
 11
0.0997473466
 21
0.1843959039
 31
0.0
  0
LINE
  5
15D
330
1F
100
AcDbEntity
  8
0
  6
Continuous
 62
     7
370
    25
100
AcDbLine
 10
0.0994670256
 20
0.1843959039
 30
0.0
 11
0.0952831675
 21
0.1843959039
 31
0.0
  0
LINE
  5
15E
330
1F
100
AcDbEntity
  8
0
  6
Continuous
 62
     7
370
    25
100
AcDbLine
 10
0.1271935928
 20
0.1836459039
 30
0.0
 11
0.1399927422
 21
0.1836459039
 31
0.0
  0
LINE
  5
15F
330
1F
100
AcDbEntity
  8
0
  6
Continuous
 62
     7
370
    25
100
AcDbLine
 10
0.1268821675
 20
0.1671069039
 30
0.0
 11
0.1283931675
 21
0.1671069039
 31
0.0
  0
LINE
  5
160
330
1F
100
AcDbEntity
  8
0
  6
Continuous
 62
     7
370
    25
100
AcDbLine
 10
0.1287731675
 20
0.1671069039
 30
0.0
 11
0.1384131675
 21
0.1671069039
 31
0.0
  0
LINE
  5
161
330
1F
100
AcDbEntity
  8
0
  6
Continuous
 62
     7
370
    25
100
AcDbLine
 10
0.1387931675
 20
0.1671069039
 30
0.0
 11
0.1403041675
 21
0.1671069039
 31
0.0
  0
ARC
  5
162
330
1F
100
AcDbEntity
  8
0
  6
Continuous
 62
     7
370
    25
100
AcDbCircle
 10
0.1268821675
 20
0.1674069039
 30
0.0
 40
0.0003
100
AcDbArc
 50
243.2160532831
 51
270.0
  0
ARC
  5
163
330
1F
100
AcDbEntity
  8
0
  6
Continuous
 62
     7
370
    25
100
AcDbCircle
 10
0.1403041675
 20
0.1674069039
 30
0.0
 40
0.0003
100
AcDbArc
 50
270.0
 51
296.7839467158
  0
ARC
  5
164
330
1F
100
AcDbEntity
  8
0
  6
Continuous
 62
     7
370
    25
100
AcDbCircle
 10
0.1440219944
 20
0.1807705434
 30
0.0
 40
0.0001757483552621
100
AcDbArc
 50
289.7374604867
 51
69.874275196
  0
ARC
  5
165
330
1F
100
AcDbEntity
  8
0
  6
Continuous
 62
     7
370
    25
100
AcDbCircle
 10
0.1440218926
 20
0.18077172
 30
0.0
 40
0.0001758654466356
100
AcDbArc
 50
289.9958612554
 51
70.0650873309
  0
LINE
  5
166
330
1F
100
AcDbEntity
  8
0
  6
Continuous
 62
     7
370
    25
100
AcDbLine
 10
0.1287731675
 20
0.1683459039
 30
0.0
 11
0.1283931675
 21
0.1683459039
 31
0.0
  0
LINE
  5
167
330
1F
100
AcDbEntity
  8
0
  6
Continuous
 62
     7
370
    25
100
AcDbLine
 10
0.1287731675
 20
0.1621260489
 30
0.0
 11
0.1287731675
 21
0.1676589039
 31
0.0
  0
LINE
  5
168
330
1F
100
AcDbEntity
  8
0
  6
Continuous
 62
     7
370
    25
100
AcDbLine
 10
0.1287731675
 20
0.1683329039
 30
0.0
 11
0.1287731675
 21
0.1683459039
 31
0.0
  0
LINE
  5
169
330
1F
100
AcDbEntity
  8
0
  6
Continuous
 62
     7
370
    25
100
AcDbLine
 10
0.1283931675
 20
0.1621260489
 30
0.0
 11
0.1283931675
 21
0.1676589039
 31
0.0
  0
LINE
  5
16A
330
1F
100
AcDbEntity
  8
0
  6
Continuous
 62
     7
370
    25
100
AcDbLine
 10
0.1283931675
 20
0.1683329039
 30
0.0
 11
0.1283931675
 21
0.1683459039
 31
0.0
  0
LINE
  5
16B
330
1F
100
AcDbEntity
  8
0
  6
Continuous
 62
     7
370
    25
100
AcDbLine
 10
0.1287731675
 20
0.1621260489
 30
0.0
 11
0.1287731675
 21
0.1427915738
 31
0.0
  0
LINE
  5
16C
330
1F
100
AcDbEntity
  8
0
  6
Continuous
 62
     7
370
    25
100
AcDbLine
 10
0.1283931675
 20
0.1621260489
 30
0.0
 11
0.1283931675
 21
0.1427915738
 31
0.0
  0
LINE
  5
16D
330
1F
100
AcDbEntity
  8
0
  6
Continuous
 62
     7
370
    25
100
AcDbLine
 10
0.1287731675
 20
0.1292621662
 30
0.0
 11
0.1283931675
 21
0.1292621662
 31
0.0
  0
LINE
  5
16E
330
1F
100
AcDbEntity
  8
0
  6
Continuous
 62
     7
370
    25
100
AcDbLine
 10
0.1287731675
 20
0.1427915738
 30
0.0
 11
0.1287731675
 21
0.1292621662
 31
0.0
  0
LINE
  5
16F
330
1F
100
AcDbEntity
  8
0
  6
Continuous
 62
     7
370
    25
100
AcDbLine
 10
0.1283931675
 20
0.1427915738
 30
0.0
 11
0.1283931675
 21
0.1292621662
 31
0.0
  0
LINE
  5
170
330
1F
100
AcDbEntity
  8
0
  6
Continuous
 62
     7
370
    25
100
AcDbLine
 10
0.1287731675
 20
0.1292621662
 30
0.0
 11
0.1287731675
 21
0.1276460961
 31
0.0
  0
LINE
  5
171
330
1F
100
AcDbEntity
  8
0
  6
Continuous
 62
     7
370
    25
100
AcDbLine
 10
0.1283931675
 20
0.1292621662
 30
0.0
 11
0.1283931675
 21
0.1276460961
 31
0.0
  0
LINE
  5
172
330
1F
100
AcDbEntity
  8
0
  6
Continuous
 62
     7
370
    25
100
AcDbLine
 10
0.1387931675
 20
0.1683459039
 30
0.0
 11
0.1384131675
 21
0.1683459039
 31
0.0
  0
LINE
  5
173
330
1F
100
AcDbEntity
  8
0
  6
Continuous
 62
     7
370
    25
100
AcDbLine
 10
0.1384131675
 20
0.1621260489
 30
0.0
 11
0.1384131675
 21
0.1676589039
 31
0.0
  0
LINE
  5
174
330
1F
100
AcDbEntity
  8
0
  6
Continuous
 62
     7
370
    25
100
AcDbLine
 10
0.1384131675
 20
0.1683329039
 30
0.0
 11
0.1384131675
 21
0.1683459039
 31
0.0
  0
LINE
  5
175
330
1F
100
AcDbEntity
  8
0
  6
Continuous
 62
     7
370
    25
100
AcDbLine
 10
0.1387931675
 20
0.1621260489
 30
0.0
 11
0.1387931675
 21
0.1676589039
 31
0.0
  0
LINE
  5
176
330
1F
100
AcDbEntity
  8
0
  6
Continuous
 62
     7
370
    25
100
AcDbLine
 10
0.1387931675
 20
0.1683329039
 30
0.0
 11
0.1387931675
 21
0.1683459039
 31
0.0
  0
LINE
  5
177
330
1F
100
AcDbEntity
  8
0
  6
Continuous
 62
     7
370
    25
100
AcDbLine
 10
0.1384131675
 20
0.1621260489
 30
0.0
 11
0.1384131675
 21
0.1427915738
 31
0.0
  0
LINE
  5
178
330
1F
100
AcDbEntity
  8
0
  6
Continuous
 62
     7
370
    25
100
AcDbLine
 10
0.1387931675
 20
0.1621260489
 30
0.0
 11
0.1387931675
 21
0.1427915738
 31
0.0
  0
LINE
  5
179
330
1F
100
AcDbEntity
  8
0
  6
Continuous
 62
     7
370
    25
100
AcDbLine
 10
0.1387931675
 20
0.1292621662
 30
0.0
 11
0.1384131675
 21
0.1292621662
 31
0.0
  0
LINE
  5
17A
330
1F
100
AcDbEntity
  8
0
  6
Continuous
 62
     7
370
    25
100
AcDbLine
 10
0.1384131675
 20
0.1427915738
 30
0.0
 11
0.1384131675
 21
0.1292621662
 31
0.0
  0
LINE
  5
17B
330
1F
100
AcDbEntity
  8
0
  6
Continuous
 62
     7
370
    25
100
AcDbLine
 10
0.1387931675
 20
0.1427915738
 30
0.0
 11
0.1387931675
 21
0.1292621662
 31
0.0
  0
LINE
  5
17C
330
1F
100
AcDbEntity
  8
0
  6
Continuous
 62
     7
370
    25
100
AcDbLine
 10
0.1384131675
 20
0.1292621662
 30
0.0
 11
0.1384131675
 21
0.1276460961
 31
0.0
  0
LINE
  5
17D
330
1F
100
AcDbEntity
  8
0
  6
Continuous
 62
     7
370
    25
100
AcDbLine
 10
0.1387931675
 20
0.1292621662
 30
0.0
 11
0.1387931675
 21
0.1276460961
 31
0.0
  0
LINE
  5
17E
330
1F
100
AcDbEntity
  8
0
  6
Continuous
 62
     7
370
    25
100
AcDbLine
 10
0.1388158714
 20
0.1676589039
 30
0.0
 11
0.1394704636
 21
0.1676589039
 31
0.0
  0
LINE
  5
17F
330
1F
100
AcDbEntity
  8
0
  6
Continuous
 62
     7
370
    25
100
AcDbLine
 10
0.1394704636
 20
0.1683329039
 30
0.0
 11
0.1388158714
 21
0.1683329039
 31
0.0
  0
LINE
  5
180
330
1F
100
AcDbEntity
  8
0
  6
Continuous
 62
     7
370
    25
100
AcDbLine
 10
0.1388531675
 20
0.1683459039
 30
0.0
 11
0.1394331675
 21
0.1683459039
 31
0.0
  0
ARC
  5
181
330
1F
100
AcDbEntity
  8
0
  6
Continuous
 62
     7
370
    25
100
AcDbCircle
 10
0.1394331675
 20
0.1682859039
 30
0.0
 40
0.00006
100
AcDbArc
 50
51.5667936591
 51
90.0
  0
ARC
  5
182
330
1F
100
AcDbEntity
  8
0
  6
Continuous
 62
     7
370
    25
100
AcDbCircle
 10
0.1388531675
 20
0.1682859039
 30
0.0
 40
0.00006
100
AcDbArc
 50
90.0
 51
128.4332063409
  0
ARC
  5
183
330
1F
100
AcDbEntity
  8
0
  6
Continuous
 62
     7
370
    25
100
AcDbCircle
 10
0.1394331675
 20
0.1677059039
 30
0.0
 40
0.00006
100
AcDbArc
 50
270.0
 51
308.4332063409
  0
ARC
  5
184
330
1F
100
AcDbEntity
  8
0
  6
Continuous
 62
     7
370
    25
100
AcDbCircle
 10
0.1388531675
 20
0.1677059039
 30
0.0
 40
0.00006
100
AcDbArc
 50
231.5667936591
 51
270.0
  0
LINE
  5
185
330
1F
100
AcDbEntity
  8
0
  6
Continuous
 62
     7
370
    25
100
AcDbLine
 10
0.1394331675
 20
0.1676459039
 30
0.0
 11
0.1388531675
 21
0.1676459039
 31
0.0
  0
LINE
  5
186
330
1F
100
AcDbEntity
  8
0
  6
Continuous
 62
     7
370
    25
100
AcDbLine
 10
0.1277158714
 20
0.1676589039
 30
0.0
 11
0.1283704636
 21
0.1676589039
 31
0.0
  0
LINE
  5
187
330
1F
100
AcDbEntity
  8
0
  6
Continuous
 62
     7
370
    25
100
AcDbLine
 10
0.1283704636
 20
0.1683329039
 30
0.0
 11
0.1277158714
 21
0.1683329039
 31
0.0
  0
LINE
  5
188
330
1F
100
AcDbEntity
  8
0
  6
Continuous
 62
     7
370
    25
100
AcDbLine
 10
0.1277531675
 20
0.1683459039
 30
0.0
 11
0.1283331675
 21
0.1683459039
 31
0.0
  0
ARC
  5
189
330
1F
100
AcDbEntity
  8
0
  6
Continuous
 62
     7
370
    25
100
AcDbCircle
 10
0.1283331675
 20
0.1682859039
 30
0.0
 40
0.00006
100
AcDbArc
 50
51.5667936591
 51
90.0
  0
ARC
  5
18A
330
1F
100
AcDbEntity
  8
0
  6
Continuous
 62
     7
370
    25
100
AcDbCircle
 10
0.1277531675
 20
0.1682859039
 30
0.0
 40
0.00006
100
AcDbArc
 50
90.0
 51
128.4332063409
  0
ARC
  5
18B
330
1F
100
AcDbEntity
  8
0
  6
Continuous
 62
     7
370
    25
100
AcDbCircle
 10
0.1283331675
 20
0.1677059039
 30
0.0
 40
0.00006
100
AcDbArc
 50
270.0
 51
308.4332063409
  0
ARC
  5
18C
330
1F
100
AcDbEntity
  8
0
  6
Continuous
 62
     7
370
    25
100
AcDbCircle
 10
0.1277531675
 20
0.1677059039
 30
0.0
 40
0.00006
100
AcDbArc
 50
231.5667936591
 51
270.0
  0
LINE
  5
18D
330
1F
100
AcDbEntity
  8
0
  6
Continuous
 62
     7
370
    25
100
AcDbLine
 10
0.1283331675
 20
0.1676459039
 30
0.0
 11
0.1277531675
 21
0.1676459039
 31
0.0
  0
ARC
  5
18E
330
1F
100
AcDbEntity
  8
0
  6
Continuous
 62
     7
370
    25
100
AcDbCircle
 10
0.1260247931
 20
0.184742001
 30
0.0
 40
0.0007386052849942
100
AcDbArc
 50
17.806233192
 51
97.1904844071
  0
LWPOLYLINE
  5
18F
330
1F
100
AcDbEntity
  8
0
  6
Continuous
 62
     7
370
    25
100
AcDbPolyline
 90
       93
 70
   128
 43
0.0
 10
0.1404583187
 20
0.1849678657
 10
0.1404319737
 20
0.1848133634
 10
0.1403986763
 20
0.1846595335
 10
0.1403584602
 20
0.1845065325
 10
0.1403113665
 20
0.1843545158
 10
0.1402574429
 20
0.184203638
 10
0.1401967444
 20
0.1840540525
 10
0.1401293325
 20
0.1839059113
 10
0.1400552758
 20
0.1837593651
 10
0.1399746496
 20
0.1836145629
 10
0.139887536
 20
0.1834716517
 10
0.1397940233
 20
0.1833307771
 10
0.1396942068
 20
0.183192082
 10
0.1395881878
 20
0.1830557076
 10
0.1394760742
 20
0.1829217925
 10
0.1393579799
 20
0.1827904729
 10
0.1392340251
 20
0.1826618821
 10
0.1391043356
 20
0.182536151
 10
0.1389690434
 20
0.1824134074
 10
0.138828286
 20
0.1822937761
 10
0.1386822064
 20
0.1821773786
 10
0.1385309533
 20
0.1820643334
 10
0.1383746803
 20
0.1819547552
 10
0.1382135464
 20
0.1818487557
 10
0.1380477153
 20
0.1817464424
 10
0.1378773556
 20
0.1816479194
 10
0.1377026406
 20
0.1815532869
 10
0.1375237478
 20
0.1814626411
 10
0.1373408591
 20
0.1813760741
 10
0.1371541604
 20
0.1812936739
 10
0.1369638416
 20
0.1812155243
 10
0.1367700961
 20
0.1811417048
 10
0.1365731208
 20
0.1810722904
 10
0.1363731161
 20
0.1810073516
 10
0.1361702853
 20
0.1809469545
 10
0.1359648345
 20
0.1808911605
 10
0.1357569726
 20
0.1808400263
 10
0.135546911
 20
0.1807936039
 10
0.1353348632
 20
0.1807519405
 10
0.1351210447
 20
0.1807150784
 10
0.1349056729
 20
0.1806830552
 10
0.1346889669
 20
0.1806559032
 10
0.1344711468
 20
0.1806336503
 10
0.1342524342
 20
0.180616319
 10
0.1340330513
 20
0.1806039268
 10
0.1338132213
 20
0.1805964865
 10
0.1335931675
 20
0.1805940056
 10
0.1333731137
 20
0.1805964865
 10
0.1331532837
 20
0.1806039268
 10
0.1329339008
 20
0.180616319
 10
0.1327151882
 20
0.1806336503
 10
0.1324973681
 20
0.1806559032
 10
0.1322806621
 20
0.1806830552
 10
0.1320652903
 20
0.1807150784
 10
0.1318514718
 20
0.1807519405
 10
0.131639424
 20
0.1807936039
 10
0.1314293624
 20
0.1808400263
 10
0.1312215005
 20
0.1808911605
 10
0.1310160497
 20
0.1809469545
 10
0.1308132189
 20
0.1810073516
 10
0.1306132141
 20
0.1810722904
 10
0.1304162389
 20
0.1811417048
 10
0.1302224934
 20
0.1812155243
 10
0.1300321746
 20
0.1812936739
 10
0.1298454759
 20
0.1813760741
 10
0.1296625872
 20
0.1814626411
 10
0.1294836944
 20
0.1815532869
 10
0.1293089793
 20
0.1816479194
 10
0.1291386197
 20
0.1817464424
 10
0.1289727886
 20
0.1818487557
 10
0.1288116547
 20
0.1819547552
 10
0.1286553817
 20
0.1820643334
 10
0.1285041285
 20
0.1821773786
 10
0.128358049
 20
0.1822937761
 10
0.1282172916
 20
0.1824134074
 10
0.1280819994
 20
0.182536151
 10
0.1279523099
 20
0.1826618821
 10
0.1278283551
 20
0.1827904729
 10
0.1277102608
 20
0.1829217925
 10
0.1275981472
 20
0.1830557076
 10
0.1274921282
 20
0.183192082
 10
0.1273923117
 20
0.1833307771
 10
0.127298799
 20
0.1834716517
 10
0.1272116854
 20
0.1836145629
 10
0.1271310592
 20
0.1837593651
 10
0.1270570025
 20
0.1839059113
 10
0.1269895906
 20
0.1840540525
 10
0.1269288921
 20
0.184203638
 10
0.1268749685
 20
0.1843545158
 10
0.1268278748
 20
0.1845065325
 10
0.1267876587
 20
0.1846595335
 10
0.1267543613
 20
0.1848133634
 10
0.1267280163
 20
0.1849678657
  0
ARC
  5
190
330
1F
100
AcDbEntity
  8
0
  6
Continuous
 62
     7
370
    25
100
AcDbCircle
 10
0.1411615419
 20
0.184742001
 30
0.0
 40
0.0007386052849941
100
AcDbArc
 50
82.8095155929
 51
162.193766808
  0
LINE
  5
191
330
1F
100
AcDbEntity
  8
0
  6
Continuous
 62
     7
370
    25
100
AcDbLine
 10
0.141253992
 20
0.1854747975
 30
0.0
 11
0.1424831675
 21
0.1854747975
 31
0.0
  0
ARC
  5
192
330
1F
100
AcDbEntity
  8
0
  6
Continuous
 62
     7
370
    25
100
AcDbCircle
 10
0.1425831675
 20
0.1847676907
 30
0.0
 40
0.0007141428428543
100
AcDbArc
 50
11.421753659
 51
98.0494669755
  0
LINE
  5
193
330
1F
100
AcDbEntity
  8
0
  6
Continuous
 62
     7
370
    25
100
AcDbLine
 10
0.1432831675
 20
0.1759959039
 30
0.0
 11
0.1432831675
 21
0.1849091121
 31
0.0
  0
ARC
  5
194
330
1F
100
AcDbEntity
  8
0
  6
Continuous
 62
     7
370
    25
100
AcDbCircle
 10
0.142153903
 20
0.176227488
 30
0.0
 40
0.0011527660204658
100
AcDbArc
 50
262.1180395593
 51
348.4107398062
  0
LINE
  5
195
330
1F
100
AcDbEntity
  8
0
  6
Continuous
 62
     7
370
    25
100
AcDbLine
 10
0.1351405139
 20
0.1750856126
 30
0.0
 11
0.1419958211
 21
0.1750856126
 31
0.0
  0
ARC
  5
196
330
1F
100
AcDbEntity
  8
0
  6
Continuous
 62
     7
370
    25
100
AcDbCircle
 10
0.134982432
 20
0.176227488
 30
0.0
 40
0.0011527660208283
100
AcDbArc
 50
191.5892602023
 51
277.8819604221
  0
LINE
  5
197
330
1F
100
AcDbEntity
  8
0
  6
Continuous
 62
     7
370
    25
100
AcDbLine
 10
0.1335931675
 20
0.1759959039
 30
0.0
 11
0.1338531675
 21
0.1759959039
 31
0.0
  0
LINE
  5
198
330
1F
100
AcDbEntity
  8
0
  6
Continuous
 62
     7
370
    25
100
AcDbLine
 10
0.1335931675
 20
0.1762646045
 30
0.0
 11
0.1335931675
 21
0.1759959039
 31
0.0
  0
LINE
  5
199
330
1F
100
AcDbEntity
  8
0
  6
Continuous
 62
     7
370
    25
100
AcDbLine
 10
0.1333331675
 20
0.1762646045
 30
0.0
 11
0.1335931675
 21
0.1762646045
 31
0.0
  0
LINE
  5
19A
330
1F
100
AcDbEntity
  8
0
  6
Continuous
 62
     7
370
    25
100
AcDbLine
 10
0.1239031675
 20
0.1762646045
 30
0.0
 11
0.1239031675
 21
0.1849091121
 31
0.0
  0
ARC
  5
19B
330
1F
100
AcDbEntity
  8
0
  6
Continuous
 62
     7
370
    25
100
AcDbCircle
 10
0.1246031675
 20
0.1847676907
 30
0.0
 40
0.0007141428428544
100
AcDbArc
 50
81.9505330245
 51
168.578246341
  0
LINE
  5
19C
330
1F
100
AcDbEntity
  8
0
  6
Continuous
 62
     7
370
    25
100
AcDbLine
 10
0.1247031675
 20
0.1854747975
 30
0.0
 11
0.125932343
 21
0.1854747975
 31
0.0
  0
LWPOLYLINE
  5
19D
330
1F
100
AcDbEntity
  8
0
  6
Continuous
 62
     7
370
    25
100
AcDbPolyline
 90
       17
 70
   128
 43
0.0
 10
0.1255431675
 20
0.1798984293
 10
0.1255469735
 20
0.1798848994
 10
0.1255578122
 20
0.1798734293
 10
0.1255740333
 20
0.1798657652
 10
0.1255931675
 20
0.179863074
 10
0.1256123017
 20
0.1798657652
 10
0.1256285228
 20
0.1798734293
 10
0.1256393615
 20
0.1798848994
 10
0.1256431675
 20
0.1798984293
 10
0.1256393615
 20
0.1799119592
 10
0.1256285228
 20
0.1799234293
 10
0.1256123017
 20
0.1799310934
 10
0.1255931675
 20
0.1799337847
 10
0.1255740333
 20
0.1799310934
 10
0.1255578122
 20
0.1799234293
 10
0.1255469735
 20
0.1799119592
 10
0.1255431675
 20
0.1798984293
  0
LWPOLYLINE
  5
19E
330
1F
100
AcDbEntity
  8
0
  6
Continuous
 62
     7
370
    25
100
AcDbPolyline
 90
       17
 70
   128
 43
0.0
 10
0.1255431675
 20
0.1831556678
 10
0.1255469735
 20
0.1831421379
 10
0.1255578122
 20
0.1831306678
 10
0.1255740333
 20
0.1831230037
 10
0.1255931675
 20
0.1831203125
 10
0.1256123017
 20
0.1831230037
 10
0.1256285228
 20
0.1831306678
 10
0.1256393615
 20
0.1831421379
 10
0.1256431675
 20
0.1831556678
 10
0.1256393615
 20
0.1831691977
 10
0.1256285228
 20
0.1831806678
 10
0.1256123017
 20
0.1831883319
 10
0.1255931675
 20
0.1831910231
 10
0.1255740333
 20
0.1831883319
 10
0.1255578122
 20
0.1831806678
 10
0.1255469735
 20
0.1831691977
 10
0.1255431675
 20
0.1831556678
  0
LWPOLYLINE
  5
19F
330
1F
100
AcDbEntity
  8
0
  6
Continuous
 62
     7
370
    25
100
AcDbPolyline
 90
       17
 70
   128
 43
0.0
 10
0.1362231675
 20
0.1765120919
 10
0.1362269735
 20
0.176498562
 10
0.1362378122
 20
0.1764870919
 10
0.1362540333
 20
0.1764794278
 10
0.1362731675
 20
0.1764767365
 10
0.1362923017
 20
0.1764794278
 10
0.1363085228
 20
0.1764870919
 10
0.1363193615
 20
0.176498562
 10
0.1363231675
 20
0.1765120919
 10
0.1363193615
 20
0.1765256218
 10
0.1363085228
 20
0.1765370919
 10
0.1362923017
 20
0.1765447559
 10
0.1362731675
 20
0.1765474472
 10
0.1362540333
 20
0.1765447559
 10
0.1362378122
 20
0.1765370919
 10
0.1362269735
 20
0.1765256218
 10
0.1362231675
 20
0.1765120919
  0
LWPOLYLINE
  5
1A0
330
1F
100
AcDbEntity
  8
0
  6
Continuous
 62
     7
370
    25
100
AcDbPolyline
 90
       17
 70
   128
 43
0.0
 10
0.1415431675
 20
0.1798984293
 10
0.1415469735
 20
0.1798848994
 10
0.1415578122
 20
0.1798734293
 10
0.1415740333
 20
0.1798657652
 10
0.1415931675
 20
0.179863074
 10
0.1416123017
 20
0.1798657652
 10
0.1416285228
 20
0.1798734293
 10
0.1416393615
 20
0.1798848994
 10
0.1416431675
 20
0.1798984293
 10
0.1416393615
 20
0.1799119592
 10
0.1416285228
 20
0.1799234293
 10
0.1416123017
 20
0.1799310934
 10
0.1415931675
 20
0.1799337847
 10
0.1415740333
 20
0.1799310934
 10
0.1415578122
 20
0.1799234293
 10
0.1415469735
 20
0.1799119592
 10
0.1415431675
 20
0.1798984293
  0
LWPOLYLINE
  5
1A1
330
1F
100
AcDbEntity
  8
0
  6
Continuous
 62
     7
370
    25
100
AcDbPolyline
 90
       17
 70
   128
 43
0.0
 10
0.1415431675
 20
0.1765120919
 10
0.1415469735
 20
0.176498562
 10
0.1415578122
 20
0.1764870919
 10
0.1415740333
 20
0.1764794278
 10
0.1415931675
 20
0.1764767365
 10
0.1416123017
 20
0.1764794278
 10
0.1416285228
 20
0.1764870919
 10
0.1416393615
 20
0.176498562
 10
0.1416431675
 20
0.1765120919
 10
0.1416393615
 20
0.1765256218
 10
0.1416285228
 20
0.1765370919
 10
0.1416123017
 20
0.1765447559
 10
0.1415931675
 20
0.1765474472
 10
0.1415740333
 20
0.1765447559
 10
0.1415578122
 20
0.1765370919
 10
0.1415469735
 20
0.1765256218
 10
0.1415431675
 20
0.1765120919
  0
LWPOLYLINE
  5
1A2
330
1F
100
AcDbEntity
  8
0
  6
Continuous
 62
     7
370
    25
100
AcDbPolyline
 90
       17
 70
   128
 43
0.0
 10
0.1415431675
 20
0.1831556678
 10
0.1415469735
 20
0.1831421379
 10
0.1415578122
 20
0.1831306678
 10
0.1415740333
 20
0.1831230037
 10
0.1415931675
 20
0.1831203125
 10
0.1416123017
 20
0.1831230037
 10
0.1416285228
 20
0.1831306678
 10
0.1416393615
 20
0.1831421379
 10
0.1416431675
 20
0.1831556678
 10
0.1416393615
 20
0.1831691977
 10
0.1416285228
 20
0.1831806678
 10
0.1416123017
 20
0.1831883319
 10
0.1415931675
 20
0.1831910231
 10
0.1415740333
 20
0.1831883319
 10
0.1415578122
 20
0.1831806678
 10
0.1415469735
 20
0.1831691977
 10
0.1415431675
 20
0.1831556678
  0
LINE
  5
1A3
330
1F
100
AcDbEntity
  8
0
  6
Continuous
 62
     7
370
    25
100
AcDbLine
 10
0.1351405139
 20
0.174816912
 30
0.0
 11
0.1419958211
 21
0.174816912
 31
0.0
  0
LINE
  5
1A4
330
1F
100
AcDbEntity
  8
0
  6
Continuous
 62
     7
370
    25
100
AcDbLine
 10
0.1432831675
 20
0.1757272033
 30
0.0
 11
0.1432831675
 21
0.1759959039
 31
0.0
  0
ARC
  5
1A5
330
1F
100
AcDbEntity
  8
0
  6
Continuous
 62
     7
370
    25
100
AcDbCircle
 10
0.142153903
 20
0.1759587875
 30
0.0
 40
0.0011527660204658
100
AcDbArc
 50
262.1180395593
 51
348.4107398062
  0
ARC
  5
1A6
330
1F
100
AcDbEntity
  8
0
  6
Continuous
 62
     7
370
    25
100
AcDbCircle
 10
0.134982432
 20
0.1759587875
 30
0.0
 40
0.0011527660208282
100
AcDbArc
 50
191.5892602023
 51
277.8819604221
  0
LINE
  5
1A7
330
1F
100
AcDbEntity
  8
0
  6
Continuous
 62
     7
370
    25
100
AcDbLine
 10
0.1338531675
 20
0.1757272033
 30
0.0
 11
0.1338531675
 21
0.1759959039
 31
0.0
  0
LINE
  5
1A8
330
1F
100
AcDbEntity
  8
0
  6
Continuous
 62
     7
370
    25
100
AcDbLine
 10
0.1335931675
 20
0.1757272033
 30
0.0
 11
0.1335931675
 21
0.1759959039
 31
0.0
  0
LINE
  5
1A9
330
1F
100
AcDbEntity
  8
0
  6
Continuous
 62
     7
370
    25
100
AcDbLine
 10
0.1335931675
 20
0.1757272033
 30
0.0
 11
0.1338531675
 21
0.1757272033
 31
0.0
  0
LINE
  5
1AA
330
1F
100
AcDbEntity
  8
0
  6
Continuous
 62
     7
370
    25
100
AcDbLine
 10
0.0952831675
 20
0.1757272033
 30
0.0
 11
0.0952831675
 21
0.1759959039
 31
0.0
  0
ARC
  5
1AB
330
1F
100
AcDbEntity
  8
0
  6
Continuous
 62
     7
370
    25
100
AcDbCircle
 10
0.094153903
 20
0.1759587875
 30
0.0
 40
0.0011527660204659
100
AcDbArc
 50
262.1180395593
 51
348.4107398062
  0
ARC
  5
1AC
330
1F
100
AcDbEntity
  8
0
  6
Continuous
 62
     7
370
    25
100
AcDbCircle
 10
0.094153903
 20
0.176227488
 30
0.0
 40
0.0011527660204659
100
AcDbArc
 50
262.1180395593
 51
348.4107398062
  0
ARC
  5
1AD
330
1F
100
AcDbEntity
  8
0
  6
Continuous
 62
     7
370
    25
100
AcDbCircle
 10
0.0780247931
 20
0.184742001
 30
0.0
 40
0.0007386052849942
100
AcDbArc
 50
17.806233192
 51
97.1904844071
  0
LWPOLYLINE
  5
1AE
330
1F
100
AcDbEntity
  8
0
  6
Continuous
 62
     7
370
    25
100
AcDbPolyline
 90
       93
 70
   128
 43
0.0
 10
0.0924583187
 20
0.1849678657
 10
0.0924319737
 20
0.1848133634
 10
0.0923986763
 20
0.1846595335
 10
0.0923584602
 20
0.1845065325
 10
0.0923113665
 20
0.1843545158
 10
0.0922574429
 20
0.184203638
 10
0.0921967444
 20
0.1840540525
 10
0.0921293325
 20
0.1839059113
 10
0.0920552758
 20
0.1837593651
 10
0.0919746496
 20
0.1836145629
 10
0.091887536
 20
0.1834716517
 10
0.0917940233
 20
0.1833307771
 10
0.0916942068
 20
0.183192082
 10
0.0915881878
 20
0.1830557076
 10
0.0914760742
 20
0.1829217925
 10
0.0913579799
 20
0.1827904729
 10
0.0912340251
 20
0.1826618821
 10
0.0911043356
 20
0.182536151
 10
0.0909690434
 20
0.1824134074
 10
0.090828286
 20
0.1822937761
 10
0.0906822064
 20
0.1821773786
 10
0.0905309533
 20
0.1820643334
 10
0.0903746803
 20
0.1819547552
 10
0.0902135464
 20
0.1818487557
 10
0.0900477153
 20
0.1817464424
 10
0.0898773556
 20
0.1816479194
 10
0.0897026406
 20
0.1815532869
 10
0.0895237478
 20
0.1814626411
 10
0.0893408591
 20
0.1813760741
 10
0.0891541604
 20
0.1812936739
 10
0.0889638416
 20
0.1812155243
 10
0.0887700961
 20
0.1811417048
 10
0.0885731208
 20
0.1810722904
 10
0.0883731161
 20
0.1810073516
 10
0.0881702853
 20
0.1809469545
 10
0.0879648345
 20
0.1808911605
 10
0.0877569726
 20
0.1808400263
 10
0.087546911
 20
0.1807936039
 10
0.0873348632
 20
0.1807519405
 10
0.0871210447
 20
0.1807150784
 10
0.0869056729
 20
0.1806830552
 10
0.0866889669
 20
0.1806559032
 10
0.0864711468
 20
0.1806336503
 10
0.0862524342
 20
0.180616319
 10
0.0860330513
 20
0.1806039268
 10
0.0858132213
 20
0.1805964865
 10
0.0855931675
 20
0.1805940056
 10
0.0853731137
 20
0.1805964865
 10
0.0851532837
 20
0.1806039268
 10
0.0849339008
 20
0.180616319
 10
0.0847151882
 20
0.1806336503
 10
0.0844973681
 20
0.1806559032
 10
0.0842806621
 20
0.1806830552
 10
0.0840652903
 20
0.1807150784
 10
0.0838514718
 20
0.1807519405
 10
0.083639424
 20
0.1807936039
 10
0.0834293624
 20
0.1808400263
 10
0.0832215005
 20
0.1808911605
 10
0.0830160497
 20
0.1809469545
 10
0.0828132189
 20
0.1810073516
 10
0.0826132141
 20
0.1810722904
 10
0.0824162389
 20
0.1811417048
 10
0.0822224934
 20
0.1812155243
 10
0.0820321746
 20
0.1812936739
 10
0.0818454759
 20
0.1813760741
 10
0.0816625872
 20
0.1814626411
 10
0.0814836944
 20
0.1815532869
 10
0.0813089793
 20
0.1816479194
 10
0.0811386197
 20
0.1817464424
 10
0.0809727886
 20
0.1818487557
 10
0.0808116547
 20
0.1819547552
 10
0.0806553817
 20
0.1820643334
 10
0.0805041285
 20
0.1821773786
 10
0.080358049
 20
0.1822937761
 10
0.0802172916
 20
0.1824134074
 10
0.0800819994
 20
0.182536151
 10
0.0799523099
 20
0.1826618821
 10
0.0798283551
 20
0.1827904729
 10
0.0797102608
 20
0.1829217925
 10
0.0795981472
 20
0.1830557076
 10
0.0794921282
 20
0.183192082
 10
0.0793923117
 20
0.1833307771
 10
0.079298799
 20
0.1834716517
 10
0.0792116854
 20
0.1836145629
 10
0.0791310592
 20
0.1837593651
 10
0.0790570025
 20
0.1839059113
 10
0.0789895906
 20
0.1840540525
 10
0.0789288921
 20
0.184203638
 10
0.0788749685
 20
0.1843545158
 10
0.0788278748
 20
0.1845065325
 10
0.0787876587
 20
0.1846595335
 10
0.0787543613
 20
0.1848133634
 10
0.0787280163
 20
0.1849678657
  0
ARC
  5
1AF
330
1F
100
AcDbEntity
  8
0
  6
Continuous
 62
     7
370
    25
100
AcDbCircle
 10
0.0931615419
 20
0.184742001
 30
0.0
 40
0.0007386052849942
100
AcDbArc
 50
82.8095155929
 51
162.193766808
  0
LINE
  5
1B0
330
1F
100
AcDbEntity
  8
0
  6
Continuous
 62
     7
370
    25
100
AcDbLine
 10
0.093253992
 20
0.1854747975
 30
0.0
 11
0.0944831675
 21
0.1854747975
 31
0.0
  0
ARC
  5
1B1
330
1F
100
AcDbEntity
  8
0
  6
Continuous
 62
     7
370
    25
100
AcDbCircle
 10
0.0945831675
 20
0.1847676907
 30
0.0
 40
0.0007141428428543
100
AcDbArc
 50
11.421753659
 51
98.0494669755
  0
LINE
  5
1B2
330
1F
100
AcDbEntity
  8
0
  6
Continuous
 62
     7
370
    25
100
AcDbLine
 10
0.0952831675
 20
0.1759959039
 30
0.0
 11
0.0952831675
 21
0.1849091121
 31
0.0
  0
LINE
  5
1B3
330
1F
100
AcDbEntity
  8
0
  6
Continuous
 62
     7
370
    25
100
AcDbLine
 10
0.0871405139
 20
0.1750856126
 30
0.0
 11
0.0939958211
 21
0.1750856126
 31
0.0
  0
ARC
  5
1B4
330
1F
100
AcDbEntity
  8
0
  6
Continuous
 62
     7
370
    25
100
AcDbCircle
 10
0.086982432
 20
0.176227488
 30
0.0
 40
0.0011527660208283
100
AcDbArc
 50
191.5892602023
 51
277.8819604221
  0
LINE
  5
1B5
330
1F
100
AcDbEntity
  8
0
  6
Continuous
 62
     7
370
    25
100
AcDbLine
 10
0.0855931675
 20
0.1759959039
 30
0.0
 11
0.0858531675
 21
0.1759959039
 31
0.0
  0
LINE
  5
1B6
330
1F
100
AcDbEntity
  8
0
  6
Continuous
 62
     7
370
    25
100
AcDbLine
 10
0.0855931675
 20
0.1762646045
 30
0.0
 11
0.0855931675
 21
0.1759959039
 31
0.0
  0
LINE
  5
1B7
330
1F
100
AcDbEntity
  8
0
  6
Continuous
 62
     7
370
    25
100
AcDbLine
 10
0.0853331675
 20
0.1762646045
 30
0.0
 11
0.0855931675
 21
0.1762646045
 31
0.0
  0
LINE
  5
1B8
330
1F
100
AcDbEntity
  8
0
  6
Continuous
 62
     7
370
    25
100
AcDbLine
 10
0.0759031675
 20
0.1762646045
 30
0.0
 11
0.0759031675
 21
0.1849091121
 31
0.0
  0
ARC
  5
1B9
330
1F
100
AcDbEntity
  8
0
  6
Continuous
 62
     7
370
    25
100
AcDbCircle
 10
0.0766031675
 20
0.1847676907
 30
0.0
 40
0.0007141428428543
100
AcDbArc
 50
81.9505330245
 51
168.578246341
  0
LINE
  5
1BA
330
1F
100
AcDbEntity
  8
0
  6
Continuous
 62
     7
370
    25
100
AcDbLine
 10
0.0767031675
 20
0.1854747975
 30
0.0
 11
0.077932343
 21
0.1854747975
 31
0.0
  0
LWPOLYLINE
  5
1BB
330
1F
100
AcDbEntity
  8
0
  6
Continuous
 62
     7
370
    25
100
AcDbPolyline
 90
       17
 70
   128
 43
0.0
 10
0.0775431675
 20
0.1798984293
 10
0.0775469735
 20
0.1798848994
 10
0.0775578122
 20
0.1798734293
 10
0.0775740333
 20
0.1798657652
 10
0.0775931675
 20
0.179863074
 10
0.0776123017
 20
0.1798657652
 10
0.0776285228
 20
0.1798734293
 10
0.0776393615
 20
0.1798848994
 10
0.0776431675
 20
0.1798984293
 10
0.0776393615
 20
0.1799119592
 10
0.0776285228
 20
0.1799234293
 10
0.0776123017
 20
0.1799310934
 10
0.0775931675
 20
0.1799337847
 10
0.0775740333
 20
0.1799310934
 10
0.0775578122
 20
0.1799234293
 10
0.0775469735
 20
0.1799119592
 10
0.0775431675
 20
0.1798984293
  0
LWPOLYLINE
  5
1BC
330
1F
100
AcDbEntity
  8
0
  6
Continuous
 62
     7
370
    25
100
AcDbPolyline
 90
       17
 70
   128
 43
0.0
 10
0.0775431675
 20
0.1831556678
 10
0.0775469735
 20
0.1831421379
 10
0.0775578122
 20
0.1831306678
 10
0.0775740333
 20
0.1831230037
 10
0.0775931675
 20
0.1831203125
 10
0.0776123017
 20
0.1831230037
 10
0.0776285228
 20
0.1831306678
 10
0.0776393615
 20
0.1831421379
 10
0.0776431675
 20
0.1831556678
 10
0.0776393615
 20
0.1831691977
 10
0.0776285228
 20
0.1831806678
 10
0.0776123017
 20
0.1831883319
 10
0.0775931675
 20
0.1831910231
 10
0.0775740333
 20
0.1831883319
 10
0.0775578122
 20
0.1831806678
 10
0.0775469735
 20
0.1831691977
 10
0.0775431675
 20
0.1831556678
  0
LWPOLYLINE
  5
1BD
330
1F
100
AcDbEntity
  8
0
  6
Continuous
 62
     7
370
    25
100
AcDbPolyline
 90
       17
 70
   128
 43
0.0
 10
0.0882231675
 20
0.1765120919
 10
0.0882269735
 20
0.176498562
 10
0.0882378122
 20
0.1764870919
 10
0.0882540333
 20
0.1764794278
 10
0.0882731675
 20
0.1764767365
 10
0.0882923017
 20
0.1764794278
 10
0.0883085228
 20
0.1764870919
 10
0.0883193615
 20
0.176498562
 10
0.0883231675
 20
0.1765120919
 10
0.0883193615
 20
0.1765256218
 10
0.0883085228
 20
0.1765370919
 10
0.0882923017
 20
0.1765447559
 10
0.0882731675
 20
0.1765474472
 10
0.0882540333
 20
0.1765447559
 10
0.0882378122
 20
0.1765370919
 10
0.0882269735
 20
0.1765256218
 10
0.0882231675
 20
0.1765120919
  0
LWPOLYLINE
  5
1BE
330
1F
100
AcDbEntity
  8
0
  6
Continuous
 62
     7
370
    25
100
AcDbPolyline
 90
       17
 70
   128
 43
0.0
 10
0.0935431675
 20
0.1798984293
 10
0.0935469735
 20
0.1798848994
 10
0.0935578122
 20
0.1798734293
 10
0.0935740333
 20
0.1798657652
 10
0.0935931675
 20
0.179863074
 10
0.0936123017
 20
0.1798657652
 10
0.0936285228
 20
0.1798734293
 10
0.0936393615
 20
0.1798848994
 10
0.0936431675
 20
0.1798984293
 10
0.0936393615
 20
0.1799119592
 10
0.0936285228
 20
0.1799234293
 10
0.0936123017
 20
0.1799310934
 10
0.0935931675
 20
0.1799337847
 10
0.0935740333
 20
0.1799310934
 10
0.0935578122
 20
0.1799234293
 10
0.0935469735
 20
0.1799119592
 10
0.0935431675
 20
0.1798984293
  0
LWPOLYLINE
  5
1BF
330
1F
100
AcDbEntity
  8
0
  6
Continuous
 62
     7
370
    25
100
AcDbPolyline
 90
       17
 70
   128
 43
0.0
 10
0.0935431675
 20
0.1765120919
 10
0.0935469735
 20
0.176498562
 10
0.0935578122
 20
0.1764870919
 10
0.0935740333
 20
0.1764794278
 10
0.0935931675
 20
0.1764767365
 10
0.0936123017
 20
0.1764794278
 10
0.0936285228
 20
0.1764870919
 10
0.0936393615
 20
0.176498562
 10
0.0936431675
 20
0.1765120919
 10
0.0936393615
 20
0.1765256218
 10
0.0936285228
 20
0.1765370919
 10
0.0936123017
 20
0.1765447559
 10
0.0935931675
 20
0.1765474472
 10
0.0935740333
 20
0.1765447559
 10
0.0935578122
 20
0.1765370919
 10
0.0935469735
 20
0.1765256218
 10
0.0935431675
 20
0.1765120919
  0
LWPOLYLINE
  5
1C0
330
1F
100
AcDbEntity
  8
0
  6
Continuous
 62
     7
370
    25
100
AcDbPolyline
 90
       17
 70
   128
 43
0.0
 10
0.0935431675
 20
0.1831556678
 10
0.0935469735
 20
0.1831421379
 10
0.0935578122
 20
0.1831306678
 10
0.0935740333
 20
0.1831230037
 10
0.0935931675
 20
0.1831203125
 10
0.0936123017
 20
0.1831230037
 10
0.0936285228
 20
0.1831306678
 10
0.0936393615
 20
0.1831421379
 10
0.0936431675
 20
0.1831556678
 10
0.0936393615
 20
0.1831691977
 10
0.0936285228
 20
0.1831806678
 10
0.0936123017
 20
0.1831883319
 10
0.0935931675
 20
0.1831910231
 10
0.0935740333
 20
0.1831883319
 10
0.0935578122
 20
0.1831806678
 10
0.0935469735
 20
0.1831691977
 10
0.0935431675
 20
0.1831556678
  0
LINE
  5
1C1
330
1F
100
AcDbEntity
  8
0
  6
Continuous
 62
     7
370
    25
100
AcDbLine
 10
0.0871405139
 20
0.174816912
 30
0.0
 11
0.0939958211
 21
0.174816912
 31
0.0
  0
ARC
  5
1C2
330
1F
100
AcDbEntity
  8
0
  6
Continuous
 62
     7
370
    25
100
AcDbCircle
 10
0.086982432
 20
0.1759587875
 30
0.0
 40
0.0011527660208282
100
AcDbArc
 50
191.5892602023
 51
277.8819604221
  0
LINE
  5
1C3
330
1F
100
AcDbEntity
  8
0
  6
Continuous
 62
     7
370
    25
100
AcDbLine
 10
0.0858531675
 20
0.1757272033
 30
0.0
 11
0.0858531675
 21
0.1759959039
 31
0.0
  0
LINE
  5
1C4
330
1F
100
AcDbEntity
  8
0
  6
Continuous
 62
     7
370
    25
100
AcDbLine
 10
0.0855931675
 20
0.1757272033
 30
0.0
 11
0.0855931675
 21
0.1759959039
 31
0.0
  0
LINE
  5
1C5
330
1F
100
AcDbEntity
  8
0
  6
Continuous
 62
     7
370
    25
100
AcDbLine
 10
0.0855931675
 20
0.1757272033
 30
0.0
 11
0.0858531675
 21
0.1757272033
 31
0.0
  0
ARC
  5
1C6
330
1F
100
AcDbEntity
  8
0
  6
Continuous
 62
     7
370
    25
100
AcDbCircle
 10
0.0931615419
 20
0.1672498068
 30
0.0
 40
0.0007386052849942
100
AcDbArc
 50
197.806233192
 51
277.1904844071
  0
LWPOLYLINE
  5
1C7
330
1F
100
AcDbEntity
  8
0
  6
Continuous
 62
     7
370
    25
100
AcDbPolyline
 90
       93
 70
   128
 43
0.0
 10
0.0787280163
 20
0.1670239422
 10
0.0787543613
 20
0.1671784444
 10
0.0787876587
 20
0.1673322743
 10
0.0788278748
 20
0.1674852753
 10
0.0788749685
 20
0.167637292
 10
0.0789288921
 20
0.1677881698
 10
0.0789895906
 20
0.1679377553
 10
0.0790570025
 20
0.1680858965
 10
0.0791310592
 20
0.1682324427
 10
0.0792116854
 20
0.168377245
 10
0.079298799
 20
0.1685201561
 10
0.0793923117
 20
0.1686610308
 10
0.0794921282
 20
0.1687997258
 10
0.0795981472
 20
0.1689361002
 10
0.0797102608
 20
0.1690700153
 10
0.0798283551
 20
0.169201335
 10
0.0799523099
 20
0.1693299257
 10
0.0800819994
 20
0.1694556568
 10
0.0802172916
 20
0.1695784004
 10
0.080358049
 20
0.1696980317
 10
0.0805041285
 20
0.1698144292
 10
0.0806553817
 20
0.1699274745
 10
0.0808116547
 20
0.1700370526
 10
0.0809727886
 20
0.1701430522
 10
0.0811386197
 20
0.1702453654
 10
0.0813089793
 20
0.1703438884
 10
0.0814836944
 20
0.1704385209
 10
0.0816625872
 20
0.1705291668
 10
0.0818454759
 20
0.1706157338
 10
0.0820321746
 20
0.1706981339
 10
0.0822224934
 20
0.1707762835
 10
0.0824162389
 20
0.170850103
 10
0.0826132141
 20
0.1709195175
 10
0.0828132189
 20
0.1709844562
 10
0.0830160497
 20
0.1710448533
 10
0.0832215005
 20
0.1711006473
 10
0.0834293624
 20
0.1711517815
 10
0.083639424
 20
0.1711982039
 10
0.0838514718
 20
0.1712398673
 10
0.0840652903
 20
0.1712767294
 10
0.0842806621
 20
0.1713087527
 10
0.0844973681
 20
0.1713359046
 10
0.0847151882
 20
0.1713581575
 10
0.0849339008
 20
0.1713754889
 10
0.0851532837
 20
0.171387881
 10
0.0853731137
 20
0.1713953213
 10
0.0855931675
 20
0.1713978023
 10
0.0858132213
 20
0.1713953213
 10
0.0860330513
 20
0.171387881
 10
0.0862524342
 20
0.1713754889
 10
0.0864711468
 20
0.1713581575
 10
0.0866889669
 20
0.1713359046
 10
0.0869056729
 20
0.1713087527
 10
0.0871210447
 20
0.1712767294
 10
0.0873348632
 20
0.1712398673
 10
0.087546911
 20
0.1711982039
 10
0.0877569726
 20
0.1711517815
 10
0.0879648345
 20
0.1711006473
 10
0.0881702853
 20
0.1710448533
 10
0.0883731161
 20
0.1709844562
 10
0.0885731208
 20
0.1709195175
 10
0.0887700961
 20
0.170850103
 10
0.0889638416
 20
0.1707762835
 10
0.0891541604
 20
0.1706981339
 10
0.0893408591
 20
0.1706157338
 10
0.0895237478
 20
0.1705291668
 10
0.0897026406
 20
0.1704385209
 10
0.0898773556
 20
0.1703438884
 10
0.0900477153
 20
0.1702453654
 10
0.0902135464
 20
0.1701430522
 10
0.0903746803
 20
0.1700370526
 10
0.0905309533
 20
0.1699274745
 10
0.0906822064
 20
0.1698144292
 10
0.090828286
 20
0.1696980317
 10
0.0909690434
 20
0.1695784004
 10
0.0911043356
 20
0.1694556568
 10
0.0912340251
 20
0.1693299257
 10
0.0913579799
 20
0.169201335
 10
0.0914760742
 20
0.1690700153
 10
0.0915881878
 20
0.1689361002
 10
0.0916942068
 20
0.1687997258
 10
0.0917940233
 20
0.1686610308
 10
0.091887536
 20
0.1685201561
 10
0.0919746496
 20
0.168377245
 10
0.0920552758
 20
0.1682324427
 10
0.0921293325
 20
0.1680858965
 10
0.0921967444
 20
0.1679377553
 10
0.0922574429
 20
0.1677881698
 10
0.0923113665
 20
0.167637292
 10
0.0923584602
 20
0.1674852753
 10
0.0923986763
 20
0.1673322743
 10
0.0924319737
 20
0.1671784444
 10
0.0924583187
 20
0.1670239422
  0
ARC
  5
1C8
330
1F
100
AcDbEntity
  8
0
  6
Continuous
 62
     7
370
    25
100
AcDbCircle
 10
0.0780247931
 20
0.1672498068
 30
0.0
 40
0.0007386052849942
100
AcDbArc
 50
262.8095155929
 51
342.193766808
  0
LINE
  5
1C9
330
1F
100
AcDbEntity
  8
0
  6
Continuous
 62
     7
370
    25
100
AcDbLine
 10
0.077932343
 20
0.1665170103
 30
0.0
 11
0.0767031675
 21
0.1665170103
 31
0.0
  0
ARC
  5
1CA
330
1F
100
AcDbEntity
  8
0
  6
Continuous
 62
     7
370
    25
100
AcDbCircle
 10
0.0766031675
 20
0.1672241171
 30
0.0
 40
0.0007141428428543
100
AcDbArc
 50
191.421753659
 51
278.0494669755
  0
LINE
  5
1CB
330
1F
100
AcDbEntity
  8
0
  6
Continuous
 62
     7
370
    25
100
AcDbLine
 10
0.0759031675
 20
0.1759959039
 30
0.0
 11
0.0759031675
 21
0.1670826957
 31
0.0
  0
ARC
  5
1CC
330
1F
100
AcDbEntity
  8
0
  6
Continuous
 62
     7
370
    25
100
AcDbCircle
 10
0.077032432
 20
0.1757643198
 30
0.0
 40
0.0011527660204658
100
AcDbArc
 50
82.1180395593
 51
168.4107398062
  0
LINE
  5
1CD
330
1F
100
AcDbEntity
  8
0
  6
Continuous
 62
     7
370
    25
100
AcDbLine
 10
0.0840458211
 20
0.1769061953
 30
0.0
 11
0.0771905139
 21
0.1769061953
 31
0.0
  0
ARC
  5
1CE
330
1F
100
AcDbEntity
  8
0
  6
Continuous
 62
     7
370
    25
100
AcDbCircle
 10
0.084203903
 20
0.1757643198
 30
0.0
 40
0.0011527660208283
100
AcDbArc
 50
11.5892602023
 51
97.8819604221
  0
LINE
  5
1CF
330
1F
100
AcDbEntity
  8
0
  6
Continuous
 62
     7
370
    25
100
AcDbLine
 10
0.0855931675
 20
0.1759959039
 30
0.0
 11
0.0853331675
 21
0.1759959039
 31
0.0
  0
LINE
  5
1D0
330
1F
100
AcDbEntity
  8
0
  6
Continuous
 62
     7
370
    25
100
AcDbLine
 10
0.0952831675
 20
0.1757272033
 30
0.0
 11
0.0952831675
 21
0.1670826957
 31
0.0
  0
ARC
  5
1D1
330
1F
100
AcDbEntity
  8
0
  6
Continuous
 62
     7
370
    25
100
AcDbCircle
 10
0.0945831675
 20
0.1672241171
 30
0.0
 40
0.0007141428428543
100
AcDbArc
 50
261.9505330245
 51
348.578246341
  0
LINE
  5
1D2
330
1F
100
AcDbEntity
  8
0
  6
Continuous
 62
     7
370
    25
100
AcDbLine
 10
0.0944831675
 20
0.1665170103
 30
0.0
 11
0.093253992
 21
0.1665170103
 31
0.0
  0
LWPOLYLINE
  5
1D3
330
1F
100
AcDbEntity
  8
0
  6
Continuous
 62
     7
370
    25
100
AcDbPolyline
 90
       17
 70
   128
 43
0.0
 10
0.0936431675
 20
0.1720933785
 10
0.0936393615
 20
0.1721069084
 10
0.0936285228
 20
0.1721183785
 10
0.0936123017
 20
0.1721260426
 10
0.0935931675
 20
0.1721287338
 10
0.0935740333
 20
0.1721260426
 10
0.0935578122
 20
0.1721183785
 10
0.0935469735
 20
0.1721069084
 10
0.0935431675
 20
0.1720933785
 10
0.0935469735
 20
0.1720798486
 10
0.0935578122
 20
0.1720683785
 10
0.0935740333
 20
0.1720607144
 10
0.0935931675
 20
0.1720580232
 10
0.0936123017
 20
0.1720607144
 10
0.0936285228
 20
0.1720683785
 10
0.0936393615
 20
0.1720798486
 10
0.0936431675
 20
0.1720933785
  0
LWPOLYLINE
  5
1D4
330
1F
100
AcDbEntity
  8
0
  6
Continuous
 62
     7
370
    25
100
AcDbPolyline
 90
       17
 70
   128
 43
0.0
 10
0.0936431675
 20
0.16883614
 10
0.0936393615
 20
0.1688496699
 10
0.0936285228
 20
0.16886114
 10
0.0936123017
 20
0.1688688041
 10
0.0935931675
 20
0.1688714954
 10
0.0935740333
 20
0.1688688041
 10
0.0935578122
 20
0.16886114
 10
0.0935469735
 20
0.1688496699
 10
0.0935431675
 20
0.16883614
 10
0.0935469735
 20
0.1688226101
 10
0.0935578122
 20
0.16881114
 10
0.0935740333
 20
0.168803476
 10
0.0935931675
 20
0.1688007847
 10
0.0936123017
 20
0.168803476
 10
0.0936285228
 20
0.16881114
 10
0.0936393615
 20
0.1688226101
 10
0.0936431675
 20
0.16883614
  0
LWPOLYLINE
  5
1D5
330
1F
100
AcDbEntity
  8
0
  6
Continuous
 62
     7
370
    25
100
AcDbPolyline
 90
       17
 70
   128
 43
0.0
 10
0.0829631675
 20
0.175479716
 10
0.0829593615
 20
0.1754932459
 10
0.0829485228
 20
0.175504716
 10
0.0829323017
 20
0.17551238
 10
0.0829131675
 20
0.1755150713
 10
0.0828940333
 20
0.17551238
 10
0.0828778122
 20
0.175504716
 10
0.0828669735
 20
0.1754932459
 10
0.0828631675
 20
0.175479716
 10
0.0828669735
 20
0.1754661861
 10
0.0828778122
 20
0.175454716
 10
0.0828940333
 20
0.1754470519
 10
0.0829131675
 20
0.1754443606
 10
0.0829323017
 20
0.1754470519
 10
0.0829485228
 20
0.175454716
 10
0.0829593615
 20
0.1754661861
 10
0.0829631675
 20
0.175479716
  0
LWPOLYLINE
  5
1D6
330
1F
100
AcDbEntity
  8
0
  6
Continuous
 62
     7
370
    25
100
AcDbPolyline
 90
       17
 70
   128
 43
0.0
 10
0.0776431675
 20
0.1720933785
 10
0.0776393615
 20
0.1721069084
 10
0.0776285228
 20
0.1721183785
 10
0.0776123017
 20
0.1721260426
 10
0.0775931675
 20
0.1721287338
 10
0.0775740333
 20
0.1721260426
 10
0.0775578122
 20
0.1721183785
 10
0.0775469735
 20
0.1721069084
 10
0.0775431675
 20
0.1720933785
 10
0.0775469735
 20
0.1720798486
 10
0.0775578122
 20
0.1720683785
 10
0.0775740333
 20
0.1720607144
 10
0.0775931675
 20
0.1720580232
 10
0.0776123017
 20
0.1720607144
 10
0.0776285228
 20
0.1720683785
 10
0.0776393615
 20
0.1720798486
 10
0.0776431675
 20
0.1720933785
  0
LWPOLYLINE
  5
1D7
330
1F
100
AcDbEntity
  8
0
  6
Continuous
 62
     7
370
    25
100
AcDbPolyline
 90
       17
 70
   128
 43
0.0
 10
0.0776431675
 20
0.175479716
 10
0.0776393615
 20
0.1754932459
 10
0.0776285228
 20
0.175504716
 10
0.0776123017
 20
0.17551238
 10
0.0775931675
 20
0.1755150713
 10
0.0775740333
 20
0.17551238
 10
0.0775578122
 20
0.175504716
 10
0.0775469735
 20
0.1754932459
 10
0.0775431675
 20
0.175479716
 10
0.0775469735
 20
0.1754661861
 10
0.0775578122
 20
0.175454716
 10
0.0775740333
 20
0.1754470519
 10
0.0775931675
 20
0.1754443606
 10
0.0776123017
 20
0.1754470519
 10
0.0776285228
 20
0.175454716
 10
0.0776393615
 20
0.1754661861
 10
0.0776431675
 20
0.175479716
  0
LWPOLYLINE
  5
1D8
330
1F
100
AcDbEntity
  8
0
  6
Continuous
 62
     7
370
    25
100
AcDbPolyline
 90
       17
 70
   128
 43
0.0
 10
0.0776431675
 20
0.16883614
 10
0.0776393615
 20
0.1688496699
 10
0.0776285228
 20
0.16886114
 10
0.0776123017
 20
0.1688688041
 10
0.0775931675
 20
0.1688714954
 10
0.0775740333
 20
0.1688688041
 10
0.0775578122
 20
0.16886114
 10
0.0775469735
 20
0.1688496699
 10
0.0775431675
 20
0.16883614
 10
0.0775469735
 20
0.1688226101
 10
0.0775578122
 20
0.16881114
 10
0.0775740333
 20
0.168803476
 10
0.0775931675
 20
0.1688007847
 10
0.0776123017
 20
0.168803476
 10
0.0776285228
 20
0.16881114
 10
0.0776393615
 20
0.1688226101
 10
0.0776431675
 20
0.16883614
  0
LINE
  5
1D9
330
1F
100
AcDbEntity
  8
0
  6
Continuous
 62
     7
370
    25
100
AcDbLine
 10
0.0840458211
 20
0.1771748958
 30
0.0
 11
0.0771905139
 21
0.1771748958
 31
0.0
  0
ARC
  5
1DA
330
1F
100
AcDbEntity
  8
0
  6
Continuous
 62
     7
370
    25
100
AcDbCircle
 10
0.084203903
 20
0.1760330204
 30
0.0
 40
0.0011527660208283
100
AcDbArc
 50
11.5892602023
 51
97.8819604221
  0
LINE
  5
1DB
330
1F
100
AcDbEntity
  8
0
  6
Continuous
 62
     7
370
    25
100
AcDbLine
 10
0.0853331675
 20
0.1762646045
 30
0.0
 11
0.0853331675
 21
0.1759959039
 31
0.0
  0
LINE
  5
1DC
330
1F
100
AcDbEntity
  8
0
  6
Continuous
 62
     7
370
    25
100
AcDbLine
 10
0.0759031675
 20
0.1762646045
 30
0.0
 11
0.0759031675
 21
0.1759959039
 31
0.0
  0
ARC
  5
1DD
330
1F
100
AcDbEntity
  8
0
  6
Continuous
 62
     7
370
    25
100
AcDbCircle
 10
0.077032432
 20
0.1760330204
 30
0.0
 40
0.0011527660204658
100
AcDbArc
 50
82.1180395593
 51
168.4107398062
  0
ARC
  5
1DE
330
1F
100
AcDbEntity
  8
0
  6
Continuous
 62
     7
370
    25
100
AcDbCircle
 10
0.1411615419
 20
0.1672498068
 30
0.0
 40
0.0007386052849942
100
AcDbArc
 50
197.806233192
 51
277.1904844071
  0
LWPOLYLINE
  5
1DF
330
1F
100
AcDbEntity
  8
0
  6
Continuous
 62
     7
370
    25
100
AcDbPolyline
 90
       93
 70
   128
 43
0.0
 10
0.1267280163
 20
0.1670239422
 10
0.1267543613
 20
0.1671784444
 10
0.1267876587
 20
0.1673322743
 10
0.1268278748
 20
0.1674852753
 10
0.1268749685
 20
0.167637292
 10
0.1269288921
 20
0.1677881698
 10
0.1269895906
 20
0.1679377553
 10
0.1270570025
 20
0.1680858965
 10
0.1271310592
 20
0.1682324427
 10
0.1272116854
 20
0.168377245
 10
0.127298799
 20
0.1685201561
 10
0.1273923117
 20
0.1686610308
 10
0.1274921282
 20
0.1687997258
 10
0.1275981472
 20
0.1689361002
 10
0.1277102608
 20
0.1690700153
 10
0.1278283551
 20
0.169201335
 10
0.1279523099
 20
0.1693299257
 10
0.1280819994
 20
0.1694556568
 10
0.1282172916
 20
0.1695784004
 10
0.128358049
 20
0.1696980317
 10
0.1285041285
 20
0.1698144292
 10
0.1286553817
 20
0.1699274745
 10
0.1288116547
 20
0.1700370526
 10
0.1289727886
 20
0.1701430522
 10
0.1291386197
 20
0.1702453654
 10
0.1293089793
 20
0.1703438884
 10
0.1294836944
 20
0.1704385209
 10
0.1296625872
 20
0.1705291668
 10
0.1298454759
 20
0.1706157338
 10
0.1300321746
 20
0.1706981339
 10
0.1302224934
 20
0.1707762835
 10
0.1304162389
 20
0.170850103
 10
0.1306132141
 20
0.1709195175
 10
0.1308132189
 20
0.1709844562
 10
0.1310160497
 20
0.1710448533
 10
0.1312215005
 20
0.1711006473
 10
0.1314293624
 20
0.1711517815
 10
0.131639424
 20
0.1711982039
 10
0.1318514718
 20
0.1712398673
 10
0.1320652903
 20
0.1712767294
 10
0.1322806621
 20
0.1713087527
 10
0.1324973681
 20
0.1713359046
 10
0.1327151882
 20
0.1713581575
 10
0.1329339008
 20
0.1713754889
 10
0.1331532837
 20
0.171387881
 10
0.1333731137
 20
0.1713953213
 10
0.1335931675
 20
0.1713978023
 10
0.1338132213
 20
0.1713953213
 10
0.1340330513
 20
0.171387881
 10
0.1342524342
 20
0.1713754889
 10
0.1344711468
 20
0.1713581575
 10
0.1346889669
 20
0.1713359046
 10
0.1349056729
 20
0.1713087527
 10
0.1351210447
 20
0.1712767294
 10
0.1353348632
 20
0.1712398673
 10
0.135546911
 20
0.1711982039
 10
0.1357569726
 20
0.1711517815
 10
0.1359648345
 20
0.1711006473
 10
0.1361702853
 20
0.1710448533
 10
0.1363731161
 20
0.1709844562
 10
0.1365731208
 20
0.1709195175
 10
0.1367700961
 20
0.170850103
 10
0.1369638416
 20
0.1707762835
 10
0.1371541604
 20
0.1706981339
 10
0.1373408591
 20
0.1706157338
 10
0.1375237478
 20
0.1705291668
 10
0.1377026406
 20
0.1704385209
 10
0.1378773556
 20
0.1703438884
 10
0.1380477153
 20
0.1702453654
 10
0.1382135464
 20
0.1701430522
 10
0.1383746803
 20
0.1700370526
 10
0.1385309533
 20
0.1699274745
 10
0.1386822064
 20
0.1698144292
 10
0.138828286
 20
0.1696980317
 10
0.1389690434
 20
0.1695784004
 10
0.1391043356
 20
0.1694556568
 10
0.1392340251
 20
0.1693299257
 10
0.1393579799
 20
0.169201335
 10
0.1394760742
 20
0.1690700153
 10
0.1395881878
 20
0.1689361002
 10
0.1396942068
 20
0.1687997258
 10
0.1397940233
 20
0.1686610308
 10
0.139887536
 20
0.1685201561
 10
0.1399746496
 20
0.168377245
 10
0.1400552758
 20
0.1682324427
 10
0.1401293325
 20
0.1680858965
 10
0.1401967444
 20
0.1679377553
 10
0.1402574429
 20
0.1677881698
 10
0.1403113665
 20
0.167637292
 10
0.1403584602
 20
0.1674852753
 10
0.1403986763
 20
0.1673322743
 10
0.1404319737
 20
0.1671784444
 10
0.1404583187
 20
0.1670239422
  0
ARC
  5
1E0
330
1F
100
AcDbEntity
  8
0
  6
Continuous
 62
     7
370
    25
100
AcDbCircle
 10
0.1260247931
 20
0.1672498068
 30
0.0
 40
0.0007386052849942
100
AcDbArc
 50
262.8095155929
 51
342.193766808
  0
LINE
  5
1E1
330
1F
100
AcDbEntity
  8
0
  6
Continuous
 62
     7
370
    25
100
AcDbLine
 10
0.125932343
 20
0.1665170103
 30
0.0
 11
0.1247031675
 21
0.1665170103
 31
0.0
  0
ARC
  5
1E2
330
1F
100
AcDbEntity
  8
0
  6
Continuous
 62
     7
370
    25
100
AcDbCircle
 10
0.1246031675
 20
0.1672241171
 30
0.0
 40
0.0007141428428543
100
AcDbArc
 50
191.421753659
 51
278.0494669755
  0
LINE
  5
1E3
330
1F
100
AcDbEntity
  8
0
  6
Continuous
 62
     7
370
    25
100
AcDbLine
 10
0.1239031675
 20
0.1759959039
 30
0.0
 11
0.1239031675
 21
0.1670826957
 31
0.0
  0
ARC
  5
1E4
330
1F
100
AcDbEntity
  8
0
  6
Continuous
 62
     7
370
    25
100
AcDbCircle
 10
0.125032432
 20
0.1757643198
 30
0.0
 40
0.0011527660204658
100
AcDbArc
 50
82.1180395593
 51
168.4107398062
  0
LINE
  5
1E5
330
1F
100
AcDbEntity
  8
0
  6
Continuous
 62
     7
370
    25
100
AcDbLine
 10
0.1320458211
 20
0.1769061953
 30
0.0
 11
0.1251905139
 21
0.1769061953
 31
0.0
  0
ARC
  5
1E6
330
1F
100
AcDbEntity
  8
0
  6
Continuous
 62
     7
370
    25
100
AcDbCircle
 10
0.132203903
 20
0.1757643198
 30
0.0
 40
0.0011527660208283
100
AcDbArc
 50
11.5892602023
 51
97.8819604221
  0
LINE
  5
1E7
330
1F
100
AcDbEntity
  8
0
  6
Continuous
 62
     7
370
    25
100
AcDbLine
 10
0.1335931675
 20
0.1759959039
 30
0.0
 11
0.1333331675
 21
0.1759959039
 31
0.0
  0
LINE
  5
1E8
330
1F
100
AcDbEntity
  8
0
  6
Continuous
 62
     7
370
    25
100
AcDbLine
 10
0.1432831675
 20
0.1757272033
 30
0.0
 11
0.1432831675
 21
0.1670826957
 31
0.0
  0
ARC
  5
1E9
330
1F
100
AcDbEntity
  8
0
  6
Continuous
 62
     7
370
    25
100
AcDbCircle
 10
0.1425831675
 20
0.1672241171
 30
0.0
 40
0.0007141428428544
100
AcDbArc
 50
261.9505330245
 51
348.578246341
  0
LINE
  5
1EA
330
1F
100
AcDbEntity
  8
0
  6
Continuous
 62
     7
370
    25
100
AcDbLine
 10
0.1424831675
 20
0.1665170103
 30
0.0
 11
0.141253992
 21
0.1665170103
 31
0.0
  0
LWPOLYLINE
  5
1EB
330
1F
100
AcDbEntity
  8
0
  6
Continuous
 62
     7
370
    25
100
AcDbPolyline
 90
       17
 70
   128
 43
0.0
 10
0.1416431675
 20
0.1720933785
 10
0.1416393615
 20
0.1721069084
 10
0.1416285228
 20
0.1721183785
 10
0.1416123017
 20
0.1721260426
 10
0.1415931675
 20
0.1721287338
 10
0.1415740333
 20
0.1721260426
 10
0.1415578122
 20
0.1721183785
 10
0.1415469735
 20
0.1721069084
 10
0.1415431675
 20
0.1720933785
 10
0.1415469735
 20
0.1720798486
 10
0.1415578122
 20
0.1720683785
 10
0.1415740333
 20
0.1720607144
 10
0.1415931675
 20
0.1720580232
 10
0.1416123017
 20
0.1720607144
 10
0.1416285228
 20
0.1720683785
 10
0.1416393615
 20
0.1720798486
 10
0.1416431675
 20
0.1720933785
  0
LWPOLYLINE
  5
1EC
330
1F
100
AcDbEntity
  8
0
  6
Continuous
 62
     7
370
    25
100
AcDbPolyline
 90
       17
 70
   128
 43
0.0
 10
0.1416431675
 20
0.16883614
 10
0.1416393615
 20
0.1688496699
 10
0.1416285228
 20
0.16886114
 10
0.1416123017
 20
0.1688688041
 10
0.1415931675
 20
0.1688714954
 10
0.1415740333
 20
0.1688688041
 10
0.1415578122
 20
0.16886114
 10
0.1415469735
 20
0.1688496699
 10
0.1415431675
 20
0.16883614
 10
0.1415469735
 20
0.1688226101
 10
0.1415578122
 20
0.16881114
 10
0.1415740333
 20
0.168803476
 10
0.1415931675
 20
0.1688007847
 10
0.1416123017
 20
0.168803476
 10
0.1416285228
 20
0.16881114
 10
0.1416393615
 20
0.1688226101
 10
0.1416431675
 20
0.16883614
  0
LWPOLYLINE
  5
1ED
330
1F
100
AcDbEntity
  8
0
  6
Continuous
 62
     7
370
    25
100
AcDbPolyline
 90
       17
 70
   128
 43
0.0
 10
0.1309631675
 20
0.175479716
 10
0.1309593615
 20
0.1754932459
 10
0.1309485228
 20
0.175504716
 10
0.1309323017
 20
0.17551238
 10
0.1309131675
 20
0.1755150713
 10
0.1308940333
 20
0.17551238
 10
0.1308778122
 20
0.175504716
 10
0.1308669735
 20
0.1754932459
 10
0.1308631675
 20
0.175479716
 10
0.1308669735
 20
0.1754661861
 10
0.1308778122
 20
0.175454716
 10
0.1308940333
 20
0.1754470519
 10
0.1309131675
 20
0.1754443606
 10
0.1309323017
 20
0.1754470519
 10
0.1309485228
 20
0.175454716
 10
0.1309593615
 20
0.1754661861
 10
0.1309631675
 20
0.175479716
  0
LWPOLYLINE
  5
1EE
330
1F
100
AcDbEntity
  8
0
  6
Continuous
 62
     7
370
    25
100
AcDbPolyline
 90
       17
 70
   128
 43
0.0
 10
0.1256431675
 20
0.1720933785
 10
0.1256393615
 20
0.1721069084
 10
0.1256285228
 20
0.1721183785
 10
0.1256123017
 20
0.1721260426
 10
0.1255931675
 20
0.1721287338
 10
0.1255740333
 20
0.1721260426
 10
0.1255578122
 20
0.1721183785
 10
0.1255469735
 20
0.1721069084
 10
0.1255431675
 20
0.1720933785
 10
0.1255469735
 20
0.1720798486
 10
0.1255578122
 20
0.1720683785
 10
0.1255740333
 20
0.1720607144
 10
0.1255931675
 20
0.1720580232
 10
0.1256123017
 20
0.1720607144
 10
0.1256285228
 20
0.1720683785
 10
0.1256393615
 20
0.1720798486
 10
0.1256431675
 20
0.1720933785
  0
LWPOLYLINE
  5
1EF
330
1F
100
AcDbEntity
  8
0
  6
Continuous
 62
     7
370
    25
100
AcDbPolyline
 90
       17
 70
   128
 43
0.0
 10
0.1256431675
 20
0.175479716
 10
0.1256393615
 20
0.1754932459
 10
0.1256285228
 20
0.175504716
 10
0.1256123017
 20
0.17551238
 10
0.1255931675
 20
0.1755150713
 10
0.1255740333
 20
0.17551238
 10
0.1255578122
 20
0.175504716
 10
0.1255469735
 20
0.1754932459
 10
0.1255431675
 20
0.175479716
 10
0.1255469735
 20
0.1754661861
 10
0.1255578122
 20
0.175454716
 10
0.1255740333
 20
0.1754470519
 10
0.1255931675
 20
0.1754443606
 10
0.1256123017
 20
0.1754470519
 10
0.1256285228
 20
0.175454716
 10
0.1256393615
 20
0.1754661861
 10
0.1256431675
 20
0.175479716
  0
LWPOLYLINE
  5
1F0
330
1F
100
AcDbEntity
  8
0
  6
Continuous
 62
     7
370
    25
100
AcDbPolyline
 90
       17
 70
   128
 43
0.0
 10
0.1256431675
 20
0.16883614
 10
0.1256393615
 20
0.1688496699
 10
0.1256285228
 20
0.16886114
 10
0.1256123017
 20
0.1688688041
 10
0.1255931675
 20
0.1688714954
 10
0.1255740333
 20
0.1688688041
 10
0.1255578122
 20
0.16886114
 10
0.1255469735
 20
0.1688496699
 10
0.1255431675
 20
0.16883614
 10
0.1255469735
 20
0.1688226101
 10
0.1255578122
 20
0.16881114
 10
0.1255740333
 20
0.168803476
 10
0.1255931675
 20
0.1688007847
 10
0.1256123017
 20
0.168803476
 10
0.1256285228
 20
0.16881114
 10
0.1256393615
 20
0.1688226101
 10
0.1256431675
 20
0.16883614
  0
LINE
  5
1F1
330
1F
100
AcDbEntity
  8
0
  6
Continuous
 62
     7
370
    25
100
AcDbLine
 10
0.1320458211
 20
0.1771748958
 30
0.0
 11
0.1251905139
 21
0.1771748958
 31
0.0
  0
ARC
  5
1F2
330
1F
100
AcDbEntity
  8
0
  6
Continuous
 62
     7
370
    25
100
AcDbCircle
 10
0.132203903
 20
0.1760330204
 30
0.0
 40
0.0011527660208283
100
AcDbArc
 50
11.5892602023
 51
97.8819604221
  0
LINE
  5
1F3
330
1F
100
AcDbEntity
  8
0
  6
Continuous
 62
     7
370
    25
100
AcDbLine
 10
0.1333331675
 20
0.1762646045
 30
0.0
 11
0.1333331675
 21
0.1759959039
 31
0.0
  0
LINE
  5
1F4
330
1F
100
AcDbEntity
  8
0
  6
Continuous
 62
     7
370
    25
100
AcDbLine
 10
0.1239031675
 20
0.1762646045
 30
0.0
 11
0.1239031675
 21
0.1759959039
 31
0.0
  0
ARC
  5
1F5
330
1F
100
AcDbEntity
  8
0
  6
Continuous
 62
     7
370
    25
100
AcDbCircle
 10
0.125032432
 20
0.1760330204
 30
0.0
 40
0.0011527660204658
100
AcDbArc
 50
82.1180395593
 51
168.4107398062
  0
LINE
  5
1F6
330
1F
100
AcDbEntity
  8
0
  6
Continuous
 62
     7
370
    18
100
AcDbLine
 10
0.0316662375
 20
0.1888360863
 30
0.0
 11
0.0316023058
 21
0.1637903644
 31
0.0
  0
LINE
  5
1F7
330
1F
100
AcDbEntity
  8
0
  6
Continuous
 62
     7
370
    18
100
AcDbLine
 10
0.0983931675
 20
0.1370959039
 30
0.0
 11
0.0752919288
 21
0.1370959039
 31
0.0
  0
LINE
  5
1F8
330
1F
100
AcDbEntity
  8
0
  6
Continuous
 62
     7
370
    18
100
AcDbLine
 10
0.0983931675
 20
0.1176460961
 30
0.0
 11
0.0983931675
 21
0.1370959039
 31
0.0
  0
LINE
  5
1F9
330
1F
100
AcDbEntity
  8
0
  6
Continuous
 62
     7
370
    18
100
AcDbLine
 10
0.1283931675
 20
0.0876460961
 30
0.0
 11
0.1387931675
 21
0.0876460961
 31
0.0
  0
LINE
  5
1FA
330
1F
100
AcDbEntity
  8
0
  6
Continuous
 62
     7
370
    18
100
AcDbLine
 10
0.1687931675
 20
0.1176460961
 30
0.0
 11
0.1687931675
 21
0.1533340486
 31
0.0
  0
LINE
  5
1FB
330
1F
100
AcDbEntity
  8
0
  6
Continuous
 62
     7
370
    18
100
AcDbLine
 10
0.1724931675
 20
0.1839959039
 30
0.0
 11
0.1724931675
 21
0.1679959039
 31
0.0
  0
LINE
  5
1FC
330
1F
100
AcDbEntity
  8
0
  6
Continuous
 62
     7
370
    18
100
AcDbLine
 10
0.1415931675
 20
0.2148959039
 30
0.0
 11
0.1083527808
 21
0.2148959039
 31
0.0
  0
ARC
  5
1FD
330
1F
100
AcDbEntity
  8
0
  6
Continuous
 62
     7
370
    18
100
AcDbCircle
 10
0.0616662375
 20
0.1888360863
 30
0.0
 40
0.03
100
AcDbArc
 50
80.4150273303
 51
180.0
  0
ARC
  5
1FE
330
1F
100
AcDbEntity
  8
0
  6
Continuous
 62
     7
370
    18
100
AcDbCircle
 10
0.0616023058
 20
0.1637903644
 30
0.0
 40
0.0300000000000001
100
AcDbArc
 50
179.7074942985
 51
297.1499469345
  0
ARC
  5
1FF
330
1F
100
AcDbEntity
  8
0
  6
Continuous
 62
     7
370
    18
100
AcDbCircle
 10
0.1283931675
 20
0.1176460961
 30
0.0
 40
0.03
100
AcDbArc
 50
180.0
 51
270.0
  0
ARC
  5
200
330
1F
100
AcDbEntity
  8
0
  6
Continuous
 62
     7
370
    18
100
AcDbCircle
 10
0.1387931675
 20
0.1176460961
 30
0.0
 40
0.03
100
AcDbArc
 50
270.0
 51
0.0
  0
ARC
  5
201
330
1F
100
AcDbEntity
  8
0
  6
Continuous
 62
     7
370
    18
100
AcDbCircle
 10
0.1415931675
 20
0.1679959039
 30
0.0
 40
0.0309
100
AcDbArc
 50
331.6736101178
 51
0.0
  0
ARC
  5
202
330
1F
100
AcDbEntity
  8
0
  6
Continuous
 62
     7
370
    18
100
AcDbCircle
 10
0.1415931675
 20
0.1839959039
 30
0.0
 40
0.0309
100
AcDbArc
 50
0.0
 51
90.0
  0
ARC
  5
203
330
1F
100
AcDbEntity
  8
0
  6
Continuous
 62
     7
370
    18
100
AcDbCircle
 10
0.0855931675
 20
0.1939959039
 30
0.0
 40
0.0309
100
AcDbArc
 50
42.5610495521
 51
127.7831010846
  0
ENDSEC
  0
SECTION
  2
OBJECTS
  0
DICTIONARY
  5
C
330
0
100
AcDbDictionary
281
     1
  3
ACAD_DETAILVIEWSTYLE
350
20C
  3
ACAD_GROUP
350
D
  3
ACAD_LAYOUT
350
1A
  3
ACAD_MATERIAL
350
43
  3
ACAD_MLEADERSTYLE
350
6B
  3
ACAD_MLINESTYLE
350
17
  3
ACAD_PLOTSETTINGS
350
19
  3
ACAD_PLOTSTYLENAME
350
E
  3
ACAD_SCALELIST
350
47
  3
ACAD_SECTIONVIEWSTYLE
350
20D
  3
ACAD_TABLESTYLE
350
69
  3
ACAD_VISUALSTYLE
350
2A
  3
ACDB_RECOMPOSE_DATA
350
209
  3
AcDbVariableDictionary
350
204
  0
SUN
  5
6D
330
29
100
AcDbSun
 90
        1
290
     0
 63
     7
421
 16777215
 40
1.0
291
     1
 91
  2455826
 92
 54000000
292
     0
 70
     2
 71
   256
280
     1
  0
DICTIONARY
  5
20C
102
{ACAD_REACTORS
330
C
102
}
330
C
100
AcDbDictionary
281
     1
  0
DICTIONARY
  5
D
102
{ACAD_REACTORS
330
C
102
}
330
C
100
AcDbDictionary
281
     1
  0
DICTIONARY
  5
1A
102
{ACAD_REACTORS
330
C
102
}
330
C
100
AcDbDictionary
281
     1
  3
Layout1
350
1E
  3
Layout2
350
26
  3
Model
350
22
  0
DICTIONARY
  5
43
102
{ACAD_REACTORS
330
C
102
}
330
C
100
AcDbDictionary
281
     1
  3
ByBlock
350
45
  3
ByLayer
350
44
  3
Global
350
46
  0
DICTIONARY
  5
6B
102
{ACAD_REACTORS
330
C
102
}
330
C
100
AcDbDictionary
281
     1
  3
Standard
350
6C
  0
DICTIONARY
  5
17
102
{ACAD_REACTORS
330
C
102
}
330
C
100
AcDbDictionary
281
     1
  3
Standard
350
18
  0
DICTIONARY
  5
19
102
{ACAD_REACTORS
330
C
102
}
330
C
100
AcDbDictionary
281
     1
  0
ACDBDICTIONARYWDFLT
  5
E
102
{ACAD_REACTORS
330
C
102
}
330
C
100
AcDbDictionary
281
     1
  3
Normal
350
F
100
AcDbDictionaryWithDefault
340
F
  0
DICTIONARY
  5
47
102
{ACAD_REACTORS
330
C
102
}
330
C
100
AcDbDictionary
281
     1
  3
A0
350
48
  3
A1
350
49
  3
A2
350
4A
  3
A3
350
4B
  3
A4
350
4C
  3
A5
350
4D
  3
A6
350
4E
  3
A7
350
4F
  3
A8
350
50
  3
A9
350
51
  3
B0
350
52
  3
B1
350
53
  3
B2
350
54
  3
B3
350
55
  3
B4
350
56
  3
B5
350
57
  3
B6
350
58
  3
B7
350
59
  3
B8
350
5A
  3
B9
350
5B
  3
C0
350
5C
  3
C1
350
5D
  3
C2
350
5E
  3
C3
350
5F
  3
C4
350
60
  3
C5
350
61
  3
C6
350
62
  3
C7
350
63
  3
C8
350
64
  3
C9
350
65
  3
D0
350
66
  3
D1
350
67
  3
D2
350
68
  0
DICTIONARY
  5
20D
102
{ACAD_REACTORS
330
C
102
}
330
C
100
AcDbDictionary
281
     1
  0
DICTIONARY
  5
69
102
{ACAD_REACTORS
330
C
102
}
330
C
100
AcDbDictionary
281
     1
  3
Standard
350
6A
  0
DICTIONARY
  5
2A
102
{ACAD_REACTORS
330
C
102
}
330
C
100
AcDbDictionary
281
     1
  3
2dWireframe
350
2F
  3
Basic
350
32
  3
Brighten
350
36
  3
ColorChange
350
3A
  3
Conceptual
350
34
  3
Dim
350
35
  3
EdgeColorOff
350
3D
  3
Facepattern
350
39
  3
Flat
350
2B
  3
FlatWithEdges
350
2C
  3
Gouraud
350
2D
  3
GouraudWithEdges
350
2E
  3
Hidden
350
31
  3
JitterOff
350
3B
  3
Linepattern
350
38
  3
OverhangOff
350
3C
  3
Realistic
350
33
  3
Shaded
350
42
  3
Shaded with edges
350
41
  3
Shades of Gray
350
3E
  3
Sketchy
350
3F
  3
Thicken
350
37
  3
Wireframe
350
30
  3
X-Ray
350
40
  0
XRECORD
  5
209
102
{ACAD_REACTORS
330
C
102
}
330
C
100
AcDbXrecord
280
     1
 90
        1
330
6A
  0
DICTIONARY
  5
204
102
{ACAD_REACTORS
330
C
102
}
330
C
100
AcDbDictionary
281
     1
  3
CANNOSCALE
350
205
  3
CMLEADERSTYLE
350
20B
  3
CTABLESTYLE
350
20A
  0
LAYOUT
  5
1E
102
{ACAD_REACTORS
330
1A
102
}
330
1A
100
AcDbPlotSettings
  1

  2
none_device
  4

  6

 40
0.0
 41
0.0
 42
0.0
 43
0.0
 44
0.0
 45
0.0
 46
0.0
 47
0.0
 48
0.0
 49
0.0
140
0.0
141
0.0
142
1.0
143
1.0
 70
   688
 72
     1
 73
     0
 74
     5
  7

 75
    16
 76
     0
 77
     2
 78
   300
147
1.0
148
0.0
149
0.0
100
AcDbLayout
  1
Layout1
 70
     1
 71
     1
 10
0.0
 20
0.0
 11
420.0
 21
297.0
 12
0.0
 22
0.0
 32
0.0
 14
1.0000000000E+20
 24
1.0000000000E+20
 34
1.0000000000E+20
 15
-1.0000000000E+20
 25
-1.0000000000E+20
 35
-1.0000000000E+20
146
0.0
 13
0.0
 23
0.0
 33
0.0
 16
1.0
 26
0.0
 36
0.0
 17
0.0
 27
1.0
 37
0.0
 76
     0
330
1B
  0
LAYOUT
  5
26
102
{ACAD_REACTORS
330
1A
102
}
330
1A
100
AcDbPlotSettings
  1

  2
none_device
  4

  6

 40
0.0
 41
0.0
 42
0.0
 43
0.0
 44
0.0
 45
0.0
 46
0.0
 47
0.0
 48
0.0
 49
0.0
140
0.0
141
0.0
142
1.0
143
1.0
 70
   688
 72
     1
 73
     0
 74
     5
  7

 75
    16
 76
     0
 77
     2
 78
   300
147
1.0
148
0.0
149
0.0
100
AcDbLayout
  1
Layout2
 70
     1
 71
     2
 10
0.0
 20
0.0
 11
0.0
 21
0.0
 12
0.0
 22
0.0
 32
0.0
 14
0.0
 24
0.0
 34
0.0
 15
0.0
 25
0.0
 35
0.0
146
0.0
 13
0.0
 23
0.0
 33
0.0
 16
1.0
 26
0.0
 36
0.0
 17
0.0
 27
1.0
 37
0.0
 76
     0
330
23
  0
LAYOUT
  5
22
102
{ACAD_REACTORS
330
1A
102
}
330
1A
100
AcDbPlotSettings
  1

  2
none_device
  4
Letter_(8.50_x_11.00_Inches)
  6

 40
6.35
 41
6.35
 42
6.35000508
 43
6.35000508
 44
215.9
 45
279.4
 46
0.0
 47
0.0
 48
0.0
 49
0.0
140
0.0
141
0.0
142
1.0
143
1.0
 70
  1712
 72
     1
 73
     0
 74
     0
  7

 75
     0
 76
     0
 77
     2
 78
   300
147
1.0
148
0.0
149
0.0
100
AcDbLayout
  1
Model
 70
     1
 71
     0
 10
0.0
 20
0.0
 11
0.21
 21
0.297
 12
0.0
 22
0.0
 32
0.0
 14
0.0
 24
0.0
 34
0.0
 15
0.21
 25
0.297
 35
0.0
146
0.0
 13
0.0
 23
0.0
 33
0.0
 16
1.0
 26
0.0
 36
0.0
 17
0.0
 27
1.0
 37
0.0
 76
     0
330
1F
331
29
  0
MATERIAL
  5
45
102
{ACAD_REACTORS
330
43
102
}
330
43
100
AcDbMaterial
  1
ByBlock
 72
     1
 94
      127
  0
MATERIAL
  5
44
102
{ACAD_REACTORS
330
43
102
}
330
43
100
AcDbMaterial
  1
ByLayer
 72
     1
 94
      127
  0
MATERIAL
  5
46
102
{ACAD_REACTORS
330
43
102
}
330
43
100
AcDbMaterial
  1
Global
 72
     1
 94
      127
  0
MLEADERSTYLE
  5
6C
102
{ACAD_REACTORS
330
6B
102
}
330
6B
100
AcDbMLeaderStyle
170
     2
171
     1
172
     0
 90
        2
 40
0.0
 41
0.0
173
     1
 91
-1056964608
340
14
 92
       -2
290
     1
 42
2.0
291
     1
 43
8.0
  3
Standard
341
0
 44
4.0
300

342
11
174
     1
178
     6
175
     1
176
     0
 93
-1056964608
 45
4.0
292
     0
297
     0
 46
4.0
343
0
 94
-1056964608
 47
1.0
 49
1.0
140
1.0
293
     1
141
0.0
294
     1
177
     0
142
1.0
295
     0
296
     0
143
3.75
1001
ACAD_MLEADERVER
1070
     2
  0
MLINESTYLE
  5
18
102
{ACAD_REACTORS
330
17
102
}
330
17
100
AcDbMlineStyle
  2
Standard
 70
     0
  3

 62
   256
 51
90.0
 52
90.0
 71
     2
 49
0.5
 62
   256
  6
BYLAYER
 49
-0.5
 62
   256
  6
BYLAYER
  0
ACDBPLACEHOLDER
  5
F
102
{ACAD_REACTORS
330
E
102
}
330
E
  0
SCALE
  5
48
102
{ACAD_REACTORS
330
47
102
}
330
47
100
AcDbScale
 70
     0
300
1:1
140
1.0
141
1.0
290
     1
  0
SCALE
  5
49
102
{ACAD_REACTORS
330
47
102
}
330
47
100
AcDbScale
 70
     0
300
1:2
140
1.0
141
2.0
290
     0
  0
SCALE
  5
4A
102
{ACAD_REACTORS
330
47
102
}
330
47
100
AcDbScale
 70
     0
300
1:4
140
1.0
141
4.0
290
     0
  0
SCALE
  5
4B
102
{ACAD_REACTORS
330
47
102
}
330
47
100
AcDbScale
 70
     0
300
1:5
140
1.0
141
5.0
290
     0
  0
SCALE
  5
4C
102
{ACAD_REACTORS
330
47
102
}
330
47
100
AcDbScale
 70
     0
300
1:8
140
1.0
141
8.0
290
     0
  0
SCALE
  5
4D
102
{ACAD_REACTORS
330
47
102
}
330
47
100
AcDbScale
 70
     0
300
1:10
140
1.0
141
10.0
290
     0
  0
SCALE
  5
4E
102
{ACAD_REACTORS
330
47
102
}
330
47
100
AcDbScale
 70
     0
300
1:16
140
1.0
141
16.0
290
     0
  0
SCALE
  5
4F
102
{ACAD_REACTORS
330
47
102
}
330
47
100
AcDbScale
 70
     0
300
1:20
140
1.0
141
20.0
290
     0
  0
SCALE
  5
50
102
{ACAD_REACTORS
330
47
102
}
330
47
100
AcDbScale
 70
     0
300
1:30
140
1.0
141
30.0
290
     0
  0
SCALE
  5
51
102
{ACAD_REACTORS
330
47
102
}
330
47
100
AcDbScale
 70
     0
300
1:40
140
1.0
141
40.0
290
     0
  0
SCALE
  5
52
102
{ACAD_REACTORS
330
47
102
}
330
47
100
AcDbScale
 70
     0
300
1:50
140
1.0
141
50.0
290
     0
  0
SCALE
  5
53
102
{ACAD_REACTORS
330
47
102
}
330
47
100
AcDbScale
 70
     0
300
1:100
140
1.0
141
100.0
290
     0
  0
SCALE
  5
54
102
{ACAD_REACTORS
330
47
102
}
330
47
100
AcDbScale
 70
     0
300
2:1
140
2.0
141
1.0
290
     0
  0
SCALE
  5
55
102
{ACAD_REACTORS
330
47
102
}
330
47
100
AcDbScale
 70
     0
300
4:1
140
4.0
141
1.0
290
     0
  0
SCALE
  5
56
102
{ACAD_REACTORS
330
47
102
}
330
47
100
AcDbScale
 70
     0
300
8:1
140
8.0
141
1.0
290
     0
  0
SCALE
  5
57
102
{ACAD_REACTORS
330
47
102
}
330
47
100
AcDbScale
 70
     0
300
10:1
140
10.0
141
1.0
290
     0
  0
SCALE
  5
58
102
{ACAD_REACTORS
330
47
102
}
330
47
100
AcDbScale
 70
     0
300
100:1
140
100.0
141
1.0
290
     0
  0
SCALE
  5
59
102
{ACAD_REACTORS
330
47
102
}
330
47
100
AcDbScale
 70
     0
300
1/128" = 1'-0"
140
0.0078125
141
12.0
290
     0
  0
SCALE
  5
5A
102
{ACAD_REACTORS
330
47
102
}
330
47
100
AcDbScale
 70
     0
300
1/64" = 1'-0"
140
0.015625
141
12.0
290
     0
  0
SCALE
  5
5B
102
{ACAD_REACTORS
330
47
102
}
330
47
100
AcDbScale
 70
     0
300
1/32" = 1'-0"
140
0.03125
141
12.0
290
     0
  0
SCALE
  5
5C
102
{ACAD_REACTORS
330
47
102
}
330
47
100
AcDbScale
 70
     0
300
1/16" = 1'-0"
140
0.0625
141
12.0
290
     0
  0
SCALE
  5
5D
102
{ACAD_REACTORS
330
47
102
}
330
47
100
AcDbScale
 70
     0
300
3/32" = 1'-0"
140
0.09375
141
12.0
290
     0
  0
SCALE
  5
5E
102
{ACAD_REACTORS
330
47
102
}
330
47
100
AcDbScale
 70
     0
300
1/8" = 1'-0"
140
0.125
141
12.0
290
     0
  0
SCALE
  5
5F
102
{ACAD_REACTORS
330
47
102
}
330
47
100
AcDbScale
 70
     0
300
3/16" = 1'-0"
140
0.1875
141
12.0
290
     0
  0
SCALE
  5
60
102
{ACAD_REACTORS
330
47
102
}
330
47
100
AcDbScale
 70
     0
300
1/4" = 1'-0"
140
0.25
141
12.0
290
     0
  0
SCALE
  5
61
102
{ACAD_REACTORS
330
47
102
}
330
47
100
AcDbScale
 70
     0
300
3/8" = 1'-0"
140
0.375
141
12.0
290
     0
  0
SCALE
  5
62
102
{ACAD_REACTORS
330
47
102
}
330
47
100
AcDbScale
 70
     0
300
1/2" = 1'-0"
140
0.5
141
12.0
290
     0
  0
SCALE
  5
63
102
{ACAD_REACTORS
330
47
102
}
330
47
100
AcDbScale
 70
     0
300
3/4" = 1'-0"
140
0.75
141
12.0
290
     0
  0
SCALE
  5
64
102
{ACAD_REACTORS
330
47
102
}
330
47
100
AcDbScale
 70
     0
300
1" = 1'-0"
140
1.0
141
12.0
290
     0
  0
SCALE
  5
65
102
{ACAD_REACTORS
330
47
102
}
330
47
100
AcDbScale
 70
     0
300
1-1/2" = 1'-0"
140
1.5
141
12.0
290
     0
  0
SCALE
  5
66
102
{ACAD_REACTORS
330
47
102
}
330
47
100
AcDbScale
 70
     0
300
3" = 1'-0"
140
3.0
141
12.0
290
     0
  0
SCALE
  5
67
102
{ACAD_REACTORS
330
47
102
}
330
47
100
AcDbScale
 70
     0
300
6" = 1'-0"
140
6.0
141
12.0
290
     0
  0
SCALE
  5
68
102
{ACAD_REACTORS
330
47
102
}
330
47
100
AcDbScale
 70
     0
300
1'-0" = 1'-0"
140
12.0
141
12.0
290
     0
  0
TABLESTYLE
  5
6A
102
{ACAD_REACTORS
330
69
102
}
102
{ACAD_XDICTIONARY
360
206
102
}
330
69
100
AcDbTableStyle
  3
Standard
 70
     0
 71
     0
 40
0.06
 41
0.06
280
     0
281
     0
  7
Standard
140
4.5
170
     2
 62
     0
 63
   257
283
     0
 90
        4
 91
        0
  1

274
    -2
284
     1
 64
     0
275
    -2
285
     1
 65
     0
276
    -2
286
     1
 66
     0
277
    -2
287
     1
 67
     0
278
    -2
288
     1
 68
     0
279
    -2
289
     1
 69
     0
  7
Standard
140
6.0
170
     5
 62
     0
 63
   257
283
     0
 90
        4
 91
        0
  1

274
    -2
284
     1
 64
     0
275
    -2
285
     1
 65
     0
276
    -2
286
     1
 66
     0
277
    -2
287
     1
 67
     0
278
    -2
288
     1
 68
     0
279
    -2
289
     1
 69
     0
  7
Standard
140
4.5
170
     5
 62
     0
 63
   257
283
     0
 90
        4
 91
        0
  1

274
    -2
284
     1
 64
     0
275
    -2
285
     1
 65
     0
276
    -2
286
     1
 66
     0
277
    -2
287
     1
 67
     0
278
    -2
288
     1
 68
     0
279
    -2
289
     1
 69
     0
  0
VISUALSTYLE
  5
2F
102
{ACAD_REACTORS
330
2A
102
}
330
2A
100
AcDbVisualStyle
  2
2dWireframe
 70
     4
 71
     0
 72
     2
 73
     0
 90
        0
 40
0.6
 41
30.0
 62
     5
 63
     7
421
 16777215
 74
     1
 91
        4
 64
     7
 65
   257
 75
     1
175
     1
 42
1.0
 92
        0
 66
   257
 43
1.0
 76
     1
 77
     6
 78
     2
 67
     7
 79
     5
170
     0
171
     0
290
     0
174
     0
 93
        1
 44
0.0
173
     0
291
     0
 45
0.0
  0
VISUALSTYLE
  5
32
102
{ACAD_REACTORS
330
2A
102
}
330
2A
100
AcDbVisualStyle
  2
Basic
 70
     7
 71
     1
 72
     0
 73
     1
 90
        0
 40
0.6
 41
30.0
 62
     5
 63
     7
421
 16777215
 74
     0
 91
        4
 64
     7
 65
   257
 75
     1
175
     1
 42
1.0
 92
        8
 66
     7
 43
1.0
 76
     1
 77
     6
 78
     2
 67
     7
 79
     5
170
     0
171
     0
290
     0
174
     0
 93
        1
 44
0.0
173
     0
291
     1
 45
0.0
  0
VISUALSTYLE
  5
36
102
{ACAD_REACTORS
330
2A
102
}
330
2A
100
AcDbVisualStyle
  2
Brighten
 70
    12
 71
     2
 72
     2
 73
     0
 90
        0
 40
0.6
 41
30.0
 62
     5
 63
     7
421
 16777215
 74
     1
 91
        4
 64
     7
 65
   257
 75
     1
175
     1
 42
1.0
 92
        8
 66
     7
 43
1.0
 76
     1
 77
     6
 78
     2
 67
     7
 79
     5
170
     0
171
     0
290
     0
174
     0
 93
        1
 44
50.0
173
     0
291
     1
 45
0.0
  0
VISUALSTYLE
  5
3A
102
{ACAD_REACTORS
330
2A
102
}
330
2A
100
AcDbVisualStyle
  2
ColorChange
 70
    16
 71
     2
 72
     2
 73
     3
 90
        0
 40
0.6
 41
30.0
 62
     5
 63
     8
421
  8421504
 74
     1
 91
        4
 64
     7
 65
   257
 75
     1
175
     1
 42
1.0
 92
        8
 66
     8
424
  8421504
 43
1.0
 76
     1
 77
     6
 78
     2
 67
     7
 79
     5
170
     0
171
     0
290
     0
174
     0
 93
        1
 44
0.0
173
     0
291
     1
 45
0.0
  0
VISUALSTYLE
  5
34
102
{ACAD_REACTORS
330
2A
102
}
330
2A
100
AcDbVisualStyle
  2
Conceptual
 70
     9
 71
     3
 72
     2
 73
     0
 90
        0
 40
0.6
 41
30.0
 62
     5
 63
     7
421
 16777215
 74
     2
 91
        2
 64
     7
 65
   257
 75
     1
175
     1
 42
179.0
 92
        8
 66
     7
 43
1.0
 76
     1
 77
     6
 78
     2
 67
     7
 79
     3
170
     0
171
     0
290
     0
174
     0
 93
        1
 44
0.0
173
     0
291
     0
 45
0.0
  0
VISUALSTYLE
  5
35
102
{ACAD_REACTORS
330
2A
102
}
330
2A
100
AcDbVisualStyle
  2
Dim
 70
    11
 71
     2
 72
     2
 73
     0
 90
        0
 40
0.6
 41
30.0
 62
     5
 63
     7
421
 16777215
 74
     1
 91
        4
 64
     7
 65
   257
 75
     1
175
     1
 42
1.0
 92
        8
 66
     7
 43
1.0
 76
     1
 77
     6
 78
     2
 67
     7
 79
     5
170
     0
171
     0
290
     0
174
     0
 93
        1
 44
-50.0
173
     0
291
     1
 45
0.0
  0
VISUALSTYLE
  5
3D
102
{ACAD_REACTORS
330
2A
102
}
330
2A
100
AcDbVisualStyle
  2
EdgeColorOff
 70
    22
 71
     2
 72
     2
 73
     0
 90
        0
 40
0.6
 41
30.0
 62
     5
 63
     7
421
 16777215
 74
     1
 91
        4
 64
     7
 65
   257
 75
     1
175
     1
 42
1.0
 92
        8
 66
     7
 43
1.0
 76
     1
 77
     6
 78
     2
 67
     7
 79
     5
170
     0
171
     0
290
     0
174
     0
 93
        1
 44
0.0
173
     0
291
     1
 45
0.0
  0
VISUALSTYLE
  5
39
102
{ACAD_REACTORS
330
2A
102
}
330
2A
100
AcDbVisualStyle
  2
Facepattern
 70
    15
 71
     2
 72
     2
 73
     0
 90
        0
 40
0.6
 41
30.0
 62
     5
 63
     7
421
 16777215
 74
     1
 91
        4
 64
     7
 65
   257
 75
     1
175
     1
 42
1.0
 92
        8
 66
     7
 43
1.0
 76
     1
 77
     6
 78
     2
 67
     7
 79
     5
170
     0
171
     0
290
     0
174
     0
 93
        1
 44
0.0
173
     0
291
     1
 45
0.0
  0
VISUALSTYLE
  5
2B
102
{ACAD_REACTORS
330
2A
102
}
330
2A
100
AcDbVisualStyle
  2
Flat
 70
     0
 71
     2
 72
     1
 73
     1
 90
        2
 40
0.6
 41
30.0
 62
     5
 63
     7
421
 16777215
 74
     0
 91
        0
 64
     7
 65
   257
 75
     1
175
     1
 42
1.0
 92
        8
 66
     7
 43
1.0
 76
     1
 77
     6
 78
     2
 67
     7
 79
     5
170
     0
171
     0
290
     0
174
     0
 93
       13
 44
0.0
173
     0
291
     1
 45
0.0
  0
VISUALSTYLE
  5
2C
102
{ACAD_REACTORS
330
2A
102
}
330
2A
100
AcDbVisualStyle
  2
FlatWithEdges
 70
     1
 71
     2
 72
     1
 73
     1
 90
        2
 40
0.6
 41
30.0
 62
     5
 63
     7
421
 16777215
 74
     1
 91
        0
 64
     7
 65
   257
 75
     1
175
     1
 42
1.0
 92
        0
 66
   257
 43
1.0
 76
     1
 77
     6
 78
     2
 67
     7
 79
     5
170
     0
171
     0
290
     0
174
     0
 93
       13
 44
0.0
173
     0
291
     1
 45
0.0
  0
VISUALSTYLE
  5
2D
102
{ACAD_REACTORS
330
2A
102
}
330
2A
100
AcDbVisualStyle
  2
Gouraud
 70
     2
 71
     2
 72
     2
 73
     1
 90
        2
 40
0.6
 41
30.0
 62
     5
 63
     7
421
 16777215
 74
     0
 91
        0
 64
     7
 65
   257
 75
     1
175
     1
 42
1.0
 92
        0
 66
     7
 43
1.0
 76
     1
 77
     6
 78
     2
 67
     7
 79
     5
170
     0
171
     0
290
     0
174
     0
 93
       13
 44
0.0
173
     0
291
     1
 45
0.0
  0
VISUALSTYLE
  5
2E
102
{ACAD_REACTORS
330
2A
102
}
330
2A
100
AcDbVisualStyle
  2
GouraudWithEdges
 70
     3
 71
     2
 72
     2
 73
     1
 90
        2
 40
0.6
 41
30.0
 62
     5
 63
     7
421
 16777215
 74
     1
 91
        0
 64
     7
 65
   257
 75
     1
175
     1
 42
1.0
 92
        0
 66
   257
 43
1.0
 76
     1
 77
     6
 78
     2
 67
     7
 79
     5
170
     0
171
     0
290
     0
174
     0
 93
       13
 44
0.0
173
     0
291
     1
 45
0.0
  0
VISUALSTYLE
  5
31
102
{ACAD_REACTORS
330
2A
102
}
330
2A
100
AcDbVisualStyle
  2
Hidden
 70
     6
 71
     1
 72
     2
 73
     2
 90
        0
 40
0.6
 41
30.0
 62
     5
 63
     7
421
 16777215
 74
     2
 91
        2
 64
     7
 65
   257
 75
     2
175
     1
 42
40.0
 92
        0
 66
   257
 43
1.0
 76
     1
 77
     6
 78
     2
 67
     7
 79
     3
170
     0
171
     0
290
     0
174
     0
 93
        1
 44
0.0
173
     0
291
     0
 45
0.0
  0
VISUALSTYLE
  5
3B
102
{ACAD_REACTORS
330
2A
102
}
330
2A
100
AcDbVisualStyle
  2
JitterOff
 70
    20
 71
     2
 72
     2
 73
     0
 90
        0
 40
0.6
 41
30.0
 62
     5
 63
     7
421
 16777215
 74
     1
 91
        4
 64
     7
 65
   257
 75
     1
175
     1
 42
1.0
 92
       10
 66
     7
 43
1.0
 76
     1
 77
     6
 78
     2
 67
     7
 79
     5
170
     0
171
     0
290
     0
174
     0
 93
        1
 44
0.0
173
     0
291
     1
 45
0.0
  0
VISUALSTYLE
  5
38
102
{ACAD_REACTORS
330
2A
102
}
330
2A
100
AcDbVisualStyle
  2
Linepattern
 70
    14
 71
     2
 72
     2
 73
     0
 90
        0
 40
0.6
 41
30.0
 62
     5
 63
     7
421
 16777215
 74
     1
 91
        4
 64
     7
 65
   257
 75
     7
175
     7
 42
1.0
 92
        8
 66
     7
 43
1.0
 76
     1
 77
     6
 78
     2
 67
     7
 79
     5
170
     0
171
     0
290
     0
174
     0
 93
        1
 44
0.0
173
     0
291
     1
 45
0.0
  0
VISUALSTYLE
  5
3C
102
{ACAD_REACTORS
330
2A
102
}
330
2A
100
AcDbVisualStyle
  2
OverhangOff
 70
    21
 71
     2
 72
     2
 73
     0
 90
        0
 40
0.6
 41
30.0
 62
     5
 63
     7
421
 16777215
 74
     1
 91
        4
 64
     7
 65
   257
 75
     1
175
     1
 42
1.0
 92
        9
 66
     7
 43
1.0
 76
     1
 77
     6
 78
     2
 67
     7
 79
     5
170
     0
171
     0
290
     0
174
     0
 93
        1
 44
0.0
173
     0
291
     1
 45
0.0
  0
VISUALSTYLE
  5
33
102
{ACAD_REACTORS
330
2A
102
}
330
2A
100
AcDbVisualStyle
  2
Realistic
 70
     8
 71
     2
 72
     3
 73
     0
 90
        2
 40
0.6
 41
30.0
 62
     5
 63
     7
421
 16777215
 74
     0
 91
        0
 64
     7
 65
   257
 75
     1
175
     1
 42
1.0
 92
        8
 66
   257
 43
1.0
 76
     1
 77
     6
 78
     2
 67
     7
 79
     3
170
     0
171
     0
290
     0
174
     0
 93
       13
 44
0.0
173
     0
291
     0
 45
0.0
  0
VISUALSTYLE
  5
42
102
{ACAD_REACTORS
330
2A
102
}
330
2A
100
AcDbVisualStyle
  2
Shaded
 70
    27
 71
     2
 72
     2
 73
     1
 90
        2
 40
0.6
 41
30.0
 62
     5
 63
     7
421
 16777215
 74
     0
 91
        4
 64
     7
 65
   257
 75
     1
175
     1
 42
1.0
 92
        8
 66
   257
 43
1.0
 76
     1
 77
     6
 78
     2
 67
     8
425
  7895160
 79
     3
170
     0
171
     0
290
     0
174
     0
 93
        5
 44
0.0
173
     0
291
     0
 45
0.0
  0
VISUALSTYLE
  5
41
102
{ACAD_REACTORS
330
2A
102
}
330
2A
100
AcDbVisualStyle
  2
Shaded with edges
 70
    26
 71
     2
 72
     2
 73
     1
 90
        2
 40
0.6
 41
30.0
 62
     5
 63
     7
421
 16777215
 74
     1
 91
       10
 64
     7
 65
   257
 75
     2
175
     1
 42
1.0
 92
        8
 66
   257
 43
1.0
 76
     1
 77
     6
 78
     2
 67
     7
 79
     3
170
     0
171
     0
290
     0
174
     0
 93
        5
 44
0.0
173
     0
291
     0
 45
0.0
  0
VISUALSTYLE
  5
3E
102
{ACAD_REACTORS
330
2A
102
}
330
2A
100
AcDbVisualStyle
  2
Shades of Gray
 70
    23
 71
     2
 72
     2
 73
     3
 90
        0
 40
0.6
 41
30.0
 62
     5
 63
     7
421
 16777215
 74
     2
 91
        2
 64
     7
 65
     7
 75
     1
175
     1
 42
40.0
 92
        8
 66
     7
 43
1.0
 76
     1
 77
     6
 78
     2
 67
     7
 79
     3
170
     0
171
     0
290
     0
174
     0
 93
        1
 44
0.0
173
     0
291
     0
 45
0.0
  0
VISUALSTYLE
  5
3F
102
{ACAD_REACTORS
330
2A
102
}
330
2A
100
AcDbVisualStyle
  2
Sketchy
 70
    24
 71
     1
 72
     2
 73
     2
 90
        0
 40
0.6
 41
30.0
 62
     5
 63
     7
421
 16777215
 74
     2
 91
        2
 64
     7
 65
     7
 75
     1
175
     1
 42
40.0
 92
       11
 66
     7
 43
1.0
 76
     1
 77
     6
 78
     2
 67
     7
 79
     6
170
     0
171
     0
290
     0
174
     0
 93
        1
 44
0.0
173
     0
291
     0
 45
0.0
  0
VISUALSTYLE
  5
37
102
{ACAD_REACTORS
330
2A
102
}
330
2A
100
AcDbVisualStyle
  2
Thicken
 70
    13
 71
     2
 72
     2
 73
     0
 90
        0
 40
0.6
 41
30.0
 62
     5
 63
     7
421
 16777215
 74
     1
 91
        4
 64
     7
 65
   257
 75
     1
175
     1
 42
1.0
 92
       12
 66
     7
 43
1.0
 76
     1
 77
     6
 78
     2
 67
     7
 79
     5
170
     0
171
     0
290
     0
174
     0
 93
        1
 44
0.0
173
     0
291
     1
 45
0.0
  0
VISUALSTYLE
  5
30
102
{ACAD_REACTORS
330
2A
102
}
330
2A
100
AcDbVisualStyle
  2
Wireframe
 70
     5
 71
     0
 72
     2
 73
     0
 90
        0
 40
0.6
 41
30.0
 62
     5
 63
     7
421
 16777215
 74
     1
 91
        4
 64
     7
 65
   257
 75
     1
175
     1
 42
1.0
 92
        0
 66
   257
 43
1.0
 76
     1
 77
     6
 78
     2
 67
     7
 79
     3
170
     0
171
     0
290
     0
174
     0
 93
        1
 44
0.0
173
     0
291
     0
 45
0.0
  0
VISUALSTYLE
  5
40
102
{ACAD_REACTORS
330
2A
102
}
330
2A
100
AcDbVisualStyle
  2
X-Ray
 70
    25
 71
     2
 72
     2
 73
     1
 90
        1
 40
0.5
 41
30.0
 62
     5
 63
     7
421
 16777215
 74
     1
 91
        0
 64
     7
 65
   257
 75
     1
175
     1
 42
1.0
 92
        8
 66
     7
 43
1.0
 76
     1
 77
     6
 78
     2
 67
     7
 79
     3
170
     0
171
     0
290
     0
174
     0
 93
       13
 44
0.0
173
     0
291
     0
 45
0.0
  0
DICTIONARYVAR
  5
205
102
{ACAD_REACTORS
330
204
102
}
330
204
100
DictionaryVariables
280
     0
  1
1:1
  0
DICTIONARYVAR
  5
20B
102
{ACAD_REACTORS
330
204
102
}
330
204
100
DictionaryVariables
280
     0
  1
Standard
  0
DICTIONARYVAR
  5
20A
102
{ACAD_REACTORS
330
204
102
}
330
204
100
DictionaryVariables
280
     0
  1
Standard
  0
DICTIONARY
  5
206
330
6A
100
AcDbDictionary
280
     1
281
     1
  3
ACAD_ROUNDTRIP_2008_TABLESTYLE_CELLSTYLEMAP
360
207
  0
CELLSTYLEMAP
  5
207
102
{ACAD_REACTORS
330
206
102
}
330
206
100
AcDbCellStyleMap
 90
        3
300
CELLSTYLE
  1
TABLEFORMAT_BEGIN
 90
        5
170
     1
 91
        0
 92
    32768
 62
   257
 93
        1
300
CONTENTFORMAT
  1
CONTENTFORMAT_BEGIN
 90
        0
 91
        0
 92
        4
 93
        0
300

 40
0.0
140
1.0
 94
        5
 62
     0
340
11
144
6.0
309
CONTENTFORMAT_END
171
     1
301
MARGIN
  1
CELLMARGIN_BEGIN
 40
1.5
 40
1.5
 40
1.5
 40
1.5
 40
1.5
 40
1.5
309
CELLMARGIN_END
 94
        6
 95
        1
302
GRIDFORMAT
  1
GRIDFORMAT_BEGIN
 90
        0
 91
        1
 62
     0
 92
       -2
340
14
 93
        0
 40
0.045
309
GRIDFORMAT_END
 95
        2
302
GRIDFORMAT
  1
GRIDFORMAT_BEGIN
 90
        0
 91
        1
 62
     0
 92
       -2
340
14
 93
        0
 40
0.045
309
GRIDFORMAT_END
 95
        4
302
GRIDFORMAT
  1
GRIDFORMAT_BEGIN
 90
        0
 91
        1
 62
     0
 92
       -2
340
14
 93
        0
 40
0.045
309
GRIDFORMAT_END
 95
        8
302
GRIDFORMAT
  1
GRIDFORMAT_BEGIN
 90
        0
 91
        1
 62
     0
 92
       -2
340
14
 93
        0
 40
0.045
309
GRIDFORMAT_END
 95
       16
302
GRIDFORMAT
  1
GRIDFORMAT_BEGIN
 90
        0
 91
        1
 62
     0
 92
       -2
340
14
 93
        0
 40
0.045
309
GRIDFORMAT_END
 95
       32
302
GRIDFORMAT
  1
GRIDFORMAT_BEGIN
 90
        0
 91
        1
 62
     0
 92
       -2
340
14
 93
        0
 40
0.045
309
GRIDFORMAT_END
309
TABLEFORMAT_END
  1
CELLSTYLE_BEGIN
 90
        1
 91
        1
300
_TITLE
309
CELLSTYLE_END
300
CELLSTYLE
  1
TABLEFORMAT_BEGIN
 90
        5
170
     1
 91
        0
 92
        0
 62
   257
 93
        1
300
CONTENTFORMAT
  1
CONTENTFORMAT_BEGIN
 90
        0
 91
        0
 92
        4
 93
        0
300

 40
0.0
140
1.0
 94
        5
 62
     0
340
11
144
4.5
309
CONTENTFORMAT_END
171
     1
301
MARGIN
  1
CELLMARGIN_BEGIN
 40
1.5
 40
1.5
 40
1.5
 40
1.5
 40
1.5
 40
1.5
309
CELLMARGIN_END
 94
        6
 95
        1
302
GRIDFORMAT
  1
GRIDFORMAT_BEGIN
 90
        0
 91
        1
 62
     0
 92
       -2
340
14
 93
        0
 40
0.045
309
GRIDFORMAT_END
 95
        2
302
GRIDFORMAT
  1
GRIDFORMAT_BEGIN
 90
        0
 91
        1
 62
     0
 92
       -2
340
14
 93
        0
 40
0.045
309
GRIDFORMAT_END
 95
        4
302
GRIDFORMAT
  1
GRIDFORMAT_BEGIN
 90
        0
 91
        1
 62
     0
 92
       -2
340
14
 93
        0
 40
0.045
309
GRIDFORMAT_END
 95
        8
302
GRIDFORMAT
  1
GRIDFORMAT_BEGIN
 90
        0
 91
        1
 62
     0
 92
       -2
340
14
 93
        0
 40
0.045
309
GRIDFORMAT_END
 95
       16
302
GRIDFORMAT
  1
GRIDFORMAT_BEGIN
 90
        0
 91
        1
 62
     0
 92
       -2
340
14
 93
        0
 40
0.045
309
GRIDFORMAT_END
 95
       32
302
GRIDFORMAT
  1
GRIDFORMAT_BEGIN
 90
        0
 91
        1
 62
     0
 92
       -2
340
14
 93
        0
 40
0.045
309
GRIDFORMAT_END
309
TABLEFORMAT_END
  1
CELLSTYLE_BEGIN
 90
        2
 91
        1
300
_HEADER
309
CELLSTYLE_END
300
CELLSTYLE
  1
TABLEFORMAT_BEGIN
 90
        5
170
     1
 91
        0
 92
        0
 62
   257
 93
        1
300
CONTENTFORMAT
  1
CONTENTFORMAT_BEGIN
 90
        0
 91
        0
 92
        4
 93
        0
300

 40
0.0
140
1.0
 94
        2
 62
     0
340
11
144
4.5
309
CONTENTFORMAT_END
171
     1
301
MARGIN
  1
CELLMARGIN_BEGIN
 40
1.5
 40
1.5
 40
1.5
 40
1.5
 40
1.5
 40
1.5
309
CELLMARGIN_END
 94
        6
 95
        1
302
GRIDFORMAT
  1
GRIDFORMAT_BEGIN
 90
        0
 91
        1
 62
     0
 92
       -2
340
14
 93
        0
 40
0.045
309
GRIDFORMAT_END
 95
        2
302
GRIDFORMAT
  1
GRIDFORMAT_BEGIN
 90
        0
 91
        1
 62
     0
 92
       -2
340
14
 93
        0
 40
0.045
309
GRIDFORMAT_END
 95
        4
302
GRIDFORMAT
  1
GRIDFORMAT_BEGIN
 90
        0
 91
        1
 62
     0
 92
       -2
340
14
 93
        0
 40
0.045
309
GRIDFORMAT_END
 95
        8
302
GRIDFORMAT
  1
GRIDFORMAT_BEGIN
 90
        0
 91
        1
 62
     0
 92
       -2
340
14
 93
        0
 40
0.045
309
GRIDFORMAT_END
 95
       16
302
GRIDFORMAT
  1
GRIDFORMAT_BEGIN
 90
        0
 91
        1
 62
     0
 92
       -2
340
14
 93
        0
 40
0.045
309
GRIDFORMAT_END
 95
       32
302
GRIDFORMAT
  1
GRIDFORMAT_BEGIN
 90
        0
 91
        1
 62
     0
 92
       -2
340
14
 93
        0
 40
0.045
309
GRIDFORMAT_END
309
TABLEFORMAT_END
  1
CELLSTYLE_BEGIN
 90
        3
 91
        2
300
_DATA
309
CELLSTYLE_END
  0
ENDSEC
  0
EOF
