  0
SECTION
  2
HEADER
  9
$ACADVER
  1
AC1021
  9
$ACADMAINTVER
 70
    25
  9
$DWGCODEPAGE
  3
ANSI_1250
  9
$INSBASE
 10
0.0
 20
0.0
 30
0.0
  9
$EXTMIN
 10
0.0
 20
0.0
 30
0.0
  9
$EXTMAX
 10
0.21
 20
0.297
 30
0.0
  9
$LIMMIN
 10
0.0
 20
0.0
  9
$LIMMAX
 10
0.21
 20
0.297
  9
$ORTHOMODE
 70
     0
  9
$REGENMODE
 70
     1
  9
$FILLMODE
 70
     1
  9
$QTEXTMODE
 70
     0
  9
$MIRRTEXT
 70
     1
  9
$LTSCALE
 40
1.0
  9
$ATTMODE
 70
     1
  9
$TEXTSIZE
 40
0.0035
  9
$TRACEWID
 40
1.0
  9
$TEXTSTYLE
  7
Standard
  9
$CLAYER
  8
0
  9
$CELTYPE
  6
ByLayer
  9
$CECOLOR
 62
   256
  9
$CELTSCALE
 40
1.0
  9
$DISPSILH
 70
     0
  9
$DIMSCALE
 40
1.0
  9
$DIMASZ
 40
0.003302
  9
$DIMEXO
 40
0.001
  9
$DIMDLI
 40
3.75
  9
$DIMRND
 40
0.0
  9
$DIMDLE
 40
0.0
  9
$DIMEXE
 40
0.001
  9
$DIMTP
 40
0.0
  9
$DIMTM
 40
0.0
  9
$DIMTXT
 40
0.0035
  9
$DIMCEN
 40
2.5
  9
$DIMTSZ
 40
0.0
  9
$DIMTOL
 70
     0
  9
$DIMLIM
 70
     0
  9
$DIMTIH
 70
     1
  9
$DIMTOH
 70
     1
  9
$DIMSE1
 70
     0
  9
$DIMSE2
 70
     0
  9
$DIMTAD
 70
     1
  9
$DIMZIN
 70
     0
  9
$DIMBLK
  1

  9
$DIMASO
 70
     1
  9
$DIMSHO
 70
     1
  9
$DIMPOST
  1

  9
$DIMAPOST
  1

  9
$DIMALT
 70
     0
  9
$DIMALTD
 70
     3
  9
$DIMALTF
 40
39.3700787402
  9
$DIMLFAC
 40
50.0
  9
$DIMTOFL
 70
     1
  9
$DIMTVP
 40
0.0
  9
$DIMTIX
 70
     0
  9
$DIMSOXD
 70
     0
  9
$DIMSAH
 70
     0
  9
$DIMBLK1
  1

  9
$DIMBLK2
  1

  9
$DIMSTYLE
  2
ISO-25
  9
$DIMCLRD
 70
     0
  9
$DIMCLRE
 70
     0
  9
$DIMCLRT
 70
     0
  9
$DIMTFAC
 40
1.0
  9
$DIMGAP
 40
0.001524
  9
$DIMJUST
 70
     0
  9
$DIMSD1
 70
     0
  9
$DIMSD2
 70
     0
  9
$DIMTOLJ
 70
     0
  9
$DIMTZIN
 70
     0
  9
$DIMALTZ
 70
     0
  9
$DIMALTTZ
 70
     0
  9
$DIMUPT
 70
     0
  9
$DIMDEC
 70
     2
  9
$DIMTDEC
 70
     2
  9
$DIMALTU
 70
     2
  9
$DIMALTTD
 70
     3
  9
$DIMTXSTY
  7
Standard
  9
$DIMAUNIT
 70
     0
  9
$DIMADEC
 70
     2
  9
$DIMALTRND
 40
0.0
  9
$DIMAZIN
 70
     0
  9
$DIMDSEP
 70
    44
  9
$DIMATFIT
 70
     3
  9
$DIMFRAC
 70
     0
  9
$DIMLDRBLK
  1

  9
$DIMLUNIT
 70
     2
  9
$DIMLWD
 70
    -2
  9
$DIMLWE
 70
    -2
  9
$DIMTMOVE
 70
     0
  9
$DIMFXL
 40
1.0
  9
$DIMFXLON
 70
     0
  9
$DIMJOGANG
 40
0.7853981634
  9
$DIMTFILL
 70
     0
  9
$DIMTFILLCLR
 70
     0
  9
$DIMARCSYM
 70
     0
  9
$DIMLTYPE
  6

  9
$DIMLTEX1
  6

  9
$DIMLTEX2
  6

  9
$LUNITS
 70
     2
  9
$LUPREC
 70
     2
  9
$SKETCHINC
 40
1.0
  9
$FILLETRAD
 40
10.0
  9
$AUNITS
 70
     0
  9
$AUPREC
 70
     2
  9
$MENU
  1
.
  9
$ELEVATION
 40
0.0
  9
$PELEVATION
 40
0.0
  9
$THICKNESS
 40
0.0
  9
$LIMCHECK
 70
     0
  9
$CHAMFERA
 40
0.0
  9
$CHAMFERB
 40
0.0
  9
$CHAMFERC
 40
0.0
  9
$CHAMFERD
 40
0.0
  9
$SKPOLY
 70
     0
  9
$TDCREATE
 40
2458074.52692735
  9
$TDUCREATE
 40
2458074.485260683
  9
$TDUPDATE
 40
2458074.526927697
  9
$TDUUPDATE
 40
2458074.48526103
  9
$TDINDWG
 40
0.0000000116
  9
$TDUSRTIMER
 40
0.0000000116
  9
$USRTIMER
 70
     1
  9
$ANGBASE
 50
0.0
  9
$ANGDIR
 70
     0
  9
$PDMODE
 70
     0
  9
$PDSIZE
 40
-1.0
  9
$PLINEWID
 40
0.0
  9
$SPLFRAME
 70
     0
  9
$SPLINETYPE
 70
     6
  9
$SPLINESEGS
 70
     8
  9
$HANDSEED
  5
2FD
  9
$SURFTAB1
 70
     6
  9
$SURFTAB2
 70
     6
  9
$SURFTYPE
 70
     6
  9
$SURFU
 70
     6
  9
$SURFV
 70
     6
  9
$UCSBASE
  2

  9
$UCSNAME
  2

  9
$UCSORG
 10
0.0
 20
0.0
 30
0.0
  9
$UCSXDIR
 10
1.0
 20
0.0
 30
0.0
  9
$UCSYDIR
 10
0.0
 20
1.0
 30
0.0
  9
$UCSORTHOREF
  2

  9
$UCSORTHOVIEW
 70
     0
  9
$UCSORGTOP
 10
0.0
 20
0.0
 30
0.0
  9
$UCSORGBOTTOM
 10
0.0
 20
0.0
 30
0.0
  9
$UCSORGLEFT
 10
0.0
 20
0.0
 30
0.0
  9
$UCSORGRIGHT
 10
0.0
 20
0.0
 30
0.0
  9
$UCSORGFRONT
 10
0.0
 20
0.0
 30
0.0
  9
$UCSORGBACK
 10
0.0
 20
0.0
 30
0.0
  9
$PUCSBASE
  2

  9
$PUCSNAME
  2

  9
$PUCSORG
 10
0.0
 20
0.0
 30
0.0
  9
$PUCSXDIR
 10
1.0
 20
0.0
 30
0.0
  9
$PUCSYDIR
 10
0.0
 20
1.0
 30
0.0
  9
$PUCSORTHOREF
  2

  9
$PUCSORTHOVIEW
 70
     0
  9
$PUCSORGTOP
 10
0.0
 20
0.0
 30
0.0
  9
$PUCSORGBOTTOM
 10
0.0
 20
0.0
 30
0.0
  9
$PUCSORGLEFT
 10
0.0
 20
0.0
 30
0.0
  9
$PUCSORGRIGHT
 10
0.0
 20
0.0
 30
0.0
  9
$PUCSORGFRONT
 10
0.0
 20
0.0
 30
0.0
  9
$PUCSORGBACK
 10
0.0
 20
0.0
 30
0.0
  9
$USERI1
 70
     0
  9
$USERI2
 70
     0
  9
$USERI3
 70
     0
  9
$USERI4
 70
     0
  9
$USERI5
 70
     0
  9
$USERR1
 40
0.0
  9
$USERR2
 40
0.0
  9
$USERR3
 40
0.0
  9
$USERR4
 40
0.0
  9
$USERR5
 40
0.0
  9
$WORLDVIEW
 70
     1
  9
$SHADEDGE
 70
     3
  9
$SHADEDIF
 70
    70
  9
$TILEMODE
 70
     1
  9
$MAXACTVP
 70
    64
  9
$PINSBASE
 10
0.0
 20
0.0
 30
0.0
  9
$PLIMCHECK
 70
     0
  9
$PEXTMIN
 10
1.0000000000E+20
 20
1.0000000000E+20
 30
1.0000000000E+20
  9
$PEXTMAX
 10
-1.0000000000E+20
 20
-1.0000000000E+20
 30
-1.0000000000E+20
  9
$PLIMMIN
 10
0.0
 20
0.0
  9
$PLIMMAX
 10
420.0
 20
297.0
  9
$UNITMODE
 70
     0
  9
$VISRETAIN
 70
     1
  9
$PLINEGEN
 70
     0
  9
$PSLTSCALE
 70
     1
  9
$TREEDEPTH
 70
  3020
  9
$CMLSTYLE
  2
Standard
  9
$CMLJUST
 70
     0
  9
$CMLSCALE
 40
20.0
  9
$PROXYGRAPHICS
 70
     1
  9
$MEASUREMENT
 70
     1
  9
$CELWEIGHT
370
    -1
  9
$ENDCAPS
280
     0
  9
$JOINSTYLE
280
     0
  9
$LWDISPLAY
290
     1
  9
$INSUNITS
 70
     4
  9
$HYPERLINKBASE
  1

  9
$STYLESHEET
  1

  9
$XEDIT
290
     1
  9
$CEPSNTYPE
380
     0
  9
$PSTYLEMODE
290
     1
  9
$FINGERPRINTGUID
  2
{EFFC260E-E9C6-4894-97B7-7BBE9336F4D6}
  9
$VERSIONGUID
  2
{FAEB1C32-E019-11D5-929B-00C0DF256EC4}
  9
$EXTNAMES
290
     1
  9
$PSVPSCALE
 40
0.0
  9
$OLESTARTUP
290
     0
  9
$SORTENTS
280
   127
  9
$INDEXCTL
280
     0
  9
$HIDETEXT
280
     1
  9
$XCLIPFRAME
290
     0
  9
$HALOGAP
280
     0
  9
$OBSCOLOR
 70
   257
  9
$OBSLTYPE
280
     0
  9
$INTERSECTIONDISPLAY
280
     0
  9
$INTERSECTIONCOLOR
 70
   257
  9
$DIMASSOC
280
     2
  9
$PROJECTNAME
  1

  9
$CAMERADISPLAY
290
     0
  9
$LENSLENGTH
 40
50.0
  9
$CAMERAHEIGHT
 40
0.0
  9
$STEPSPERSEC
 40
2.0
  9
$STEPSIZE
 40
6.0
  9
$3DDWFPREC
 40
2.0
  9
$PSOLWIDTH
 40
5.0
  9
$PSOLHEIGHT
 40
80.0
  9
$LOFTANG1
 40
1.5707963268
  9
$LOFTANG2
 40
1.5707963268
  9
$LOFTMAG1
 40
0.0
  9
$LOFTMAG2
 40
0.0
  9
$LOFTPARAM
 70
     7
  9
$LOFTNORMALS
280
     1
  9
$LATITUDE
 40
37.795
  9
$LONGITUDE
 40
-122.394
  9
$NORTHDIRECTION
 40
0.0
  9
$TIMEZONE
 70
 -8000
  9
$LIGHTGLYPHDISPLAY
280
     1
  9
$TILEMODELIGHTSYNCH
280
     1
  9
$CMATERIAL
347
44
  9
$SOLIDHIST
280
     0
  9
$SHOWHIST
280
     1
  9
$DWFFRAME
280
     2
  9
$DGNFRAME
280
     2
  9
$REALWORLDSCALE
290
     1
  9
$INTERFERECOLOR
 62
   256
  9
$CSHADOW
280
     0
  9
$SHADOWPLANELOCATION
 40
0.0
  0
ENDSEC
  0
SECTION
  2
CLASSES
  0
CLASS
  1
ACDBDICTIONARYWDFLT
  2
AcDbDictionaryWithDefault
  3
ObjectDBX Classes
 90
        0
 91
        4
280
     0
281
     0
  0
CLASS
  1
VISUALSTYLE
  2
AcDbVisualStyle
  3
ObjectDBX Classes
 90
     4095
 91
        4
280
     0
281
     0
  0
CLASS
  1
MATERIAL
  2
AcDbMaterial
  3
ObjectDBX Classes
 90
     1153
 91
        4
280
     0
281
     0
  0
CLASS
  1
SCALE
  2
AcDbScale
  3
ObjectDBX Classes
 90
     1153
 91
        4
280
     0
281
     0
  0
CLASS
  1
TABLESTYLE
  2
AcDbTableStyle
  3
ObjectDBX Classes
 90
     4095
 91
        4
280
     0
281
     0
  0
CLASS
  1
MLEADERSTYLE
  2
AcDbMLeaderStyle
  3
ACDB_MLEADERSTYLE_CLASS
 90
     4095
 91
        4
280
     0
281
     0
  0
CLASS
  1
SUN
  2
AcDbSun
  3
SCENEOE
 90
     1153
 91
        4
280
     0
281
     0
  0
CLASS
  1
DICTIONARYVAR
  2
AcDbDictionaryVar
  3
ObjectDBX Classes
 90
        0
 91
        4
280
     0
281
     0
  0
CLASS
  1
CELLSTYLEMAP
  2
AcDbCellStyleMap
  3
ObjectDBX Classes
 90
     1152
 91
        4
280
     0
281
     0
  0
ENDSEC
  0
SECTION
  2
TABLES
  0
TABLE
  2
VPORT
  5
8
330
0
100
AcDbSymbolTable
 70
     1
  0
VPORT
  5
29
330
8
100
AcDbSymbolTableRecord
100
AcDbViewportTableRecord
  2
*Active
 70
     0
 10
0.0
 20
0.0
 11
1.0
 21
1.0
 12
0.105
 22
0.1485
 13
0.0
 23
0.0
 14
10.0
 24
10.0
 15
10.0
 25
10.0
 16
0.0
 26
0.0
 36
1.0
 17
0.0
 27
0.0
 37
0.0
 40
0.297
 41
0.7070707071
 42
50.0
 43
0.0
 44
0.0
 50
0.0
 51
0.0
 71
     0
 72
  2000
 73
     1
 74
     3
 75
     0
 76
     0
 77
     0
 78
     0
281
     0
 65
     1
110
0.0
120
0.0
130
0.0
111
1.0
121
0.0
131
0.0
112
0.0
122
1.0
132
0.0
 79
     0
146
0.0
 60
     3
 61
     5
292
     1
282
     1
141
0.0
142
0.0
 63
   250
361
6D
  0
ENDTAB
  0
TABLE
  2
LTYPE
  5
5
330
0
100
AcDbSymbolTable
 70
     6
  0
LTYPE
  5
14
330
5
100
AcDbSymbolTableRecord
100
AcDbLinetypeTableRecord
  2
ByBlock
 70
     0
  3

 72
    65
 73
     0
 40
0.0
  0
LTYPE
  5
15
330
5
100
AcDbSymbolTableRecord
100
AcDbLinetypeTableRecord
  2
ByLayer
 70
     0
  3

 72
    65
 73
     0
 40
0.0
  0
LTYPE
  5
16
330
5
100
AcDbSymbolTableRecord
100
AcDbLinetypeTableRecord
  2
Continuous
 70
     0
  3
Solid line
 72
    65
 73
     0
 40
0.0
  0
LTYPE
  5
6E
330
5
100
AcDbSymbolTableRecord
100
AcDbLinetypeTableRecord
  2
HIDDEN
 70
     0
  3
Hidden __ __ __ __ __ __ __ __ __ __ __ __ __ __
 72
    65
 73
     2
 40
0.001905
 49
0.00127
 74
     0
 49
-0.000635
 74
     0
  0
LTYPE
  5
6F
330
5
100
AcDbSymbolTableRecord
100
AcDbLinetypeTableRecord
  2
PHANTOM
 70
     0
  3
Phantom ______  __  __  ______  __  __  ______
 72
    65
 73
     6
 40
0.0127
 49
0.00635
 74
     0
 49
-0.00127
 74
     0
 49
0.00127
 74
     0
 49
-0.00127
 74
     0
 49
0.00127
 74
     0
 49
-0.00127
 74
     0
  0
LTYPE
  5
70
330
5
100
AcDbSymbolTableRecord
100
AcDbLinetypeTableRecord
  2
CENTER
 70
     0
  3
Center ____ _ ____ _ ____ _ ____ _ ____ _ ____
 72
    65
 73
     4
 40
0.01016
 49
0.00635
 74
     0
 49
-0.00127
 74
     0
 49
0.00127
 74
     0
 49
-0.00127
 74
     0
  0
LTYPE
  5
71
330
5
100
AcDbSymbolTableRecord
100
AcDbLinetypeTableRecord
  2
CENTERX2
 70
     0
  3
Center (2x) ________  __  ________  __  _____
 72
    65
 73
     4
 40
0.02032
 49
0.0127
 74
     0
 49
-0.00254
 74
     0
 49
0.00254
 74
     0
 49
-0.00254
 74
     0
  0
LTYPE
  5
72
330
5
100
AcDbSymbolTableRecord
100
AcDbLinetypeTableRecord
  2
DOT2
 70
     0
  3
Dot (.5x) ........................................
 72
    65
 73
     2
 40
0.000635
 49
0.0
 74
     0
 49
-0.000635
 74
     0
  0
ENDTAB
  0
TABLE
  2
LAYER
  5
2
330
0
100
AcDbSymbolTable
 70
     1
  0
LAYER
  5
10
330
2
100
AcDbSymbolTableRecord
100
AcDbLayerTableRecord
  2
0
 70
     0
 62
     7
  6
Continuous
370
    -3
390
F
347
46
  0
ENDTAB
  0
TABLE
  2
STYLE
  5
3
330
0
100
AcDbSymbolTable
 70
     1
  0
STYLE
  5
11
330
3
100
AcDbSymbolTableRecord
100
AcDbTextStyleTableRecord
  2
Standard
 70
     0
 40
0.0
 41
1.0
 50
0.0
 71
     0
 42
0.0035
  3
txt
  4

  0
ENDTAB
  0
TABLE
  2
VIEW
  5
6
330
0
100
AcDbSymbolTable
 70
     0
  0
ENDTAB
  0
TABLE
  2
UCS
  5
7
330
0
100
AcDbSymbolTable
 70
     0
  0
ENDTAB
  0
TABLE
  2
APPID
  5
9
330
0
100
AcDbSymbolTable
 70
     2
  0
APPID
  5
12
330
9
100
AcDbSymbolTableRecord
100
AcDbRegAppTableRecord
  2
ACAD
 70
     0
  0
APPID
  5
2F7
330
9
100
AcDbSymbolTableRecord
100
AcDbRegAppTableRecord
  2
ACAD_MLEADERVER
 70
     0
  0
ENDTAB
  0
TABLE
  2
DIMSTYLE
  5
A
330
0
100
AcDbSymbolTable
 70
     1
100
AcDbDimStyleTable
  0
DIMSTYLE
105
27
330
A
100
AcDbSymbolTableRecord
100
AcDbDimStyleTableRecord
  2
ISO-25
 70
     0
 41
2.5
 42
0.625
 43
3.75
 44
1.25
 73
     0
 74
     0
 77
     1
 78
     8
140
2.5
141
2.5
143
0.0393700787
147
0.625
171
     3
172
     1
178
     0
271
     2
272
     2
274
     3
278
    44
283
     0
284
     8
340
11
  0
ENDTAB
  0
TABLE
  2
BLOCK_RECORD
  5
1
330
0
100
AcDbSymbolTable
 70
     1
  0
BLOCK_RECORD
  5
1F
330
1
100
AcDbSymbolTableRecord
100
AcDbBlockTableRecord
  2
*Model_Space
340
22
 70
     0
280
     1
281
     0
  0
BLOCK_RECORD
  5
1B
330
1
100
AcDbSymbolTableRecord
100
AcDbBlockTableRecord
  2
*Paper_Space
340
1E
 70
     0
280
     1
281
     0
  0
BLOCK_RECORD
  5
23
330
1
100
AcDbSymbolTableRecord
100
AcDbBlockTableRecord
  2
*Paper_Space0
340
26
 70
     0
280
     1
281
     0
  0
ENDTAB
  0
ENDSEC
  0
SECTION
  2
BLOCKS
  0
BLOCK
  5
20
330
1F
100
AcDbEntity
  8
0
100
AcDbBlockBegin
  2
*Model_Space
 70
     0
 10
0.0
 20
0.0
 30
0.0
  3
*Model_Space
  1

  0
ENDBLK
  5
21
330
1F
100
AcDbEntity
  8
0
100
AcDbBlockEnd
  0
BLOCK
  5
1C
330
1B
100
AcDbEntity
 67
     1
  8
0
100
AcDbBlockBegin
  2
*Paper_Space
 70
     0
 10
0.0
 20
0.0
 30
0.0
  3
*Paper_Space
  1

  0
ENDBLK
  5
1D
330
1B
100
AcDbEntity
 67
     1
  8
0
100
AcDbBlockEnd
  0
BLOCK
  5
24
330
23
100
AcDbEntity
  8
0
100
AcDbBlockBegin
  2
*Paper_Space0
 70
     0
 10
0.0
 20
0.0
 30
0.0
  3
*Paper_Space0
  1

  0
ENDBLK
  5
25
330
23
100
AcDbEntity
  8
0
100
AcDbBlockEnd
  0
ENDSEC
  0
SECTION
  2
ENTITIES
  0
LINE
  5
73
330
1F
100
AcDbEntity
  8
0
  6
Continuous
 62
     7
370
    25
100
AcDbLine
 10
0.175944613
 20
0.2112684855
 30
0.0
 11
0.1759445794
 21
0.2112685356
 31
0.0
  0
LINE
  5
74
330
1F
100
AcDbEntity
  8
0
  6
Continuous
 62
     7
370
    25
100
AcDbLine
 10
0.0447382684
 20
0.1047568716
 30
0.0
 11
0.0447383021
 21
0.1047568215
 31
0.0
  0
LINE
  5
75
330
1F
100
AcDbEntity
  8
0
  6
Continuous
 62
     7
370
    25
100
AcDbLine
 10
0.117547115
 20
0.1729036646
 30
0.0
 11
0.117627115
 21
0.1729036646
 31
0.0
  0
LINE
  5
76
330
1F
100
AcDbEntity
  8
0
  6
Continuous
 62
     7
370
    25
100
AcDbLine
 10
0.117627115
 20
0.1729120939
 30
0.0
 11
0.117927115
 21
0.1732106919
 31
0.0
  0
LINE
  5
77
330
1F
100
AcDbEntity
  8
0
  6
Continuous
 62
     7
370
    25
100
AcDbLine
 10
0.1344396584
 20
0.1706644111
 30
0.0
 11
0.134537689
 21
0.1706841595
 31
0.0
  0
LINE
  5
78
330
1F
100
AcDbEntity
  8
0
  6
Continuous
 62
     7
370
    25
100
AcDbLine
 10
0.1343099815
 20
0.1702953842
 30
0.0
 11
0.1342903753
 21
0.1702914345
 31
0.0
  0
LINE
  5
79
330
1F
100
AcDbEntity
  8
0
  6
Continuous
 62
     7
370
    25
100
AcDbLine
 10
0.1347062899
 20
0.1682268447
 30
0.0
 11
0.134725896
 21
0.1682307944
 31
0.0
  0
LINE
  5
7A
330
1F
100
AcDbEntity
  8
0
  6
Continuous
 62
     7
370
    25
100
AcDbLine
 10
0.1349300936
 20
0.1682299025
 30
0.0
 11
0.1349496997
 21
0.1682338522
 31
0.0
  0
LINE
  5
7B
330
1F
100
AcDbEntity
  8
0
  6
Continuous
 62
     7
370
    25
100
AcDbLine
 10
0.1345337852
 20
0.170298442
 30
0.0
 11
0.134514179
 21
0.1702944924
 31
0.0
  0
LINE
  5
7C
330
1F
100
AcDbEntity
  8
0
  6
Continuous
 62
     7
370
    25
100
AcDbLine
 10
0.1353881834
 20
0.1649432156
 30
0.0
 11
0.1355842446
 21
0.1649827124
 31
0.0
  0
LINE
  5
7D
330
1F
100
AcDbEntity
  8
0
  6
Continuous
 62
     7
370
    25
100
AcDbLine
 10
0.118880115
 20
0.1457098683
 30
0.0
 11
0.1233336106
 21
0.1456987586
 31
0.0
  0
LINE
  5
7E
330
1F
100
AcDbEntity
  8
0
  6
Continuous
 62
     7
370
    25
100
AcDbLine
 10
0.1236604054
 20
0.1456979433
 30
0.0
 11
0.1288937366
 21
0.1456848881
 31
0.0
  0
LINE
  5
7F
330
1F
100
AcDbEntity
  8
0
  6
Continuous
 62
     7
370
    25
100
AcDbLine
 10
0.1292204866
 20
0.145684073
 30
0.0
 11
0.133674115
 21
0.1456729629
 31
0.0
  0
LINE
  5
80
330
1F
100
AcDbEntity
  8
0
  6
Continuous
 62
     7
370
    25
100
AcDbLine
 10
0.133674115
 20
0.1460069639
 30
0.0
 11
0.1292241359
 21
0.146018065
 31
0.0
  0
LINE
  5
81
330
1F
100
AcDbEntity
  8
0
  6
Continuous
 62
     7
370
    25
100
AcDbLine
 10
0.1288901359
 20
0.1460188982
 30
0.0
 11
0.1236640259
 21
0.1460319353
 31
0.0
  0
LINE
  5
82
330
1F
100
AcDbEntity
  8
0
  6
Continuous
 62
     7
370
    25
100
AcDbLine
 10
0.1233300259
 20
0.1460327685
 30
0.0
 11
0.118880115
 21
0.1460438694
 31
0.0
  0
LINE
  5
83
330
1F
100
AcDbEntity
  8
0
  6
Continuous
 62
     7
370
    25
100
AcDbLine
 10
0.118880115
 20
0.1509156209
 30
0.0
 11
0.1233335104
 21
0.1509036708
 31
0.0
  0
LINE
  5
84
330
1F
100
AcDbEntity
  8
0
  6
Continuous
 62
     7
370
    25
100
AcDbLine
 10
0.1236603012
 20
0.1509027939
 30
0.0
 11
0.128893736
 21
0.1508887506
 31
0.0
  0
LINE
  5
85
330
1F
100
AcDbEntity
  8
0
  6
Continuous
 62
     7
370
    25
100
AcDbLine
 10
0.1292204819
 20
0.1508878738
 30
0.0
 11
0.133674115
 21
0.150875923
 31
0.0
  0
LINE
  5
86
330
1F
100
AcDbEntity
  8
0
  6
Continuous
 62
     7
370
    25
100
AcDbLine
 10
0.133674115
 20
0.1512099242
 30
0.0
 11
0.1292241548
 21
0.1512218651
 31
0.0
  0
LINE
  5
87
330
1F
100
AcDbEntity
  8
0
  6
Continuous
 62
     7
370
    25
100
AcDbLine
 10
0.1288901548
 20
0.1512227614
 30
0.0
 11
0.1236639452
 21
0.1512367853
 31
0.0
  0
LINE
  5
88
330
1F
100
AcDbEntity
  8
0
  6
Continuous
 62
     7
370
    25
100
AcDbLine
 10
0.1233299452
 20
0.1512376815
 30
0.0
 11
0.118880115
 21
0.1512496221
 31
0.0
  0
LINE
  5
89
330
1F
100
AcDbEntity
  8
0
  6
Continuous
 62
     7
370
    25
100
AcDbLine
 10
0.118880115
 20
0.1613205149
 30
0.0
 11
0.123329944
 21
0.1613205149
 31
0.0
  0
LINE
  5
8A
330
1F
100
AcDbEntity
  8
0
  6
Continuous
 62
     7
370
    25
100
AcDbLine
 10
0.1233335966
 20
0.1616545149
 30
0.0
 11
0.118880115
 21
0.1616545149
 31
0.0
  0
LINE
  5
8B
330
1F
100
AcDbEntity
  8
0
  6
Continuous
 62
     7
370
    25
100
AcDbLine
 10
0.123663944
 20
0.1613205149
 30
0.0
 11
0.128890155
 21
0.1613205149
 31
0.0
  0
LINE
  5
8C
330
1F
100
AcDbEntity
  8
0
  6
Continuous
 62
     7
370
    25
100
AcDbLine
 10
0.1288938013
 20
0.1616545149
 30
0.0
 11
0.1236603016
 21
0.1616545149
 31
0.0
  0
LINE
  5
8D
330
1F
100
AcDbEntity
  8
0
  6
Continuous
 62
     7
370
    25
100
AcDbLine
 10
0.129224155
 20
0.1613205149
 30
0.0
 11
0.133674115
 21
0.1613205149
 31
0.0
  0
LINE
  5
8E
330
1F
100
AcDbEntity
  8
0
  6
Continuous
 62
     7
370
    25
100
AcDbLine
 10
0.133674115
 20
0.1616545149
 30
0.0
 11
0.1292205064
 21
0.1616545149
 31
0.0
  0
LINE
  5
8F
330
1F
100
AcDbEntity
  8
0
  6
Continuous
 62
     7
370
    25
100
AcDbLine
 10
0.118880115
 20
0.1665243199
 30
0.0
 11
0.1233300252
 21
0.1665243199
 31
0.0
  0
LINE
  5
90
330
1F
100
AcDbEntity
  8
0
  6
Continuous
 62
     7
370
    25
100
AcDbLine
 10
0.1233336778
 20
0.1668583199
 30
0.0
 11
0.118880115
 21
0.1668583199
 31
0.0
  0
LINE
  5
91
330
1F
100
AcDbEntity
  8
0
  6
Continuous
 62
     7
370
    25
100
AcDbLine
 10
0.1236640252
 20
0.1665243199
 30
0.0
 11
0.128890136
 21
0.1665243199
 31
0.0
  0
LINE
  5
92
330
1F
100
AcDbEntity
  8
0
  6
Continuous
 62
     7
370
    25
100
AcDbLine
 10
0.1288937823
 20
0.1668583199
 30
0.0
 11
0.1236603828
 21
0.1668583199
 31
0.0
  0
LINE
  5
93
330
1F
100
AcDbEntity
  8
0
  6
Continuous
 62
     7
370
    25
100
AcDbLine
 10
0.129224136
 20
0.1665243199
 30
0.0
 11
0.133674115
 21
0.1665243199
 31
0.0
  0
LINE
  5
94
330
1F
100
AcDbEntity
  8
0
  6
Continuous
 62
     7
370
    25
100
AcDbLine
 10
0.133674115
 20
0.1668583199
 30
0.0
 11
0.1292204874
 21
0.1668583199
 31
0.0
  0
LINE
  5
95
330
1F
100
AcDbEntity
  8
0
  6
Continuous
 62
     7
370
    25
100
AcDbLine
 10
0.133674115
 20
0.1564534998
 30
0.0
 11
0.1292205254
 21
0.1564740934
 31
0.0
  0
LINE
  5
96
330
1F
100
AcDbEntity
  8
0
  6
Continuous
 62
     7
370
    25
100
AcDbLine
 10
0.1288938201
 20
0.1564756041
 30
0.0
 11
0.1236553017
 21
0.1564998273
 31
0.0
  0
LINE
  5
97
330
1F
100
AcDbEntity
  8
0
  6
Continuous
 62
     7
370
    25
100
AcDbLine
 10
0.1233335161
 20
0.1565013152
 30
0.0
 11
0.118880115
 21
0.156521908
 31
0.0
  0
LINE
  5
98
330
1F
100
AcDbEntity
  8
0
  6
Continuous
 62
     7
370
    25
100
AcDbLine
 10
0.118880115
 20
0.1561879044
 30
0.0
 11
0.1233334068
 21
0.1561673122
 31
0.0
  0
LINE
  5
99
330
1F
100
AcDbEntity
  8
0
  6
Continuous
 62
     7
370
    25
100
AcDbLine
 10
0.1233335136
 20
0.1561673117
 30
0.0
 11
0.1288937331
 21
0.156141601
 31
0.0
  0
LINE
  5
9A
330
1F
100
AcDbEntity
  8
0
  6
Continuous
 62
     7
370
    25
100
AcDbLine
 10
0.1288938207
 20
0.1561416006
 30
0.0
 11
0.133674115
 21
0.1561194963
 31
0.0
  0
LINE
  5
9B
330
1F
100
AcDbEntity
  8
0
  6
Continuous
 62
     7
370
    25
100
AcDbLine
 10
0.1288901183
 20
0.1713947098
 30
0.0
 11
0.1288901348
 21
0.1668583199
 31
0.0
  0
LINE
  5
9C
330
1F
100
AcDbEntity
  8
0
  6
Continuous
 62
     7
370
    25
100
AcDbLine
 10
0.128890136
 20
0.1665279674
 30
0.0
 11
0.1288901538
 21
0.1616545149
 31
0.0
  0
LINE
  5
9D
330
1F
100
AcDbEntity
  8
0
  6
Continuous
 62
     7
370
    25
100
AcDbLine
 10
0.128890155
 20
0.1613241623
 30
0.0
 11
0.1288901727
 21
0.156475621
 31
0.0
  0
LINE
  5
9E
330
1F
100
AcDbEntity
  8
0
  6
Continuous
 62
     7
370
    25
100
AcDbLine
 10
0.1292241727
 20
0.1564740766
 30
0.0
 11
0.129224155
 21
0.1613241624
 31
0.0
  0
LINE
  5
9F
330
1F
100
AcDbEntity
  8
0
  6
Continuous
 62
     7
370
    25
100
AcDbLine
 10
0.1292241538
 20
0.1616545149
 30
0.0
 11
0.129224136
 21
0.1665279674
 31
0.0
  0
LINE
  5
A0
330
1F
100
AcDbEntity
  8
0
  6
Continuous
 62
     7
370
    25
100
AcDbLine
 10
0.1292241348
 20
0.1668583199
 30
0.0
 11
0.1292241183
 21
0.1713947098
 31
0.0
  0
LINE
  5
A1
330
1F
100
AcDbEntity
  8
0
  6
Continuous
 62
     7
370
    25
100
AcDbLine
 10
0.1288901727
 20
0.1561416174
 30
0.0
 11
0.1288901548
 21
0.1512190909
 31
0.0
  0
LINE
  5
A2
330
1F
100
AcDbEntity
  8
0
  6
Continuous
 62
     7
370
    25
100
AcDbLine
 10
0.1288901536
 20
0.1508887602
 30
0.0
 11
0.1288901359
 21
0.1460152475
 31
0.0
  0
LINE
  5
A3
330
1F
100
AcDbEntity
  8
0
  6
Continuous
 62
     7
370
    25
100
AcDbLine
 10
0.1288901347
 20
0.1456848971
 30
0.0
 11
0.1288901206
 21
0.1418281551
 31
0.0
  0
LINE
  5
A4
330
1F
100
AcDbEntity
  8
0
  6
Continuous
 62
     7
370
    25
100
AcDbLine
 10
0.1292241206
 20
0.1418281551
 30
0.0
 11
0.1292241347
 21
0.1456840639
 31
0.0
  0
LINE
  5
A5
330
1F
100
AcDbEntity
  8
0
  6
Continuous
 62
     7
370
    25
100
AcDbLine
 10
0.1292241359
 20
0.1460144605
 30
0.0
 11
0.1292241536
 21
0.1508878639
 31
0.0
  0
LINE
  5
A6
330
1F
100
AcDbEntity
  8
0
  6
Continuous
 62
     7
370
    25
100
AcDbLine
 10
0.1292241548
 20
0.1512182839
 30
0.0
 11
0.1292241727
 21
0.156140073
 31
0.0
  0
LINE
  5
A7
330
1F
100
AcDbEntity
  8
0
  6
Continuous
 62
     7
370
    25
100
AcDbLine
 10
0.1233301011
 20
0.1713947098
 30
0.0
 11
0.1233300304
 21
0.1668583199
 31
0.0
  0
LINE
  5
A8
330
1F
100
AcDbEntity
  8
0
  6
Continuous
 62
     7
370
    25
100
AcDbLine
 10
0.1233300252
 20
0.1665279675
 30
0.0
 11
0.1233299492
 21
0.1616545149
 31
0.0
  0
LINE
  5
A9
330
1F
100
AcDbEntity
  8
0
  6
Continuous
 62
     7
370
    25
100
AcDbLine
 10
0.1233299441
 20
0.1613241624
 30
0.0
 11
0.1233298689
 21
0.1565013321
 31
0.0
  0
LINE
  5
AA
330
1F
100
AcDbEntity
  8
0
  6
Continuous
 62
     7
370
    25
100
AcDbLine
 10
0.1236638688
 20
0.1564997877
 30
0.0
 11
0.1236639441
 21
0.1613284816
 31
0.0
  0
LINE
  5
AB
330
1F
100
AcDbEntity
  8
0
  6
Continuous
 62
     7
370
    25
100
AcDbLine
 10
0.1236639492
 20
0.1616545149
 30
0.0
 11
0.1236640253
 21
0.1665322867
 31
0.0
  0
LINE
  5
AC
330
1F
100
AcDbEntity
  8
0
  6
Continuous
 62
     7
370
    25
100
AcDbLine
 10
0.1236640304
 20
0.1668583199
 30
0.0
 11
0.1236641011
 21
0.1713947098
 31
0.0
  0
LINE
  5
AD
330
1F
100
AcDbEntity
  8
0
  6
Continuous
 62
     7
370
    25
100
AcDbLine
 10
0.1233298688
 20
0.1561673285
 30
0.0
 11
0.1233299453
 21
0.1512340336
 31
0.0
  0
LINE
  5
AE
330
1F
100
AcDbEntity
  8
0
  6
Continuous
 62
     7
370
    25
100
AcDbLine
 10
0.1233299504
 20
0.1509036803
 30
0.0
 11
0.123330026
 21
0.1460291404
 31
0.0
  0
LINE
  5
AF
330
1F
100
AcDbEntity
  8
0
  6
Continuous
 62
     7
370
    25
100
AcDbLine
 10
0.1233300311
 20
0.1456987675
 30
0.0
 11
0.1233300911
 21
0.1418281551
 31
0.0
  0
LINE
  5
B0
330
1F
100
AcDbEntity
  8
0
  6
Continuous
 62
     7
370
    25
100
AcDbLine
 10
0.1236640911
 20
0.1418281551
 30
0.0
 11
0.1236640311
 21
0.1456979343
 31
0.0
  0
LINE
  5
B1
330
1F
100
AcDbEntity
  8
0
  6
Continuous
 62
     7
370
    25
100
AcDbLine
 10
0.123664026
 20
0.1460283534
 30
0.0
 11
0.1236639504
 21
0.1509027841
 31
0.0
  0
LINE
  5
B2
330
1F
100
AcDbEntity
  8
0
  6
Continuous
 62
     7
370
    25
100
AcDbLine
 10
0.1236639453
 20
0.1512332265
 30
0.0
 11
0.1236638688
 21
0.1561657841
 31
0.0
  0
LINE
  5
B3
330
1F
100
AcDbEntity
  8
0
  6
Continuous
 62
     7
370
    25
100
AcDbLine
 10
0.118880115
 20
0.1418281551
 30
0.0
 11
0.118880115
 21
0.1716292905
 31
0.0
  0
LINE
  5
B4
330
1F
100
AcDbEntity
  8
0
  6
Continuous
 62
     7
370
    25
100
AcDbLine
 10
0.117674115
 20
0.1716294273
 30
0.0
 11
0.117674115
 21
0.1418281551
 31
0.0
  0
LINE
  5
B5
330
1F
100
AcDbEntity
  8
0
  6
Continuous
 62
     7
370
    25
100
AcDbLine
 10
0.134880115
 20
0.1418281551
 30
0.0
 11
0.134880115
 21
0.167465255
 31
0.0
  0
LINE
  5
B6
330
1F
100
AcDbEntity
  8
0
  6
Continuous
 62
     7
370
    25
100
AcDbLine
 10
0.134880115
 20
0.168579269
 30
0.0
 11
0.134880115
 21
0.1716292147
 31
0.0
  0
LINE
  5
B7
330
1F
100
AcDbEntity
  8
0
  6
Continuous
 62
     7
370
    25
100
AcDbLine
 10
0.133674115
 20
0.1716294243
 30
0.0
 11
0.133674115
 21
0.1418281551
 31
0.0
  0
LINE
  5
B8
330
1F
100
AcDbEntity
  8
0
  6
Continuous
 62
     7
370
    25
100
AcDbLine
 10
0.1256077931
 20
0.2036986208
 30
0.0
 11
0.118343593
 21
0.1891702207
 31
0.0
  0
LINE
  5
B9
330
1F
100
AcDbEntity
  8
0
  6
Continuous
 62
     7
370
    25
100
AcDbLine
 10
0.1189464924
 20
0.1888689097
 30
0.0
 11
0.1262105809
 21
0.2033970866
 31
0.0
  0
LINE
  5
BA
330
1F
100
AcDbEntity
  8
0
  6
Continuous
 62
     7
370
    25
100
AcDbLine
 10
0.134210637
 20
0.1891702207
 30
0.0
 11
0.126946437
 21
0.2036986208
 31
0.0
  0
LINE
  5
BB
330
1F
100
AcDbEntity
  8
0
  6
Continuous
 62
     7
370
    25
100
AcDbLine
 10
0.1263436485
 20
0.2033970879
 30
0.0
 11
0.1336077376
 21
0.1888689097
 31
0.0
  0
LINE
  5
BC
330
1F
100
AcDbEntity
  8
0
  6
Continuous
 62
     7
370
    25
100
AcDbLine
 10
0.135166115
 20
0.1869479053
 30
0.0
 11
0.1368681835
 21
0.1877932122
 31
0.0
  0
LINE
  5
BD
330
1F
100
AcDbEntity
  8
0
  6
Continuous
 62
     7
370
    25
100
AcDbLine
 10
0.1374173045
 20
0.188065925
 30
0.0
 11
0.1394669504
 21
0.189083851
 31
0.0
  0
LINE
  5
BE
330
1F
100
AcDbEntity
  8
0
  6
Continuous
 62
     7
370
    25
100
AcDbLine
 10
0.1400160714
 20
0.1893565637
 30
0.0
 11
0.1422218361
 21
0.1904520239
 31
0.0
  0
LINE
  5
BF
330
1F
100
AcDbEntity
  8
0
  6
Continuous
 62
     7
370
    25
100
AcDbLine
 10
0.1424177766
 20
0.1905493348
 30
0.0
 11
0.1448181127
 21
0.1917414259
 31
0.0
  0
LINE
  5
C0
330
1F
100
AcDbEntity
  8
0
  6
Continuous
 62
     7
370
    25
100
AcDbLine
 10
0.1451883838
 20
0.1919253155
 30
0.0
 11
0.147440612
 21
0.193043851
 31
0.0
  0
LINE
  5
C1
330
1F
100
AcDbEntity
  8
0
  6
Continuous
 62
     7
370
    25
100
AcDbLine
 10
0.147989733
 20
0.1933165637
 30
0.0
 11
0.1501773987
 21
0.1944030352
 31
0.0
  0
LINE
  5
C2
330
1F
100
AcDbEntity
  8
0
  6
Continuous
 62
     7
370
    25
100
AcDbLine
 10
0.1500282082
 20
0.1947018641
 30
0.0
 11
0.1478411695
 21
0.193615704
 31
0.0
  0
LINE
  5
C3
330
1F
100
AcDbEntity
  8
0
  6
Continuous
 62
     7
370
    25
100
AcDbLine
 10
0.1472920485
 20
0.1933429912
 30
0.0
 11
0.1450889018
 21
0.1922488313
 31
0.0
  0
LINE
  5
C4
330
1F
100
AcDbEntity
  8
0
  6
Continuous
 62
     7
370
    25
100
AcDbLine
 10
0.1446387488
 20
0.1920252696
 30
0.0
 11
0.1398675079
 21
0.189655704
 31
0.0
  0
LINE
  5
C5
330
1F
100
AcDbEntity
  8
0
  6
Continuous
 62
     7
370
    25
100
AcDbLine
 10
0.1393183868
 20
0.1893829912
 30
0.0
 11
0.137268741
 21
0.1883650652
 31
0.0
  0
LINE
  5
C6
330
1F
100
AcDbEntity
  8
0
  6
Continuous
 62
     7
370
    25
100
AcDbLine
 10
0.13671962
 20
0.1880923524
 30
0.0
 11
0.1350236002
 21
0.1872500496
 31
0.0
  0
LINE
  5
C7
330
1F
100
AcDbEntity
  8
0
  6
Continuous
 62
     7
370
    25
100
AcDbLine
 10
0.135166115
 20
0.1740648881
 30
0.0
 11
0.1366650872
 21
0.173320446
 31
0.0
  0
LINE
  5
C8
330
1F
100
AcDbEntity
  8
0
  6
Continuous
 62
     7
370
    25
100
AcDbLine
 10
0.1371152402
 20
0.1730968842
 30
0.0
 11
0.1393183868
 21
0.1720027243
 31
0.0
  0
LINE
  5
C9
330
1F
100
AcDbEntity
  8
0
  6
Continuous
 62
     7
370
    25
100
AcDbLine
 10
0.1398675079
 20
0.1717300116
 30
0.0
 11
0.141976274
 21
0.1706827243
 31
0.0
  0
LINE
  5
CA
330
1F
100
AcDbEntity
  8
0
  6
Continuous
 62
     7
370
    25
100
AcDbLine
 10
0.1425253951
 20
0.1704100116
 30
0.0
 11
0.1472920485
 21
0.1680427243
 31
0.0
  0
LINE
  5
CB
330
1F
100
AcDbEntity
  8
0
  6
Continuous
 62
     7
370
    25
100
AcDbLine
 10
0.1478411695
 20
0.1677700116
 30
0.0
 11
0.1500722909
 21
0.1666619585
 31
0.0
  0
LINE
  5
CC
330
1F
100
AcDbEntity
  8
0
  6
Continuous
 62
     7
370
    25
100
AcDbLine
 10
0.150220541
 20
0.1669612543
 30
0.0
 11
0.147989733
 21
0.1680691518
 31
0.0
  0
LINE
  5
CD
330
1F
100
AcDbEntity
  8
0
  6
Continuous
 62
     7
370
    25
100
AcDbLine
 10
0.147440612
 20
0.1683418646
 30
0.0
 11
0.1450756638
 21
0.1695163808
 31
0.0
  0
LINE
  5
CE
330
1F
100
AcDbEntity
  8
0
  6
Continuous
 62
     7
370
    25
100
AcDbLine
 10
0.1448797233
 20
0.1696136917
 30
0.0
 11
0.1426739586
 21
0.1707091518
 31
0.0
  0
LINE
  5
CF
330
1F
100
AcDbEntity
  8
0
  6
Continuous
 62
     7
370
    25
100
AcDbLine
 10
0.1421248376
 20
0.1709818646
 30
0.0
 11
0.1400160714
 21
0.1720291518
 31
0.0
  0
LINE
  5
D0
330
1F
100
AcDbEntity
  8
0
  6
Continuous
 62
     7
370
    25
100
AcDbLine
 10
0.1394669504
 20
0.1723018646
 30
0.0
 11
0.1372147222
 21
0.1734204001
 31
0.0
  0
LINE
  5
D1
330
1F
100
AcDbEntity
  8
0
  6
Continuous
 62
     7
370
    25
100
AcDbLine
 10
0.1368444511
 20
0.1736042897
 30
0.0
 11
0.135166115
 21
0.1744378102
 31
0.0
  0
LINE
  5
D2
330
1F
100
AcDbEntity
  8
0
  6
Continuous
 62
     7
370
    25
100
AcDbLine
 10
0.147399551
 20
0.1805258578
 30
0.0
 11
0.147399551
 21
0.1745324164
 31
0.0
  0
LINE
  5
D3
330
1F
100
AcDbEntity
  8
0
  6
Continuous
 62
     7
370
    25
100
AcDbLine
 10
0.147399551
 20
0.1737532991
 30
0.0
 11
0.147399551
 21
0.1684824164
 31
0.0
  0
LINE
  5
D4
330
1F
100
AcDbEntity
  8
0
  6
Continuous
 62
     7
370
    25
100
AcDbLine
 10
0.147733551
 20
0.1684824164
 30
0.0
 11
0.147733551
 21
0.1737532991
 31
0.0
  0
LINE
  5
D5
330
1F
100
AcDbEntity
  8
0
  6
Continuous
 62
     7
370
    25
100
AcDbLine
 10
0.147733551
 20
0.1745324164
 30
0.0
 11
0.147733551
 21
0.1806040843
 31
0.0
  0
LINE
  5
D6
330
1F
100
AcDbEntity
  8
0
  6
Continuous
 62
     7
370
    25
100
AcDbLine
 10
0.147399551
 20
0.1928792016
 30
0.0
 11
0.147399551
 21
0.1876324164
 31
0.0
  0
LINE
  5
D7
330
1F
100
AcDbEntity
  8
0
  6
Continuous
 62
     7
370
    25
100
AcDbLine
 10
0.147399551
 20
0.1868532991
 30
0.0
 11
0.147399551
 21
0.1808598578
 31
0.0
  0
LINE
  5
D8
330
1F
100
AcDbEntity
  8
0
  6
Continuous
 62
     7
370
    25
100
AcDbLine
 10
0.147733551
 20
0.1807816312
 30
0.0
 11
0.147733551
 21
0.1868532991
 31
0.0
  0
LINE
  5
D9
330
1F
100
AcDbEntity
  8
0
  6
Continuous
 62
     7
370
    25
100
AcDbLine
 10
0.147733551
 20
0.1876324164
 30
0.0
 11
0.147733551
 21
0.1929032991
 31
0.0
  0
LINE
  5
DA
330
1F
100
AcDbEntity
  8
0
  6
Continuous
 62
     7
370
    25
100
AcDbLine
 10
0.1447416638
 20
0.1803032991
 30
0.0
 11
0.1447416638
 21
0.1752424164
 31
0.0
  0
LINE
  5
DB
330
1F
100
AcDbEntity
  8
0
  6
Continuous
 62
     7
370
    25
100
AcDbLine
 10
0.1450756638
 20
0.1752424164
 30
0.0
 11
0.1450756638
 21
0.1803032991
 31
0.0
  0
LINE
  5
DC
330
1F
100
AcDbEntity
  8
0
  6
Continuous
 62
     7
370
    25
100
AcDbLine
 10
0.1447416638
 20
0.1861432991
 30
0.0
 11
0.1447416638
 21
0.1810824164
 31
0.0
  0
LINE
  5
DD
330
1F
100
AcDbEntity
  8
0
  6
Continuous
 62
     7
370
    25
100
AcDbLine
 10
0.1450756638
 20
0.1810824164
 30
0.0
 11
0.1450756638
 21
0.1861432991
 31
0.0
  0
LINE
  5
DE
330
1F
100
AcDbEntity
  8
0
  6
Continuous
 62
     7
370
    25
100
AcDbLine
 10
0.1447416638
 20
0.1744632991
 30
0.0
 11
0.1447416638
 21
0.1696822569
 31
0.0
  0
LINE
  5
DF
330
1F
100
AcDbEntity
  8
0
  6
Continuous
 62
     7
370
    25
100
AcDbLine
 10
0.1450756638
 20
0.1694812365
 30
0.0
 11
0.1450756638
 21
0.1744632991
 31
0.0
  0
LINE
  5
E0
330
1F
100
AcDbEntity
  8
0
  6
Continuous
 62
     7
370
    25
100
AcDbLine
 10
0.1447416638
 20
0.1915592016
 30
0.0
 11
0.1447416638
 21
0.1869224164
 31
0.0
  0
LINE
  5
E1
330
1F
100
AcDbEntity
  8
0
  6
Continuous
 62
     7
370
    25
100
AcDbLine
 10
0.1450756638
 20
0.1869224164
 30
0.0
 11
0.1450756638
 21
0.1916960502
 31
0.0
  0
LINE
  5
E2
330
1F
100
AcDbEntity
  8
0
  6
Continuous
 62
     7
370
    25
100
AcDbLine
 10
0.1420837766
 20
0.1803032991
 30
0.0
 11
0.1420837766
 21
0.1759524164
 31
0.0
  0
LINE
  5
E3
330
1F
100
AcDbEntity
  8
0
  6
Continuous
 62
     7
370
    25
100
AcDbLine
 10
0.1424177766
 20
0.1759524164
 30
0.0
 11
0.1424177766
 21
0.1803032991
 31
0.0
  0
LINE
  5
E4
330
1F
100
AcDbEntity
  8
0
  6
Continuous
 62
     7
370
    25
100
AcDbLine
 10
0.1420837766
 20
0.1854332991
 30
0.0
 11
0.1420837766
 21
0.1810824164
 31
0.0
  0
LINE
  5
E5
330
1F
100
AcDbEntity
  8
0
  6
Continuous
 62
     7
370
    25
100
AcDbLine
 10
0.1424177766
 20
0.1810824164
 30
0.0
 11
0.1424177766
 21
0.1853997831
 31
0.0
  0
LINE
  5
E6
330
1F
100
AcDbEntity
  8
0
  6
Continuous
 62
     7
370
    25
100
AcDbLine
 10
0.1420837766
 20
0.1751732991
 30
0.0
 11
0.1420837766
 21
0.1711224164
 31
0.0
  0
LINE
  5
E7
330
1F
100
AcDbEntity
  8
0
  6
Continuous
 62
     7
370
    25
100
AcDbLine
 10
0.1424177766
 20
0.1711224164
 30
0.0
 11
0.1424177766
 21
0.1751732991
 31
0.0
  0
LINE
  5
E8
330
1F
100
AcDbEntity
  8
0
  6
Continuous
 62
     7
370
    25
100
AcDbLine
 10
0.1420837766
 20
0.1903834587
 30
0.0
 11
0.1420837766
 21
0.1862124164
 31
0.0
  0
LINE
  5
E9
330
1F
100
AcDbEntity
  8
0
  6
Continuous
 62
     7
370
    25
100
AcDbLine
 10
0.1424177766
 20
0.1862459325
 30
0.0
 11
0.1424177766
 21
0.1905844791
 31
0.0
  0
LINE
  5
EA
330
1F
100
AcDbEntity
  8
0
  6
Continuous
 62
     7
370
    25
100
AcDbLine
 10
0.1394258894
 20
0.1889432991
 30
0.0
 11
0.1394258894
 21
0.185526514
 31
0.0
  0
LINE
  5
EB
330
1F
100
AcDbEntity
  8
0
  6
Continuous
 62
     7
370
    25
100
AcDbLine
 10
0.1394258894
 20
0.1846992016
 30
0.0
 11
0.1394258894
 21
0.1841586222
 31
0.0
  0
LINE
  5
EC
330
1F
100
AcDbEntity
  8
0
  6
Continuous
 62
     7
370
    25
100
AcDbLine
 10
0.1394258894
 20
0.1833795048
 30
0.0
 11
0.1394258894
 21
0.1810824164
 31
0.0
  0
LINE
  5
ED
330
1F
100
AcDbEntity
  8
0
  6
Continuous
 62
     7
370
    25
100
AcDbLine
 10
0.1394258894
 20
0.1803032991
 30
0.0
 11
0.1394258894
 21
0.1780062107
 31
0.0
  0
LINE
  5
EE
330
1F
100
AcDbEntity
  8
0
  6
Continuous
 62
     7
370
    25
100
AcDbLine
 10
0.1394258894
 20
0.1772270934
 30
0.0
 11
0.1394258894
 21
0.1766624164
 31
0.0
  0
LINE
  5
EF
330
1F
100
AcDbEntity
  8
0
  6
Continuous
 62
     7
370
    25
100
AcDbLine
 10
0.1394258894
 20
0.1758832991
 30
0.0
 11
0.1394258894
 21
0.1724424164
 31
0.0
  0
LINE
  5
F0
330
1F
100
AcDbEntity
  8
0
  6
Continuous
 62
     7
370
    25
100
AcDbLine
 10
0.1397598894
 20
0.1724424164
 30
0.0
 11
0.1397598894
 21
0.1758832991
 31
0.0
  0
LINE
  5
F1
330
1F
100
AcDbEntity
  8
0
  6
Continuous
 62
     7
370
    25
100
AcDbLine
 10
0.1397598894
 20
0.1766624164
 30
0.0
 11
0.1397598894
 21
0.1772270934
 31
0.0
  0
LINE
  5
F2
330
1F
100
AcDbEntity
  8
0
  6
Continuous
 62
     7
370
    25
100
AcDbLine
 10
0.1397598894
 20
0.1780062107
 30
0.0
 11
0.1397598894
 21
0.1803032991
 31
0.0
  0
LINE
  5
F3
330
1F
100
AcDbEntity
  8
0
  6
Continuous
 62
     7
370
    25
100
AcDbLine
 10
0.1397598894
 20
0.1810824164
 30
0.0
 11
0.1397598894
 21
0.1833795048
 31
0.0
  0
LINE
  5
F4
330
1F
100
AcDbEntity
  8
0
  6
Continuous
 62
     7
370
    25
100
AcDbLine
 10
0.1397598894
 20
0.1841586222
 30
0.0
 11
0.1397598894
 21
0.1848360502
 31
0.0
  0
LINE
  5
F5
330
1F
100
AcDbEntity
  8
0
  6
Continuous
 62
     7
370
    25
100
AcDbLine
 10
0.1397598894
 20
0.1853896654
 30
0.0
 11
0.1397598894
 21
0.1889432991
 31
0.0
  0
LINE
  5
F6
330
1F
100
AcDbEntity
  8
0
  6
Continuous
 62
     7
370
    25
100
AcDbLine
 10
0.136825554
 20
0.1876533446
 30
0.0
 11
0.13680727
 21
0.1831165994
 31
0.0
  0
LINE
  5
F7
330
1F
100
AcDbEntity
  8
0
  6
Continuous
 62
     7
370
    25
100
AcDbLine
 10
0.1368041301
 20
0.1823374964
 30
0.0
 11
0.1367990746
 21
0.1810830863
 31
0.0
  0
LINE
  5
F8
330
1F
100
AcDbEntity
  8
0
  6
Continuous
 62
     7
370
    25
100
AcDbLine
 10
0.1367959346
 20
0.1803039833
 30
0.0
 11
0.1367908464
 21
0.1790414632
 31
0.0
  0
LINE
  5
F9
330
1F
100
AcDbEntity
  8
0
  6
Continuous
 62
     7
370
    25
100
AcDbLine
 10
0.1367877737
 20
0.1782790397
 30
0.0
 11
0.1367696706
 21
0.1737871747
 31
0.0
  0
LINE
  5
FA
330
1F
100
AcDbEntity
  8
0
  6
Continuous
 62
     7
370
    25
100
AcDbLine
 10
0.1371031164
 20
0.1736489851
 30
0.0
 11
0.1371217142
 21
0.1782635944
 31
0.0
  0
LINE
  5
FB
330
1F
100
AcDbEntity
  8
0
  6
Continuous
 62
     7
370
    25
100
AcDbLine
 10
0.1371249005
 20
0.1790542164
 30
0.0
 11
0.1371299319
 21
0.1803026373
 31
0.0
  0
LINE
  5
FC
330
1F
100
AcDbEntity
  8
0
  6
Continuous
 62
     7
370
    25
100
AcDbLine
 10
0.1371330719
 20
0.1810817402
 30
0.0
 11
0.1371381274
 21
0.1823361504
 31
0.0
  0
LINE
  5
FD
330
1F
100
AcDbEntity
  8
0
  6
Continuous
 62
     7
370
    25
100
AcDbLine
 10
0.1371412673
 20
0.1831152533
 30
0.0
 11
0.1371595513
 21
0.1876519985
 31
0.0
  0
LINE
  5
FE
330
1F
100
AcDbEntity
  8
0
  6
Continuous
 62
     7
370
    25
100
AcDbLine
 10
0.1394520395
 20
0.17785244
 30
0.0
 11
0.137396398
 21
0.1786704729
 31
0.0
  0
LINE
  5
FF
330
1F
100
AcDbEntity
  8
0
  6
Continuous
 62
     7
370
    25
100
AcDbLine
 10
0.1372729034
 20
0.1783601423
 30
0.0
 11
0.1393285449
 21
0.1775421094
 31
0.0
  0
LINE
  5
100
330
1F
100
AcDbEntity
  8
0
  6
Continuous
 62
     7
370
    25
100
AcDbLine
 10
0.1393285449
 20
0.1838436062
 30
0.0
 11
0.1372729034
 21
0.1830255733
 31
0.0
  0
LINE
  5
101
330
1F
100
AcDbEntity
  8
0
  6
Continuous
 62
     7
370
    25
100
AcDbLine
 10
0.137396398
 20
0.1827152427
 30
0.0
 11
0.1394520395
 21
0.1835332756
 31
0.0
  0
LINE
  5
102
330
1F
100
AcDbEntity
  8
0
  6
Continuous
 62
     7
370
    25
100
AcDbLine
 10
0.135166115
 20
0.1805258578
 30
0.0
 11
0.1367574226
 21
0.1805258578
 31
0.0
  0
LINE
  5
103
330
1F
100
AcDbEntity
  8
0
  6
Continuous
 62
     7
370
    25
100
AcDbLine
 10
0.1367574226
 20
0.1808598578
 30
0.0
 11
0.135166115
 21
0.1808598578
 31
0.0
  0
LINE
  5
104
330
1F
100
AcDbEntity
  8
0
  6
Continuous
 62
     7
370
    25
100
AcDbLine
 10
0.1399261519
 20
0.1760109778
 30
0.0
 11
0.1420026534
 21
0.1754562831
 31
0.0
  0
LINE
  5
105
330
1F
100
AcDbEntity
  8
0
  6
Continuous
 62
     7
370
    25
100
AcDbLine
 10
0.1425840391
 20
0.1753009778
 30
0.0
 11
0.1446605406
 21
0.1747462831
 31
0.0
  0
LINE
  5
106
330
1F
100
AcDbEntity
  8
0
  6
Continuous
 62
     7
370
    25
100
AcDbLine
 10
0.1452419263
 20
0.1745909778
 30
0.0
 11
0.1473184278
 21
0.1740362831
 31
0.0
  0
LINE
  5
107
330
1F
100
AcDbEntity
  8
0
  6
Continuous
 62
     7
370
    25
100
AcDbLine
 10
0.1474046266
 20
0.1743589683
 30
0.0
 11
0.145328125
 21
0.1749136631
 31
0.0
  0
LINE
  5
108
330
1F
100
AcDbEntity
  8
0
  6
Continuous
 62
     7
370
    25
100
AcDbLine
 10
0.1447467393
 20
0.1750689683
 30
0.0
 11
0.1426702378
 21
0.1756236631
 31
0.0
  0
LINE
  5
109
330
1F
100
AcDbEntity
  8
0
  6
Continuous
 62
     7
370
    25
100
AcDbLine
 10
0.1420888521
 20
0.1757789683
 30
0.0
 11
0.1400123506
 21
0.1763336631
 31
0.0
  0
LINE
  5
10A
330
1F
100
AcDbEntity
  8
0
  6
Continuous
 62
     7
370
    25
100
AcDbLine
 10
0.1399824481
 20
0.1805258578
 30
0.0
 11
0.142043696
 21
0.1805258578
 31
0.0
  0
LINE
  5
10B
330
1F
100
AcDbEntity
  8
0
  6
Continuous
 62
     7
370
    25
100
AcDbLine
 10
0.1426403353
 20
0.1805258578
 30
0.0
 11
0.1447015832
 21
0.1805258578
 31
0.0
  0
LINE
  5
10C
330
1F
100
AcDbEntity
  8
0
  6
Continuous
 62
     7
370
    25
100
AcDbLine
 10
0.1452982225
 20
0.1805258578
 30
0.0
 11
0.1474777776
 21
0.1805258578
 31
0.0
  0
LINE
  5
10D
330
1F
100
AcDbEntity
  8
0
  6
Continuous
 62
     7
370
    25
100
AcDbLine
 10
0.147733551
 20
0.1805258578
 30
0.0
 11
0.1501248552
 21
0.1805258578
 31
0.0
  0
LINE
  5
10E
330
1F
100
AcDbEntity
  8
0
  6
Continuous
 62
     7
370
    25
100
AcDbLine
 10
0.1501243301
 20
0.1808598578
 30
0.0
 11
0.147733551
 21
0.1808598578
 31
0.0
  0
LINE
  5
10F
330
1F
100
AcDbEntity
  8
0
  6
Continuous
 62
     7
370
    25
100
AcDbLine
 10
0.1474777776
 20
0.1808598578
 30
0.0
 11
0.1452982225
 21
0.1808598578
 31
0.0
  0
LINE
  5
110
330
1F
100
AcDbEntity
  8
0
  6
Continuous
 62
     7
370
    25
100
AcDbLine
 10
0.1447015832
 20
0.1808598578
 30
0.0
 11
0.1426403353
 21
0.1808598578
 31
0.0
  0
LINE
  5
111
330
1F
100
AcDbEntity
  8
0
  6
Continuous
 62
     7
370
    25
100
AcDbLine
 10
0.142043696
 20
0.1808598578
 30
0.0
 11
0.1399824481
 21
0.1808598578
 31
0.0
  0
LINE
  5
112
330
1F
100
AcDbEntity
  8
0
  6
Continuous
 62
     7
370
    25
100
AcDbLine
 10
0.139863158
 20
0.1850121987
 30
0.0
 11
0.1420888521
 21
0.1856067472
 31
0.0
  0
LINE
  5
113
330
1F
100
AcDbEntity
  8
0
  6
Continuous
 62
     7
370
    25
100
AcDbLine
 10
0.1428155013
 20
0.1858008566
 30
0.0
 11
0.1447467393
 21
0.1863167472
 31
0.0
  0
LINE
  5
114
330
1F
100
AcDbEntity
  8
0
  6
Continuous
 62
     7
370
    25
100
AcDbLine
 10
0.145328125
 20
0.1864720525
 30
0.0
 11
0.1474046266
 21
0.1870267472
 31
0.0
  0
LINE
  5
115
330
1F
100
AcDbEntity
  8
0
  6
Continuous
 62
     7
370
    25
100
AcDbLine
 10
0.1473184278
 20
0.1873494325
 30
0.0
 11
0.1452419263
 21
0.1867947377
 31
0.0
  0
LINE
  5
116
330
1F
100
AcDbEntity
  8
0
  6
Continuous
 62
     7
370
    25
100
AcDbLine
 10
0.1446605406
 20
0.1866394325
 30
0.0
 11
0.142698905
 21
0.1861154218
 31
0.0
  0
LINE
  5
117
330
1F
100
AcDbEntity
  8
0
  6
Continuous
 62
     7
370
    25
100
AcDbLine
 10
0.1420026534
 20
0.1859294325
 30
0.0
 11
0.1398073568
 21
0.1853430041
 31
0.0
  0
LWPOLYLINE
  5
118
330
1F
100
AcDbEntity
  8
0
  6
Continuous
 62
     7
370
    25
100
AcDbPolyline
 90
       21
 70
   128
 43
0.0
 10
0.1230365853
 20
0.1151460987
 10
0.1230366751
 20
0.1151460176
 10
0.1230398067
 20
0.1151445013
 10
0.1230553728
 20
0.1151372358
 10
0.1230802118
 20
0.115126173
 10
0.1231133075
 20
0.1151127149
 10
0.1231468554
 20
0.115100824
 10
0.1231745346
 20
0.1150924516
 10
0.1231969361
 20
0.1150865507
 10
0.1232156215
 20
0.1150821177
 10
0.123263014
 20
0.1150727498
 10
0.1233274723
 20
0.1150640544
 10
0.1233945368
 20
0.1150601623
 10
0.1234607788
 20
0.115062602
 10
0.1234888291
 20
0.1150660216
 10
0.1234978464
 20
0.1150675626
 10
0.1235010743
 20
0.1150681969
 10
0.1235034109
 20
0.1150687215
 10
0.1235048254
 20
0.1150691254
 10
0.1235052851
 20
0.1150693998
 10
0.1235052829
 20
0.1150694
  0
ARC
  5
119
330
1F
100
AcDbEntity
  8
0
  6
Continuous
 62
     7
370
    25
100
AcDbCircle
 10
0.1228997183
 20
0.1167698351
 30
0.0
 40
0.0017013782788352
100
AcDbArc
 50
226.7017770592
 51
279.4272068128
  0
ARC
  5
11A
330
1F
100
AcDbEntity
  8
0
  6
Continuous
 62
     7
370
    25
100
AcDbCircle
 10
0.1230231298
 20
0.1173199065
 30
0.0
 40
0.0022969064999223
100
AcDbArc
 50
280.5744416507
 51
327.5853053302
  0
LWPOLYLINE
  5
11B
330
1F
100
AcDbEntity
  8
0
  6
Continuous
 62
     7
370
    25
100
AcDbPolyline
 90
       15
 70
   128
 43
0.0
 10
0.1229898063
 20
0.1116451189
 10
0.1229897547
 20
0.1116448808
 10
0.1229915499
 20
0.1116439384
 10
0.1229951238
 20
0.1116425392
 10
0.1230003888
 20
0.1116407144
 10
0.1230157779
 20
0.1116359149
 10
0.1230500549
 20
0.1116266039
 10
0.1230870336
 20
0.1116182296
 10
0.1231838883
 20
0.1116055228
 10
0.1232289404
 20
0.111605131
 10
0.1232462522
 20
0.1116059649
 10
0.1232600131
 20
0.1116071484
 10
0.1232699757
 20
0.1116085616
 10
0.1232754955
 20
0.1116099575
 10
0.1232752326
 20
0.1116102293
  0
ARC
  5
11C
330
1F
100
AcDbEntity
  8
0
  6
Continuous
 62
     7
370
    25
100
AcDbCircle
 10
0.1229779585
 20
0.1137951493
 30
0.0
 40
0.0021860583739634
100
AcDbArc
 50
224.0540611496
 51
325.3246507558
  0
ARC
  5
11D
330
1F
100
AcDbEntity
  8
0
  6
Continuous
 62
     7
370
    25
100
AcDbCircle
 10
0.1319341761
 20
0.1206151691
 30
0.0
 40
0.0006597165976249
100
AcDbArc
 50
241.8963511126
 51
277.4408067741
  0
ARC
  5
11E
330
1F
100
AcDbEntity
  8
0
  6
Continuous
 62
     7
370
    25
100
AcDbCircle
 10
0.1315342318
 20
0.1218777065
 30
0.0
 40
0.0018983240771984
100
AcDbArc
 50
227.1532446625
 51
276.1690131245
  0
ARC
  5
11F
330
1F
100
AcDbEntity
  8
0
  6
Continuous
 62
     7
370
    25
100
AcDbCircle
 10
0.1317111332
 20
0.1220626454
 30
0.0
 40
0.0021240057895998
100
AcDbArc
 50
277.284668988
 51
328.7446898032
  0
ARC
  5
120
330
1F
100
AcDbEntity
  8
0
  6
Continuous
 62
     7
370
    25
100
AcDbCircle
 10
0.1316864736
 20
0.116342746
 30
0.0
 40
0.0014367136410997
100
AcDbArc
 50
228.0832622745
 51
285.562260587
  0
LWPOLYLINE
  5
121
330
1F
100
AcDbEntity
  8
0
  6
Continuous
 62
     7
370
    25
100
AcDbPolyline
 90
       18
 70
   128
 43
0.0
 10
0.1319452038
 20
0.1149987718
 10
0.1319451108
 20
0.1149987378
 10
0.1319461688
 20
0.1149976167
 10
0.1319545863
 20
0.1149933055
 10
0.1319706635
 20
0.1149865905
 10
0.1319917289
 20
0.1149788915
 10
0.1320360402
 20
0.1149659685
 10
0.1320821009
 20
0.1149566422
 10
0.1321282759
 20
0.1149504109
 10
0.1321722033
 20
0.114946851
 10
0.1322153379
 20
0.1149454567
 10
0.132233006
 20
0.1149455161
 10
0.1322456768
 20
0.1149458997
 10
0.132250181
 20
0.1149461695
 10
0.1322534641
 20
0.1149464805
 10
0.1322555097
 20
0.1149468323
 10
0.1322562882
 20
0.11494723
 10
0.1322562282
 20
0.1149472813
  0
ARC
  5
122
330
1F
100
AcDbEntity
  8
0
  6
Continuous
 62
     7
370
    25
100
AcDbCircle
 10
0.1317658539
 20
0.1172276424
 30
0.0
 40
0.0023236061901796
100
AcDbArc
 50
282.2032681514
 51
329.3896316361
  0
LWPOLYLINE
  5
123
330
1F
100
AcDbEntity
  8
0
  6
Continuous
 62
     7
370
    25
100
AcDbPolyline
 90
       32
 70
   128
 43
0.0
 10
0.1230545557
 20
0.1199135571
 10
0.1230543757
 20
0.1199134774
 10
0.1230583336
 20
0.1199098538
 10
0.1230644597
 20
0.1199043281
 10
0.1230776565
 20
0.1198922284
 10
0.123099936
 20
0.1198712267
 10
0.1231313475
 20
0.1198412328
 10
0.1231689221
 20
0.119805848
 10
0.1232076141
 20
0.1197708957
 10
0.1232472976
 20
0.1197372601
 10
0.1232876145
 20
0.1197057417
 10
0.123324422
 20
0.1196794379
 10
0.1233563318
 20
0.1196585762
 10
0.1233886313
 20
0.119639275
 10
0.1234333726
 20
0.1196154935
 10
0.1234875529
 20
0.1195911422
 10
0.1235420682
 20
0.1195714156
 10
0.1235976966
 20
0.1195560854
 10
0.1236623813
 20
0.1195442337
 10
0.1237242874
 20
0.1195385545
 10
0.1237800647
 20
0.1195376517
 10
0.1238388805
 20
0.119540393
 10
0.12391841
 20
0.1195487943
 10
0.1239897847
 20
0.1195594612
 10
0.1240444222
 20
0.1195687498
 10
0.1241076412
 20
0.1195798694
 10
0.1241799588
 20
0.1195921441
 10
0.1242557436
 20
0.1196034379
 10
0.1242933243
 20
0.1196081198
 10
0.1243316671
 20
0.1196121076
 10
0.1243806892
 20
0.1196158965
 10
0.1243861263
 20
0.1196161175
  0
LWPOLYLINE
  5
124
330
1F
100
AcDbEntity
  8
0
  6
Continuous
 62
     7
370
    25
100
AcDbPolyline
 90
       21
 70
   128
 43
0.0
 10
0.1242406051
 20
0.1196604361
 10
0.1242404544
 20
0.1196604026
 10
0.1242418461
 20
0.1196592902
 10
0.1242517156
 20
0.1196542878
 10
0.1242690697
 20
0.1196464948
 10
0.1242857428
 20
0.1196398026
 10
0.124300144
 20
0.1196347827
 10
0.1243064104
 20
0.1196328148
 10
0.1243120478
 20
0.1196311543
 10
0.1243299806
 20
0.1196265068
 10
0.1243522236
 20
0.119621641
 10
0.124407475
 20
0.1196126393
 10
0.1244574443
 20
0.1196077799
 10
0.1245031352
 20
0.1196058677
 10
0.1245278156
 20
0.1196057953
 10
0.124547504
 20
0.1196062775
 10
0.1245608043
 20
0.1196070325
 10
0.1245651065
 20
0.1196074589
 10
0.1245678276
 20
0.1196079093
 10
0.1245689278
 20
0.119608389
 10
0.1245688239
 20
0.1196084822
  0
ARC
  5
125
330
1F
100
AcDbEntity
  8
0
  6
Continuous
 62
     7
370
    25
100
AcDbCircle
 10
0.1239527228
 20
0.1220032064
 30
0.0
 40
0.0024653627521443
100
AcDbArc
 50
284.6343102798
 51
328.5914723267
  0
LWPOLYLINE
  5
126
330
1F
100
AcDbEntity
  8
0
  6
Continuous
 62
     7
370
    25
100
AcDbPolyline
 90
       69
 70
   128
 43
0.0
 10
0.1261945897
 20
0.1099013182
 10
0.1262315114
 20
0.10987279
 10
0.1262606769
 20
0.1098476564
 10
0.1262829714
 20
0.1098273878
 10
0.1262958678
 20
0.1098153461
 10
0.1263085223
 20
0.1098033586
 10
0.1263219128
 20
0.1097905332
 10
0.1263367233
 20
0.1097762244
 10
0.1263546201
 20
0.1097588194
 10
0.1263757333
 20
0.1097382378
 10
0.1264230943
 20
0.1096924857
 10
0.1264770835
 20
0.109642181
 10
0.1265270158
 20
0.1095984056
 10
0.1265710761
 20
0.1095625003
 10
0.1266178912
 20
0.1095274982
 10
0.1266745601
 20
0.1094897342
 10
0.126736749
 20
0.1094541499
 10
0.1268118182
 20
0.1094190047
 10
0.1268806598
 20
0.1093936432
 10
0.1269541264
 20
0.1093727636
 10
0.1270819867
 20
0.1093476035
 10
0.12720846
 20
0.109330325
 10
0.1273386794
 20
0.1093135948
 10
0.1274606519
 20
0.109294372
 10
0.1275643733
 20
0.1092728523
 10
0.1276059764
 20
0.1092625374
 10
0.1276498804
 20
0.1092506187
 10
0.1277092611
 20
0.1092331847
 10
0.1277720174
 20
0.1092141292
 10
0.1278157473
 20
0.1092013013
 10
0.1278499836
 20
0.1091919192
 10
0.127897459
 20
0.1091806493
 10
0.1279594764
 20
0.109170303
 10
0.1280162144
 20
0.1091663567
 10
0.1280777191
 20
0.1091668424
 10
0.1281337859
 20
0.1091708575
 10
0.1282061505
 20
0.1091805327
 10
0.1282638791
 20
0.1091917001
 10
0.1283144672
 20
0.1092040101
 10
0.128370865
 20
0.1092208043
 10
0.1284242011
 20
0.1092402524
 10
0.1284653777
 20
0.1092581552
 10
0.128509551
 20
0.1092806131
 10
0.1285489963
 20
0.1093037003
 10
0.1285929147
 20
0.1093322567
 10
0.1286335602
 20
0.1093603907
 10
0.128669413
 20
0.1093856167
 10
0.1287090864
 20
0.1094127037
 10
0.1287440108
 20
0.1094344601
 10
0.1287844196
 20
0.1094557805
 10
0.1288316918
 20
0.1094757159
 10
0.1288831311
 20
0.1094940832
 10
0.1289344228
 20
0.1095109511
 10
0.1289853902
 20
0.109527193
 10
0.1290407551
 20
0.1095449072
 10
0.1291231212
 20
0.1095729729
 10
0.1292065791
 20
0.1096058648
 10
0.1292823143
 20
0.1096426712
 10
0.129340811
 20
0.1096778548
 10
0.1294002701
 20
0.1097224224
 10
0.1294485119
 20
0.1097683098
 10
0.1294848474
 20
0.1098118654
 10
0.1295047635
 20
0.1098407325
 10
0.1295220665
 20
0.1098700616
 10
0.1295373546
 20
0.1099007543
 10
0.1295501524
 20
0.1099316785
 10
0.129563492
 20
0.1099724522
 10
0.1295754472
 20
0.1100246421
 10
0.129583539
 20
0.1100901504
  0
LWPOLYLINE
  5
127
330
1F
100
AcDbEntity
  8
0
  6
Continuous
 62
     7
370
    25
100
AcDbPolyline
 90
       42
 70
   128
 43
0.0
 10
0.1188121371
 20
0.1091534374
 10
0.1188221481
 20
0.1090813498
 10
0.1188364695
 20
0.1090286445
 10
0.1188508451
 20
0.1089918989
 10
0.1188635024
 20
0.1089660953
 10
0.1188817367
 20
0.1089354176
 10
0.118908804
 20
0.1088987626
 10
0.1189639085
 20
0.1088425421
 10
0.1190216124
 20
0.108798494
 10
0.1190737988
 20
0.1087662939
 10
0.1191175478
 20
0.1087429826
 10
0.1191540748
 20
0.1087255312
 10
0.1191942556
 20
0.1087079579
 10
0.1192437442
 20
0.1086881288
 10
0.1193019261
 20
0.1086667218
 10
0.1193544441
 20
0.1086486411
 10
0.1194064784
 20
0.108631446
 10
0.1194583158
 20
0.1086146825
 10
0.1195172415
 20
0.1085955475
 10
0.1195441008
 20
0.1085864553
 10
0.1195636982
 20
0.1085795191
 10
0.1195765644
 20
0.1085747104
 10
0.1195858762
 20
0.1085708631
 10
0.1195908998
 20
0.1085682078
 10
0.1195938788
 20
0.1085664023
 10
0.1196008933
 20
0.1085619954
 10
0.1196120284
 20
0.1085545235
 10
0.1196267351
 20
0.1085439814
 10
0.1196565973
 20
0.1085209346
 10
0.1196850055
 20
0.1084978619
 10
0.1197230098
 20
0.1084664775
 10
0.1197736392
 20
0.1084255234
 10
0.1198291319
 20
0.1083838064
 10
0.1198755606
 20
0.1083525921
 10
0.119912382
 20
0.1083305313
 10
0.119957444
 20
0.108306697
 10
0.1200192293
 20
0.1082789989
 10
0.1200775664
 20
0.1082571514
 10
0.1201111227
 20
0.1082460541
 10
0.1201577776
 20
0.1082319163
 10
0.1202137828
 20
0.1082160567
 10
0.1202727918
 20
0.1081990064
  0
LWPOLYLINE
  5
128
330
1F
100
AcDbEntity
  8
0
  6
Continuous
 62
     7
370
    25
100
AcDbPolyline
 90
       46
 70
   128
 43
0.0
 10
0.1204646516
 20
0.1081934983
 10
0.1205179744
 20
0.1082074414
 10
0.1205587072
 20
0.1082194171
 10
0.1205753026
 20
0.1082240778
 10
0.1205897189
 20
0.1082281321
 10
0.1206065215
 20
0.108233104
 10
0.1206365985
 20
0.1082425491
 10
0.1206677733
 20
0.1082533809
 10
0.1207293867
 20
0.1082800142
 10
0.1207902782
 20
0.1083148668
 10
0.1208195809
 20
0.108333502
 10
0.1208452729
 20
0.1083494551
 10
0.1208653989
 20
0.1083608269
 10
0.1208770077
 20
0.1083666199
 10
0.1208778642
 20
0.1083674359
 10
0.1208773876
 20
0.1083672767
 10
0.1208790533
 20
0.1083672256
 10
0.1208830628
 20
0.1083672701
 10
0.1208900088
 20
0.1083674153
 10
0.1208994588
 20
0.1083675787
 10
0.1209240562
 20
0.1083677452
 10
0.1209669384
 20
0.1083671335
 10
0.1210106102
 20
0.1083653072
 10
0.1210497318
 20
0.1083629559
 10
0.1210860581
 20
0.1083604323
 10
0.1211564249
 20
0.108355467
 10
0.1212397463
 20
0.1083514594
 10
0.1213239784
 20
0.1083525068
 10
0.1214032479
 20
0.1083609771
 10
0.1214724267
 20
0.1083755661
 10
0.1215308293
 20
0.1083934786
 10
0.1215774266
 20
0.1084116707
 10
0.1216196165
 20
0.108431262
 10
0.1216642248
 20
0.1084553259
 10
0.1217160542
 20
0.1084877636
 10
0.1217646533
 20
0.1085226332
 10
0.1218090134
 20
0.1085582154
 10
0.1218460743
 20
0.1085906087
 10
0.1218813114
 20
0.1086235269
 10
0.121913277
 20
0.1086550185
 10
0.1219513854
 20
0.1086942806
 10
0.1219945271
 20
0.1087403588
 10
0.1220353482
 20
0.108784684
 10
0.122071714
 20
0.1088237259
 10
0.1221041496
 20
0.1088570059
 10
0.1221326789
 20
0.1088833571
  0
LWPOLYLINE
  5
129
330
1F
100
AcDbEntity
  8
0
  6
Continuous
 62
     7
370
    25
100
AcDbPolyline
 90
       64
 70
   128
 43
0.0
 10
0.1264114154
 20
0.1180418918
 10
0.1264561415
 20
0.1180066075
 10
0.1264946167
 20
0.1179723821
 10
0.126525491
 20
0.1179433379
 10
0.1265537218
 20
0.1179160357
 10
0.1265855958
 20
0.1178848354
 10
0.1266471588
 20
0.1178250262
 10
0.1267133678
 20
0.1177636833
 10
0.126773495
 20
0.1177123381
 10
0.1268168144
 20
0.117678494
 10
0.1268684574
 20
0.117641929
 10
0.1269288648
 20
0.1176045213
 10
0.1269872969
 20
0.1175737406
 10
0.1270404197
 20
0.1175501216
 10
0.1270910609
 20
0.1175311883
 10
0.1271438499
 20
0.1175147568
 10
0.1272039035
 20
0.1174995401
 10
0.1273333319
 20
0.1174756846
 10
0.1274572516
 20
0.117458428
 10
0.1275846257
 20
0.1174402884
 10
0.1277006826
 20
0.1174196493
 10
0.127797189
 20
0.1173975519
 10
0.1278426526
 20
0.1173853088
 10
0.1279033663
 20
0.1173673617
 10
0.127975753
 20
0.1173447167
 10
0.1280273923
 20
0.1173289495
 10
0.1280667545
 20
0.1173178016
 10
0.1281228004
 20
0.1173044264
 10
0.1281972369
 20
0.1172934301
 10
0.1282568441
 20
0.1172909766
 10
0.1283154766
 20
0.1172925964
 10
0.1283682685
 20
0.1172970804
 10
0.1284357739
 20
0.117306599
 10
0.1284889662
 20
0.1173169842
 10
0.128539685
 20
0.1173292953
 10
0.1285958727
 20
0.1173460399
 10
0.1286488041
 20
0.117365467
 10
0.1286960466
 20
0.1173864564
 10
0.1287446298
 20
0.1174120994
 10
0.1287958977
 20
0.1174436065
 10
0.12884446
 20
0.1174766131
 10
0.1288883251
 20
0.1175074514
 10
0.1289256707
 20
0.1175328697
 10
0.1289568047
 20
0.1175523201
 10
0.1289946516
 20
0.1175725169
 10
0.129043914
 20
0.1175932469
 10
0.129099899
 20
0.1176127319
 10
0.1291543034
 20
0.1176300494
 10
0.1292073663
 20
0.1176464552
 10
0.129265187
 20
0.1176645222
 10
0.1293478481
 20
0.1176923224
 10
0.1294258809
 20
0.1177228983
 10
0.129503503
 20
0.1177605067
 10
0.1295639589
 20
0.1177970723
 10
0.1296231978
 20
0.117841976
 10
0.1296706778
 20
0.1178876565
 10
0.1297066593
 20
0.117931252
 10
0.129726411
 20
0.1179601937
 10
0.1297434771
 20
0.1179894512
 10
0.1297585887
 20
0.1180201424
 10
0.129771258
 20
0.1180511314
 10
0.1297843658
 20
0.1180917218
 10
0.1297960583
 20
0.1181434263
 10
0.1298039705
 20
0.118208062
  0
LINE
  5
12A
330
1F
100
AcDbEntity
  8
0
  6
Continuous
 62
     7
370
    25
100
AcDbLine
 10
0.144277115
 20
0.1328867098
 30
0.0
 11
0.1381706191
 21
0.1328867098
 31
0.0
  0
LINE
  5
12B
330
1F
100
AcDbEntity
  8
0
  6
Continuous
 62
     7
370
    25
100
AcDbLine
 10
0.1381706191
 20
0.1316807098
 30
0.0
 11
0.144277115
 21
0.1316807098
 31
0.0
  0
LINE
  5
12C
330
1F
100
AcDbEntity
  8
0
  6
Continuous
 62
     7
370
    25
100
AcDbLine
 10
0.1347099487
 20
0.1316807098
 30
0.0
 11
0.1381706191
 21
0.1316807098
 31
0.0
  0
LINE
  5
12D
330
1F
100
AcDbEntity
  8
0
  6
Continuous
 62
     7
370
    25
100
AcDbLine
 10
0.1381706191
 20
0.1328867098
 30
0.0
 11
0.1347099487
 21
0.1328867098
 31
0.0
  0
LINE
  5
12E
330
1F
100
AcDbEntity
  8
0
  6
Continuous
 62
     7
370
    25
100
AcDbLine
 10
0.134880115
 20
0.1253477294
 30
0.0
 11
0.134880115
 21
0.1316807098
 31
0.0
  0
LINE
  5
12F
330
1F
100
AcDbEntity
  8
0
  6
Continuous
 62
     7
370
    25
100
AcDbLine
 10
0.134880115
 20
0.1328867098
 30
0.0
 11
0.134880115
 21
0.1389285808
 31
0.0
  0
LINE
  5
130
330
1F
100
AcDbEntity
  8
0
  6
Continuous
 62
     7
370
    25
100
AcDbLine
 10
0.133674115
 20
0.1383812071
 30
0.0
 11
0.133674115
 21
0.1258951031
 31
0.0
  0
ARC
  5
131
330
1F
100
AcDbEntity
  8
0
  6
Continuous
 62
     7
370
    25
100
AcDbCircle
 10
0.1395928894
 20
0.1837690635
 30
0.0
 40
0.0004238454434675
100
AcDbArc
 50
113.2043411966
 51
178.4955095925
  0
ARC
  5
132
330
1F
100
AcDbEntity
  8
0
  6
Continuous
 62
     7
370
    25
100
AcDbCircle
 10
0.1395928894
 20
0.1837690635
 30
0.0
 40
0.0004238454434675
100
AcDbArc
 50
224.9041919857
 51
246.7956588034
  0
ARC
  5
133
330
1F
100
AcDbEntity
  8
0
  6
Continuous
 62
     7
370
    25
100
AcDbCircle
 10
0.1395928894
 20
0.1837690635
 30
0.0
 40
0.0004238454434675
100
AcDbArc
 50
293.2043411966
 51
66.7956588034
  0
ARC
  5
134
330
1F
100
AcDbEntity
  8
0
  6
Continuous
 62
     7
370
    25
100
AcDbCircle
 10
0.147566551
 20
0.1741428578
 30
0.0
 40
0.0004238454434675
100
AcDbArc
 50
188.2481706588
 51
246.7956588034
  0
ARC
  5
135
330
1F
100
AcDbEntity
  8
0
  6
Continuous
 62
     7
370
    25
100
AcDbCircle
 10
0.147566551
 20
0.1741428578
 30
0.0
 40
0.0004238454434675
100
AcDbArc
 50
293.2043411966
 51
66.7956588034
  0
ARC
  5
136
330
1F
100
AcDbEntity
  8
0
  6
Continuous
 62
     7
370
    25
100
AcDbCircle
 10
0.147566551
 20
0.1741428578
 30
0.0
 40
0.0004238454434675
100
AcDbArc
 50
113.2043411966
 51
141.8394882655
  0
ARC
  5
137
330
1F
100
AcDbEntity
  8
0
  6
Continuous
 62
     7
370
    25
100
AcDbCircle
 10
0.1449086638
 20
0.1748528578
 30
0.0
 40
0.0004238454434675
100
AcDbArc
 50
188.2481706588
 51
246.7956588034
  0
ARC
  5
138
330
1F
100
AcDbEntity
  8
0
  6
Continuous
 62
     7
370
    25
100
AcDbCircle
 10
0.1449086638
 20
0.1748528578
 30
0.0
 40
0.0004238454434675
100
AcDbArc
 50
293.2043411966
 51
66.7956588034
  0
ARC
  5
139
330
1F
100
AcDbEntity
  8
0
  6
Continuous
 62
     7
370
    25
100
AcDbCircle
 10
0.1449086638
 20
0.1748528578
 30
0.0
 40
0.0004238454434675
100
AcDbArc
 50
113.2043411966
 51
141.8394882655
  0
ARC
  5
13A
330
1F
100
AcDbEntity
  8
0
  6
Continuous
 62
     7
370
    25
100
AcDbCircle
 10
0.1369941226
 20
0.188042219
 30
0.0
 40
0.0004238454434675
100
AcDbArc
 50
162.2749681261
 51
183.2062654578
  0
ARC
  5
13B
330
1F
100
AcDbEntity
  8
0
  6
Continuous
 62
     7
370
    25
100
AcDbCircle
 10
0.1369941226
 20
0.188042219
 30
0.0
 40
0.0004238454434675
100
AcDbArc
 50
229.614947851
 51
246.5647470297
  0
ARC
  5
13C
330
1F
100
AcDbEntity
  8
0
  6
Continuous
 62
     7
370
    25
100
AcDbCircle
 10
0.1369941226
 20
0.188042219
 30
0.0
 40
0.0004238454434675
100
AcDbArc
 50
292.973429423
 51
162.2749681261
  0
ARC
  5
13D
330
1F
100
AcDbEntity
  8
0
  6
Continuous
 62
     7
370
    25
100
AcDbCircle
 10
0.1447672132
 20
0.1919728578
 30
0.0
 40
0.0004238454434675
100
AcDbArc
 50
239.2615723344
 51
266.5441183601
  0
ARC
  5
13E
330
1F
100
AcDbEntity
  8
0
  6
Continuous
 62
     7
370
    25
100
AcDbCircle
 10
0.1447672132
 20
0.1919728578
 30
0.0
 40
0.0004238454434675
100
AcDbArc
 50
316.6975267116
 51
192.1952386693
  0
ARC
  5
13F
330
1F
100
AcDbEntity
  8
0
  6
Continuous
 62
     7
370
    25
100
AcDbCircle
 10
0.1395928894
 20
0.1762728578
 30
0.0
 40
0.0004238454434675
100
AcDbArc
 50
178.6154026787
 51
246.7956588034
  0
ARC
  5
140
330
1F
100
AcDbEntity
  8
0
  6
Continuous
 62
     7
370
    25
100
AcDbCircle
 10
0.1395928894
 20
0.1762728578
 30
0.0
 40
0.0004238454434675
100
AcDbArc
 50
293.2043411966
 51
66.7956588034
  0
ARC
  5
141
330
1F
100
AcDbEntity
  8
0
  6
Continuous
 62
     7
370
    25
100
AcDbCircle
 10
0.1395928894
 20
0.1762728578
 30
0.0
 40
0.0004238454434675
100
AcDbArc
 50
113.2043411966
 51
178.6154026787
  0
ARC
  5
142
330
1F
100
AcDbEntity
  8
0
  6
Continuous
 62
     7
370
    25
100
AcDbCircle
 10
0.147566551
 20
0.1680928578
 30
0.0
 40
0.0004238454434675
100
AcDbArc
 50
176.7937345422
 51
66.7956588034
  0
ARC
  5
143
330
1F
100
AcDbEntity
  8
0
  6
Continuous
 62
     7
370
    25
100
AcDbCircle
 10
0.147566551
 20
0.1680928578
 30
0.0
 40
0.0004238454434675
100
AcDbArc
 50
113.2043411966
 51
130.385052149
  0
ARC
  5
144
330
1F
100
AcDbEntity
  8
0
  6
Continuous
 62
     7
370
    25
100
AcDbCircle
 10
0.1449086638
 20
0.1865328578
 30
0.0
 40
0.0004238454434675
100
AcDbArc
 50
218.1605117345
 51
246.7956588034
  0
ARC
  5
145
330
1F
100
AcDbEntity
  8
0
  6
Continuous
 62
     7
370
    25
100
AcDbCircle
 10
0.1449086638
 20
0.1865328578
 30
0.0
 40
0.0004238454434675
100
AcDbArc
 50
293.2043411966
 51
66.7956588034
  0
ARC
  5
146
330
1F
100
AcDbEntity
  8
0
  6
Continuous
 62
     7
370
    25
100
AcDbCircle
 10
0.1449086638
 20
0.1865328578
 30
0.0
 40
0.0004238454434675
100
AcDbArc
 50
113.2043411966
 51
171.7518293412
  0
ARC
  5
147
330
1F
100
AcDbEntity
  8
0
  6
Continuous
 62
     7
370
    25
100
AcDbCircle
 10
0.1369645032
 20
0.1806928578
 30
0.0
 40
0.0004238454434675
100
AcDbArc
 50
203.2043411966
 51
246.5647470297
  0
ARC
  5
148
330
1F
100
AcDbEntity
  8
0
  6
Continuous
 62
     7
370
    25
100
AcDbCircle
 10
0.1369645032
 20
0.1806928578
 30
0.0
 40
0.0004238454434675
100
AcDbArc
 50
292.973429423
 51
66.5647470297
  0
ARC
  5
149
330
1F
100
AcDbEntity
  8
0
  6
Continuous
 62
     7
370
    25
100
AcDbCircle
 10
0.1369645032
 20
0.1806928578
 30
0.0
 40
0.0004238454434676
100
AcDbArc
 50
112.973429423
 51
156.7956588034
  0
ARC
  5
14A
330
1F
100
AcDbEntity
  8
0
  6
Continuous
 62
     7
370
    25
100
AcDbCircle
 10
0.1395928894
 20
0.1720528578
 30
0.0
 40
0.0004238454434675
100
AcDbArc
 50
176.7937345423
 51
66.7956588034
  0
ARC
  5
14B
330
1F
100
AcDbEntity
  8
0
  6
Continuous
 62
     7
370
    25
100
AcDbCircle
 10
0.1395928894
 20
0.1720528578
 30
0.0
 40
0.0004238454434675
100
AcDbArc
 50
113.2043411966
 51
130.385052149
  0
ARC
  5
14C
330
1F
100
AcDbEntity
  8
0
  6
Continuous
 62
     7
370
    25
100
AcDbCircle
 10
0.1369726987
 20
0.1827263709
 30
0.0
 40
0.0004238454434675
100
AcDbArc
 50
187.6655490656
 51
246.5647470297
  0
ARC
  5
14D
330
1F
100
AcDbEntity
  8
0
  6
Continuous
 62
     7
370
    25
100
AcDbCircle
 10
0.1369726987
 20
0.1827263709
 30
0.0
 40
0.0004238454434675
100
AcDbArc
 50
292.973429423
 51
66.5647470297
  0
ARC
  5
14E
330
1F
100
AcDbEntity
  8
0
  6
Continuous
 62
     7
370
    25
100
AcDbCircle
 10
0.1369726987
 20
0.1827263709
 30
0.0
 40
0.0004238454434675
100
AcDbArc
 50
112.973429423
 51
187.6655490656
  0
ARC
  5
14F
330
1F
100
AcDbEntity
  8
0
  6
Continuous
 62
     7
370
    25
100
AcDbCircle
 10
0.1449086638
 20
0.1806928578
 30
0.0
 40
0.0004238454434675
100
AcDbArc
 50
203.2043411966
 51
246.7956588034
  0
ARC
  5
150
330
1F
100
AcDbEntity
  8
0
  6
Continuous
 62
     7
370
    25
100
AcDbCircle
 10
0.1449086638
 20
0.1806928578
 30
0.0
 40
0.0004238454434675
100
AcDbArc
 50
293.2043411966
 51
66.7956588034
  0
ARC
  5
151
330
1F
100
AcDbEntity
  8
0
  6
Continuous
 62
     7
370
    25
100
AcDbCircle
 10
0.1449086638
 20
0.1806928578
 30
0.0
 40
0.0004238454434676
100
AcDbArc
 50
113.2043411966
 51
156.7956588034
  0
ARC
  5
152
330
1F
100
AcDbEntity
  8
0
  6
Continuous
 62
     7
370
    25
100
AcDbCircle
 10
0.1422507766
 20
0.1755628578
 30
0.0
 40
0.0004238454434676
100
AcDbArc
 50
188.2481706588
 51
246.7956588034
  0
ARC
  5
153
330
1F
100
AcDbEntity
  8
0
  6
Continuous
 62
     7
370
    25
100
AcDbCircle
 10
0.1422507766
 20
0.1755628578
 30
0.0
 40
0.0004238454434675
100
AcDbArc
 50
293.2043411966
 51
66.7956588034
  0
ARC
  5
154
330
1F
100
AcDbEntity
  8
0
  6
Continuous
 62
     7
370
    25
100
AcDbCircle
 10
0.1422507766
 20
0.1755628578
 30
0.0
 40
0.0004238454434675
100
AcDbArc
 50
113.2043411966
 51
141.8394882655
  0
LWPOLYLINE
  5
155
330
1F
100
AcDbEntity
  8
0
  6
Continuous
 62
     7
370
    25
100
AcDbPolyline
 90
        3
 70
   128
 43
0.0
 10
0.147001255
 20
0.1932928578
 10
0.147004881
 20
0.1932375348
 10
0.1470108197
 20
0.1932033231
  0
ARC
  5
156
330
1F
100
AcDbEntity
  8
0
  6
Continuous
 62
     7
370
    25
100
AcDbCircle
 10
0.1474251004
 20
0.1932928578
 30
0.0
 40
0.0004238454434675
100
AcDbArc
 50
239.2615723344
 51
266.5441183601
  0
ARC
  5
157
330
1F
100
AcDbEntity
  8
0
  6
Continuous
 62
     7
370
    25
100
AcDbCircle
 10
0.1474251004
 20
0.1932928578
 30
0.0
 40
0.0004238454434676
100
AcDbArc
 50
80.3943601562
 51
180.0
  0
LWPOLYLINE
  5
158
330
1F
100
AcDbEntity
  8
0
  6
Continuous
 62
     7
370
    25
100
AcDbPolyline
 90
        3
 70
   128
 43
0.0
 10
0.1391715926
 20
0.1893792686
 10
0.139169139
 20
0.1893238812
 10
0.1391697074
 20
0.1893091518
  0
ARC
  5
159
330
1F
100
AcDbEntity
  8
0
  6
Continuous
 62
     7
370
    25
100
AcDbCircle
 10
0.1395928894
 20
0.1893328578
 30
0.0
 40
0.0004238454434675
100
AcDbArc
 50
229.614947851
 51
246.7956588034
  0
ARC
  5
15A
330
1F
100
AcDbEntity
  8
0
  6
Continuous
 62
     7
370
    25
100
AcDbCircle
 10
0.1395928894
 20
0.1893328578
 30
0.0
 40
0.0004238454434675
100
AcDbArc
 50
293.2043411966
 51
173.7135466833
  0
ARC
  5
15B
330
1F
100
AcDbEntity
  8
0
  6
Continuous
 62
     7
370
    25
100
AcDbCircle
 10
0.1395928894
 20
0.1806928578
 30
0.0
 40
0.0004238454434675
100
AcDbArc
 50
180.0
 51
246.7956588034
  0
ARC
  5
15C
330
1F
100
AcDbEntity
  8
0
  6
Continuous
 62
     7
370
    25
100
AcDbCircle
 10
0.1395928894
 20
0.1806928578
 30
0.0
 40
0.0004238454434675
100
AcDbArc
 50
293.2043411966
 51
66.7956588034
  0
ARC
  5
15D
330
1F
100
AcDbEntity
  8
0
  6
Continuous
 62
     7
370
    25
100
AcDbCircle
 10
0.1395928894
 20
0.1806928578
 30
0.0
 40
0.0004238454434675
100
AcDbArc
 50
113.2043411966
 51
180.0
  0
ARC
  5
15E
330
1F
100
AcDbEntity
  8
0
  6
Continuous
 62
     7
370
    25
100
AcDbCircle
 10
0.147566551
 20
0.1932928578
 30
0.0
 40
0.0004238454434675
100
AcDbArc
 50
293.2043411966
 51
103.4495893654
  0
ARC
  5
15F
330
1F
100
AcDbEntity
  8
0
  6
Continuous
 62
     7
370
    25
100
AcDbCircle
 10
0.1422507766
 20
0.1707328578
 30
0.0
 40
0.0004238454434675
100
AcDbArc
 50
245.594239185
 51
66.7956588034
  0
ARC
  5
160
330
1F
100
AcDbEntity
  8
0
  6
Continuous
 62
     7
370
    25
100
AcDbCircle
 10
0.1422507766
 20
0.1707328578
 30
0.0
 40
0.0004238454434675
100
AcDbArc
 50
113.2043411966
 51
130.385052149
  0
ARC
  5
161
330
1F
100
AcDbEntity
  8
0
  6
Continuous
 62
     7
370
    25
100
AcDbCircle
 10
0.1422507766
 20
0.1707328578
 30
0.0
 40
0.0004238454434675
100
AcDbArc
 50
176.7937345423
 51
245.594239185
  0
ARC
  5
162
330
1F
100
AcDbEntity
  8
0
  6
Continuous
 62
     7
370
    25
100
AcDbCircle
 10
0.1395928894
 20
0.177616652
 30
0.0
 40
0.0004238454434675
100
AcDbArc
 50
113.2043411966
 51
135.0958080143
  0
ARC
  5
163
330
1F
100
AcDbEntity
  8
0
  6
Continuous
 62
     7
370
    25
100
AcDbCircle
 10
0.1395928894
 20
0.177616652
 30
0.0
 40
0.0004238454434675
100
AcDbArc
 50
181.5044904075
 51
246.7956588034
  0
ARC
  5
164
330
1F
100
AcDbEntity
  8
0
  6
Continuous
 62
     7
370
    25
100
AcDbCircle
 10
0.1395928894
 20
0.177616652
 30
0.0
 40
0.0004238454434675
100
AcDbArc
 50
293.2043411966
 51
66.7956588034
  0
ARC
  5
165
330
1F
100
AcDbEntity
  8
0
  6
Continuous
 62
     7
370
    25
100
AcDbCircle
 10
0.1394514388
 20
0.1851128578
 30
0.0
 40
0.0004238454434675
100
AcDbArc
 50
178.4571765767
 51
266.5441183601
  0
ARC
  5
166
330
1F
100
AcDbEntity
  8
0
  6
Continuous
 62
     7
370
    25
100
AcDbCircle
 10
0.1394514388
 20
0.1851128578
 30
0.0
 40
0.0004238454434675
100
AcDbArc
 50
316.6975267116
 51
43.3024732884
  0
ARC
  5
167
330
1F
100
AcDbEntity
  8
0
  6
Continuous
 62
     7
370
    25
100
AcDbCircle
 10
0.1394514388
 20
0.1851128578
 30
0.0
 40
0.0004238454434675
100
AcDbArc
 50
93.4558816399
 51
178.4571765767
  0
ARC
  5
168
330
1F
100
AcDbEntity
  8
0
  6
Continuous
 62
     7
370
    25
100
AcDbCircle
 10
0.1422507766
 20
0.1806928578
 30
0.0
 40
0.0004238454434675
100
AcDbArc
 50
203.2043411966
 51
246.7956588034
  0
ARC
  5
169
330
1F
100
AcDbEntity
  8
0
  6
Continuous
 62
     7
370
    25
100
AcDbCircle
 10
0.1422507766
 20
0.1806928578
 30
0.0
 40
0.0004238454434675
100
AcDbArc
 50
293.2043411966
 51
66.7956588034
  0
ARC
  5
16A
330
1F
100
AcDbEntity
  8
0
  6
Continuous
 62
     7
370
    25
100
AcDbCircle
 10
0.1422507766
 20
0.1806928578
 30
0.0
 40
0.0004238454434675
100
AcDbArc
 50
113.2043411966
 51
156.7956588034
  0
ARC
  5
16B
330
1F
100
AcDbEntity
  8
0
  6
Continuous
 62
     7
370
    25
100
AcDbCircle
 10
0.1369726987
 20
0.1786593447
 30
0.0
 40
0.0004238454434675
100
AcDbArc
 50
183.3150502888
 51
244.1311301369
  0
ARC
  5
16C
330
1F
100
AcDbEntity
  8
0
  6
Continuous
 62
     7
370
    25
100
AcDbCircle
 10
0.1369726987
 20
0.1786593447
 30
0.0
 40
0.0004238454434675
100
AcDbArc
 50
290.5833710634
 51
68.9548053893
  0
ARC
  5
16D
330
1F
100
AcDbEntity
  8
0
  6
Continuous
 62
     7
370
    25
100
AcDbCircle
 10
0.1369726987
 20
0.1786593447
 30
0.0
 40
0.0004238454434675
100
AcDbArc
 50
115.4070463158
 51
183.3150502888
  0
ARC
  5
16E
330
1F
100
AcDbEntity
  8
0
  6
Continuous
 62
     7
370
    25
100
AcDbCircle
 10
0.1367935516
 20
0.1733728578
 30
0.0
 40
0.0004238454434675
100
AcDbArc
 50
169.3978560279
 51
43.0717879303
  0
ARC
  5
16F
330
1F
100
AcDbEntity
  8
0
  6
Continuous
 62
     7
370
    25
100
AcDbCircle
 10
0.1367935516
 20
0.1733728578
 30
0.0
 40
0.0004238454434675
100
AcDbArc
 50
93.2251254366
 51
120.7384276656
  0
LINE
  5
170
330
1F
100
AcDbEntity
  8
0
  6
Continuous
 62
     7
370
    25
100
AcDbLine
 10
0.1363792709
 20
0.1734623924
 30
0.0
 11
0.1363769418
 21
0.1734508403
 31
0.0
  0
ARC
  5
171
330
1F
100
AcDbEntity
  8
0
  6
Continuous
 62
     7
370
    25
100
AcDbCircle
 10
0.1422507766
 20
0.1858228578
 30
0.0
 40
0.0004238454434675
100
AcDbArc
 50
218.1605117345
 51
246.7956588034
  0
ARC
  5
172
330
1F
100
AcDbEntity
  8
0
  6
Continuous
 62
     7
370
    25
100
AcDbCircle
 10
0.1422507766
 20
0.1858228578
 30
0.0
 40
0.0004238454434675
100
AcDbArc
 50
113.2043411966
 51
171.7518293412
  0
ARC
  5
173
330
1F
100
AcDbEntity
  8
0
  6
Continuous
 62
     7
370
    25
100
AcDbCircle
 10
0.147566551
 20
0.1872428578
 30
0.0
 40
0.0004238454434675
100
AcDbArc
 50
218.1605117345
 51
246.7956588034
  0
ARC
  5
174
330
1F
100
AcDbEntity
  8
0
  6
Continuous
 62
     7
370
    25
100
AcDbCircle
 10
0.147566551
 20
0.1872428578
 30
0.0
 40
0.0004238454434675
100
AcDbArc
 50
293.2043411966
 51
66.7956588034
  0
ARC
  5
175
330
1F
100
AcDbEntity
  8
0
  6
Continuous
 62
     7
370
    25
100
AcDbCircle
 10
0.147566551
 20
0.1872428578
 30
0.0
 40
0.0004238454434675
100
AcDbArc
 50
113.2043411966
 51
171.7518293412
  0
ARC
  5
176
330
1F
100
AcDbEntity
  8
0
  6
Continuous
 62
     7
370
    25
100
AcDbCircle
 10
0.1423922273
 20
0.1858228578
 30
0.0
 40
0.0004238454434675
100
AcDbArc
 50
270.0
 51
90.0
  0
ARC
  5
177
330
1F
100
AcDbEntity
  8
0
  6
Continuous
 62
     7
370
    25
100
AcDbCircle
 10
0.117337115
 20
0.1754458495
 30
0.0
 40
0.00006
100
AcDbArc
 50
153.6161168628
 51
180.0
  0
LINE
  5
178
330
1F
100
AcDbEntity
  8
0
  6
Continuous
 62
     7
370
    25
100
AcDbLine
 10
0.117277115
 20
0.1754458495
 30
0.0
 11
0.117277115
 21
0.1751858495
 31
0.0
  0
ARC
  5
179
330
1F
100
AcDbEntity
  8
0
  6
Continuous
 62
     7
370
    25
100
AcDbCircle
 10
0.117337115
 20
0.1751858495
 30
0.0
 40
0.00006
100
AcDbArc
 50
180.0
 51
270.0
  0
LINE
  5
17A
330
1F
100
AcDbEntity
  8
0
  6
Continuous
 62
     7
370
    25
100
AcDbLine
 10
0.117277115
 20
0.185747893
 30
0.0
 11
0.117277115
 21
0.185487893
 31
0.0
  0
ARC
  5
17B
330
1F
100
AcDbEntity
  8
0
  6
Continuous
 62
     7
370
    25
100
AcDbCircle
 10
0.117337115
 20
0.185747893
 30
0.0
 40
0.00006
100
AcDbArc
 50
90.0
 51
180.0
  0
ARC
  5
17C
330
1F
100
AcDbEntity
  8
0
  6
Continuous
 62
     7
370
    25
100
AcDbCircle
 10
0.117337115
 20
0.185487893
 30
0.0
 40
0.00006
100
AcDbArc
 50
180.0
 51
212.6785978289
  0
LINE
  5
17D
330
1F
100
AcDbEntity
  8
0
  6
Continuous
 62
     7
370
    25
100
AcDbLine
 10
0.134614115
 20
0.1731063591
 30
0.0
 11
0.134614115
 21
0.1874610604
 31
0.0
  0
LINE
  5
17E
330
1F
100
AcDbEntity
  8
0
  6
Continuous
 62
     7
370
    25
100
AcDbLine
 10
0.133940115
 20
0.1874609364
 30
0.0
 11
0.133940115
 21
0.1731064832
 31
0.0
  0
LINE
  5
17F
330
1F
100
AcDbEntity
  8
0
  6
Continuous
 62
     7
370
    25
100
AcDbLine
 10
0.0779273072
 20
0.1374837098
 30
0.0
 11
0.0779273072
 21
0.1371037098
 31
0.0
  0
LINE
  5
180
330
1F
100
AcDbEntity
  8
0
  6
Continuous
 62
     7
370
    25
100
AcDbLine
 10
0.0779273072
 20
0.1274637098
 30
0.0
 11
0.0779273072
 21
0.1270837098
 31
0.0
  0
LINE
  5
181
330
1F
100
AcDbEntity
  8
0
  6
Continuous
 62
     7
370
    25
100
AcDbLine
 10
0.0787273072
 20
0.1371037098
 30
0.0
 11
0.0787273072
 21
0.1274637098
 31
0.0
  0
LINE
  5
182
330
1F
100
AcDbEntity
  8
0
  6
Continuous
 62
     7
370
    25
100
AcDbLine
 10
0.117940115
 20
0.138849073
 30
0.0
 11
0.117940115
 21
0.1254272373
 31
0.0
  0
LINE
  5
183
330
1F
100
AcDbEntity
  8
0
  6
Continuous
 62
     7
370
    25
100
AcDbLine
 10
0.118614115
 20
0.1257311807
 30
0.0
 11
0.118614115
 21
0.1385451295
 31
0.0
  0
LINE
  5
184
330
1F
100
AcDbEntity
  8
0
  6
Continuous
 62
     7
370
    25
100
AcDbLine
 10
0.0579274258
 20
0.1674835334
 30
0.0
 11
0.072477213
 21
0.1674835641
 31
0.0
  0
ARC
  5
185
330
1F
100
AcDbEntity
  8
0
  6
Continuous
 62
     7
370
    25
100
AcDbCircle
 10
0.0724771835
 20
0.182483604
 30
0.0
 40
0.0150000398977829
100
AcDbArc
 50
270.0001129017
 51
359.9997888916
  0
LINE
  5
186
330
1F
100
AcDbEntity
  8
0
  6
Continuous
 62
     7
370
    25
100
AcDbLine
 10
0.0874772234
 20
0.1824835487
 30
0.0
 11
0.0874772356
 21
0.1882835305
 31
0.0
  0
ARC
  5
187
330
1F
100
AcDbEntity
  8
0
  6
Continuous
 62
     7
370
    25
100
AcDbCircle
 10
0.1182771814
 20
0.1882834582
 30
0.0
 40
0.0307999458281752
100
AcDbArc
 50
153.4348235191
 51
179.999865507
  0
LINE
  5
188
330
1F
100
AcDbEntity
  8
0
  6
Continuous
 62
     7
370
    25
100
AcDbLine
 10
0.0907289025
 20
0.202057673
 30
0.0
 11
0.0988514923
 21
0.2179963563
 31
0.0
  0
ARC
  5
189
330
1F
100
AcDbEntity
  8
0
  6
Continuous
 62
     7
370
    25
100
AcDbCircle
 10
0.1262773305
 20
0.2042833828
 30
0.0
 40
0.0306630435776163
100
AcDbArc
 50
67.3565676142
 51
153.4348578429
  0
LINE
  5
18A
330
1F
100
AcDbEntity
  8
0
  6
Continuous
 62
     7
370
    25
100
AcDbLine
 10
0.1380824502
 20
0.2325828773
 30
0.0
 11
0.1622470694
 21
0.2225025743
 31
0.0
  0
ARC
  5
18B
330
1F
100
AcDbEntity
  8
0
  6
Continuous
 62
     7
370
    25
100
AcDbCircle
 10
0.1503892846
 20
0.1940769284
 30
0.0
 40
0.0307997467915263
100
AcDbArc
 50
359.9998586095
 51
67.3564971674
  0
LINE
  5
18C
330
1F
100
AcDbEntity
  8
0
  6
Continuous
 62
     7
370
    25
100
AcDbLine
 10
0.1811890314
 20
0.1940768524
 30
0.0
 11
0.1809569967
 21
0.1673047726
 31
0.0
  0
ARC
  5
18D
330
1F
100
AcDbEntity
  8
0
  6
Continuous
 62
     7
370
    25
100
AcDbCircle
 10
0.150157018
 20
0.167304851
 30
0.0
 40
0.0307999786802546
100
AcDbArc
 50
324.0072956084
 51
359.9998541951
  0
LINE
  5
18E
330
1F
100
AcDbEntity
  8
0
  6
Continuous
 62
     7
370
    25
100
AcDbLine
 10
0.1750770292
 20
0.1492042507
 30
0.0
 11
0.1750769935
 21
0.1322838904
 31
0.0
  0
ARC
  5
18F
330
1F
100
AcDbEntity
  8
0
  6
Continuous
 62
     7
370
    25
100
AcDbCircle
 10
0.1442770618
 20
0.1322839606
 30
0.0
 40
0.030799931692297
100
AcDbArc
 50
337.3800051955
 51
359.9998692924
  0
LINE
  5
190
330
1F
100
AcDbEntity
  8
0
  6
Continuous
 62
     7
370
    25
100
AcDbLine
 10
0.1727077412
 20
0.1204377686
 30
0.0
 11
0.1627077048
 21
0.0964378227
 31
0.0
  0
ARC
  5
191
330
1F
100
AcDbEntity
  8
0
  6
Continuous
 62
     7
370
    25
100
AcDbCircle
 10
0.13427686
 20
0.108284089
 30
0.0
 40
0.0308001130368501
100
AcDbArc
 50
270.0001412759
 51
337.3799959536
  0
LINE
  5
192
330
1F
100
AcDbEntity
  8
0
  6
Continuous
 62
     7
370
    25
100
AcDbLine
 10
0.1342769359
 20
0.077483976
 30
0.0
 11
0.1182769586
 21
0.0774839423
 31
0.0
  0
ARC
  5
193
330
1F
100
AcDbEntity
  8
0
  6
Continuous
 62
     7
370
    25
100
AcDbCircle
 10
0.1182768649
 20
0.1082837671
 30
0.0
 40
0.0307998248395161
100
AcDbArc
 50
214.8935145971
 51
270.0001743538
  0
ARC
  5
194
330
1F
100
AcDbEntity
  8
0
  6
Continuous
 62
     7
370
    25
100
AcDbCircle
 10
0.0807111565
 20
0.0820838868
 30
0.0
 40
0.0149999150531997
100
AcDbArc
 50
34.8935153119
 51
90.0001736391
  0
LINE
  5
195
330
1F
100
AcDbEntity
  8
0
  6
Continuous
 62
     7
370
    25
100
AcDbLine
 10
0.0807111111
 20
0.0970838018
 30
0.0
 11
0.0579272775
 21
0.0970837538
 31
0.0
  0
ARC
  5
196
330
1F
100
AcDbEntity
  8
0
  6
Continuous
 62
     7
370
    25
100
AcDbCircle
 10
0.0579272329
 20
0.1120836714
 30
0.0
 40
0.0149999175286967
100
AcDbArc
 50
216.8699505109
 51
270.0001705157
  0
ARC
  5
197
330
1F
100
AcDbEntity
  8
0
  6
Continuous
 62
     7
370
    25
100
AcDbCircle
 10
0.0779270535
 20
0.1270835221
 30
0.0
 40
0.0399996843971178
100
AcDbArc
 50
179.9998628876
 51
216.8699005956
  0
LINE
  5
198
330
1F
100
AcDbEntity
  8
0
  6
Continuous
 62
     7
370
    25
100
AcDbLine
 10
0.0379273691
 20
0.1270836178
 30
0.0
 11
0.037927391
 21
0.1374835852
 31
0.0
  0
ARC
  5
199
330
1F
100
AcDbEntity
  8
0
  6
Continuous
 62
     7
370
    25
100
AcDbCircle
 10
0.0779273666
 20
0.1374834827
 30
0.0
 40
0.0399999756684107
100
AcDbArc
 50
143.1299971186
 51
179.999853225
  0
ARC
  5
19A
330
1F
100
AcDbEntity
  8
0
  6
Continuous
 62
     7
370
    25
100
AcDbCircle
 10
0.0579274634
 20
0.1524834767
 30
0.0
 40
0.015000056735771
100
AcDbArc
 50
90.0001436221
 51
143.1300249813
  0
ARC
  5
19B
330
1F
100
AcDbEntity
  8
0
  6
Continuous
 62
     7
370
    25
100
AcDbCircle
 10
0.1262772968
 20
0.2042834328
 30
0.0
 40
0.0306630435776163
100
AcDbArc
 50
67.3565676142
 51
153.4348578429
  0
LINE
  5
19C
330
1F
100
AcDbEntity
  8
0
  6
Continuous
 62
     7
370
    25
100
AcDbLine
 10
0.0907288688
 20
0.202057723
 30
0.0
 11
0.0988514587
 21
0.2179964064
 31
0.0
  0
ARC
  5
19D
330
1F
100
AcDbEntity
  8
0
  6
Continuous
 62
     7
370
    25
100
AcDbCircle
 10
0.1182771478
 20
0.1882835083
 30
0.0
 40
0.0307999458281755
100
AcDbArc
 50
153.4348235191
 51
179.999865507
  0
LINE
  5
19E
330
1F
100
AcDbEntity
  8
0
  6
Continuous
 62
     7
370
    25
100
AcDbLine
 10
0.1380824165
 20
0.2325829274
 30
0.0
 11
0.1622470357
 21
0.2225026244
 31
0.0
  0
ARC
  5
19F
330
1F
100
AcDbEntity
  8
0
  6
Continuous
 62
     7
370
    25
100
AcDbCircle
 10
0.0579274298
 20
0.1524835267
 30
0.0
 40
0.0150000567357711
100
AcDbArc
 50
90.0001436221
 51
143.1300249813
  0
ARC
  5
1A0
330
1F
100
AcDbEntity
  8
0
  6
Continuous
 62
     7
370
    25
100
AcDbCircle
 10
0.077927333
 20
0.1374835328
 30
0.0
 40
0.0399999756684107
100
AcDbArc
 50
143.1299971186
 51
179.999853225
  0
ARC
  5
1A1
330
1F
100
AcDbEntity
  8
0
  6
Continuous
 62
     7
370
    25
100
AcDbCircle
 10
0.0724771498
 20
0.182483654
 30
0.0
 40
0.0150000398977829
100
AcDbArc
 50
270.0001129017
 51
359.9997888916
  0
LINE
  5
1A2
330
1F
100
AcDbEntity
  8
0
  6
Continuous
 62
     7
370
    25
100
AcDbLine
 10
0.0874771897
 20
0.1824835987
 30
0.0
 11
0.0874772019
 21
0.1882835806
 31
0.0
  0
LINE
  5
1A3
330
1F
100
AcDbEntity
  8
0
  6
Continuous
 62
     7
370
    25
100
AcDbLine
 10
0.0579273922
 20
0.1674835835
 30
0.0
 11
0.0724771794
 21
0.1674836141
 31
0.0
  0
ARC
  5
1A4
330
1F
100
AcDbEntity
  8
0
  6
Continuous
 62
     7
370
    25
100
AcDbCircle
 10
0.1503892438
 20
0.1940769678
 30
0.0
 40
0.0307997594242721
100
AcDbArc
 50
33.929483415
 51
67.3564924438
  0
LINE
  5
1A5
330
1F
100
AcDbEntity
  8
0
  6
Continuous
 62
     7
370
    25
100
AcDbLine
 10
0.0379273354
 20
0.1270836678
 30
0.0
 11
0.0379273573
 21
0.1374836353
 31
0.0
  0
ARC
  5
1A6
330
1F
100
AcDbEntity
  8
0
  6
Continuous
 62
     7
370
    25
100
AcDbCircle
 10
0.0779270254
 20
0.1270835733
 30
0.0
 40
0.0399996900291949
100
AcDbArc
 50
179.9998645534
 51
213.929464255
  0
LINE
  5
1A7
330
1F
100
AcDbEntity
  8
0
  6
Continuous
 62
     7
370
    25
100
AcDbLine
 10
0.1179694885
 20
0.1891219009
 30
0.0
 11
0.1182396475
 21
0.1892119539
 31
0.0
  0
LINE
  5
1A8
330
1F
100
AcDbEntity
  8
0
  6
Continuous
 62
     7
370
    25
100
AcDbLine
 10
0.1179258269
 20
0.1891437317
 30
0.0
 11
0.1179694885
 21
0.1891219009
 31
0.0
  0
LINE
  5
1A9
330
1F
100
AcDbEntity
  8
0
  6
Continuous
 62
     7
370
    25
100
AcDbLine
 10
0.1254738304
 20
0.2038170462
 30
0.0
 11
0.1254111227
 21
0.2040051694
 31
0.0
  0
LINE
  5
1AA
330
1F
100
AcDbEntity
  8
0
  6
Continuous
 62
     7
370
    25
100
AcDbLine
 10
0.1253871816
 20
0.2040171399
 30
0.0
 11
0.1254111227
 21
0.2040051694
 31
0.0
  0
LINE
  5
1AB
330
1F
100
AcDbEntity
  8
0
  6
Continuous
 62
     7
370
    25
100
AcDbLine
 10
0.117547115
 20
0.1876637098
 30
0.0
 11
0.117547115
 21
0.172904278
 31
0.0
  0
LINE
  5
1AC
330
1F
100
AcDbEntity
  8
0
  6
Continuous
 62
     7
370
    25
100
AcDbLine
 10
0.117547115
 20
0.1876637098
 30
0.0
 11
0.117627115
 21
0.1876637098
 31
0.0
  0
LINE
  5
1AD
330
1F
100
AcDbEntity
  8
0
  6
Continuous
 62
     7
370
    25
100
AcDbLine
 10
0.117627115
 20
0.1729043519
 30
0.0
 11
0.117627115
 21
0.1876637098
 31
0.0
  0
LINE
  5
1AE
330
1F
100
AcDbEntity
  8
0
  6
Continuous
 62
     7
370
    25
100
AcDbLine
 10
0.117927115
 20
0.1873637098
 30
0.0
 11
0.117927115
 21
0.1732118237
 31
0.0
  0
LINE
  5
1AF
330
1F
100
AcDbEntity
  8
0
  6
Continuous
 62
     7
370
    25
100
AcDbLine
 10
0.117927115
 20
0.1873637098
 30
0.0
 11
0.117627115
 21
0.1876637098
 31
0.0
  0
LINE
  5
1B0
330
1F
100
AcDbEntity
  8
0
  6
Continuous
 62
     7
370
    25
100
AcDbLine
 10
0.117167115
 20
0.180464005
 30
0.0
 11
0.117167115
 21
0.1839935231
 31
0.0
  0
LINE
  5
1B1
330
1F
100
AcDbEntity
  8
0
  6
Continuous
 62
     7
370
    25
100
AcDbLine
 10
0.117167115
 20
0.1839935231
 30
0.0
 11
0.117547115
 21
0.1839935231
 31
0.0
  0
LINE
  5
1B2
330
1F
100
AcDbEntity
  8
0
  6
Continuous
 62
     7
370
    25
100
AcDbLine
 10
0.117167115
 20
0.180464005
 30
0.0
 11
0.117547115
 21
0.180464005
 31
0.0
  0
LINE
  5
1B3
330
1F
100
AcDbEntity
  8
0
  6
Continuous
 62
     7
370
    25
100
AcDbLine
 10
0.117167115
 20
0.1842403433
 30
0.0
 11
0.117168115
 21
0.1842403433
 31
0.0
  0
LINE
  5
1B4
330
1F
100
AcDbEntity
  8
0
  6
Continuous
 62
     7
370
    25
100
AcDbLine
 10
0.117167115
 20
0.1842403433
 30
0.0
 11
0.117167115
 21
0.1839935231
 31
0.0
  0
LINE
  5
1B5
330
1F
100
AcDbEntity
  8
0
  6
Continuous
 62
     7
370
    25
100
AcDbLine
 10
0.117167115
 20
0.1854554974
 30
0.0
 11
0.117547115
 21
0.1854554974
 31
0.0
  0
LINE
  5
1B6
330
1F
100
AcDbEntity
  8
0
  6
Continuous
 62
     7
370
    25
100
AcDbLine
 10
0.117167115
 20
0.1842403433
 30
0.0
 11
0.117167115
 21
0.1854554974
 31
0.0
  0
LINE
  5
1B7
330
1F
100
AcDbEntity
  8
0
  6
Continuous
 62
     7
370
    25
100
AcDbLine
 10
0.117167115
 20
0.1769344868
 30
0.0
 11
0.117547115
 21
0.1769344868
 31
0.0
  0
LINE
  5
1B8
330
1F
100
AcDbEntity
  8
0
  6
Continuous
 62
     7
370
    25
100
AcDbLine
 10
0.117167115
 20
0.1777937305
 30
0.0
 11
0.117168115
 21
0.1777937305
 31
0.0
  0
LINE
  5
1B9
330
1F
100
AcDbEntity
  8
0
  6
Continuous
 62
     7
370
    25
100
AcDbLine
 10
0.117167115
 20
0.1777937305
 30
0.0
 11
0.117167115
 21
0.1769344868
 31
0.0
  0
LINE
  5
1BA
330
1F
100
AcDbEntity
  8
0
  6
Continuous
 62
     7
370
    25
100
AcDbLine
 10
0.117167115
 20
0.1754725125
 30
0.0
 11
0.117547115
 21
0.1754725125
 31
0.0
  0
LINE
  5
1BB
330
1F
100
AcDbEntity
  8
0
  6
Continuous
 62
     7
370
    25
100
AcDbLine
 10
0.117167115
 20
0.1754725125
 30
0.0
 11
0.117167115
 21
0.1769344868
 31
0.0
  0
LINE
  5
1BC
330
1F
100
AcDbEntity
  8
0
  6
Continuous
 62
     7
370
    25
100
AcDbLine
 10
0.117167115
 20
0.180464005
 30
0.0
 11
0.117167115
 21
0.1777937305
 31
0.0
  0
LINE
  5
1BD
330
1F
100
AcDbEntity
  8
0
  6
Continuous
 62
     7
370
    25
100
AcDbLine
 10
0.117168115
 20
0.1769344868
 30
0.0
 11
0.117547115
 21
0.1769344868
 31
0.0
  0
LINE
  5
1BE
330
1F
100
AcDbEntity
  8
0
  6
Continuous
 62
     7
370
    25
100
AcDbLine
 10
0.117168115
 20
0.180464005
 30
0.0
 11
0.117547115
 21
0.180464005
 31
0.0
  0
LINE
  5
1BF
330
1F
100
AcDbEntity
  8
0
  6
Continuous
 62
     7
370
    25
100
AcDbLine
 10
0.117168115
 20
0.1769344868
 30
0.0
 11
0.117168115
 21
0.180464005
 31
0.0
  0
LINE
  5
1C0
330
1F
100
AcDbEntity
  8
0
  6
Continuous
 62
     7
370
    25
100
AcDbLine
 10
0.117168115
 20
0.1839935231
 30
0.0
 11
0.117547115
 21
0.1839935231
 31
0.0
  0
LINE
  5
1C1
330
1F
100
AcDbEntity
  8
0
  6
Continuous
 62
     7
370
    25
100
AcDbLine
 10
0.117168115
 20
0.1854554974
 30
0.0
 11
0.117547115
 21
0.1854554974
 31
0.0
  0
LINE
  5
1C2
330
1F
100
AcDbEntity
  8
0
  6
Continuous
 62
     7
370
    25
100
AcDbLine
 10
0.117168115
 20
0.1839935231
 30
0.0
 11
0.117168115
 21
0.1854554974
 31
0.0
  0
LINE
  5
1C3
330
1F
100
AcDbEntity
  8
0
  6
Continuous
 62
     7
370
    25
100
AcDbLine
 10
0.117168115
 20
0.1754725125
 30
0.0
 11
0.117547115
 21
0.1754725125
 31
0.0
  0
LINE
  5
1C4
330
1F
100
AcDbEntity
  8
0
  6
Continuous
 62
     7
370
    25
100
AcDbLine
 10
0.1343078061
 20
0.1892122027
 30
0.0
 11
0.1345859476
 21
0.1891194888
 31
0.0
  0
LINE
  5
1C5
330
1F
100
AcDbEntity
  8
0
  6
Continuous
 62
     7
370
    25
100
AcDbLine
 10
0.1345859476
 20
0.1891194888
 30
0.0
 11
0.1346317138
 21
0.1891423719
 31
0.0
  0
LINE
  5
1C6
330
1F
100
AcDbEntity
  8
0
  6
Continuous
 62
     7
370
    25
100
AcDbLine
 10
0.1271443133
 20
0.2040027573
 30
0.0
 11
0.1271659771
 21
0.2040135892
 31
0.0
  0
LINE
  5
1C7
330
1F
100
AcDbEntity
  8
0
  6
Continuous
 62
     7
370
    25
100
AcDbLine
 10
0.1271443133
 20
0.2040027573
 30
0.0
 11
0.1270851933
 21
0.2038253971
 31
0.0
  0
LINE
  5
1C8
330
1F
100
AcDbEntity
  8
0
  6
Continuous
 62
     7
370
    25
100
AcDbLine
 10
0.1342935202
 20
0.1713898376
 30
0.0
 11
0.1342925118
 21
0.1713948431
 31
0.0
  0
LINE
  5
1C9
330
1F
100
AcDbEntity
  8
0
  6
Continuous
 62
     7
370
    25
100
AcDbLine
 10
0.13430613
 20
0.1713272427
 30
0.0
 11
0.1342935202
 21
0.1713898376
 31
0.0
  0
LINE
  5
1CA
330
1F
100
AcDbEntity
  8
0
  6
Continuous
 62
     7
370
    25
100
AcDbLine
 10
0.1342935202
 20
0.1713898376
 30
0.0
 11
0.1343237924
 21
0.171395936
 31
0.0
  0
LINE
  5
1CB
330
1F
100
AcDbEntity
  8
0
  6
Continuous
 62
     7
370
    25
100
AcDbLine
 10
0.1344902928
 20
0.170919433
 30
0.0
 11
0.134393019
 21
0.1714022977
 31
0.0
  0
LINE
  5
1CC
330
1F
100
AcDbEntity
  8
0
  6
Continuous
 62
     7
370
    25
100
AcDbLine
 10
0.134537689
 20
0.1706841595
 30
0.0
 11
0.1344902928
 21
0.170919433
 31
0.0
  0
LINE
  5
1CD
330
1F
100
AcDbEntity
  8
0
  6
Continuous
 62
     7
370
    25
100
AcDbLine
 10
0.1346743952
 20
0.1683851692
 30
0.0
 11
0.1346940013
 21
0.1683891189
 31
0.0
  0
LINE
  5
1CE
330
1F
100
AcDbEntity
  8
0
  6
Continuous
 62
     7
370
    25
100
AcDbLine
 10
0.1346743952
 20
0.1683851692
 30
0.0
 11
0.1342903753
 21
0.1702914345
 31
0.0
  0
LINE
  5
1CF
330
1F
100
AcDbEntity
  8
0
  6
Continuous
 62
     7
370
    25
100
AcDbLine
 10
0.1346922353
 20
0.1682966112
 30
0.0
 11
0.1347118415
 21
0.1683005609
 31
0.0
  0
LINE
  5
1D0
330
1F
100
AcDbEntity
  8
0
  6
Continuous
 62
     7
370
    25
100
AcDbLine
 10
0.1347062899
 20
0.1682268447
 30
0.0
 11
0.1346922353
 21
0.1682966112
 31
0.0
  0
LINE
  5
1D1
330
1F
100
AcDbEntity
  8
0
  6
Continuous
 62
     7
370
    25
100
AcDbLine
 10
0.1346743952
 20
0.1683851692
 30
0.0
 11
0.1346922353
 21
0.1682966112
 31
0.0
  0
LINE
  5
1D2
330
1F
100
AcDbEntity
  8
0
  6
Continuous
 62
     7
370
    25
100
AcDbLine
 10
0.1346173506
 20
0.1698836253
 30
0.0
 11
0.1345977445
 21
0.1698796756
 31
0.0
  0
LINE
  5
1D3
330
1F
100
AcDbEntity
  8
0
  6
Continuous
 62
     7
370
    25
100
AcDbLine
 10
0.1346173506
 20
0.1698836253
 30
0.0
 11
0.1349496997
 21
0.1682338522
 31
0.0
  0
LINE
  5
1D4
330
1F
100
AcDbEntity
  8
0
  6
Continuous
 62
     7
370
    25
100
AcDbLine
 10
0.134587916
 20
0.1700297379
 30
0.0
 11
0.1345683099
 21
0.1700257883
 31
0.0
  0
LINE
  5
1D5
330
1F
100
AcDbEntity
  8
0
  6
Continuous
 62
     7
370
    25
100
AcDbLine
 10
0.1345337852
 20
0.170298442
 30
0.0
 11
0.134587916
 21
0.1700297379
 31
0.0
  0
LINE
  5
1D6
330
1F
100
AcDbEntity
  8
0
  6
Continuous
 62
     7
370
    25
100
AcDbLine
 10
0.1346173506
 20
0.1698836253
 30
0.0
 11
0.134587916
 21
0.1700297379
 31
0.0
  0
LINE
  5
1D7
330
1F
100
AcDbEntity
  8
0
  6
Continuous
 62
     7
370
    25
100
AcDbLine
 10
0.1341100688
 20
0.1712877459
 30
0.0
 11
0.13430613
 21
0.1713272427
 31
0.0
  0
LINE
  5
1D8
330
1F
100
AcDbEntity
  8
0
  6
Continuous
 62
     7
370
    25
100
AcDbLine
 10
0.1343564774
 20
0.1710773193
 30
0.0
 11
0.13430613
 21
0.1713272427
 31
0.0
  0
LINE
  5
1D9
330
1F
100
AcDbEntity
  8
0
  6
Continuous
 62
     7
370
    25
100
AcDbLine
 10
0.1341604162
 20
0.1710378225
 30
0.0
 11
0.1341100688
 21
0.1712877459
 31
0.0
  0
LINE
  5
1DA
330
1F
100
AcDbEntity
  8
0
  6
Continuous
 62
     7
370
    25
100
AcDbLine
 10
0.1355555984
 20
0.1651249115
 30
0.0
 11
0.1343564774
 21
0.1710773193
 31
0.0
  0
LINE
  5
1DB
330
1F
100
AcDbEntity
  8
0
  6
Continuous
 62
     7
370
    25
100
AcDbLine
 10
0.1353595372
 20
0.1650854147
 30
0.0
 11
0.1341604162
 21
0.1710378225
 31
0.0
  0
LINE
  5
1DC
330
1F
100
AcDbEntity
  8
0
  6
Continuous
 62
     7
370
    25
100
AcDbLine
 10
0.1355842446
 20
0.1649827124
 30
0.0
 11
0.1355555984
 21
0.1651249115
 31
0.0
  0
LINE
  5
1DD
330
1F
100
AcDbEntity
  8
0
  6
Continuous
 62
     7
370
    25
100
AcDbLine
 10
0.1353881834
 20
0.1649432156
 30
0.0
 11
0.1353595372
 21
0.1650854147
 31
0.0
  0
CIRCLE
  5
1DE
330
1F
100
AcDbEntity
  8
0
  6
Continuous
 62
     7
370
    25
100
AcDbCircle
 10
0.134277115
 20
0.1722837098
 30
0.0
 40
0.000889
  0
CIRCLE
  5
1DF
330
1F
100
AcDbEntity
  8
0
  6
Continuous
 62
     7
370
    25
100
AcDbCircle
 10
0.134277115
 20
0.1722837098
 30
0.0
 40
0.000885
  0
ARC
  5
1E0
330
1F
100
AcDbEntity
  8
0
  6
Continuous
 62
     7
370
    25
100
AcDbCircle
 10
0.134277115
 20
0.1882837098
 30
0.0
 40
0.000989
100
AcDbArc
 50
180.0
 51
250.0775331351
  0
LINE
  5
1E1
330
1F
100
AcDbEntity
  8
0
  6
Continuous
 62
     7
370
    25
100
AcDbLine
 10
0.134614115
 20
0.1872947098
 30
0.0
 11
0.134866115
 21
0.1872947098
 31
0.0
  0
ARC
  5
1E2
330
1F
100
AcDbEntity
  8
0
  6
Continuous
 62
     7
370
    25
100
AcDbCircle
 10
0.134866115
 20
0.1869947098
 30
0.0
 40
0.0003
100
AcDbArc
 50
0.0
 51
90.0
  0
LINE
  5
1E3
330
1F
100
AcDbEntity
  8
0
  6
Continuous
 62
     7
370
    25
100
AcDbLine
 10
0.135166115
 20
0.1735727098
 30
0.0
 11
0.135166115
 21
0.1869947098
 31
0.0
  0
ARC
  5
1E4
330
1F
100
AcDbEntity
  8
0
  6
Continuous
 62
     7
370
    25
100
AcDbCircle
 10
0.134866115
 20
0.1735727098
 30
0.0
 40
0.0003
100
AcDbArc
 50
270.0
 51
0.0
  0
LINE
  5
1E5
330
1F
100
AcDbEntity
  8
0
  6
Continuous
 62
     7
370
    25
100
AcDbLine
 10
0.134614115
 20
0.1732727098
 30
0.0
 11
0.134866115
 21
0.1732727098
 31
0.0
  0
ARC
  5
1E6
330
1F
100
AcDbEntity
  8
0
  6
Continuous
 62
     7
370
    25
100
AcDbCircle
 10
0.134277115
 20
0.1722837098
 30
0.0
 40
0.000989
100
AcDbArc
 50
109.9224668649
 51
180.0
  0
LINE
  5
1E7
330
1F
100
AcDbEntity
  8
0
  6
Continuous
 62
     7
370
    25
100
AcDbLine
 10
0.119566115
 20
0.1713947098
 30
0.0
 11
0.132988115
 21
0.1713947098
 31
0.0
  0
ARC
  5
1E8
330
1F
100
AcDbEntity
  8
0
  6
Continuous
 62
     7
370
    25
100
AcDbCircle
 10
0.119566115
 20
0.1716947098
 30
0.0
 40
0.0003
100
AcDbArc
 50
180.0
 51
270.0
  0
LINE
  5
1E9
330
1F
100
AcDbEntity
  8
0
  6
Continuous
 62
     7
370
    25
100
AcDbLine
 10
0.119266115
 20
0.1722837098
 30
0.0
 11
0.119266115
 21
0.1716947098
 31
0.0
  0
ARC
  5
1EA
330
1F
100
AcDbEntity
  8
0
  6
Continuous
 62
     7
370
    25
100
AcDbCircle
 10
0.118277115
 20
0.1722837098
 30
0.0
 40
0.000989
100
AcDbArc
 50
0.0
 51
69.2743968055
  0
ARC
  5
1EB
330
1F
100
AcDbEntity
  8
0
  6
Continuous
 62
     7
370
    25
100
AcDbCircle
 10
0.117688115
 20
0.1735727098
 30
0.0
 40
0.0003
100
AcDbArc
 50
180.0
 51
241.6410218122
  0
LINE
  5
1EC
330
1F
100
AcDbEntity
  8
0
  6
Continuous
 62
     7
370
    25
100
AcDbLine
 10
0.117388115
 20
0.1735727098
 30
0.0
 11
0.117388115
 21
0.1754725125
 31
0.0
  0
LINE
  5
1ED
330
1F
100
AcDbEntity
  8
0
  6
Continuous
 62
     7
370
    25
100
AcDbLine
 10
0.117388115
 20
0.1854554974
 30
0.0
 11
0.117388115
 21
0.1869947098
 31
0.0
  0
ARC
  5
1EE
330
1F
100
AcDbEntity
  8
0
  6
Continuous
 62
     7
370
    25
100
AcDbCircle
 10
0.117688115
 20
0.1869947098
 30
0.0
 40
0.0003
100
AcDbArc
 50
118.3589781878
 51
180.0
  0
ARC
  5
1EF
330
1F
100
AcDbEntity
  8
0
  6
Continuous
 62
     7
370
    25
100
AcDbCircle
 10
0.118277115
 20
0.1882837098
 30
0.0
 40
0.000989
100
AcDbArc
 50
290.7256031945
 51
0.0
  0
LINE
  5
1F0
330
1F
100
AcDbEntity
  8
0
  6
Continuous
 62
     7
370
    25
100
AcDbLine
 10
0.119266115
 20
0.1882837098
 30
0.0
 11
0.133288115
 21
0.1882837098
 31
0.0
  0
LINE
  5
1F1
330
1F
100
AcDbEntity
  8
0
  6
Continuous
 62
     7
370
    25
100
AcDbLine
 10
0.133288115
 20
0.1722837098
 30
0.0
 11
0.133288115
 21
0.1716947098
 31
0.0
  0
ARC
  5
1F2
330
1F
100
AcDbEntity
  8
0
  6
Continuous
 62
     7
370
    25
100
AcDbCircle
 10
0.132988115
 20
0.1716947098
 30
0.0
 40
0.0003
100
AcDbArc
 50
270.0
 51
0.0000000006
  0
LINE
  5
1F3
330
1F
100
AcDbEntity
  8
0
  6
Continuous
 62
     7
370
    25
100
AcDbLine
 10
0.119206115
 20
0.1882837098
 30
0.0
 11
0.133348115
 21
0.1882837098
 31
0.0
  0
ARC
  5
1F4
330
1F
100
AcDbEntity
  8
0
  6
Continuous
 62
     7
370
    25
100
AcDbCircle
 10
0.118277115
 20
0.1882837098
 30
0.0
 40
0.0009290000000005
100
AcDbArc
 50
84.7044755764
 51
113.5859355945
  0
ARC
  5
1F5
330
1F
100
AcDbEntity
  8
0
  6
Continuous
 62
     7
370
    25
100
AcDbCircle
 10
0.118277115
 20
0.1882837098
 30
0.0
 40
0.0009290000000005
100
AcDbArc
 50
0.0
 51
42.165422069
  0
ARC
  5
1F6
330
1F
100
AcDbEntity
  8
0
  6
Continuous
 62
     7
370
    25
100
AcDbCircle
 10
0.1178653873
 20
0.1892267481
 30
0.0
 40
0.0001
100
AcDbArc
 50
153.4349488229
 51
293.5859355945
  0
ARC
  5
1F7
330
1F
100
AcDbEntity
  8
0
  6
Continuous
 62
     7
370
    25
100
AcDbCircle
 10
0.1252756477
 20
0.2040472689
 30
0.0
 40
0.0001
100
AcDbArc
 50
13.283962051
 51
153.4349488229
  0
ARC
  5
1F8
330
1F
100
AcDbEntity
  8
0
  6
Continuous
 62
     7
370
    25
100
AcDbCircle
 10
0.126277115
 20
0.2042837098
 30
0.0
 40
0.000929
100
AcDbArc
 50
317.8345779308
 51
346.716037949
  0
ARC
  5
1F9
330
1F
100
AcDbEntity
  8
0
  6
Continuous
 62
     7
370
    25
100
AcDbCircle
 10
0.126277115
 20
0.2042837098
 30
0.0
 40
0.000929
100
AcDbArc
 50
264.7044755766
 51
275.2955244234
  0
ARC
  5
1FA
330
1F
100
AcDbEntity
  8
0
  6
Continuous
 62
     7
370
    25
100
AcDbCircle
 10
0.126277115
 20
0.2042837098
 30
0.0
 40
0.000929
100
AcDbArc
 50
193.283962051
 51
222.1654220692
  0
ARC
  5
1FB
330
1F
100
AcDbEntity
  8
0
  6
Continuous
 62
     7
370
    25
100
AcDbCircle
 10
0.1272785823
 20
0.2040472689
 30
0.0
 40
0.0001
100
AcDbArc
 50
26.5650511771
 51
166.716037949
  0
LINE
  5
1FC
330
1F
100
AcDbEntity
  8
0
  6
Continuous
 62
     7
370
    25
100
AcDbLine
 10
0.1347782854
 20
0.1892714695
 30
0.0
 11
0.127368025
 21
0.2040919903
 31
0.0
  0
ARC
  5
1FD
330
1F
100
AcDbEntity
  8
0
  6
Continuous
 62
     7
370
    25
100
AcDbCircle
 10
0.1346888427
 20
0.1892267481
 30
0.0
 40
0.0001
100
AcDbArc
 50
246.4140644055
 51
26.5650511771
  0
ARC
  5
1FE
330
1F
100
AcDbEntity
  8
0
  6
Continuous
 62
     7
370
    25
100
AcDbCircle
 10
0.134277115
 20
0.1882837098
 30
0.0
 40
0.000929
100
AcDbArc
 50
137.8345779309
 51
180.0
  0
ARC
  5
1FF
330
1F
100
AcDbEntity
  8
0
  6
Continuous
 62
     7
370
    25
100
AcDbCircle
 10
0.134277115
 20
0.1882837098
 30
0.0
 40
0.000929
100
AcDbArc
 50
66.4140644055
 51
95.2955244234
  0
LINE
  5
200
330
1F
100
AcDbEntity
  8
0
  6
Continuous
 62
     7
370
    25
100
AcDbLine
 10
0.125186205
 20
0.2040919903
 30
0.0
 11
0.1177759446
 21
0.1892714695
 31
0.0
  0
ARC
  5
201
330
1F
100
AcDbEntity
  8
0
  6
Continuous
 62
     7
370
    25
100
AcDbCircle
 10
0.1240140234
 20
0.1609172058
 30
0.0
 40
0.0007958764410422
100
AcDbArc
 50
130.5185931122
 51
149.2233987446
  0
ARC
  5
202
330
1F
100
AcDbEntity
  8
0
  6
Continuous
 62
     7
370
    25
100
AcDbCircle
 10
0.1230200657
 20
0.1610989828
 30
0.0
 40
0.0006376137124528
100
AcDbArc
 50
41.5899073097
 51
60.4687617989
  0
ARC
  5
203
330
1F
100
AcDbEntity
  8
0
  6
Continuous
 62
     7
370
    25
100
AcDbCircle
 10
0.1239923939
 20
0.1610758338
 30
0.0
 40
0.0006668846519807
100
AcDbArc
 50
119.9446739985
 51
137.981434418
  0
ARC
  5
204
330
1F
100
AcDbEntity
  8
0
  6
Continuous
 62
     7
370
    25
100
AcDbCircle
 10
0.1229219936
 20
0.1608699585
 30
0.0
 40
0.0008694973214714
100
AcDbArc
 50
31.5880646208
 51
48.6049048941
  0
ARC
  5
205
330
1F
100
AcDbEntity
  8
0
  6
Continuous
 62
     7
370
    25
100
AcDbCircle
 10
0.129581361
 20
0.160912591
 30
0.0
 40
0.0008040204601174
100
AcDbArc
 50
130.6911747845
 51
149.1072220696
  0
ARC
  5
206
330
1F
100
AcDbEntity
  8
0
  6
Continuous
 62
     7
370
    25
100
AcDbCircle
 10
0.1285192215
 20
0.1610226721
 30
0.0
 40
0.0007341166069957
100
AcDbArc
 50
42.8815383729
 51
59.2170013917
  0
ARC
  5
207
330
1F
100
AcDbEntity
  8
0
  6
Continuous
 62
     7
370
    25
100
AcDbCircle
 10
0.1294762208
 20
0.1611697206
 30
0.0
 40
0.0005476107579485
100
AcDbArc
 50
117.9714453627
 51
139.9304140094
  0
ARC
  5
208
330
1F
100
AcDbEntity
  8
0
  6
Continuous
 62
     7
370
    25
100
AcDbCircle
 10
0.1285329493
 20
0.1609125879
 30
0.0
 40
0.0008040219120793
100
AcDbArc
 50
30.8929772843
 51
49.3090456435
  0
ARC
  5
209
330
1F
100
AcDbEntity
  8
0
  6
Continuous
 62
     7
370
    25
100
AcDbCircle
 10
0.1240141046
 20
0.1661210109
 30
0.0
 40
0.0007958764409865
100
AcDbArc
 50
130.5185931116
 51
149.2233987452
  0
ARC
  5
20A
330
1F
100
AcDbEntity
  8
0
  6
Continuous
 62
     7
370
    25
100
AcDbCircle
 10
0.1230201469
 20
0.1663027879
 30
0.0
 40
0.0006376137125002
100
AcDbArc
 50
41.5899073104
 51
60.4687617982
  0
ARC
  5
20B
330
1F
100
AcDbEntity
  8
0
  6
Continuous
 62
     7
370
    25
100
AcDbCircle
 10
0.129581342
 20
0.1661163961
 30
0.0
 40
0.0008040204600693
100
AcDbArc
 50
130.6911747839
 51
149.1072220702
  0
ARC
  5
20C
330
1F
100
AcDbEntity
  8
0
  6
Continuous
 62
     7
370
    25
100
AcDbCircle
 10
0.1285192019
 20
0.1662264763
 30
0.0
 40
0.0007341176639235
100
AcDbArc
 50
42.8815502125
 51
59.2169895521
  0
ARC
  5
20D
330
1F
100
AcDbEntity
  8
0
  6
Continuous
 62
     7
370
    25
100
AcDbCircle
 10
0.123992475
 20
0.1662796389
 30
0.0
 40
0.0006668846520423
100
AcDbArc
 50
119.9446739994
 51
137.9814344172
  0
ARC
  5
20E
330
1F
100
AcDbEntity
  8
0
  6
Continuous
 62
     7
370
    25
100
AcDbCircle
 10
0.1229220747
 20
0.1660737636
 30
0.0
 40
0.000869497321396
100
AcDbArc
 50
31.58806462
 51
48.6049048949
  0
ARC
  5
20F
330
1F
100
AcDbEntity
  8
0
  6
Continuous
 62
     7
370
    25
100
AcDbCircle
 10
0.1294762018
 20
0.1663735257
 30
0.0
 40
0.0005476107579858
100
AcDbArc
 50
117.9714453635
 51
139.9304140086
  0
ARC
  5
210
330
1F
100
AcDbEntity
  8
0
  6
Continuous
 62
     7
370
    25
100
AcDbCircle
 10
0.1285329303
 20
0.166116393
 30
0.0
 40
0.0008040219120339
100
AcDbArc
 50
30.8929772838
 51
49.3090456441
  0
ARC
  5
211
330
1F
100
AcDbEntity
  8
0
  6
Continuous
 62
     7
370
    25
100
AcDbCircle
 10
0.1286353209
 20
0.1559893952
 30
0.0
 40
0.0005501676551588
100
AcDbArc
 50
39.9352180893
 51
61.8421938555
  0
ARC
  5
212
330
1F
100
AcDbEntity
  8
0
  6
Continuous
 62
     7
370
    25
100
AcDbCircle
 10
0.1295908778
 20
0.1558446365
 30
0.0
 40
0.0007299093445351
100
AcDbArc
 50
120.5942581546
 51
136.9864853677
  0
ELLIPSE
  5
213
330
1F
100
AcDbEntity
  8
0
  6
Continuous
 62
     7
370
    25
100
AcDbEllipse
 10
0.1290571733
 20
0.156307847
 30
0.0
 11
1.464294602238070E-9
 21
0.0008045899375292709
 31
0.0
210
0.0
220
0.0
230
1.0
 40
0.2075591456
 41
1.778918042597996
 42
4.502348371029218
  0
ARC
  5
214
330
1F
100
AcDbEntity
  8
0
  6
Continuous
 62
     7
370
    25
100
AcDbCircle
 10
0.1230167613
 20
0.1559442701
 30
0.0
 40
0.0006405288030208
100
AcDbArc
 50
41.4490468716
 51
60.2872681046
  0
ARC
  5
215
330
1F
100
AcDbEntity
  8
0
  6
Continuous
 62
     7
370
    25
100
AcDbCircle
 10
0.1239923204
 20
0.155918579
 30
0.0
 40
0.0006691018323155
100
AcDbArc
 50
119.8348168869
 51
137.772015379
  0
ELLIPSE
  5
216
330
1F
100
AcDbEntity
  8
0
  6
Continuous
 62
     7
370
    25
100
AcDbEllipse
 10
0.1234968662
 20
0.1563335581
 30
0.0
 11
-6.245004624538808E-9
 21
0.0008058254696888256
 31
0.0
210
0.0
220
0.0
230
1.0
 40
0.2072409053
 41
1.778592139121977
 42
4.50267312874952
  0
LINE
  5
217
330
1F
100
AcDbEntity
  8
0
  6
Continuous
 62
     7
370
    25
100
AcDbLine
 10
0.1183295299
 20
0.1891711632
 30
0.0
 11
0.1183489138
 21
0.1892099311
 31
0.0
  0
LINE
  5
218
330
1F
100
AcDbEntity
  8
0
  6
Continuous
 62
     7
370
    25
100
AcDbLine
 10
0.1255792172
 20
0.203670538
 30
0.0
 11
0.1255986011
 21
0.2037093058
 31
0.0
  0
LINE
  5
219
330
1F
100
AcDbEntity
  8
0
  6
Continuous
 62
     7
370
    25
100
AcDbLine
 10
0.1189556289
 20
0.1888581137
 30
0.0
 11
0.1189750128
 21
0.1888968816
 31
0.0
  0
LINE
  5
21A
330
1F
100
AcDbEntity
  8
0
  6
Continuous
 62
     7
370
    25
100
AcDbLine
 10
0.1262053162
 20
0.2033574884
 30
0.0
 11
0.1262247002
 21
0.2033962563
 31
0.0
  0
CIRCLE
  5
21B
330
1F
100
AcDbEntity
  8
0
  6
Continuous
 62
     7
370
    25
100
AcDbCircle
 10
0.126277115
 20
0.2042837098
 30
0.0
 40
0.000889
  0
CIRCLE
  5
21C
330
1F
100
AcDbEntity
  8
0
  6
Continuous
 62
     7
370
    25
100
AcDbCircle
 10
0.126277115
 20
0.2042837098
 30
0.0
 40
0.000849
  0
LINE
  5
21D
330
1F
100
AcDbEntity
  8
0
  6
Continuous
 62
     7
370
    25
100
AcDbLine
 10
0.1269556289
 20
0.2037093058
 30
0.0
 11
0.1269750128
 21
0.203670538
 31
0.0
  0
LINE
  5
21E
330
1F
100
AcDbEntity
  8
0
  6
Continuous
 62
     7
370
    25
100
AcDbLine
 10
0.1342053162
 20
0.1892099311
 30
0.0
 11
0.1342247002
 21
0.1891711632
 31
0.0
  0
LINE
  5
21F
330
1F
100
AcDbEntity
  8
0
  6
Continuous
 62
     7
370
    25
100
AcDbLine
 10
0.1263295299
 20
0.2033962563
 30
0.0
 11
0.1263489138
 21
0.2033574884
 31
0.0
  0
LINE
  5
220
330
1F
100
AcDbEntity
  8
0
  6
Continuous
 62
     7
370
    25
100
AcDbLine
 10
0.1335792172
 20
0.1888968816
 30
0.0
 11
0.1335986011
 21
0.1888581137
 31
0.0
  0
ELLIPSE
  5
221
330
1F
100
AcDbEntity
  8
0
  6
Continuous
 62
     7
370
    25
100
AcDbEllipse
 10
0.147566551
 20
0.1806928578
 30
0.0
 11
0.0001461406228017159
 21
-0.0001461406228017159
 31
0.0
210
0.0
220
0.0
230
1.0
 40
0.5530309289
 41
0.5051672410753589
 42
1.065629085719463
  0
ELLIPSE
  5
222
330
1F
100
AcDbEntity
  8
0
  6
Continuous
 62
     7
370
    25
100
AcDbEllipse
 10
0.147566551
 20
0.1806928578
 30
0.0
 11
0.0001461406228017159
 21
0.0001461406228016881
 31
0.0
210
0.0
220
0.0
230
1.0
 40
0.5530309289
 41
3.646759894665277
 42
5.217556221460256
  0
ELLIPSE
  5
223
330
1F
100
AcDbEntity
  8
0
  6
Continuous
 62
     7
370
    25
100
AcDbEllipse
 10
0.147566551
 20
0.1806928578
 30
0.0
 11
0.0001461406228017159
 21
-0.0001461406228017159
 31
0.0
210
0.0
220
0.0
230
1.0
 40
0.5530309289
 41
1.065629085719463
 42
2.636425412514434
  0
ELLIPSE
  5
224
330
1F
100
AcDbEntity
  8
0
  6
Continuous
 62
     7
370
    25
100
AcDbEllipse
 10
0.147566551
 20
0.1806928578
 30
0.0
 11
0.0001461406228017159
 21
0.0001461406228016881
 31
0.0
210
0.0
220
0.0
230
1.0
 40
0.5530309289
 41
5.217556221460256
 42
5.778018066104432
  0
ELLIPSE
  5
225
330
1F
100
AcDbEntity
  8
0
  6
Continuous
 62
     7
370
    25
100
AcDbEllipse
 10
0.1449086638
 20
0.1694128578
 30
0.0
 11
-0.0001279102510149399
 21
0.000206340758738488
 31
0.0
210
0.0
220
0.0
230
1.0
 40
0.5203449596
 41
4.400364771406079
 42
5.584875034007288
  0
ELLIPSE
  5
226
330
1F
100
AcDbEntity
  8
0
  6
Continuous
 62
     7
370
    25
100
AcDbEllipse
 10
0.1449086638
 20
0.1694128578
 30
0.0
 11
0.0001589362575090958
 21
9.852428922743627E-5
 31
0.0
210
0.0
220
0.0
230
1.0
 40
0.5203449596
 41
5.410699253557081
 42
5.971161098201176
  0
ELLIPSE
  5
227
330
1F
100
AcDbEntity
  8
0
  6
Continuous
 62
     7
370
    25
100
AcDbEllipse
 10
0.1422507766
 20
0.1906528578
 30
0.0
 11
0.0001589362575090958
 21
-9.852428922746405E-5
 31
0.0
210
0.0
220
0.0
230
1.0
 40
0.5203449596
 41
0.312024208978685
 42
0.8724860536226979
  0
ELLIPSE
  5
228
330
1F
100
AcDbEntity
  8
0
  6
Continuous
 62
     7
370
    25
100
AcDbEllipse
 10
0.1422507766
 20
0.1906528578
 30
0.0
 11
0.0001279102510149399
 21
0.000206340758738488
 31
0.0
210
0.0
220
0.0
230
1.0
 40
0.5203449596
 41
3.839902926762403
 42
5.024413189363264
  0
ARC
  5
229
330
1F
100
AcDbEntity
  8
0
  6
Continuous
 62
     7
370
    25
100
AcDbCircle
 10
0.1501089327
 20
0.1806929202
 30
0.0
 40
0.0001730063886858
100
AcDbArc
 50
289.11633724
 51
70.4279799235
  0
CIRCLE
  5
22A
330
1F
100
AcDbEntity
  8
0
  6
Continuous
 62
     7
370
    25
100
AcDbCircle
 10
0.118277115
 20
0.1722837098
 30
0.0
 40
0.000889
  0
CIRCLE
  5
22B
330
1F
100
AcDbEntity
  8
0
  6
Continuous
 62
     7
370
    25
100
AcDbCircle
 10
0.118277115
 20
0.1882837098
 30
0.0
 40
0.000889
  0
CIRCLE
  5
22C
330
1F
100
AcDbEntity
  8
0
  6
Continuous
 62
     7
370
    25
100
AcDbCircle
 10
0.134277115
 20
0.1882837098
 30
0.0
 40
0.000889
  0
LINE
  5
22D
330
1F
100
AcDbEntity
  8
0
  6
Continuous
 62
     7
370
    25
100
AcDbLine
 10
0.1190943182
 20
0.1726337098
 30
0.0
 11
0.1192021128
 21
0.1726337098
 31
0.0
  0
LINE
  5
22E
330
1F
100
AcDbEntity
  8
0
  6
Continuous
 62
     7
370
    25
100
AcDbLine
 10
0.1333521172
 20
0.1726337098
 30
0.0
 11
0.1334599119
 21
0.1726337098
 31
0.0
  0
LINE
  5
22F
330
1F
100
AcDbEntity
  8
0
  6
Continuous
 62
     7
370
    25
100
AcDbLine
 10
0.1190943182
 20
0.1719337098
 30
0.0
 11
0.119266115
 21
0.1719337098
 31
0.0
  0
LINE
  5
230
330
1F
100
AcDbEntity
  8
0
  6
Continuous
 62
     7
370
    25
100
AcDbLine
 10
0.133288115
 20
0.1719337098
 30
0.0
 11
0.1334599119
 21
0.1719337098
 31
0.0
  0
LINE
  5
231
330
1F
100
AcDbEntity
  8
0
  6
Continuous
 62
     7
370
    25
100
AcDbLine
 10
0.134627115
 20
0.1731009129
 30
0.0
 11
0.134627115
 21
0.1732727098
 31
0.0
  0
LINE
  5
232
330
1F
100
AcDbEntity
  8
0
  6
Continuous
 62
     7
370
    25
100
AcDbLine
 10
0.134627115
 20
0.1872947098
 30
0.0
 11
0.134627115
 21
0.1874665066
 31
0.0
  0
LINE
  5
233
330
1F
100
AcDbEntity
  8
0
  6
Continuous
 62
     7
370
    25
100
AcDbLine
 10
0.133927115
 20
0.1731009129
 30
0.0
 11
0.133927115
 21
0.1732087076
 31
0.0
  0
LINE
  5
234
330
1F
100
AcDbEntity
  8
0
  6
Continuous
 62
     7
370
    25
100
AcDbLine
 10
0.133927115
 20
0.1873587119
 30
0.0
 11
0.133927115
 21
0.1874665066
 31
0.0
  0
LINE
  5
235
330
1F
100
AcDbEntity
  8
0
  6
Continuous
 62
     7
370
    25
100
AcDbLine
 10
0.1334599119
 20
0.1886337098
 30
0.0
 11
0.1334165681
 21
0.1886337098
 31
0.0
  0
LINE
  5
236
330
1F
100
AcDbEntity
  8
0
  6
Continuous
 62
     7
370
    25
100
AcDbLine
 10
0.1191376619
 20
0.1886337098
 30
0.0
 11
0.1190943182
 21
0.1886337098
 31
0.0
  0
LINE
  5
237
330
1F
100
AcDbEntity
  8
0
  6
Continuous
 62
     7
370
    25
100
AcDbLine
 10
0.1334599119
 20
0.1879337098
 30
0.0
 11
0.1333521172
 21
0.1879337098
 31
0.0
  0
LINE
  5
238
330
1F
100
AcDbEntity
  8
0
  6
Continuous
 62
     7
370
    25
100
AcDbLine
 10
0.1192021128
 20
0.1879337098
 30
0.0
 11
0.1190943182
 21
0.1879337098
 31
0.0
  0
CIRCLE
  5
239
330
1F
100
AcDbEntity
  8
0
  6
Continuous
 62
     7
370
    25
100
AcDbCircle
 10
0.1182771709
 20
0.1722837122
 30
0.0
 40
0.0008849975611389
  0
CIRCLE
  5
23A
330
1F
100
AcDbEntity
  8
0
  6
Continuous
 62
     7
370
    25
100
AcDbCircle
 10
0.1182771709
 20
0.1882837122
 30
0.0
 40
0.0008849975611391
  0
CIRCLE
  5
23B
330
1F
100
AcDbEntity
  8
0
  6
Continuous
 62
     7
370
    25
100
AcDbCircle
 10
0.1342771709
 20
0.1882837122
 30
0.0
 40
0.000884997561139
  0
ARC
  5
23C
330
1F
100
AcDbEntity
  8
0
  6
Continuous
 62
     7
370
    25
100
AcDbCircle
 10
0.1222809394
 20
0.1169008523
 30
0.0
 40
0.0045887222728573
100
AcDbArc
 50
63.4815137354
 51
106.2262809554
  0
LWPOLYLINE
  5
23D
330
1F
100
AcDbEntity
  8
0
  6
Continuous
 62
     7
370
    25
100
AcDbPolyline
 90
       42
 70
   128
 43
0.0
 10
0.1251944962
 20
0.1198656626
 10
0.1251951015
 20
0.1198338881
 10
0.1251917085
 20
0.1197521617
 10
0.1251811947
 20
0.1196706314
 10
0.1251635859
 20
0.1195894975
 10
0.1251389255
 20
0.1195089597
 10
0.125107274
 20
0.1194292158
 10
0.1250687093
 20
0.1193504618
 10
0.1250233262
 20
0.1192728915
 10
0.1249712362
 20
0.1191966954
 10
0.1249125674
 20
0.1191220609
 10
0.1248474641
 20
0.1190491714
 10
0.1247760862
 20
0.1189782062
 10
0.1246986093
 20
0.1189093398
 10
0.1246152237
 20
0.1188427413
 10
0.1245261346
 20
0.1187785745
 10
0.1244315608
 20
0.1187169973
 10
0.124331735
 20
0.1186581608
 10
0.1242269024
 20
0.1186022099
 10
0.1241173209
 20
0.1185492819
 10
0.1240032597
 20
0.1184995071
 10
0.1238849994
 20
0.1184530079
 10
0.1237628306
 20
0.1184098984
 10
0.1236370536
 20
0.1183702847
 10
0.1235079777
 20
0.1183342642
 10
0.1233759201
 20
0.1183019254
 10
0.1232412056
 20
0.1182733479
 10
0.1231041652
 20
0.1182486018
 10
0.1229651359
 20
0.118227748
 10
0.1228244594
 20
0.1182108378
 10
0.1226824816
 20
0.1181979128
 10
0.1225395515
 20
0.1181890047
 10
0.1223960204
 20
0.1181841354
 10
0.1222522413
 20
0.1181833168
 10
0.1221085676
 20
0.1181865511
 10
0.1219653524
 20
0.1181938303
 10
0.1218229478
 20
0.1182051364
 10
0.121681704
 20
0.1182204416
 10
0.1215419681
 20
0.1182397084
 10
0.1214040836
 20
0.1182628894
 10
0.1212683896
 20
0.1182899276
 10
0.1211352196
 20
0.1183207564
  0
LINE
  5
23E
330
1F
100
AcDbEntity
  8
0
  6
Continuous
 62
     7
370
    25
100
AcDbLine
 10
0.117927115
 20
0.108843581
 30
0.0
 11
0.1189628902
 21
0.108843581
 31
0.0
  0
LINE
  5
23F
330
1F
100
AcDbEntity
  8
0
  6
Continuous
 62
     7
370
    25
100
AcDbLine
 10
0.117927115
 20
0.1212935918
 30
0.0
 11
0.117927115
 21
0.108843581
 31
0.0
  0
LINE
  5
240
330
1F
100
AcDbEntity
  8
0
  6
Continuous
 62
     7
370
    25
100
AcDbLine
 10
0.1209003582
 20
0.1212935918
 30
0.0
 11
0.117927115
 21
0.1212935918
 31
0.0
  0
ARC
  5
241
330
1F
100
AcDbEntity
  8
0
  6
Continuous
 62
     7
370
    25
100
AcDbCircle
 10
0.120901773
 20
0.1216561865
 30
0.0
 40
0.0003625974182624
100
AcDbArc
 50
269.7764451618
 51
285.5053648614
  0
ARC
  5
242
330
1F
100
AcDbEntity
  8
0
  6
Continuous
 62
     7
370
    25
100
AcDbCircle
 10
0.1210365491
 20
0.1181148003
 30
0.0
 40
0.000228372036264
100
AcDbArc
 50
64.4016161678
 51
156.430780217
  0
LINE
  5
243
330
1F
100
AcDbEntity
  8
0
  6
Continuous
 62
     7
370
    25
100
AcDbLine
 10
0.1208272284
 20
0.1093816852
 30
0.0
 11
0.1208272284
 21
0.1182061164
 31
0.0
  0
LINE
  5
244
330
1F
100
AcDbEntity
  8
0
  6
Continuous
 62
     7
370
    25
100
AcDbLine
 10
0.134627115
 20
0.1212935918
 30
0.0
 11
0.1332496301
 21
0.1212935918
 31
0.0
  0
LINE
  5
245
330
1F
100
AcDbEntity
  8
0
  6
Continuous
 62
     7
370
    25
100
AcDbLine
 10
0.1316538718
 20
0.108843581
 30
0.0
 11
0.134627115
 21
0.108843581
 31
0.0
  0
ARC
  5
246
330
1F
100
AcDbEntity
  8
0
  6
Continuous
 62
     7
370
    25
100
AcDbCircle
 10
0.131652457
 20
0.1084809863
 30
0.0
 40
0.0003625974182617
100
AcDbArc
 50
89.7764451618
 51
105.5053648615
  0
ARC
  5
247
330
1F
100
AcDbEntity
  8
0
  6
Continuous
 62
     7
370
    25
100
AcDbCircle
 10
0.1302757245
 20
0.1131991663
 30
0.0
 40
0.0045523750640365
100
AcDbArc
 50
242.1754773237
 51
286.3275358128
  0
ARC
  5
248
330
1F
100
AcDbEntity
  8
0
  6
Continuous
 62
     7
370
    25
100
AcDbCircle
 10
0.1283504326
 20
0.1103100196
 30
0.0
 40
0.0009913175739988
100
AcDbArc
 50
180.2755383263
 51
205.7281045155
  0
LWPOLYLINE
  5
249
330
1F
100
AcDbEntity
  8
0
  6
Continuous
 62
     7
370
    25
100
AcDbPolyline
 90
       39
 70
   128
 43
0.0
 10
0.1273814812
 20
0.1105095797
 10
0.1273906441
 20
0.1105476753
 10
0.1274153046
 20
0.1106282131
 10
0.127446956
 20
0.110707957
 10
0.1274855207
 20
0.110786711
 10
0.1275309038
 20
0.1108642814
 10
0.1275829938
 20
0.1109404774
 10
0.1276416626
 20
0.1110151119
 10
0.1277067659
 20
0.1110880014
 10
0.1277781438
 20
0.1111589666
 10
0.1278556208
 20
0.111227833
 10
0.1279390063
 20
0.1112944315
 10
0.1280280955
 20
0.1113585983
 10
0.1281226692
 20
0.1114201755
 10
0.128222495
 20
0.111479012
 10
0.1283273276
 20
0.1115349629
 10
0.1284369091
 20
0.1115878909
 10
0.1285509703
 20
0.1116376657
 10
0.1286692306
 20
0.111684165
 10
0.1287913994
 20
0.1117272744
 10
0.1289171764
 20
0.1117668881
 10
0.1290462523
 20
0.1118029086
 10
0.1291783099
 20
0.1118352474
 10
0.1293130245
 20
0.1118638249
 10
0.1294500648
 20
0.111888571
 10
0.1295890942
 20
0.1119094248
 10
0.1297297706
 20
0.111926335
 10
0.1298717484
 20
0.11193926
 10
0.1300146785
 20
0.1119481681
 10
0.1301582096
 20
0.1119530375
 10
0.1303019887
 20
0.111953856
 10
0.1304456625
 20
0.1119506217
 10
0.1305888776
 20
0.1119433425
 10
0.1307312822
 20
0.1119320364
 10
0.130872526
 20
0.1119167312
 10
0.1310122619
 20
0.1118974644
 10
0.1311501464
 20
0.1118742834
 10
0.1312858404
 20
0.1118472452
 10
0.1314190105
 20
0.1118164164
  0
ARC
  5
24A
330
1F
100
AcDbEntity
  8
0
  6
Continuous
 62
     7
370
    25
100
AcDbCircle
 10
0.131517681
 20
0.1120223725
 30
0.0
 40
0.000228372036264
100
AcDbArc
 50
244.4016161678
 51
336.430780217
  0
LINE
  5
24B
330
1F
100
AcDbEntity
  8
0
  6
Continuous
 62
     7
370
    25
100
AcDbLine
 10
0.1317270017
 20
0.119992265
 30
0.0
 11
0.1317270017
 21
0.1162518395
 31
0.0
  0
LINE
  5
24C
330
1F
100
AcDbEntity
  8
0
  6
Continuous
 62
     7
370
    25
100
AcDbLine
 10
0.1317270017
 20
0.1149192019
 30
0.0
 11
0.1317270017
 21
0.1119310564
 31
0.0
  0
LINE
  5
24D
330
1F
100
AcDbEntity
  8
0
  6
Continuous
 62
     7
370
    25
100
AcDbLine
 10
0.134627115
 20
0.108843581
 30
0.0
 11
0.134627115
 21
0.1212935918
 31
0.0
  0
LINE
  5
24E
330
1F
100
AcDbEntity
  8
0
  6
Continuous
 62
     7
370
    25
100
AcDbLine
 10
0.134627115
 20
0.1224481551
 30
0.0
 11
0.134627115
 21
0.1212935918
 31
0.0
  0
ARC
  5
24F
330
1F
100
AcDbEntity
  8
0
  6
Continuous
 62
     7
370
    25
100
AcDbCircle
 10
0.1315115948
 20
0.1120387235
 30
0.0
 40
0.0002408159577546
100
AcDbArc
 50
247.3897192683
 51
333.4426771165
  0
LWPOLYLINE
  5
250
330
1F
100
AcDbEntity
  8
0
  6
Continuous
 62
     7
370
    25
100
AcDbPolyline
 90
       39
 70
   128
 43
0.0
 10
0.1273814812
 20
0.1105095797
 10
0.1273906441
 20
0.1105476753
 10
0.1274153046
 20
0.1106282131
 10
0.127446956
 20
0.110707957
 10
0.1274855207
 20
0.110786711
 10
0.1275309038
 20
0.1108642814
 10
0.1275829938
 20
0.1109404774
 10
0.1276416626
 20
0.1110151119
 10
0.1277067659
 20
0.1110880014
 10
0.1277781438
 20
0.1111589666
 10
0.1278556208
 20
0.111227833
 10
0.1279390063
 20
0.1112944315
 10
0.1280280955
 20
0.1113585983
 10
0.1281226692
 20
0.1114201755
 10
0.128222495
 20
0.111479012
 10
0.1283273276
 20
0.1115349629
 10
0.1284369091
 20
0.1115878909
 10
0.1285509703
 20
0.1116376657
 10
0.1286692306
 20
0.111684165
 10
0.1287913994
 20
0.1117272744
 10
0.1289171764
 20
0.1117668881
 10
0.1290462523
 20
0.1118029086
 10
0.1291783099
 20
0.1118352474
 10
0.1293130245
 20
0.1118638249
 10
0.1294500648
 20
0.111888571
 10
0.1295890942
 20
0.1119094248
 10
0.1297297706
 20
0.111926335
 10
0.1298717484
 20
0.11193926
 10
0.1300146785
 20
0.1119481681
 10
0.1301582096
 20
0.1119530375
 10
0.1303019887
 20
0.111953856
 10
0.1304456625
 20
0.1119506217
 10
0.1305888776
 20
0.1119433425
 10
0.1307312822
 20
0.1119320364
 10
0.130872526
 20
0.1119167312
 10
0.1310122619
 20
0.1118974644
 10
0.1311501464
 20
0.1118742834
 10
0.1312858404
 20
0.1118472452
 10
0.1314190105
 20
0.1118164164
  0
LINE
  5
251
330
1F
100
AcDbEntity
  8
0
  6
Continuous
 62
     7
370
    25
100
AcDbLine
 10
0.134627115
 20
0.108843581
 30
0.0
 11
0.134627115
 21
0.1076496342
 31
0.0
  0
LINE
  5
252
330
1F
100
AcDbEntity
  8
0
  6
Continuous
 62
     7
370
    25
100
AcDbLine
 10
0.134627115
 20
0.1076496342
 30
0.0
 11
0.117927115
 21
0.1076496342
 31
0.0
  0
LINE
  5
253
330
1F
100
AcDbEntity
  8
0
  6
Continuous
 62
     7
370
    25
100
AcDbLine
 10
0.117927115
 20
0.1076496342
 30
0.0
 11
0.117927115
 21
0.108843581
 31
0.0
  0
ARC
  5
254
330
1F
100
AcDbEntity
  8
0
  6
Continuous
 62
     7
370
    25
100
AcDbCircle
 10
0.1210426352
 20
0.1180984493
 30
0.0
 40
0.0002408159577546
100
AcDbArc
 50
67.3897192683
 51
153.4426771165
  0
LWPOLYLINE
  5
255
330
1F
100
AcDbEntity
  8
0
  6
Continuous
 62
     7
370
    25
100
AcDbPolyline
 90
       42
 70
   128
 43
0.0
 10
0.1251944962
 20
0.1198656626
 10
0.1251951015
 20
0.1198338881
 10
0.1251917085
 20
0.1197521617
 10
0.1251811947
 20
0.1196706314
 10
0.1251635859
 20
0.1195894975
 10
0.1251389255
 20
0.1195089597
 10
0.125107274
 20
0.1194292158
 10
0.1250687093
 20
0.1193504618
 10
0.1250233262
 20
0.1192728915
 10
0.1249712362
 20
0.1191966954
 10
0.1249125674
 20
0.1191220609
 10
0.1248474641
 20
0.1190491714
 10
0.1247760862
 20
0.1189782062
 10
0.1246986093
 20
0.1189093398
 10
0.1246152237
 20
0.1188427413
 10
0.1245261346
 20
0.1187785745
 10
0.1244315608
 20
0.1187169973
 10
0.124331735
 20
0.1186581608
 10
0.1242269024
 20
0.1186022099
 10
0.1241173209
 20
0.1185492819
 10
0.1240032597
 20
0.1184995071
 10
0.1238849994
 20
0.1184530079
 10
0.1237628306
 20
0.1184098984
 10
0.1236370536
 20
0.1183702847
 10
0.1235079777
 20
0.1183342642
 10
0.1233759201
 20
0.1183019254
 10
0.1232412056
 20
0.1182733479
 10
0.1231041652
 20
0.1182486018
 10
0.1229651359
 20
0.118227748
 10
0.1228244594
 20
0.1182108378
 10
0.1226824816
 20
0.1181979128
 10
0.1225395515
 20
0.1181890047
 10
0.1223960204
 20
0.1181841354
 10
0.1222522413
 20
0.1181833168
 10
0.1221085676
 20
0.1181865511
 10
0.1219653524
 20
0.1181938303
 10
0.1218229478
 20
0.1182051364
 10
0.121681704
 20
0.1182204416
 10
0.1215419681
 20
0.1182397084
 10
0.1214040836
 20
0.1182628894
 10
0.1212683896
 20
0.1182899276
 10
0.1211352196
 20
0.1183207564
  0
LINE
  5
256
330
1F
100
AcDbEntity
  8
0
  6
Continuous
 62
     7
370
    25
100
AcDbLine
 10
0.117927115
 20
0.1212935918
 30
0.0
 11
0.117927115
 21
0.1224481551
 31
0.0
  0
LWPOLYLINE
  5
257
330
1F
100
AcDbEntity
  8
0
  6
Continuous
 62
     7
370
    25
100
AcDbPolyline
 90
       36
 70
   128
 43
0.0
 10
0.1236331993
 20
0.115225696
 10
0.1236201408
 20
0.1152472492
 10
0.1236005232
 20
0.1152671304
 10
0.1235749771
 20
0.1152847005
 10
0.1235443234
 20
0.1152993949
 10
0.1235095474
 20
0.1153107412
 10
0.1234717669
 20
0.1153183748
 10
0.1234321961
 20
0.1153220504
 10
0.1233921069
 20
0.1153216497
 10
0.1233527878
 20
0.1153171857
 10
0.1233155025
 20
0.1153088019
 10
0.1232814495
 20
0.1152967676
 10
0.1232517231
 20
0.1152814698
 10
0.1232272789
 20
0.1152634
 10
0.1232089024
 20
0.1152431392
 10
0.1231971844
 20
0.1152213383
 10
0.1231925015
 20
0.1151986983
 10
0.1231950041
 20
0.1151759467
 10
0.1232046118
 20
0.1151538147
 10
0.1232210159
 20
0.1151330138
 10
0.123243689
 20
0.1151142125
 10
0.1232719025
 20
0.115098015
 10
0.1233047496
 20
0.115084942
 10
0.1233411745
 20
0.1150754137
 10
0.1233800064
 20
0.1150697363
 10
0.1234199974
 20
0.1150680922
 10
0.123459862
 20
0.1150705344
 10
0.123498319
 20
0.1150769843
 10
0.1235341324
 20
0.1150872346
 10
0.123566151
 20
0.1151009558
 10
0.1235933458
 20
0.1151177071
 10
0.1236148427
 20
0.1151369498
 10
0.1236299507
 20
0.1151580657
 10
0.1236381844
 20
0.1151803759
 10
0.1236392789
 20
0.1152031635
 10
0.1236331993
 20
0.115225696
  0
LWPOLYLINE
  5
258
330
1F
100
AcDbEntity
  8
0
  6
Continuous
 62
     7
370
    25
100
AcDbPolyline
 90
       22
 70
   128
 43
0.0
 10
0.1226708036
 20
0.1163061862
 10
0.1225829304
 20
0.1162630016
 10
0.1224950402
 20
0.1162191544
 10
0.1224026463
 20
0.1161794432
 10
0.1223012617
 20
0.1161486666
 10
0.1221879852
 20
0.1161300886
 10
0.1220938078
 20
0.1161212805
 10
0.1219990691
 20
0.1161139446
 10
0.121907429
 20
0.11610476
 10
0.1218225476
 20
0.1160904061
 10
0.1217480848
 20
0.1160675621
 10
0.1216953924
 20
0.1160391715
 10
0.1216531781
 20
0.1160028854
 10
0.1216211146
 20
0.1159601752
 10
0.1215988694
 20
0.115912519
 10
0.1215861104
 20
0.115861395
 10
0.1215829949
 20
0.1157948651
 10
0.1215935331
 20
0.1157281134
 10
0.1216170756
 20
0.1156640268
 10
0.1216529733
 20
0.1156054923
 10
0.1217005772
 20
0.115555397
 10
0.1217345893
 20
0.1155329182
  0
LWPOLYLINE
  5
259
330
1F
100
AcDbEntity
  8
0
  6
Continuous
 62
     7
370
    25
100
AcDbPolyline
 90
       22
 70
   128
 43
0.0
 10
0.1249612428
 20
0.1160886474
 10
0.1249630391
 20
0.1160983397
 10
0.1249609061
 20
0.116158253
 10
0.1249458597
 20
0.1162171309
 10
0.1249180543
 20
0.1162730222
 10
0.1248776442
 20
0.116323976
 10
0.1248128456
 20
0.1163761055
 10
0.1247317966
 20
0.1164180258
 10
0.1246367603
 20
0.1164507238
 10
0.1245300085
 20
0.1164752063
 10
0.1244138133
 20
0.1164924799
 10
0.1242587505
 20
0.1165054681
 10
0.1240969196
 20
0.1165107319
 10
0.1239327579
 20
0.1165102373
 10
0.1237706578
 20
0.1165059217
 10
0.1235912082
 20
0.1164972833
 10
0.1234185236
 20
0.1164837875
 10
0.1232530105
 20
0.1164643697
 10
0.1230950755
 20
0.1164379653
 10
0.122945125
 20
0.1164035096
 10
0.1228035655
 20
0.1163599381
 10
0.1226708036
 20
0.1163061862
  0
LWPOLYLINE
  5
25A
330
1F
100
AcDbEntity
  8
0
  6
Continuous
 62
     7
370
    25
100
AcDbPolyline
 90
       36
 70
   128
 43
0.0
 10
0.1234305947
 20
0.1117425856
 10
0.123426277
 20
0.1117652491
 10
0.1234149111
 20
0.1117871101
 10
0.1233968621
 20
0.1118074659
 10
0.1233727103
 20
0.1118256623
 10
0.1233432319
 20
0.1118411145
 10
0.1233093744
 20
0.1118533257
 10
0.1232722258
 20
0.1118619036
 10
0.1232329804
 20
0.1118665723
 10
0.1231928993
 20
0.111867182
 10
0.1231532709
 20
0.1118637128
 10
0.1231153689
 20
0.1118562765
 10
0.1230804114
 20
0.1118451119
 10
0.1230495221
 20
0.111830578
 10
0.1230236936
 20
0.1118131417
 10
0.1230037562
 20
0.1117933637
 10
0.1229903507
 20
0.1117718795
 10
0.122983908
 20
0.1117493796
 10
0.122984635
 20
0.1117265873
 10
0.1229925085
 20
0.111704235
 10
0.1230072754
 20
0.1116830413
 10
0.1230284611
 20
0.1116636873
 10
0.1230553846
 20
0.111646795
 10
0.1230871806
 20
0.1116329074
 10
0.1231228271
 20
0.1116224708
 10
0.1231611785
 20
0.1116158208
 10
0.1232010021
 20
0.1116131709
 10
0.1232410179
 20
0.1116146064
 10
0.1232799398
 20
0.1116200812
 10
0.1233165168
 20
0.1116294192
 10
0.1233495733
 20
0.1116423204
 10
0.1233780468
 20
0.1116583701
 10
0.1234010222
 20
0.1116770525
 10
0.123417761
 20
0.111697767
 10
0.1234277253
 20
0.111719848
 10
0.1234305947
 20
0.1117425856
  0
LWPOLYLINE
  5
25B
330
1F
100
AcDbEntity
  8
0
  6
Continuous
 62
     7
370
    25
100
AcDbPolyline
 90
       23
 70
   128
 43
0.0
 10
0.1225928771
 20
0.1129381018
 10
0.1224903356
 20
0.1129070846
 10
0.1223875189
 20
0.1128754234
 10
0.1222819256
 20
0.1128483635
 10
0.1221710542
 20
0.1128311499
 10
0.1220533504
 20
0.1128273314
 10
0.1219580836
 20
0.1128306287
 10
0.1218628443
 20
0.1128354322
 10
0.1217699045
 20
0.1128380422
 10
0.1216815365
 20
0.1128347588
 10
0.1216000125
 20
0.1128218822
 10
0.1215375501
 20
0.11280085
 10
0.1214822218
 20
0.1127707968
 10
0.1214342828
 20
0.1127331988
 10
0.1213939862
 20
0.1126895389
 10
0.1213615851
 20
0.1126413006
 10
0.1213325722
 20
0.1125768237
 10
0.1213167855
 20
0.1125104074
 10
0.1213147192
 20
0.1124449484
 10
0.1213268678
 20
0.1123833438
 10
0.1213537253
 20
0.1123284905
 10
0.1213957859
 20
0.1122832853
 10
0.1214085312
 20
0.1122759876
  0
ARC
  5
25C
330
1F
100
AcDbEntity
  8
0
  6
Continuous
 62
     7
370
    25
100
AcDbCircle
 10
0.1233884303
 20
0.1110784989
 30
0.0
 40
0.0020226289559507
100
AcDbArc
 50
46.7375825709
 51
113.1616307281
  0
LWPOLYLINE
  5
25D
330
1F
100
AcDbEntity
  8
0
  6
Continuous
 62
     7
370
    25
100
AcDbPolyline
 90
       36
 70
   128
 43
0.0
 10
0.1321901802
 20
0.1201125212
 10
0.1321797519
 20
0.1201345328
 10
0.1321625782
 20
0.1201551319
 10
0.1321392112
 20
0.1201736566
 10
0.1321104018
 20
0.1201895114
 10
0.1320770761
 20
0.1202021868
 10
0.1320403052
 20
0.1202112753
 10
0.1320012708
 20
0.1202164848
 10
0.1319612277
 20
0.1202176479
 10
0.1319214627
 20
0.1202147273
 10
0.1318832541
 20
0.1202078167
 10
0.1318478298
 20
0.1201971384
 10
0.1318163284
 20
0.1201830354
 10
0.1317897624
 20
0.1201659611
 10
0.1317689857
 20
0.1201464643
 10
0.131754666
 20
0.1201251717
 10
0.1317472635
 20
0.1201027675
 10
0.1317470163
 20
0.1200799718
 10
0.1317539322
 20
0.1200575174
 10
0.131767789
 20
0.1200361259
 10
0.1317881413
 20
0.120016485
 10
0.1318143349
 20
0.1199992257
 10
0.131845528
 20
0.119984903
 10
0.131880718
 20
0.1199739771
 10
0.1319187739
 20
0.1199667992
 10
0.1319584724
 20
0.1199635999
 10
0.1319985378
 20
0.1199644822
 10
0.1320376822
 20
0.1199694177
 10
0.1320746474
 20
0.1199782477
 10
0.1321082455
 20
0.1199906885
 10
0.1321373966
 20
0.1200063401
 10
0.1321611636
 20
0.1200246995
 10
0.1321787828
 20
0.1200451767
 10
0.1321896877
 20
0.1200671135
 10
0.132193528
 20
0.1200898047
 10
0.1321901802
 20
0.1201125212
  0
LWPOLYLINE
  5
25E
330
1F
100
AcDbEntity
  8
0
  6
Continuous
 62
     7
370
    25
100
AcDbPolyline
 90
       22
 70
   128
 43
0.0
 10
0.131261146
 20
0.1212299231
 10
0.1311682713
 20
0.1211902658
 10
0.1310752999
 20
0.1211499482
 10
0.1309783341
 20
0.1211139324
 10
0.1308734763
 20
0.1210871807
 10
0.1307582259
 20
0.1210730625
 10
0.1306632079
 20
0.1210679466
 10
0.1305678074
 20
0.1210643213
 10
0.1304752753
 20
0.1210587309
 10
0.1303888625
 20
0.1210477199
 10
0.1303118199
 20
0.1210278325
 10
0.1302558275
 20
0.1210015629
 10
0.1302093363
 20
0.120967008
 10
0.1301721972
 20
0.1209256483
 10
0.1301442569
 20
0.1208789715
 10
0.1301253621
 20
0.1208284651
 10
0.1301142303
 20
0.1207622133
 10
0.130116693
 20
0.1206952079
 10
0.130132451
 20
0.1206303543
 10
0.1301612048
 20
0.1205705581
 10
0.1302026549
 20
0.1205187249
 10
0.1302447222
 20
0.1204867217
  0
LWPOLYLINE
  5
25F
330
1F
100
AcDbEntity
  8
0
  6
Continuous
 62
     7
370
    25
100
AcDbPolyline
 90
       21
 70
   128
 43
0.0
 10
0.1335252437
 20
0.1209604952
 10
0.1335280171
 20
0.1209930594
 10
0.133520107
 20
0.1210523853
 10
0.1334991078
 20
0.1211092291
 10
0.1334649381
 20
0.1211616383
 10
0.133406579
 20
0.1212161713
 10
0.1333307765
 20
0.1212611526
 10
0.1332399074
 20
0.1212974786
 10
0.1331363596
 20
0.121326065
 10
0.133022521
 20
0.1213478278
 10
0.1328693896
 20
0.1213668306
 10
0.1327085744
 20
0.1213783908
 10
0.1325447396
 20
0.1213842973
 10
0.1323825005
 20
0.1213863112
 10
0.1322024314
 20
0.1213846889
 10
0.1320285256
 20
0.1213779569
 10
0.1318610602
 20
0.1213650372
 10
0.1317003124
 20
0.121344852
 10
0.1315465593
 20
0.1213163232
 10
0.1314000781
 20
0.1212783729
 10
0.131261146
 20
0.1212299231
  0
LWPOLYLINE
  5
260
330
1F
100
AcDbEntity
  8
0
  6
Continuous
 62
     7
370
    25
100
AcDbPolyline
 90
       36
 70
   128
 43
0.0
 10
0.1324716752
 20
0.1151371079
 10
0.1324515696
 20
0.1151568309
 10
0.132425593
 20
0.1151741958
 10
0.1323945801
 20
0.1151886445
 10
0.132359528
 20
0.1151997127
 10
0.132321563
 20
0.1152070446
 10
0.1322819056
 20
0.1152104046
 10
0.1322418302
 20
0.1152096846
 10
0.1322026249
 20
0.1152049078
 10
0.1321655499
 20
0.1151962278
 10
0.1321317968
 20
0.1151839234
 10
0.1321024503
 20
0.1151683903
 10
0.1320784538
 20
0.1151501276
 10
0.1320605785
 20
0.1151297223
 10
0.1320493989
 20
0.1151078303
 10
0.1320452743
 20
0.1150851552
 10
0.1320483374
 20
0.1150624257
 10
0.1320584896
 20
0.1150403725
 10
0.1320754047
 20
0.1150197043
 10
0.1320985389
 20
0.1150010854
 10
0.1321271488
 20
0.1149851143
 10
0.1321603148
 20
0.1149723042
 10
0.132196971
 20
0.114963067
 10
0.132235939
 20
0.1149576995
 10
0.1322759666
 20
0.1149563741
 10
0.1323157671
 20
0.1149591336
 10
0.1323540614
 20
0.1149658892
 10
0.1323896186
 20
0.1149764238
 10
0.132421296
 20
0.1149903988
 10
0.1324480753
 20
0.115007365
 10
0.1324690958
 20
0.1150267772
 10
0.132483682
 20
0.1150480113
 10
0.132491365
 20
0.115070385
 10
0.1324918979
 20
0.115093179
 10
0.1324852636
 20
0.1151156609
 10
0.1324716752
 20
0.1151371079
  0
LWPOLYLINE
  5
261
330
1F
100
AcDbEntity
  8
0
  6
Continuous
 62
     7
370
    25
100
AcDbPolyline
 90
       21
 70
   128
 43
0.0
 10
0.1314400257
 20
0.1161075505
 10
0.1313684012
 20
0.1160555635
 10
0.1312969843
 20
0.1160029245
 10
0.1312197486
 20
0.1159538517
 10
0.1311306677
 20
0.1159125637
 10
0.1310257905
 20
0.1158819462
 10
0.1309363508
 20
0.1158630047
 10
0.1308458623
 20
0.1158454464
 10
0.13075904
 20
0.1158264129
 10
0.1306805988
 20
0.1158030455
 10
0.1306152538
 20
0.1157724857
 10
0.1305731489
 20
0.1157388634
 10
0.1305439974
 20
0.1156986388
 10
0.1305269802
 20
0.11565322
 10
0.1305212713
 20
0.1156040211
 10
0.1305260445
 20
0.1155524563
 10
0.1305454927
 20
0.1154868278
 10
0.1305784146
 20
0.1154224745
 10
0.1306231966
 20
0.1153621586
 10
0.1306782249
 20
0.1153086422
 10
0.1307270675
 20
0.1152749189
  0
LWPOLYLINE
  5
262
330
1F
100
AcDbEntity
  8
0
  6
Continuous
 62
     7
370
    25
100
AcDbPolyline
 90
       24
 70
   128
 43
0.0
 10
0.1337648593
 20
0.1160444228
 10
0.1337690044
 20
0.1160951389
 10
0.1337597774
 20
0.1161542308
 10
0.1337374169
 20
0.1162127924
 10
0.1337027344
 20
0.1162689258
 10
0.1336565414
 20
0.1163207334
 10
0.1335996493
 20
0.1163663172
 10
0.1335184262
 20
0.1164103881
 10
0.1334247098
 20
0.1164426634
 10
0.1333203867
 20
0.1164643591
 10
0.133207346
 20
0.1164767116
 10
0.1330874767
 20
0.1164809573
 10
0.1329309152
 20
0.1164767476
 10
0.1327703248
 20
0.1164642175
 10
0.1326093952
 20
0.1164457818
 10
0.1324517812
 20
0.1164238218
 10
0.1322786038
 20
0.1163957226
 10
0.1321137083
 20
0.1163635964
 10
0.1319578538
 20
0.1163264429
 10
0.1318117992
 20
0.1162832618
 10
0.1316763036
 20
0.1162330529
 10
0.1315521261
 20
0.1161748159
 10
0.1314400257
 20
0.1161075505
 10
0.1314400257
 20
0.1161075505
  0
LWPOLYLINE
  5
263
330
1F
100
AcDbEntity
  8
0
  6
Continuous
 62
     7
370
    25
100
AcDbPolyline
 90
       36
 70
   128
 43
0.0
 10
0.1247709866
 20
0.1198021837
 10
0.1247497355
 20
0.1198215146
 10
0.1247227549
 20
0.1198383774
 10
0.124690912
 20
0.1198522302
 10
0.1246552302
 20
0.1198626278
 10
0.1246168564
 20
0.1198692359
 10
0.1245770239
 20
0.1198718422
 10
0.1245370131
 20
0.1198703629
 10
0.1244981098
 20
0.1198648456
 10
0.1244615644
 20
0.1198554676
 10
0.1244285516
 20
0.1198425303
 10
0.1244001324
 20
0.1198264495
 10
0.1243772202
 20
0.119807742
 10
0.1243605515
 20
0.1197870092
 10
0.124350662
 20
0.1197649174
 10
0.1243478695
 20
0.1197421767
 10
0.1243522638
 20
0.119719518
 10
0.1243637037
 20
0.1196976694
 10
0.1243818215
 20
0.1196773334
 10
0.1244060348
 20
0.1196591634
 10
0.1244355654
 20
0.1196437435
 10
0.1244694642
 20
0.1196315693
 10
0.1245066417
 20
0.1196230321
 10
0.1245459028
 20
0.1196184063
 10
0.1245859859
 20
0.1196178405
 10
0.1246256025
 20
0.1196213529
 10
0.1246634793
 20
0.1196288307
 10
0.1246983989
 20
0.1196400335
 10
0.1247292391
 20
0.1196546012
 10
0.1247550085
 20
0.1196720656
 10
0.1247748789
 20
0.1196918654
 10
0.1247882117
 20
0.1197133643
 10
0.1247945784
 20
0.1197358711
 10
0.1247937742
 20
0.1197586626
 10
0.1247858251
 20
0.1197810062
 10
0.1247709866
 20
0.1198021837
  0
LWPOLYLINE
  5
264
330
1F
100
AcDbEntity
  8
0
  6
Continuous
 62
     7
370
    25
100
AcDbPolyline
 90
       21
 70
   128
 43
0.0
 10
0.1237312434
 20
0.1207529875
 10
0.1236627076
 20
0.1206996717
 10
0.1235944174
 20
0.120645708
 10
0.1235201025
 20
0.1205951985
 10
0.1234334925
 20
0.1205522447
 10
0.1233304691
 20
0.1205196561
 10
0.12324219
 20
0.1204990296
 10
0.1231527815
 20
0.1204797658
 10
0.1230671237
 20
0.1204590969
 10
0.1229900965
 20
0.1204342556
 10
0.1229265799
 20
0.1204024741
 10
0.1228864703
 20
0.1203680723
 10
0.1228596939
 20
0.1203273175
 10
0.1228453499
 20
0.1202816013
 10
0.1228425294
 20
0.1202323215
 10
0.1228503239
 20
0.1201808759
 10
0.1228736101
 20
0.1201156525
 10
0.1229102877
 20
0.1200519591
 10
0.122958582
 20
0.1199925257
 10
0.1230167182
 20
0.1199400822
 10
0.1230556093
 20
0.1199149843
  0
LWPOLYLINE
  5
265
330
1F
100
AcDbEntity
  8
0
  6
Continuous
 62
     7
370
    25
100
AcDbPolyline
 90
       25
 70
   128
 43
0.0
 10
0.1260558009
 20
0.120718449
 10
0.126058325
 20
0.1207269506
 10
0.126059655
 20
0.1207847325
 10
0.1260469677
 20
0.1208436167
 10
0.1260211853
 20
0.1209017218
 10
0.1259832302
 20
0.1209571665
 10
0.1259340246
 20
0.1210080696
 10
0.1258744909
 20
0.1210525496
 10
0.1257907284
 20
0.1210950562
 10
0.1256951713
 20
0.1211255371
 10
0.1255896339
 20
0.1211452431
 10
0.1254759316
 20
0.1211554459
 10
0.12535588
 20
0.1211574169
 10
0.1251996524
 20
0.1211502416
 10
0.1250398862
 20
0.1211346743
 10
0.1248801272
 20
0.1211131981
 10
0.1247238886
 20
0.1210882625
 10
0.1245524554
 20
0.121056896
 10
0.1243895357
 20
0.1210216618
 10
0.1242359466
 20
0.1209815745
 10
0.1240925056
 20
0.1209356487
 10
0.1239600299
 20
0.1208828992
 10
0.1238393367
 20
0.1208223406
 10
0.1237312434
 20
0.1207529875
 10
0.1237312434
 20
0.1207529875
  0
LWPOLYLINE
  5
266
330
1F
100
AcDbEntity
  8
0
  6
Continuous
 62
     7
370
    25
100
AcDbPolyline
 90
       36
 70
   128
 43
0.0
 10
0.1282387905
 20
0.10930043
 10
0.128237039
 20
0.1093232043
 10
0.1282281631
 20
0.1093454348
 10
0.1282124482
 20
0.109366407
 10
0.1281903993
 20
0.1093854469
 10
0.1281627252
 20
0.1094019424
 10
0.1281303152
 20
0.1094153633
 10
0.1280942111
 20
0.1094252785
 10
0.1280555733
 20
0.109431369
 10
0.1280156436
 20
0.1094334393
 10
0.1279757054
 20
0.1094314227
 10
0.1279370423
 20
0.1094253841
 10
0.1279008971
 20
0.1094155175
 10
0.1278684314
 20
0.1094021401
 10
0.1278406888
 20
0.1093856818
 10
0.1278185608
 20
0.1093666717
 10
0.1278027588
 20
0.1093457207
 10
0.1277937905
 20
0.1093235022
 10
0.1277919443
 20
0.1093007303
 10
0.1277972795
 20
0.1092781369
 10
0.1278096246
 20
0.1092564482
 10
0.1278285828
 20
0.1092363614
 10
0.1278535448
 20
0.1092185219
 10
0.1278837083
 20
0.1092035032
 10
0.1279181038
 20
0.109191788
 10
0.1279556258
 20
0.1091837528
 10
0.1279950684
 20
0.1091796559
 10
0.1280351637
 20
0.109179629
 10
0.1280746232
 20
0.1091836728
 10
0.1281121785
 20
0.1091916576
 10
0.1281466226
 20
0.1092033265
 10
0.1281768485
 20
0.1092183047
 10
0.1282018846
 20
0.1092361105
 10
0.1282209262
 20
0.1092561719
 10
0.1282333614
 20
0.1092778439
 10
0.1282387905
 20
0.10930043
  0
LWPOLYLINE
  5
267
330
1F
100
AcDbEntity
  8
0
  6
Continuous
 62
     7
370
    25
100
AcDbPolyline
 90
       23
 70
   128
 43
0.0
 10
0.1274448706
 20
0.1105257325
 10
0.1273390405
 20
0.1104985191
 10
0.1272328631
 20
0.1104706733
 10
0.127124434
 20
0.1104475204
 10
0.1270118487
 20
0.1104343861
 10
0.1268939564
 20
0.1104348685
 10
0.126799258
 20
0.1104416337
 10
0.1267047568
 20
0.110449901
 10
0.126612303
 20
0.1104558955
 10
0.1265237466
 20
0.1104558419
 10
0.1264409376
 20
0.1104459653
 10
0.1263762307
 20
0.1104272545
 10
0.1263176253
 20
0.1103992813
 10
0.1262655427
 20
0.1103635091
 10
0.1262204028
 20
0.110321409
 10
0.1261826254
 20
0.1102744518
 10
0.126146397
 20
0.1102111659
 10
0.1261231487
 20
0.1101454622
 10
0.1261137007
 20
0.1100802134
 10
0.1261188731
 20
0.1100182926
 10
0.1261394859
 20
0.1099625727
 10
0.1261763592
 20
0.1099159266
 10
0.1261970357
 20
0.10990246
  0
ARC
  5
268
330
1F
100
AcDbEntity
  8
0
  6
Continuous
 62
     7
370
    25
100
AcDbCircle
 10
0.1281710207
 20
0.1086281186
 30
0.0
 40
0.0020318051834183
100
AcDbArc
 50
46.0138340892
 51
110.9400893979
  0
LWPOLYLINE
  5
269
330
1F
100
AcDbEntity
  8
0
  6
Continuous
 62
     7
370
    25
100
AcDbPolyline
 90
       36
 70
   128
 43
0.0
 10
0.1201558967
 20
0.1083205047
 10
0.1201564768
 20
0.108297711
 10
0.1201642062
 20
0.1082753425
 10
0.1201788364
 20
0.1082541182
 10
0.1201998972
 20
0.1082347201
 10
0.1202267117
 20
0.1082177719
 10
0.1202584179
 20
0.1082038181
 10
0.120293997
 20
0.1081933074
 10
0.1203323052
 20
0.1081865774
 10
0.1203721115
 20
0.1081838446
 10
0.1204121362
 20
0.1081851968
 10
0.1204510932
 20
0.1081905904
 10
0.1204877301
 20
0.1081998522
 10
0.1205208695
 20
0.1082126845
 10
0.1205494463
 20
0.1082286747
 10
0.120572542
 20
0.1082473091
 10
0.1205894142
 20
0.1082679886
 10
0.1205995207
 20
0.1082900486
 10
0.1206025366
 20
0.1083127801
 10
0.120598365
 20
0.1083354525
 10
0.12058714
 20
0.108357337
 10
0.1205692224
 20
0.1083777303
 10
0.1205451881
 20
0.1083959769
 10
0.1205158094
 20
0.1084114904
 10
0.1204820308
 20
0.1084237721
 10
0.1204449378
 20
0.1084324273
 10
0.1204057227
 20
0.1084371778
 10
0.1203656459
 20
0.1084378709
 10
0.1203259954
 20
0.1084344843
 10
0.1202880457
 20
0.108427127
 10
0.1202530165
 20
0.1084160353
 10
0.1202220336
 20
0.1084015658
 10
0.120196093
 20
0.1083841835
 10
0.1201760283
 20
0.1083644471
 10
0.1201624844
 20
0.108342991
 10
0.1201558967
 20
0.1083205047
  0
LWPOLYLINE
  5
26A
330
1F
100
AcDbEntity
  8
0
  6
Continuous
 62
     7
370
    25
100
AcDbPolyline
 90
       40
 70
   128
 43
0.0
 10
0.1221317567
 20
0.1088838678
 10
0.1221632281
 20
0.1089113773
 10
0.1222034029
 20
0.1089576868
 10
0.1222428689
 20
0.1090203437
 10
0.1222694845
 20
0.1090856331
 10
0.1222822823
 20
0.109150697
 10
0.1222802949
 20
0.1092126773
 10
0.122262555
 20
0.1092687159
 10
0.1222280951
 20
0.1093159548
 10
0.1221761738
 20
0.1093518359
 10
0.1221081127
 20
0.1093765403
 10
0.1220263378
 20
0.1093917153
 10
0.1219332856
 20
0.1093990221
 10
0.1218101676
 20
0.1093997432
 10
0.1216785289
 20
0.1093943968
 10
0.1215425799
 20
0.1093858534
 10
0.1214065308
 20
0.1093769836
 10
0.1212745593
 20
0.1093706379
 10
0.121068247
 20
0.1093692151
 10
0.1208753085
 20
0.109377996
 10
0.1206908776
 20
0.1093951648
 10
0.1205100879
 20
0.1094189054
 10
0.120328073
 20
0.1094474021
 10
0.1201399667
 20
0.1094788389
 10
0.1199926578
 20
0.1095031358
 10
0.1198392609
 20
0.1095264466
 10
0.1196833874
 20
0.1095456549
 10
0.1195290273
 20
0.1095574862
 10
0.1194114053
 20
0.1095594736
 10
0.119299116
 20
0.1095532969
 10
0.1191940949
 20
0.1095373674
 10
0.1190982773
 20
0.1095100968
 10
0.1190253243
 20
0.1094767858
 10
0.1189615081
 20
0.1094346907
 10
0.1189077571
 20
0.1093856457
 10
0.1188649952
 20
0.109331532
 10
0.1188341464
 20
0.1092742305
 10
0.1188161346
 20
0.1092156224
 10
0.1188118838
 20
0.1091575886
 10
0.1188126613
 20
0.1091534471
  0
LWPOLYLINE
  5
26B
330
1F
100
AcDbEntity
  8
0
  6
Continuous
 62
     7
370
    25
100
AcDbPolyline
 90
       36
 70
   128
 43
0.0
 10
0.128459721
 20
0.1174235347
 10
0.1284586193
 20
0.1174463222
 10
0.1284503787
 20
0.1174686316
 10
0.128435264
 20
0.1174897459
 10
0.1284137611
 20
0.1175089865
 10
0.1283865611
 20
0.117525735
 10
0.1283545382
 20
0.117539453
 10
0.1283187217
 20
0.1175496997
 10
0.1282802626
 20
0.1175561457
 10
0.1282403972
 20
0.1175585838
 10
0.1282004068
 20
0.1175569358
 10
0.1281615766
 20
0.1175512544
 10
0.1281251547
 20
0.1175417224
 10
0.1280923117
 20
0.1175286461
 10
0.1280641033
 20
0.1175124458
 10
0.128041436
 20
0.1174936421
 10
0.1280250384
 20
0.1174728396
 10
0.1280154376
 20
0.1174507067
 10
0.1280129421
 20
0.1174279548
 10
0.1280176322
 20
0.1174053152
 10
0.128029357
 20
0.1173835156
 10
0.1280477398
 20
0.1173632565
 10
0.1280721896
 20
0.1173451893
 10
0.1281019208
 20
0.1173298944
 10
0.1281359776
 20
0.1173178636
 10
0.1281732655
 20
0.1173094836
 10
0.128212586
 20
0.1173050235
 10
0.1282526754
 20
0.1173046269
 10
0.128292245
 20
0.1173083065
 10
0.1283300231
 20
0.1173159439
 10
0.1283647955
 20
0.1173272937
 10
0.1283954446
 20
0.1173419912
 10
0.1284209853
 20
0.1173595639
 10
0.1284405967
 20
0.1173794471
 10
0.1284536484
 20
0.1174010016
 10
0.128459721
 20
0.1174235347
  0
LWPOLYLINE
  5
26C
330
1F
100
AcDbEntity
  8
0
  6
Continuous
 62
     7
370
    25
100
AcDbPolyline
 90
       23
 70
   128
 43
0.0
 10
0.1276773904
 20
0.1186561041
 10
0.127570798
 20
0.1186298701
 10
0.1274638403
 20
0.1186030068
 10
0.127354765
 20
0.1185808567
 10
0.1272418199
 20
0.1185687622
 10
0.1271239569
 20
0.1185703315
 10
0.1270294638
 20
0.1185779689
 10
0.1269352109
 20
0.1185871064
 10
0.1268429403
 20
0.1185939525
 10
0.126754394
 20
0.1185947154
 10
0.1266713141
 20
0.1185856036
 10
0.126606082
 20
0.1185674919
 10
0.1265466865
 20
0.1185400627
 10
0.1264935904
 20
0.1185047754
 10
0.1264472556
 20
0.118463097
 10
0.1264081438
 20
0.1184164943
 10
0.1263701151
 20
0.1183535508
 10
0.1263449958
 20
0.11828807
 10
0.1263336879
 20
0.1182229169
 10
0.1263370935
 20
0.1181609566
 10
0.1263561142
 20
0.1181050539
 10
0.1263916522
 20
0.118058074
 10
0.1264139767
 20
0.118043049
  0
ARC
  5
26D
330
1F
100
AcDbEntity
  8
0
  6
Continuous
 62
     7
370
    25
100
AcDbCircle
 10
0.1283854721
 20
0.1167519594
 30
0.0
 40
0.0020315379738779
100
AcDbArc
 50
45.7818273176
 51
110.3983269016
  0
ARC
  5
26E
330
1F
100
AcDbEntity
  8
0
  6
Continuous
 62
     7
370
    25
100
AcDbCircle
 10
0.144277115
 20
0.1322837098
 30
0.0
 40
0.000603
100
AcDbArc
 50
360.0
 51
90.0
  0
ARC
  5
26F
330
1F
100
AcDbEntity
  8
0
  6
Continuous
 62
     7
370
    25
100
AcDbCircle
 10
0.144277115
 20
0.1322837098
 30
0.0
 40
0.000603
100
AcDbArc
 50
270.0
 51
360.0
  0
ARC
  5
270
330
1F
100
AcDbEntity
  8
0
  6
Continuous
 62
     7
370
    25
100
AcDbCircle
 10
0.1382701618
 20
0.1323697474
 30
0.0
 40
0.0005264587789724
100
AcDbArc
 50
100.8990844528
 51
189.4058729042
  0
ARC
  5
271
330
1F
100
AcDbEntity
  8
0
  6
Continuous
 62
     7
370
    25
100
AcDbCircle
 10
0.138286186
 20
0.132208829
 30
0.0
 40
0.0005406159339656
100
AcDbArc
 50
172.0383546554
 51
257.6566879876
  0
ARC
  5
272
330
1F
100
AcDbEntity
  8
0
  6
Continuous
 62
     7
370
    25
100
AcDbCircle
 10
0.144277115
 20
0.1322837098
 30
0.0
 40
0.000603
100
AcDbArc
 50
270.0
 51
90.0
  0
ARC
  5
273
330
1F
100
AcDbEntity
  8
0
  6
Continuous
 62
     7
370
    25
100
AcDbCircle
 10
0.1383412858
 20
0.1322837098
 30
0.0
 40
0.0006266866120358
100
AcDbArc
 50
105.8030668692
 51
254.1969331308
  0
ELLIPSE
  5
274
330
1F
100
AcDbEntity
  8
0
  6
Continuous
 62
     7
370
    25
100
AcDbEllipse
 10
0.134277115
 20
0.1322837098
 30
0.0
 11
0.0005588415306991003
 21
0.0005588415306991003
 31
0.0
210
0.0
220
0.0
230
1.0
 40
0.4053141634
 41
0.3850791410482358
 42
1.955875467843132
  0
ELLIPSE
  5
275
330
1F
100
AcDbEntity
  8
0
  6
Continuous
 62
     7
370
    25
100
AcDbEllipse
 10
0.134277115
 20
0.1322837098
 30
0.0
 11
-0.0005588415306991279
 21
0.0005588415306991003
 31
0.0
210
0.0
220
0.0
230
1.0
 40
0.4053141634
 41
1.185717185746653
 42
2.756513512541447
  0
LINE
  5
276
330
1F
100
AcDbEntity
  8
0
  6
Continuous
 62
     7
370
    25
100
AcDbLine
 10
0.117388115
 20
0.1751258495
 30
0.0
 11
0.117337115
 21
0.1751258495
 31
0.0
  0
LINE
  5
277
330
1F
100
AcDbEntity
  8
0
  6
Continuous
 62
     7
370
    25
100
AcDbLine
 10
0.117337115
 20
0.185807893
 30
0.0
 11
0.117388115
 21
0.185807893
 31
0.0
  0
LINE
  5
278
330
1F
100
AcDbEntity
  8
0
  6
Continuous
 62
     7
370
    25
100
AcDbLine
 10
0.118627115
 20
0.1874665066
 30
0.0
 11
0.118627115
 21
0.1731009129
 31
0.0
  0
LINE
  5
279
330
1F
100
AcDbEntity
  8
0
  6
Continuous
 62
     7
370
    25
100
AcDbLine
 10
0.117927115
 20
0.1874665066
 30
0.0
 11
0.117927115
 21
0.18736721
 31
0.0
  0
LINE
  5
27A
330
1F
100
AcDbEntity
  8
0
  6
Continuous
 62
     7
370
    25
100
AcDbLine
 10
0.117927115
 20
0.1732083235
 30
0.0
 11
0.117927115
 21
0.1731009129
 31
0.0
  0
ARC
  5
27B
330
1F
100
AcDbEntity
  8
0
  6
Continuous
 62
     7
370
    25
100
AcDbCircle
 10
0.117688115
 20
0.1255727098
 30
0.0
 40
0.0003
100
AcDbArc
 50
180.0
 51
239.2982748881
  0
LINE
  5
27C
330
1F
100
AcDbEntity
  8
0
  6
Continuous
 62
     7
370
    25
100
AcDbLine
 10
0.117388115
 20
0.1389900389
 30
0.0
 11
0.117388115
 21
0.1374837098
 31
0.0
  0
LINE
  5
27D
330
1F
100
AcDbEntity
  8
0
  6
Continuous
 62
     7
370
    25
100
AcDbLine
 10
0.117388115
 20
0.1371037098
 30
0.0
 11
0.117388115
 21
0.1274637098
 31
0.0
  0
LINE
  5
27E
330
1F
100
AcDbEntity
  8
0
  6
Continuous
 62
     7
370
    25
100
AcDbLine
 10
0.117388115
 20
0.1270837098
 30
0.0
 11
0.117388115
 21
0.1255727098
 31
0.0
  0
LINE
  5
27F
330
1F
100
AcDbEntity
  8
0
  6
Continuous
 62
     7
370
    25
100
AcDbLine
 10
0.118627115
 20
0.1371037098
 30
0.0
 11
0.118627115
 21
0.1374837098
 31
0.0
  0
LINE
  5
280
330
1F
100
AcDbEntity
  8
0
  6
Continuous
 62
     7
370
    25
100
AcDbLine
 10
0.11240726
 20
0.1374837098
 30
0.0
 11
0.117940115
 21
0.1374837098
 31
0.0
  0
LINE
  5
281
330
1F
100
AcDbEntity
  8
0
  6
Continuous
 62
     7
370
    25
100
AcDbLine
 10
0.118614115
 20
0.1374837098
 30
0.0
 11
0.118627115
 21
0.1374837098
 31
0.0
  0
LINE
  5
282
330
1F
100
AcDbEntity
  8
0
  6
Continuous
 62
     7
370
    25
100
AcDbLine
 10
0.11240726
 20
0.1371037098
 30
0.0
 11
0.117940115
 21
0.1371037098
 31
0.0
  0
LINE
  5
283
330
1F
100
AcDbEntity
  8
0
  6
Continuous
 62
     7
370
    25
100
AcDbLine
 10
0.118614115
 20
0.1371037098
 30
0.0
 11
0.118627115
 21
0.1371037098
 31
0.0
  0
LINE
  5
284
330
1F
100
AcDbEntity
  8
0
  6
Continuous
 62
     7
370
    25
100
AcDbLine
 10
0.11240726
 20
0.1374837098
 30
0.0
 11
0.0930727849
 21
0.1374837098
 31
0.0
  0
LINE
  5
285
330
1F
100
AcDbEntity
  8
0
  6
Continuous
 62
     7
370
    25
100
AcDbLine
 10
0.11240726
 20
0.1371037098
 30
0.0
 11
0.0930727849
 21
0.1371037098
 31
0.0
  0
LINE
  5
286
330
1F
100
AcDbEntity
  8
0
  6
Continuous
 62
     7
370
    25
100
AcDbLine
 10
0.0795433773
 20
0.1371037098
 30
0.0
 11
0.0795433773
 21
0.1374837098
 31
0.0
  0
LINE
  5
287
330
1F
100
AcDbEntity
  8
0
  6
Continuous
 62
     7
370
    25
100
AcDbLine
 10
0.0930727849
 20
0.1374837098
 30
0.0
 11
0.0795433773
 21
0.1374837098
 31
0.0
  0
LINE
  5
288
330
1F
100
AcDbEntity
  8
0
  6
Continuous
 62
     7
370
    25
100
AcDbLine
 10
0.0930727849
 20
0.1371037098
 30
0.0
 11
0.0795433773
 21
0.1371037098
 31
0.0
  0
LINE
  5
289
330
1F
100
AcDbEntity
  8
0
  6
Continuous
 62
     7
370
    25
100
AcDbLine
 10
0.0795433773
 20
0.1374837098
 30
0.0
 11
0.0779273072
 21
0.1374837098
 31
0.0
  0
LINE
  5
28A
330
1F
100
AcDbEntity
  8
0
  6
Continuous
 62
     7
370
    25
100
AcDbLine
 10
0.0795433773
 20
0.1371037098
 30
0.0
 11
0.0779273072
 21
0.1371037098
 31
0.0
  0
LINE
  5
28B
330
1F
100
AcDbEntity
  8
0
  6
Continuous
 62
     7
370
    25
100
AcDbLine
 10
0.118627115
 20
0.1270837098
 30
0.0
 11
0.118627115
 21
0.1274637098
 31
0.0
  0
LINE
  5
28C
330
1F
100
AcDbEntity
  8
0
  6
Continuous
 62
     7
370
    25
100
AcDbLine
 10
0.11240726
 20
0.1270837098
 30
0.0
 11
0.117940115
 21
0.1270837098
 31
0.0
  0
LINE
  5
28D
330
1F
100
AcDbEntity
  8
0
  6
Continuous
 62
     7
370
    25
100
AcDbLine
 10
0.118614115
 20
0.1270837098
 30
0.0
 11
0.118627115
 21
0.1270837098
 31
0.0
  0
LINE
  5
28E
330
1F
100
AcDbEntity
  8
0
  6
Continuous
 62
     7
370
    25
100
AcDbLine
 10
0.11240726
 20
0.1274637098
 30
0.0
 11
0.117940115
 21
0.1274637098
 31
0.0
  0
LINE
  5
28F
330
1F
100
AcDbEntity
  8
0
  6
Continuous
 62
     7
370
    25
100
AcDbLine
 10
0.118614115
 20
0.1274637098
 30
0.0
 11
0.118627115
 21
0.1274637098
 31
0.0
  0
LINE
  5
290
330
1F
100
AcDbEntity
  8
0
  6
Continuous
 62
     7
370
    25
100
AcDbLine
 10
0.11240726
 20
0.1270837098
 30
0.0
 11
0.0930727849
 21
0.1270837098
 31
0.0
  0
LINE
  5
291
330
1F
100
AcDbEntity
  8
0
  6
Continuous
 62
     7
370
    25
100
AcDbLine
 10
0.11240726
 20
0.1274637098
 30
0.0
 11
0.0930727849
 21
0.1274637098
 31
0.0
  0
LINE
  5
292
330
1F
100
AcDbEntity
  8
0
  6
Continuous
 62
     7
370
    25
100
AcDbLine
 10
0.0795433773
 20
0.1270837098
 30
0.0
 11
0.0795433773
 21
0.1274637098
 31
0.0
  0
LINE
  5
293
330
1F
100
AcDbEntity
  8
0
  6
Continuous
 62
     7
370
    25
100
AcDbLine
 10
0.0930727849
 20
0.1270837098
 30
0.0
 11
0.0795433773
 21
0.1270837098
 31
0.0
  0
LINE
  5
294
330
1F
100
AcDbEntity
  8
0
  6
Continuous
 62
     7
370
    25
100
AcDbLine
 10
0.0930727849
 20
0.1274637098
 30
0.0
 11
0.0795433773
 21
0.1274637098
 31
0.0
  0
LINE
  5
295
330
1F
100
AcDbEntity
  8
0
  6
Continuous
 62
     7
370
    25
100
AcDbLine
 10
0.0795433773
 20
0.1270837098
 30
0.0
 11
0.0779273072
 21
0.1270837098
 31
0.0
  0
LINE
  5
296
330
1F
100
AcDbEntity
  8
0
  6
Continuous
 62
     7
370
    25
100
AcDbLine
 10
0.0795433773
 20
0.1274637098
 30
0.0
 11
0.0779273072
 21
0.1274637098
 31
0.0
  0
LINE
  5
297
330
1F
100
AcDbEntity
  8
0
  6
Continuous
 62
     7
370
    25
100
AcDbLine
 10
0.117940115
 20
0.1270610059
 30
0.0
 11
0.117940115
 21
0.1264064137
 31
0.0
  0
LINE
  5
298
330
1F
100
AcDbEntity
  8
0
  6
Continuous
 62
     7
370
    25
100
AcDbLine
 10
0.118614115
 20
0.1264064137
 30
0.0
 11
0.118614115
 21
0.1270610059
 31
0.0
  0
ARC
  5
299
330
1F
100
AcDbEntity
  8
0
  6
Continuous
 62
     7
370
    25
100
AcDbCircle
 10
0.117987115
 20
0.1264437098
 30
0.0
 40
0.00006
100
AcDbArc
 50
179.9999999999
 51
218.4332063409
  0
LINE
  5
29A
330
1F
100
AcDbEntity
  8
0
  6
Continuous
 62
     7
370
    25
100
AcDbLine
 10
0.117927115
 20
0.1264437098
 30
0.0
 11
0.117927115
 21
0.1270237098
 31
0.0
  0
ARC
  5
29B
330
1F
100
AcDbEntity
  8
0
  6
Continuous
 62
     7
370
    25
100
AcDbCircle
 10
0.117987115
 20
0.1270237098
 30
0.0
 40
0.00006
100
AcDbArc
 50
141.5667936591
 51
179.9999999999
  0
LINE
  5
29C
330
1F
100
AcDbEntity
  8
0
  6
Continuous
 62
     7
370
    25
100
AcDbLine
 10
0.118627115
 20
0.1270237098
 30
0.0
 11
0.118627115
 21
0.1264437098
 31
0.0
  0
ARC
  5
29D
330
1F
100
AcDbEntity
  8
0
  6
Continuous
 62
     7
370
    25
100
AcDbCircle
 10
0.118567115
 20
0.1264437098
 30
0.0
 40
0.00006
100
AcDbArc
 50
321.5667936592
 51
0.0000000001
  0
ARC
  5
29E
330
1F
100
AcDbEntity
  8
0
  6
Continuous
 62
     7
370
    25
100
AcDbCircle
 10
0.118567115
 20
0.1270237098
 30
0.0
 40
0.00006
100
AcDbArc
 50
0.0
 51
38.4332063409
  0
LINE
  5
29F
330
1F
100
AcDbEntity
  8
0
  6
Continuous
 62
     7
370
    25
100
AcDbLine
 10
0.117940115
 20
0.1381610059
 30
0.0
 11
0.117940115
 21
0.1375064137
 31
0.0
  0
LINE
  5
2A0
330
1F
100
AcDbEntity
  8
0
  6
Continuous
 62
     7
370
    25
100
AcDbLine
 10
0.118614115
 20
0.1375064137
 30
0.0
 11
0.118614115
 21
0.1381610059
 31
0.0
  0
LINE
  5
2A1
330
1F
100
AcDbEntity
  8
0
  6
Continuous
 62
     7
370
    25
100
AcDbLine
 10
0.118627115
 20
0.1381237098
 30
0.0
 11
0.118627115
 21
0.1375437098
 31
0.0
  0
ARC
  5
2A2
330
1F
100
AcDbEntity
  8
0
  6
Continuous
 62
     7
370
    25
100
AcDbCircle
 10
0.118567115
 20
0.1375437098
 30
0.0
 40
0.00006
100
AcDbArc
 50
321.5667936591
 51
0.0000000001
  0
ARC
  5
2A3
330
1F
100
AcDbEntity
  8
0
  6
Continuous
 62
     7
370
    25
100
AcDbCircle
 10
0.118567115
 20
0.1381237098
 30
0.0
 40
0.00006
100
AcDbArc
 50
0.0000000001
 51
38.4332063408
  0
ARC
  5
2A4
330
1F
100
AcDbEntity
  8
0
  6
Continuous
 62
     7
370
    25
100
AcDbCircle
 10
0.117987115
 20
0.1375437098
 30
0.0
 40
0.00006
100
AcDbArc
 50
180.0
 51
218.4332063408
  0
ARC
  5
2A5
330
1F
100
AcDbEntity
  8
0
  6
Continuous
 62
     7
370
    25
100
AcDbCircle
 10
0.117987115
 20
0.1381237098
 30
0.0
 40
0.00006
100
AcDbArc
 50
141.5667936591
 51
180.0
  0
LINE
  5
2A6
330
1F
100
AcDbEntity
  8
0
  6
Continuous
 62
     7
370
    25
100
AcDbLine
 10
0.117927115
 20
0.1375437098
 30
0.0
 11
0.117927115
 21
0.1381237098
 31
0.0
  0
LINE
  5
2A7
330
1F
100
AcDbEntity
  8
0
  6
Continuous
 62
     7
370
    25
100
AcDbLine
 10
0.126277115
 20
0.1224481551
 30
0.0
 11
0.1265458156
 21
0.1224481551
 31
0.0
  0
ARC
  5
2A8
330
1F
100
AcDbEntity
  8
0
  6
Continuous
 62
     7
370
    25
100
AcDbCircle
 10
0.1260455309
 20
0.1235774196
 30
0.0
 40
0.0011527660204658
100
AcDbArc
 50
281.5892601938
 51
7.8819604407
  0
ARC
  5
2A9
330
1F
100
AcDbEntity
  8
0
  6
Continuous
 62
     7
370
    25
100
AcDbCircle
 10
0.1263142315
 20
0.1235774196
 30
0.0
 40
0.0011527660204658
100
AcDbArc
 50
281.5892601938
 51
7.8819604407
  0
ARC
  5
2AA
330
1F
100
AcDbEntity
  8
0
  6
Continuous
 62
     7
370
    25
100
AcDbCircle
 10
0.1175053282
 20
0.1411281551
 30
0.0
 40
0.0007141428428543
100
AcDbArc
 50
101.421753659
 51
188.0494669755
  0
LINE
  5
2AB
330
1F
100
AcDbEntity
  8
0
  6
Continuous
 62
     7
370
    25
100
AcDbLine
 10
0.1260084144
 20
0.1418281551
 30
0.0
 11
0.1173639068
 21
0.1418281551
 31
0.0
  0
LINE
  5
2AC
330
1F
100
AcDbEntity
  8
0
  6
Continuous
 62
     7
370
    25
100
AcDbLine
 10
0.1260084144
 20
0.1323981551
 30
0.0
 11
0.1260084144
 21
0.1321381551
 31
0.0
  0
LINE
  5
2AD
330
1F
100
AcDbEntity
  8
0
  6
Continuous
 62
     7
370
    25
100
AcDbLine
 10
0.1260084144
 20
0.1321381551
 30
0.0
 11
0.126277115
 21
0.1321381551
 31
0.0
  0
LINE
  5
2AE
330
1F
100
AcDbEntity
  8
0
  6
Continuous
 62
     7
370
    25
100
AcDbLine
 10
0.126277115
 20
0.1321381551
 30
0.0
 11
0.126277115
 21
0.1318781551
 31
0.0
  0
ARC
  5
2AF
330
1F
100
AcDbEntity
  8
0
  6
Continuous
 62
     7
370
    25
100
AcDbCircle
 10
0.1260455309
 20
0.1307488906
 30
0.0
 40
0.0011527660208282
100
AcDbArc
 50
352.1180395779
 51
78.4107397978
  0
LINE
  5
2B0
330
1F
100
AcDbEntity
  8
0
  6
Continuous
 62
     7
370
    25
100
AcDbLine
 10
0.1271874064
 20
0.1305908087
 30
0.0
 11
0.1271874064
 21
0.1237355015
 31
0.0
  0
LINE
  5
2B1
330
1F
100
AcDbEntity
  8
0
  6
Continuous
 62
     7
370
    25
100
AcDbLine
 10
0.126277115
 20
0.1224481551
 30
0.0
 11
0.1173639068
 21
0.1224481551
 31
0.0
  0
ARC
  5
2B2
330
1F
100
AcDbEntity
  8
0
  6
Continuous
 62
     7
370
    25
100
AcDbCircle
 10
0.1175053282
 20
0.1231481551
 30
0.0
 40
0.0007141428428543
100
AcDbArc
 50
171.9505330245
 51
258.578246341
  0
LINE
  5
2B3
330
1F
100
AcDbEntity
  8
0
  6
Continuous
 62
     7
370
    25
100
AcDbLine
 10
0.1167982214
 20
0.1244773306
 30
0.0
 11
0.1167982214
 21
0.1232481551
 31
0.0
  0
ARC
  5
2B4
330
1F
100
AcDbEntity
  8
0
  6
Continuous
 62
     7
370
    25
100
AcDbCircle
 10
0.1175310179
 20
0.1245697807
 30
0.0
 40
0.0007386052849941
100
AcDbArc
 50
107.806233192
 51
187.1904844071
  0
LWPOLYLINE
  5
2B5
330
1F
100
AcDbEntity
  8
0
  6
Continuous
 62
     7
370
    25
100
AcDbPolyline
 90
       93
 70
   128
 43
0.0
 10
0.1173051533
 20
0.125273004
 10
0.1174596555
 20
0.1252993489
 10
0.1176134854
 20
0.1253326464
 10
0.1177664864
 20
0.1253728624
 10
0.1179185031
 20
0.1254199561
 10
0.1180693809
 20
0.1254738797
 10
0.1182189664
 20
0.1255345783
 10
0.1183671076
 20
0.1256019902
 10
0.1185136538
 20
0.1256760468
 10
0.1186584561
 20
0.125756673
 10
0.1188013672
 20
0.1258437867
 10
0.1189422419
 20
0.1259372993
 10
0.1190809369
 20
0.1260371159
 10
0.1192173113
 20
0.1261431348
 10
0.1193512264
 20
0.1262552484
 10
0.1194825461
 20
0.1263733427
 10
0.1196111368
 20
0.1264972976
 10
0.1197368679
 20
0.126626987
 10
0.1198596115
 20
0.1267622792
 10
0.1199792428
 20
0.1269030366
 10
0.1200956403
 20
0.1270491162
 10
0.1202086856
 20
0.1272003693
 10
0.1203182637
 20
0.1273566423
 10
0.1204242633
 20
0.1275177762
 10
0.1205265765
 20
0.1276836073
 10
0.1206250995
 20
0.127853967
 10
0.120719732
 20
0.128028682
 10
0.1208103779
 20
0.1282075748
 10
0.1208969449
 20
0.1283904635
 10
0.120979345
 20
0.1285771622
 10
0.1210574946
 20
0.128767481
 10
0.1211313141
 20
0.1289612265
 10
0.1212007286
 20
0.1291582018
 10
0.1212656673
 20
0.1293582065
 10
0.1213260644
 20
0.1295610373
 10
0.1213818584
 20
0.1297664881
 10
0.1214329926
 20
0.12997435
 10
0.121479415
 20
0.1301844116
 10
0.1215210784
 20
0.1303964595
 10
0.1215579405
 20
0.1306102779
 10
0.1215899638
 20
0.1308256497
 10
0.1216171157
 20
0.1310423557
 10
0.1216393686
 20
0.1312601758
 10
0.1216567
 20
0.1314788885
 10
0.1216690921
 20
0.1316982713
 10
0.1216765324
 20
0.1319181014
 10
0.1216790134
 20
0.1321381551
 10
0.1216765324
 20
0.1323582089
 10
0.1216690921
 20
0.1325780389
 10
0.1216567
 20
0.1327974218
 10
0.1216393686
 20
0.1330161344
 10
0.1216171157
 20
0.1332339545
 10
0.1215899638
 20
0.1334506606
 10
0.1215579405
 20
0.1336660323
 10
0.1215210784
 20
0.1338798508
 10
0.121479415
 20
0.1340918986
 10
0.1214329926
 20
0.1343019603
 10
0.1213818584
 20
0.1345098221
 10
0.1213260644
 20
0.1347152729
 10
0.1212656673
 20
0.1349181038
 10
0.1212007286
 20
0.1351181085
 10
0.1211313141
 20
0.1353150837
 10
0.1210574946
 20
0.1355088292
 10
0.120979345
 20
0.1356991481
 10
0.1208969449
 20
0.1358858467
 10
0.1208103779
 20
0.1360687354
 10
0.120719732
 20
0.1362476282
 10
0.1206250995
 20
0.1364223433
 10
0.1205265765
 20
0.1365927029
 10
0.1204242633
 20
0.136758534
 10
0.1203182637
 20
0.136919668
 10
0.1202086856
 20
0.1370759409
 10
0.1200956403
 20
0.1372271941
 10
0.1199792428
 20
0.1373732736
 10
0.1198596115
 20
0.137514031
 10
0.1197368679
 20
0.1376493232
 10
0.1196111368
 20
0.1377790127
 10
0.1194825461
 20
0.1379029676
 10
0.1193512264
 20
0.1380210618
 10
0.1192173113
 20
0.1381331754
 10
0.1190809369
 20
0.1382391944
 10
0.1189422419
 20
0.1383390109
 10
0.1188013672
 20
0.1384325236
 10
0.1186584561
 20
0.1385196373
 10
0.1185136538
 20
0.1386002634
 10
0.1183671076
 20
0.1386743201
 10
0.1182189664
 20
0.138741732
 10
0.1180693809
 20
0.1388024306
 10
0.1179185031
 20
0.1388563541
 10
0.1177664864
 20
0.1389034479
 10
0.1176134854
 20
0.1389436639
 10
0.1174596555
 20
0.1389769613
 10
0.1173051533
 20
0.1390033063
  0
ARC
  5
2B6
330
1F
100
AcDbEntity
  8
0
  6
Continuous
 62
     7
370
    25
100
AcDbCircle
 10
0.1175310179
 20
0.1397065295
 30
0.0
 40
0.0007386052849942
100
AcDbArc
 50
172.8095155929
 51
252.193766808
  0
LINE
  5
2B7
330
1F
100
AcDbEntity
  8
0
  6
Continuous
 62
     7
370
    25
100
AcDbLine
 10
0.1167982214
 20
0.1410281551
 30
0.0
 11
0.1167982214
 21
0.1397989796
 31
0.0
  0
LWPOLYLINE
  5
2B8
330
1F
100
AcDbEntity
  8
0
  6
Continuous
 62
     7
370
    25
100
AcDbPolyline
 90
       17
 70
   128
 43
0.0
 10
0.1223745896
 20
0.1400881551
 10
0.1223881195
 20
0.1400919611
 10
0.1223995896
 20
0.1401027998
 10
0.1224072537
 20
0.140119021
 10
0.1224099449
 20
0.1401381551
 10
0.1224072537
 20
0.1401572893
 10
0.1223995896
 20
0.1401735105
 10
0.1223881195
 20
0.1401843491
 10
0.1223745896
 20
0.1401881551
 10
0.1223610597
 20
0.1401843491
 10
0.1223495896
 20
0.1401735105
 10
0.1223419255
 20
0.1401572893
 10
0.1223392343
 20
0.1401381551
 10
0.1223419255
 20
0.140119021
 10
0.1223495896
 20
0.1401027998
 10
0.1223610597
 20
0.1400919611
 10
0.1223745896
 20
0.1400881551
  0
LWPOLYLINE
  5
2B9
330
1F
100
AcDbEntity
  8
0
  6
Continuous
 62
     7
370
    25
100
AcDbPolyline
 90
       17
 70
   128
 43
0.0
 10
0.1191173511
 20
0.1400881551
 10
0.119130881
 20
0.1400919611
 10
0.1191423511
 20
0.1401027998
 10
0.1191500152
 20
0.140119021
 10
0.1191527065
 20
0.1401381551
 10
0.1191500152
 20
0.1401572893
 10
0.1191423511
 20
0.1401735105
 10
0.119130881
 20
0.1401843491
 10
0.1191173511
 20
0.1401881551
 10
0.1191038212
 20
0.1401843491
 10
0.1190923511
 20
0.1401735105
 10
0.1190846871
 20
0.1401572893
 10
0.1190819958
 20
0.1401381551
 10
0.1190846871
 20
0.140119021
 10
0.1190923511
 20
0.1401027998
 10
0.1191038212
 20
0.1400919611
 10
0.1191173511
 20
0.1400881551
  0
LWPOLYLINE
  5
2BA
330
1F
100
AcDbEntity
  8
0
  6
Continuous
 62
     7
370
    25
100
AcDbPolyline
 90
       17
 70
   128
 43
0.0
 10
0.1257609271
 20
0.1294081551
 10
0.125774457
 20
0.1294119611
 10
0.1257859271
 20
0.1294227998
 10
0.1257935911
 20
0.129439021
 10
0.1257962824
 20
0.1294581551
 10
0.1257935911
 20
0.1294772893
 10
0.1257859271
 20
0.1294935105
 10
0.125774457
 20
0.1295043491
 10
0.1257609271
 20
0.1295081551
 10
0.1257473972
 20
0.1295043491
 10
0.1257359271
 20
0.1294935105
 10
0.125728263
 20
0.1294772893
 10
0.1257255717
 20
0.1294581551
 10
0.125728263
 20
0.129439021
 10
0.1257359271
 20
0.1294227998
 10
0.1257473972
 20
0.1294119611
 10
0.1257609271
 20
0.1294081551
  0
LWPOLYLINE
  5
2BB
330
1F
100
AcDbEntity
  8
0
  6
Continuous
 62
     7
370
    25
100
AcDbPolyline
 90
       17
 70
   128
 43
0.0
 10
0.1223745896
 20
0.1240881551
 10
0.1223881195
 20
0.1240919611
 10
0.1223995896
 20
0.1241027998
 10
0.1224072537
 20
0.124119021
 10
0.1224099449
 20
0.1241381551
 10
0.1224072537
 20
0.1241572893
 10
0.1223995896
 20
0.1241735105
 10
0.1223881195
 20
0.1241843491
 10
0.1223745896
 20
0.1241881551
 10
0.1223610597
 20
0.1241843491
 10
0.1223495896
 20
0.1241735105
 10
0.1223419255
 20
0.1241572893
 10
0.1223392343
 20
0.1241381551
 10
0.1223419255
 20
0.124119021
 10
0.1223495896
 20
0.1241027998
 10
0.1223610597
 20
0.1240919611
 10
0.1223745896
 20
0.1240881551
  0
LWPOLYLINE
  5
2BC
330
1F
100
AcDbEntity
  8
0
  6
Continuous
 62
     7
370
    25
100
AcDbPolyline
 90
       17
 70
   128
 43
0.0
 10
0.1257609271
 20
0.1240881551
 10
0.125774457
 20
0.1240919611
 10
0.1257859271
 20
0.1241027998
 10
0.1257935911
 20
0.124119021
 10
0.1257962824
 20
0.1241381551
 10
0.1257935911
 20
0.1241572893
 10
0.1257859271
 20
0.1241735105
 10
0.125774457
 20
0.1241843491
 10
0.1257609271
 20
0.1241881551
 10
0.1257473972
 20
0.1241843491
 10
0.1257359271
 20
0.1241735105
 10
0.125728263
 20
0.1241572893
 10
0.1257255717
 20
0.1241381551
 10
0.125728263
 20
0.124119021
 10
0.1257359271
 20
0.1241027998
 10
0.1257473972
 20
0.1240919611
 10
0.1257609271
 20
0.1240881551
  0
LWPOLYLINE
  5
2BD
330
1F
100
AcDbEntity
  8
0
  6
Continuous
 62
     7
370
    25
100
AcDbPolyline
 90
       17
 70
   128
 43
0.0
 10
0.1191173511
 20
0.1240881551
 10
0.119130881
 20
0.1240919611
 10
0.1191423511
 20
0.1241027998
 10
0.1191500152
 20
0.124119021
 10
0.1191527065
 20
0.1241381551
 10
0.1191500152
 20
0.1241572893
 10
0.1191423511
 20
0.1241735105
 10
0.119130881
 20
0.1241843491
 10
0.1191173511
 20
0.1241881551
 10
0.1191038212
 20
0.1241843491
 10
0.1190923511
 20
0.1241735105
 10
0.1190846871
 20
0.1241572893
 10
0.1190819958
 20
0.1241381551
 10
0.1190846871
 20
0.124119021
 10
0.1190923511
 20
0.1241027998
 10
0.1191038212
 20
0.1240919611
 10
0.1191173511
 20
0.1240881551
  0
LINE
  5
2BE
330
1F
100
AcDbEntity
  8
0
  6
Continuous
 62
     7
370
    25
100
AcDbLine
 10
0.1274561069
 20
0.1305908087
 30
0.0
 11
0.1274561069
 21
0.1237355015
 31
0.0
  0
LINE
  5
2BF
330
1F
100
AcDbEntity
  8
0
  6
Continuous
 62
     7
370
    25
100
AcDbLine
 10
0.126277115
 20
0.1318781551
 30
0.0
 11
0.1265458156
 21
0.1318781551
 31
0.0
  0
ARC
  5
2C0
330
1F
100
AcDbEntity
  8
0
  6
Continuous
 62
     7
370
    25
100
AcDbCircle
 10
0.1263142315
 20
0.1307488906
 30
0.0
 40
0.0011527660208282
100
AcDbArc
 50
352.1180395779
 51
78.4107397978
  0
LINE
  5
2C1
330
1F
100
AcDbEntity
  8
0
  6
Continuous
 62
     7
370
    25
100
AcDbLine
 10
0.126277115
 20
0.1321381551
 30
0.0
 11
0.1265458156
 21
0.1321381551
 31
0.0
  0
LINE
  5
2C2
330
1F
100
AcDbEntity
  8
0
  6
Continuous
 62
     7
370
    25
100
AcDbLine
 10
0.1265458156
 20
0.1321381551
 30
0.0
 11
0.1265458156
 21
0.1318781551
 31
0.0
  0
ARC
  5
2C3
330
1F
100
AcDbEntity
  8
0
  6
Continuous
 62
     7
370
    25
100
AcDbCircle
 10
0.1350489018
 20
0.1231481551
 30
0.0
 40
0.0007141428428543
100
AcDbArc
 50
281.421753659
 51
8.0494669755
  0
LINE
  5
2C4
330
1F
100
AcDbEntity
  8
0
  6
Continuous
 62
     7
370
    25
100
AcDbLine
 10
0.1265458156
 20
0.1224481551
 30
0.0
 11
0.1351903232
 21
0.1224481551
 31
0.0
  0
LINE
  5
2C5
330
1F
100
AcDbEntity
  8
0
  6
Continuous
 62
     7
370
    25
100
AcDbLine
 10
0.126277115
 20
0.1321381551
 30
0.0
 11
0.126277115
 21
0.1323981551
 31
0.0
  0
ARC
  5
2C6
330
1F
100
AcDbEntity
  8
0
  6
Continuous
 62
     7
370
    25
100
AcDbCircle
 10
0.1265086991
 20
0.1335274196
 30
0.0
 40
0.0011527660208282
100
AcDbArc
 50
172.1180395779
 51
258.4107397977
  0
LINE
  5
2C7
330
1F
100
AcDbEntity
  8
0
  6
Continuous
 62
     7
370
    25
100
AcDbLine
 10
0.1253668237
 20
0.1336855015
 30
0.0
 11
0.1253668237
 21
0.1405408087
 31
0.0
  0
ARC
  5
2C8
330
1F
100
AcDbEntity
  8
0
  6
Continuous
 62
     7
370
    25
100
AcDbCircle
 10
0.1265086991
 20
0.1406988906
 30
0.0
 40
0.0011527660204657
100
AcDbArc
 50
101.5892601938
 51
187.8819604407
  0
LINE
  5
2C9
330
1F
100
AcDbEntity
  8
0
  6
Continuous
 62
     7
370
    25
100
AcDbLine
 10
0.126277115
 20
0.1418281551
 30
0.0
 11
0.1351903232
 21
0.1418281551
 31
0.0
  0
ARC
  5
2CA
330
1F
100
AcDbEntity
  8
0
  6
Continuous
 62
     7
370
    25
100
AcDbCircle
 10
0.1350489018
 20
0.1411281551
 30
0.0
 40
0.0007141428428542
100
AcDbArc
 50
351.9505330245
 51
78.578246341
  0
LINE
  5
2CB
330
1F
100
AcDbEntity
  8
0
  6
Continuous
 62
     7
370
    25
100
AcDbLine
 10
0.1357560086
 20
0.1397989796
 30
0.0
 11
0.1357560086
 21
0.1410281551
 31
0.0
  0
ARC
  5
2CC
330
1F
100
AcDbEntity
  8
0
  6
Continuous
 62
     7
370
    25
100
AcDbCircle
 10
0.1350232121
 20
0.1397065295
 30
0.0
 40
0.0007386052849941
100
AcDbArc
 50
287.806233192
 51
7.1904844071
  0
LWPOLYLINE
  5
2CD
330
1F
100
AcDbEntity
  8
0
  6
Continuous
 62
     7
370
    25
100
AcDbPolyline
 90
       93
 70
   128
 43
0.0
 10
0.1352490768
 20
0.1390033063
 10
0.1350945745
 20
0.1389769613
 10
0.1349407446
 20
0.1389436639
 10
0.1347877436
 20
0.1389034479
 10
0.1346357269
 20
0.1388563541
 10
0.1344848491
 20
0.1388024306
 10
0.1343352636
 20
0.138741732
 10
0.1341871224
 20
0.1386743201
 10
0.1340405762
 20
0.1386002634
 10
0.133895774
 20
0.1385196373
 10
0.1337528628
 20
0.1384325236
 10
0.1336119882
 20
0.1383390109
 10
0.1334732931
 20
0.1382391944
 10
0.1333369187
 20
0.1381331754
 10
0.1332030036
 20
0.1380210618
 10
0.133071684
 20
0.1379029676
 10
0.1329430932
 20
0.1377790127
 10
0.1328173621
 20
0.1376493232
 10
0.1326946185
 20
0.137514031
 10
0.1325749872
 20
0.1373732736
 10
0.1324585897
 20
0.1372271941
 10
0.1323455445
 20
0.1370759409
 10
0.1322359663
 20
0.136919668
 10
0.1321299668
 20
0.136758534
 10
0.1320276535
 20
0.1365927029
 10
0.1319291305
 20
0.1364223433
 10
0.131834498
 20
0.1362476282
 10
0.1317438522
 20
0.1360687354
 10
0.1316572852
 20
0.1358858467
 10
0.131574885
 20
0.1356991481
 10
0.1314967354
 20
0.1355088292
 10
0.1314229159
 20
0.1353150837
 10
0.1313535015
 20
0.1351181085
 10
0.1312885627
 20
0.1349181038
 10
0.1312281656
 20
0.1347152729
 10
0.1311723716
 20
0.1345098221
 10
0.1311212374
 20
0.1343019603
 10
0.131074815
 20
0.1340918986
 10
0.1310331516
 20
0.1338798508
 10
0.1309962895
 20
0.1336660323
 10
0.1309642663
 20
0.1334506606
 10
0.1309371143
 20
0.1332339545
 10
0.1309148614
 20
0.1330161344
 10
0.1308975301
 20
0.1327974218
 10
0.1308851379
 20
0.1325780389
 10
0.1308776976
 20
0.1323582089
 10
0.1308752167
 20
0.1321381551
 10
0.1308776976
 20
0.1319181014
 10
0.1308851379
 20
0.1316982713
 10
0.1308975301
 20
0.1314788885
 10
0.1309148614
 20
0.1312601758
 10
0.1309371143
 20
0.1310423557
 10
0.1309642663
 20
0.1308256497
 10
0.1309962895
 20
0.1306102779
 10
0.1310331516
 20
0.1303964595
 10
0.131074815
 20
0.1301844116
 10
0.1311212374
 20
0.12997435
 10
0.1311723716
 20
0.1297664881
 10
0.1312281656
 20
0.1295610373
 10
0.1312885627
 20
0.1293582065
 10
0.1313535015
 20
0.1291582018
 10
0.1314229159
 20
0.1289612265
 10
0.1314967354
 20
0.128767481
 10
0.131574885
 20
0.1285771622
 10
0.1316572852
 20
0.1283904635
 10
0.1317438522
 20
0.1282075748
 10
0.131834498
 20
0.128028682
 10
0.1319291305
 20
0.127853967
 10
0.1320276535
 20
0.1276836073
 10
0.1321299668
 20
0.1275177762
 10
0.1322359663
 20
0.1273566423
 10
0.1323455445
 20
0.1272003693
 10
0.1324585897
 20
0.1270491162
 10
0.1325749872
 20
0.1269030366
 10
0.1326946185
 20
0.1267622792
 10
0.1328173621
 20
0.126626987
 10
0.1329430932
 20
0.1264972976
 10
0.133071684
 20
0.1263733427
 10
0.1332030036
 20
0.1262552484
 10
0.1333369187
 20
0.1261431348
 10
0.1334732931
 20
0.1260371159
 10
0.1336119882
 20
0.1259372993
 10
0.1337528628
 20
0.1258437867
 10
0.133895774
 20
0.125756673
 10
0.1340405762
 20
0.1256760468
 10
0.1341871224
 20
0.1256019902
 10
0.1343352636
 20
0.1255345783
 10
0.1344848491
 20
0.1254738797
 10
0.1346357269
 20
0.1254199561
 10
0.1347877436
 20
0.1253728624
 10
0.1349407446
 20
0.1253326464
 10
0.1350945745
 20
0.1252993489
 10
0.1352490768
 20
0.125273004
  0
ARC
  5
2CE
330
1F
100
AcDbEntity
  8
0
  6
Continuous
 62
     7
370
    25
100
AcDbCircle
 10
0.1350232121
 20
0.1245697807
 30
0.0
 40
0.0007386052849942
100
AcDbArc
 50
352.8095155929
 51
72.193766808
  0
LINE
  5
2CF
330
1F
100
AcDbEntity
  8
0
  6
Continuous
 62
     7
370
    25
100
AcDbLine
 10
0.1357560086
 20
0.1232481551
 30
0.0
 11
0.1357560086
 21
0.1244773306
 31
0.0
  0
LWPOLYLINE
  5
2D0
330
1F
100
AcDbEntity
  8
0
  6
Continuous
 62
     7
370
    25
100
AcDbPolyline
 90
       17
 70
   128
 43
0.0
 10
0.1301796404
 20
0.1241881551
 10
0.1301661105
 20
0.1241843491
 10
0.1301546404
 20
0.1241735105
 10
0.1301469763
 20
0.1241572893
 10
0.1301442851
 20
0.1241381551
 10
0.1301469763
 20
0.124119021
 10
0.1301546404
 20
0.1241027998
 10
0.1301661105
 20
0.1240919611
 10
0.1301796404
 20
0.1240881551
 10
0.1301931703
 20
0.1240919611
 10
0.1302046404
 20
0.1241027998
 10
0.1302123045
 20
0.124119021
 10
0.1302149958
 20
0.1241381551
 10
0.1302123045
 20
0.1241572893
 10
0.1302046404
 20
0.1241735105
 10
0.1301931703
 20
0.1241843491
 10
0.1301796404
 20
0.1241881551
  0
LWPOLYLINE
  5
2D1
330
1F
100
AcDbEntity
  8
0
  6
Continuous
 62
     7
370
    25
100
AcDbPolyline
 90
       17
 70
   128
 43
0.0
 10
0.1334368789
 20
0.1241881551
 10
0.133423349
 20
0.1241843491
 10
0.1334118789
 20
0.1241735105
 10
0.1334042148
 20
0.1241572893
 10
0.1334015236
 20
0.1241381551
 10
0.1334042148
 20
0.124119021
 10
0.1334118789
 20
0.1241027998
 10
0.133423349
 20
0.1240919611
 10
0.1334368789
 20
0.1240881551
 10
0.1334504088
 20
0.1240919611
 10
0.1334618789
 20
0.1241027998
 10
0.133469543
 20
0.124119021
 10
0.1334722342
 20
0.1241381551
 10
0.133469543
 20
0.1241572893
 10
0.1334618789
 20
0.1241735105
 10
0.1334504088
 20
0.1241843491
 10
0.1334368789
 20
0.1241881551
  0
LWPOLYLINE
  5
2D2
330
1F
100
AcDbEntity
  8
0
  6
Continuous
 62
     7
370
    25
100
AcDbPolyline
 90
       17
 70
   128
 43
0.0
 10
0.126793303
 20
0.1348681551
 10
0.1267797731
 20
0.1348643491
 10
0.126768303
 20
0.1348535105
 10
0.1267606389
 20
0.1348372893
 10
0.1267579476
 20
0.1348181551
 10
0.1267606389
 20
0.134799021
 10
0.126768303
 20
0.1347827998
 10
0.1267797731
 20
0.1347719611
 10
0.126793303
 20
0.1347681551
 10
0.1268068329
 20
0.1347719611
 10
0.126818303
 20
0.1347827998
 10
0.126825967
 20
0.134799021
 10
0.1268286583
 20
0.1348181551
 10
0.126825967
 20
0.1348372893
 10
0.126818303
 20
0.1348535105
 10
0.1268068329
 20
0.1348643491
 10
0.126793303
 20
0.1348681551
  0
LWPOLYLINE
  5
2D3
330
1F
100
AcDbEntity
  8
0
  6
Continuous
 62
     7
370
    25
100
AcDbPolyline
 90
       17
 70
   128
 43
0.0
 10
0.1301796404
 20
0.1401881551
 10
0.1301661105
 20
0.1401843491
 10
0.1301546404
 20
0.1401735105
 10
0.1301469763
 20
0.1401572893
 10
0.1301442851
 20
0.1401381551
 10
0.1301469763
 20
0.140119021
 10
0.1301546404
 20
0.1401027998
 10
0.1301661105
 20
0.1400919611
 10
0.1301796404
 20
0.1400881551
 10
0.1301931703
 20
0.1400919611
 10
0.1302046404
 20
0.1401027998
 10
0.1302123045
 20
0.140119021
 10
0.1302149958
 20
0.1401381551
 10
0.1302123045
 20
0.1401572893
 10
0.1302046404
 20
0.1401735105
 10
0.1301931703
 20
0.1401843491
 10
0.1301796404
 20
0.1401881551
  0
LWPOLYLINE
  5
2D4
330
1F
100
AcDbEntity
  8
0
  6
Continuous
 62
     7
370
    25
100
AcDbPolyline
 90
       17
 70
   128
 43
0.0
 10
0.126793303
 20
0.1401881551
 10
0.1267797731
 20
0.1401843491
 10
0.126768303
 20
0.1401735105
 10
0.1267606389
 20
0.1401572893
 10
0.1267579476
 20
0.1401381551
 10
0.1267606389
 20
0.140119021
 10
0.126768303
 20
0.1401027998
 10
0.1267797731
 20
0.1400919611
 10
0.126793303
 20
0.1400881551
 10
0.1268068329
 20
0.1400919611
 10
0.126818303
 20
0.1401027998
 10
0.126825967
 20
0.140119021
 10
0.1268286583
 20
0.1401381551
 10
0.126825967
 20
0.1401572893
 10
0.126818303
 20
0.1401735105
 10
0.1268068329
 20
0.1401843491
 10
0.126793303
 20
0.1401881551
  0
LWPOLYLINE
  5
2D5
330
1F
100
AcDbEntity
  8
0
  6
Continuous
 62
     7
370
    25
100
AcDbPolyline
 90
       17
 70
   128
 43
0.0
 10
0.1334368789
 20
0.1401881551
 10
0.133423349
 20
0.1401843491
 10
0.1334118789
 20
0.1401735105
 10
0.1334042148
 20
0.1401572893
 10
0.1334015236
 20
0.1401381551
 10
0.1334042148
 20
0.140119021
 10
0.1334118789
 20
0.1401027998
 10
0.133423349
 20
0.1400919611
 10
0.1334368789
 20
0.1400881551
 10
0.1334504088
 20
0.1400919611
 10
0.1334618789
 20
0.1401027998
 10
0.133469543
 20
0.140119021
 10
0.1334722342
 20
0.1401381551
 10
0.133469543
 20
0.1401572893
 10
0.1334618789
 20
0.1401735105
 10
0.1334504088
 20
0.1401843491
 10
0.1334368789
 20
0.1401881551
  0
LINE
  5
2D6
330
1F
100
AcDbEntity
  8
0
  6
Continuous
 62
     7
370
    25
100
AcDbLine
 10
0.126277115
 20
0.1418281551
 30
0.0
 11
0.1260084144
 21
0.1418281551
 31
0.0
  0
ARC
  5
2D7
330
1F
100
AcDbEntity
  8
0
  6
Continuous
 62
     7
370
    25
100
AcDbCircle
 10
0.1262399986
 20
0.1406988906
 30
0.0
 40
0.0011527660204658
100
AcDbArc
 50
101.5892601938
 51
187.8819604407
  0
LINE
  5
2D8
330
1F
100
AcDbEntity
  8
0
  6
Continuous
 62
     7
370
    25
100
AcDbLine
 10
0.1250981231
 20
0.1336855015
 30
0.0
 11
0.1250981231
 21
0.1405408087
 31
0.0
  0
LINE
  5
2D9
330
1F
100
AcDbEntity
  8
0
  6
Continuous
 62
     7
370
    25
100
AcDbLine
 10
0.126277115
 20
0.1323981551
 30
0.0
 11
0.1260084144
 21
0.1323981551
 31
0.0
  0
ARC
  5
2DA
330
1F
100
AcDbEntity
  8
0
  6
Continuous
 62
     7
370
    25
100
AcDbCircle
 10
0.1262399986
 20
0.1335274196
 30
0.0
 40
0.0011527660208282
100
AcDbArc
 50
172.1180395779
 51
258.4107397978
  0
LINE
  5
2DB
330
1F
100
AcDbEntity
  8
0
  6
Continuous
 62
     7
370
    18
100
AcDbLine
 10
0.138082308
 20
0.2325830887
 30
0.0
 11
0.1622469826
 21
0.2225027032
 31
0.0
  0
LINE
  5
2DC
330
1F
100
AcDbEntity
  8
0
  6
Continuous
 62
     7
370
    18
100
AcDbLine
 10
0.1811890314
 20
0.1940768524
 30
0.0
 11
0.1809570527
 21
0.1673046893
 31
0.0
  0
LINE
  5
2DD
330
1F
100
AcDbEntity
  8
0
  6
Continuous
 62
     7
370
    18
100
AcDbLine
 10
0.175077115
 20
0.1322837098
 30
0.0
 11
0.175077115
 21
0.1492041231
 31
0.0
  0
LINE
  5
2DE
330
1F
100
AcDbEntity
  8
0
  6
Continuous
 62
     7
370
    18
100
AcDbLine
 10
0.1627078842
 20
0.0964375559
 30
0.0
 11
0.1727078842
 21
0.1204375559
 31
0.0
  0
LINE
  5
2DF
330
1F
100
AcDbEntity
  8
0
  6
Continuous
 62
     7
370
    18
100
AcDbLine
 10
0.134277115
 20
0.0774837098
 30
0.0
 11
0.118277115
 21
0.0774837098
 31
0.0
  0
LINE
  5
2E0
330
1F
100
AcDbEntity
  8
0
  6
Continuous
 62
     7
370
    18
100
AcDbLine
 10
0.0579273072
 20
0.0970837098
 30
0.0
 11
0.080711173
 21
0.0970837098
 31
0.0
  0
LINE
  5
2E1
330
1F
100
AcDbEntity
  8
0
  6
Continuous
 62
     7
370
    18
100
AcDbLine
 10
0.0379273072
 20
0.1374837098
 30
0.0
 11
0.0379273072
 21
0.1270837098
 31
0.0
  0
LINE
  5
2E2
330
1F
100
AcDbEntity
  8
0
  6
Continuous
 62
     7
370
    18
100
AcDbLine
 10
0.0579273072
 20
0.1674837098
 30
0.0
 11
0.072477115
 21
0.1674837098
 31
0.0
  0
LINE
  5
2E3
330
1F
100
AcDbEntity
  8
0
  6
Continuous
 62
     7
370
    18
100
AcDbLine
 10
0.0907287575
 20
0.2020578885
 30
0.0
 11
0.0988513253
 21
0.2179966046
 31
0.0
  0
LINE
  5
2E4
330
1F
100
AcDbEntity
  8
0
  6
Continuous
 62
     7
370
    18
100
AcDbLine
 10
0.087477115
 20
0.1882837098
 30
0.0
 11
0.087477115
 21
0.1824837098
 31
0.0
  0
LINE
  5
2E5
330
1F
100
AcDbEntity
  8
0
  6
Continuous
 62
     7
370
    18
100
AcDbLine
 10
0.126277115
 20
0.2349466749
 30
0.0
 11
0.1224399341
 21
0.2349466749
 31
0.0
  0
ARC
  5
2E6
330
1F
100
AcDbEntity
  8
0
  6
Continuous
 62
     7
370
    18
100
AcDbCircle
 10
0.126277115
 20
0.2042837098
 30
0.0
 40
0.030662965095378
100
AcDbArc
 50
67.3563580627
 51
153.4349488229
  0
ARC
  5
2E7
330
1F
100
AcDbEntity
  8
0
  6
Continuous
 62
     7
370
    18
100
AcDbCircle
 10
0.1503890314
 20
0.1940768524
 30
0.0
 40
0.0308000000000002
100
AcDbArc
 50
0.0
 51
67.3563580627
  0
ARC
  5
2E8
330
1F
100
AcDbEntity
  8
0
  6
Continuous
 62
     7
370
    18
100
AcDbCircle
 10
0.1501570527
 20
0.1673046893
 30
0.0
 40
0.0308000000000002
100
AcDbArc
 50
324.0074027988
 51
0.0
  0
ARC
  5
2E9
330
1F
100
AcDbEntity
  8
0
  6
Continuous
 62
     7
370
    18
100
AcDbCircle
 10
0.144277115
 20
0.1322837098
 30
0.0
 40
0.0307999999999996
100
AcDbArc
 50
337.380135052
 51
0.0
  0
ARC
  5
2EA
330
1F
100
AcDbEntity
  8
0
  6
Continuous
 62
     7
370
    18
100
AcDbCircle
 10
0.134277115
 20
0.1082837098
 30
0.0
 40
0.0308000000000002
100
AcDbArc
 50
270.0
 51
337.380135052
  0
ARC
  5
2EB
330
1F
100
AcDbEntity
  8
0
  6
Continuous
 62
     7
370
    18
100
AcDbCircle
 10
0.118277115
 20
0.1082837098
 30
0.0
 40
0.0308
100
AcDbArc
 50
214.8934703302
 51
270.0
  0
ARC
  5
2EC
330
1F
100
AcDbEntity
  8
0
  6
Continuous
 62
     7
370
    18
100
AcDbCircle
 10
0.080711173
 20
0.0820837098
 30
0.0
 40
0.015
100
AcDbArc
 50
34.8934703302
 51
90.0
  0
ARC
  5
2ED
330
1F
100
AcDbEntity
  8
0
  6
Continuous
 62
     7
370
    18
100
AcDbCircle
 10
0.0579273072
 20
0.1120837098
 30
0.0
 40
0.015
100
AcDbArc
 50
216.8698976458
 51
270.0
  0
ARC
  5
2EE
330
1F
100
AcDbEntity
  8
0
  6
Continuous
 62
     7
370
    18
100
AcDbCircle
 10
0.0779273072
 20
0.1270837098
 30
0.0
 40
0.04
100
AcDbArc
 50
180.0
 51
216.8698976458
  0
ARC
  5
2EF
330
1F
100
AcDbEntity
  8
0
  6
Continuous
 62
     7
370
    18
100
AcDbCircle
 10
0.0779273072
 20
0.1374837098
 30
0.0
 40
0.04
100
AcDbArc
 50
143.1301023542
 51
180.0
  0
ARC
  5
2F0
330
1F
100
AcDbEntity
  8
0
  6
Continuous
 62
     7
370
    18
100
AcDbCircle
 10
0.0579273072
 20
0.1524837098
 30
0.0
 40
0.015
100
AcDbArc
 50
90.0
 51
143.1301023542
  0
ARC
  5
2F1
330
1F
100
AcDbEntity
  8
0
  6
Continuous
 62
     7
370
    18
100
AcDbCircle
 10
0.072477115
 20
0.1824837098
 30
0.0
 40
0.015
100
AcDbArc
 50
270.0
 51
0.0
  0
ARC
  5
2F2
330
1F
100
AcDbEntity
  8
0
  6
Continuous
 62
     7
370
    18
100
AcDbCircle
 10
0.118277115
 20
0.1882837098
 30
0.0
 40
0.0308
100
AcDbArc
 50
153.4349488229
 51
180.0
  0
ENDSEC
  0
SECTION
  2
OBJECTS
  0
DICTIONARY
  5
C
330
0
100
AcDbDictionary
281
     1
  3
ACAD_DETAILVIEWSTYLE
350
2FB
  3
ACAD_GROUP
350
D
  3
ACAD_LAYOUT
350
1A
  3
ACAD_MATERIAL
350
43
  3
ACAD_MLEADERSTYLE
350
6B
  3
ACAD_MLINESTYLE
350
17
  3
ACAD_PLOTSETTINGS
350
19
  3
ACAD_PLOTSTYLENAME
350
E
  3
ACAD_SCALELIST
350
47
  3
ACAD_SECTIONVIEWSTYLE
350
2FC
  3
ACAD_TABLESTYLE
350
69
  3
ACAD_VISUALSTYLE
350
2A
  3
ACDB_RECOMPOSE_DATA
350
2F8
  3
AcDbVariableDictionary
350
2F3
  0
SUN
  5
6D
330
29
100
AcDbSun
 90
        1
290
     0
 63
     7
421
 16777215
 40
1.0
291
     1
 91
  2455826
 92
 54000000
292
     0
 70
     2
 71
   256
280
     1
  0
DICTIONARY
  5
2FB
102
{ACAD_REACTORS
330
C
102
}
330
C
100
AcDbDictionary
281
     1
  0
DICTIONARY
  5
D
102
{ACAD_REACTORS
330
C
102
}
330
C
100
AcDbDictionary
281
     1
  0
DICTIONARY
  5
1A
102
{ACAD_REACTORS
330
C
102
}
330
C
100
AcDbDictionary
281
     1
  3
Layout1
350
1E
  3
Layout2
350
26
  3
Model
350
22
  0
DICTIONARY
  5
43
102
{ACAD_REACTORS
330
C
102
}
330
C
100
AcDbDictionary
281
     1
  3
ByBlock
350
45
  3
ByLayer
350
44
  3
Global
350
46
  0
DICTIONARY
  5
6B
102
{ACAD_REACTORS
330
C
102
}
330
C
100
AcDbDictionary
281
     1
  3
Standard
350
6C
  0
DICTIONARY
  5
17
102
{ACAD_REACTORS
330
C
102
}
330
C
100
AcDbDictionary
281
     1
  3
Standard
350
18
  0
DICTIONARY
  5
19
102
{ACAD_REACTORS
330
C
102
}
330
C
100
AcDbDictionary
281
     1
  0
ACDBDICTIONARYWDFLT
  5
E
102
{ACAD_REACTORS
330
C
102
}
330
C
100
AcDbDictionary
281
     1
  3
Normal
350
F
100
AcDbDictionaryWithDefault
340
F
  0
DICTIONARY
  5
47
102
{ACAD_REACTORS
330
C
102
}
330
C
100
AcDbDictionary
281
     1
  3
A0
350
48
  3
A1
350
49
  3
A2
350
4A
  3
A3
350
4B
  3
A4
350
4C
  3
A5
350
4D
  3
A6
350
4E
  3
A7
350
4F
  3
A8
350
50
  3
A9
350
51
  3
B0
350
52
  3
B1
350
53
  3
B2
350
54
  3
B3
350
55
  3
B4
350
56
  3
B5
350
57
  3
B6
350
58
  3
B7
350
59
  3
B8
350
5A
  3
B9
350
5B
  3
C0
350
5C
  3
C1
350
5D
  3
C2
350
5E
  3
C3
350
5F
  3
C4
350
60
  3
C5
350
61
  3
C6
350
62
  3
C7
350
63
  3
C8
350
64
  3
C9
350
65
  3
D0
350
66
  3
D1
350
67
  3
D2
350
68
  0
DICTIONARY
  5
2FC
102
{ACAD_REACTORS
330
C
102
}
330
C
100
AcDbDictionary
281
     1
  0
DICTIONARY
  5
69
102
{ACAD_REACTORS
330
C
102
}
330
C
100
AcDbDictionary
281
     1
  3
Standard
350
6A
  0
DICTIONARY
  5
2A
102
{ACAD_REACTORS
330
C
102
}
330
C
100
AcDbDictionary
281
     1
  3
2dWireframe
350
2F
  3
Basic
350
32
  3
Brighten
350
36
  3
ColorChange
350
3A
  3
Conceptual
350
34
  3
Dim
350
35
  3
EdgeColorOff
350
3D
  3
Facepattern
350
39
  3
Flat
350
2B
  3
FlatWithEdges
350
2C
  3
Gouraud
350
2D
  3
GouraudWithEdges
350
2E
  3
Hidden
350
31
  3
JitterOff
350
3B
  3
Linepattern
350
38
  3
OverhangOff
350
3C
  3
Realistic
350
33
  3
Shaded
350
42
  3
Shaded with edges
350
41
  3
Shades of Gray
350
3E
  3
Sketchy
350
3F
  3
Thicken
350
37
  3
Wireframe
350
30
  3
X-Ray
350
40
  0
XRECORD
  5
2F8
102
{ACAD_REACTORS
330
C
102
}
330
C
100
AcDbXrecord
280
     1
 90
        1
330
6A
  0
DICTIONARY
  5
2F3
102
{ACAD_REACTORS
330
C
102
}
330
C
100
AcDbDictionary
281
     1
  3
CANNOSCALE
350
2F4
  3
CMLEADERSTYLE
350
2FA
  3
CTABLESTYLE
350
2F9
  0
LAYOUT
  5
1E
102
{ACAD_REACTORS
330
1A
102
}
330
1A
100
AcDbPlotSettings
  1

  2
none_device
  4

  6

 40
0.0
 41
0.0
 42
0.0
 43
0.0
 44
0.0
 45
0.0
 46
0.0
 47
0.0
 48
0.0
 49
0.0
140
0.0
141
0.0
142
1.0
143
1.0
 70
   688
 72
     1
 73
     0
 74
     5
  7

 75
    16
 76
     0
 77
     2
 78
   300
147
1.0
148
0.0
149
0.0
100
AcDbLayout
  1
Layout1
 70
     1
 71
     1
 10
0.0
 20
0.0
 11
420.0
 21
297.0
 12
0.0
 22
0.0
 32
0.0
 14
1.0000000000E+20
 24
1.0000000000E+20
 34
1.0000000000E+20
 15
-1.0000000000E+20
 25
-1.0000000000E+20
 35
-1.0000000000E+20
146
0.0
 13
0.0
 23
0.0
 33
0.0
 16
1.0
 26
0.0
 36
0.0
 17
0.0
 27
1.0
 37
0.0
 76
     0
330
1B
  0
LAYOUT
  5
26
102
{ACAD_REACTORS
330
1A
102
}
330
1A
100
AcDbPlotSettings
  1

  2
none_device
  4

  6

 40
0.0
 41
0.0
 42
0.0
 43
0.0
 44
0.0
 45
0.0
 46
0.0
 47
0.0
 48
0.0
 49
0.0
140
0.0
141
0.0
142
1.0
143
1.0
 70
   688
 72
     1
 73
     0
 74
     5
  7

 75
    16
 76
     0
 77
     2
 78
   300
147
1.0
148
0.0
149
0.0
100
AcDbLayout
  1
Layout2
 70
     1
 71
     2
 10
0.0
 20
0.0
 11
0.0
 21
0.0
 12
0.0
 22
0.0
 32
0.0
 14
0.0
 24
0.0
 34
0.0
 15
0.0
 25
0.0
 35
0.0
146
0.0
 13
0.0
 23
0.0
 33
0.0
 16
1.0
 26
0.0
 36
0.0
 17
0.0
 27
1.0
 37
0.0
 76
     0
330
23
  0
LAYOUT
  5
22
102
{ACAD_REACTORS
330
1A
102
}
330
1A
100
AcDbPlotSettings
  1

  2
none_device
  4
Letter_(8.50_x_11.00_Inches)
  6

 40
6.35
 41
6.35
 42
6.35000508
 43
6.35000508
 44
215.9
 45
279.4
 46
0.0
 47
0.0
 48
0.0
 49
0.0
140
0.0
141
0.0
142
1.0
143
1.0
 70
  1712
 72
     1
 73
     0
 74
     0
  7

 75
     0
 76
     0
 77
     2
 78
   300
147
1.0
148
0.0
149
0.0
100
AcDbLayout
  1
Model
 70
     1
 71
     0
 10
0.0
 20
0.0
 11
0.21
 21
0.297
 12
0.0
 22
0.0
 32
0.0
 14
0.0
 24
0.0
 34
0.0
 15
0.21
 25
0.297
 35
0.0
146
0.0
 13
0.0
 23
0.0
 33
0.0
 16
1.0
 26
0.0
 36
0.0
 17
0.0
 27
1.0
 37
0.0
 76
     0
330
1F
331
29
  0
MATERIAL
  5
45
102
{ACAD_REACTORS
330
43
102
}
330
43
100
AcDbMaterial
  1
ByBlock
 72
     1
 94
      127
  0
MATERIAL
  5
44
102
{ACAD_REACTORS
330
43
102
}
330
43
100
AcDbMaterial
  1
ByLayer
 72
     1
 94
      127
  0
MATERIAL
  5
46
102
{ACAD_REACTORS
330
43
102
}
330
43
100
AcDbMaterial
  1
Global
 72
     1
 94
      127
  0
MLEADERSTYLE
  5
6C
102
{ACAD_REACTORS
330
6B
102
}
330
6B
100
AcDbMLeaderStyle
170
     2
171
     1
172
     0
 90
        2
 40
0.0
 41
0.0
173
     1
 91
-1056964608
340
14
 92
       -2
290
     1
 42
2.0
291
     1
 43
8.0
  3
Standard
341
0
 44
4.0
300

342
11
174
     1
178
     6
175
     1
176
     0
 93
-1056964608
 45
4.0
292
     0
297
     0
 46
4.0
343
0
 94
-1056964608
 47
1.0
 49
1.0
140
1.0
293
     1
141
0.0
294
     1
177
     0
142
1.0
295
     0
296
     0
143
3.75
1001
ACAD_MLEADERVER
1070
     2
  0
MLINESTYLE
  5
18
102
{ACAD_REACTORS
330
17
102
}
330
17
100
AcDbMlineStyle
  2
Standard
 70
     0
  3

 62
   256
 51
90.0
 52
90.0
 71
     2
 49
0.5
 62
   256
  6
BYLAYER
 49
-0.5
 62
   256
  6
BYLAYER
  0
ACDBPLACEHOLDER
  5
F
102
{ACAD_REACTORS
330
E
102
}
330
E
  0
SCALE
  5
48
102
{ACAD_REACTORS
330
47
102
}
330
47
100
AcDbScale
 70
     0
300
1:1
140
1.0
141
1.0
290
     1
  0
SCALE
  5
49
102
{ACAD_REACTORS
330
47
102
}
330
47
100
AcDbScale
 70
     0
300
1:2
140
1.0
141
2.0
290
     0
  0
SCALE
  5
4A
102
{ACAD_REACTORS
330
47
102
}
330
47
100
AcDbScale
 70
     0
300
1:4
140
1.0
141
4.0
290
     0
  0
SCALE
  5
4B
102
{ACAD_REACTORS
330
47
102
}
330
47
100
AcDbScale
 70
     0
300
1:5
140
1.0
141
5.0
290
     0
  0
SCALE
  5
4C
102
{ACAD_REACTORS
330
47
102
}
330
47
100
AcDbScale
 70
     0
300
1:8
140
1.0
141
8.0
290
     0
  0
SCALE
  5
4D
102
{ACAD_REACTORS
330
47
102
}
330
47
100
AcDbScale
 70
     0
300
1:10
140
1.0
141
10.0
290
     0
  0
SCALE
  5
4E
102
{ACAD_REACTORS
330
47
102
}
330
47
100
AcDbScale
 70
     0
300
1:16
140
1.0
141
16.0
290
     0
  0
SCALE
  5
4F
102
{ACAD_REACTORS
330
47
102
}
330
47
100
AcDbScale
 70
     0
300
1:20
140
1.0
141
20.0
290
     0
  0
SCALE
  5
50
102
{ACAD_REACTORS
330
47
102
}
330
47
100
AcDbScale
 70
     0
300
1:30
140
1.0
141
30.0
290
     0
  0
SCALE
  5
51
102
{ACAD_REACTORS
330
47
102
}
330
47
100
AcDbScale
 70
     0
300
1:40
140
1.0
141
40.0
290
     0
  0
SCALE
  5
52
102
{ACAD_REACTORS
330
47
102
}
330
47
100
AcDbScale
 70
     0
300
1:50
140
1.0
141
50.0
290
     0
  0
SCALE
  5
53
102
{ACAD_REACTORS
330
47
102
}
330
47
100
AcDbScale
 70
     0
300
1:100
140
1.0
141
100.0
290
     0
  0
SCALE
  5
54
102
{ACAD_REACTORS
330
47
102
}
330
47
100
AcDbScale
 70
     0
300
2:1
140
2.0
141
1.0
290
     0
  0
SCALE
  5
55
102
{ACAD_REACTORS
330
47
102
}
330
47
100
AcDbScale
 70
     0
300
4:1
140
4.0
141
1.0
290
     0
  0
SCALE
  5
56
102
{ACAD_REACTORS
330
47
102
}
330
47
100
AcDbScale
 70
     0
300
8:1
140
8.0
141
1.0
290
     0
  0
SCALE
  5
57
102
{ACAD_REACTORS
330
47
102
}
330
47
100
AcDbScale
 70
     0
300
10:1
140
10.0
141
1.0
290
     0
  0
SCALE
  5
58
102
{ACAD_REACTORS
330
47
102
}
330
47
100
AcDbScale
 70
     0
300
100:1
140
100.0
141
1.0
290
     0
  0
SCALE
  5
59
102
{ACAD_REACTORS
330
47
102
}
330
47
100
AcDbScale
 70
     0
300
1/128" = 1'-0"
140
0.0078125
141
12.0
290
     0
  0
SCALE
  5
5A
102
{ACAD_REACTORS
330
47
102
}
330
47
100
AcDbScale
 70
     0
300
1/64" = 1'-0"
140
0.015625
141
12.0
290
     0
  0
SCALE
  5
5B
102
{ACAD_REACTORS
330
47
102
}
330
47
100
AcDbScale
 70
     0
300
1/32" = 1'-0"
140
0.03125
141
12.0
290
     0
  0
SCALE
  5
5C
102
{ACAD_REACTORS
330
47
102
}
330
47
100
AcDbScale
 70
     0
300
1/16" = 1'-0"
140
0.0625
141
12.0
290
     0
  0
SCALE
  5
5D
102
{ACAD_REACTORS
330
47
102
}
330
47
100
AcDbScale
 70
     0
300
3/32" = 1'-0"
140
0.09375
141
12.0
290
     0
  0
SCALE
  5
5E
102
{ACAD_REACTORS
330
47
102
}
330
47
100
AcDbScale
 70
     0
300
1/8" = 1'-0"
140
0.125
141
12.0
290
     0
  0
SCALE
  5
5F
102
{ACAD_REACTORS
330
47
102
}
330
47
100
AcDbScale
 70
     0
300
3/16" = 1'-0"
140
0.1875
141
12.0
290
     0
  0
SCALE
  5
60
102
{ACAD_REACTORS
330
47
102
}
330
47
100
AcDbScale
 70
     0
300
1/4" = 1'-0"
140
0.25
141
12.0
290
     0
  0
SCALE
  5
61
102
{ACAD_REACTORS
330
47
102
}
330
47
100
AcDbScale
 70
     0
300
3/8" = 1'-0"
140
0.375
141
12.0
290
     0
  0
SCALE
  5
62
102
{ACAD_REACTORS
330
47
102
}
330
47
100
AcDbScale
 70
     0
300
1/2" = 1'-0"
140
0.5
141
12.0
290
     0
  0
SCALE
  5
63
102
{ACAD_REACTORS
330
47
102
}
330
47
100
AcDbScale
 70
     0
300
3/4" = 1'-0"
140
0.75
141
12.0
290
     0
  0
SCALE
  5
64
102
{ACAD_REACTORS
330
47
102
}
330
47
100
AcDbScale
 70
     0
300
1" = 1'-0"
140
1.0
141
12.0
290
     0
  0
SCALE
  5
65
102
{ACAD_REACTORS
330
47
102
}
330
47
100
AcDbScale
 70
     0
300
1-1/2" = 1'-0"
140
1.5
141
12.0
290
     0
  0
SCALE
  5
66
102
{ACAD_REACTORS
330
47
102
}
330
47
100
AcDbScale
 70
     0
300
3" = 1'-0"
140
3.0
141
12.0
290
     0
  0
SCALE
  5
67
102
{ACAD_REACTORS
330
47
102
}
330
47
100
AcDbScale
 70
     0
300
6" = 1'-0"
140
6.0
141
12.0
290
     0
  0
SCALE
  5
68
102
{ACAD_REACTORS
330
47
102
}
330
47
100
AcDbScale
 70
     0
300
1'-0" = 1'-0"
140
12.0
141
12.0
290
     0
  0
TABLESTYLE
  5
6A
102
{ACAD_REACTORS
330
69
102
}
102
{ACAD_XDICTIONARY
360
2F5
102
}
330
69
100
AcDbTableStyle
  3
Standard
 70
     0
 71
     0
 40
0.06
 41
0.06
280
     0
281
     0
  7
Standard
140
4.5
170
     2
 62
     0
 63
   257
283
     0
 90
        4
 91
        0
  1

274
    -2
284
     1
 64
     0
275
    -2
285
     1
 65
     0
276
    -2
286
     1
 66
     0
277
    -2
287
     1
 67
     0
278
    -2
288
     1
 68
     0
279
    -2
289
     1
 69
     0
  7
Standard
140
6.0
170
     5
 62
     0
 63
   257
283
     0
 90
        4
 91
        0
  1

274
    -2
284
     1
 64
     0
275
    -2
285
     1
 65
     0
276
    -2
286
     1
 66
     0
277
    -2
287
     1
 67
     0
278
    -2
288
     1
 68
     0
279
    -2
289
     1
 69
     0
  7
Standard
140
4.5
170
     5
 62
     0
 63
   257
283
     0
 90
        4
 91
        0
  1

274
    -2
284
     1
 64
     0
275
    -2
285
     1
 65
     0
276
    -2
286
     1
 66
     0
277
    -2
287
     1
 67
     0
278
    -2
288
     1
 68
     0
279
    -2
289
     1
 69
     0
  0
VISUALSTYLE
  5
2F
102
{ACAD_REACTORS
330
2A
102
}
330
2A
100
AcDbVisualStyle
  2
2dWireframe
 70
     4
 71
     0
 72
     2
 73
     0
 90
        0
 40
0.6
 41
30.0
 62
     5
 63
     7
421
 16777215
 74
     1
 91
        4
 64
     7
 65
   257
 75
     1
175
     1
 42
1.0
 92
        0
 66
   257
 43
1.0
 76
     1
 77
     6
 78
     2
 67
     7
 79
     5
170
     0
171
     0
290
     0
174
     0
 93
        1
 44
0.0
173
     0
291
     0
 45
0.0
  0
VISUALSTYLE
  5
32
102
{ACAD_REACTORS
330
2A
102
}
330
2A
100
AcDbVisualStyle
  2
Basic
 70
     7
 71
     1
 72
     0
 73
     1
 90
        0
 40
0.6
 41
30.0
 62
     5
 63
     7
421
 16777215
 74
     0
 91
        4
 64
     7
 65
   257
 75
     1
175
     1
 42
1.0
 92
        8
 66
     7
 43
1.0
 76
     1
 77
     6
 78
     2
 67
     7
 79
     5
170
     0
171
     0
290
     0
174
     0
 93
        1
 44
0.0
173
     0
291
     1
 45
0.0
  0
VISUALSTYLE
  5
36
102
{ACAD_REACTORS
330
2A
102
}
330
2A
100
AcDbVisualStyle
  2
Brighten
 70
    12
 71
     2
 72
     2
 73
     0
 90
        0
 40
0.6
 41
30.0
 62
     5
 63
     7
421
 16777215
 74
     1
 91
        4
 64
     7
 65
   257
 75
     1
175
     1
 42
1.0
 92
        8
 66
     7
 43
1.0
 76
     1
 77
     6
 78
     2
 67
     7
 79
     5
170
     0
171
     0
290
     0
174
     0
 93
        1
 44
50.0
173
     0
291
     1
 45
0.0
  0
VISUALSTYLE
  5
3A
102
{ACAD_REACTORS
330
2A
102
}
330
2A
100
AcDbVisualStyle
  2
ColorChange
 70
    16
 71
     2
 72
     2
 73
     3
 90
        0
 40
0.6
 41
30.0
 62
     5
 63
     8
421
  8421504
 74
     1
 91
        4
 64
     7
 65
   257
 75
     1
175
     1
 42
1.0
 92
        8
 66
     8
424
  8421504
 43
1.0
 76
     1
 77
     6
 78
     2
 67
     7
 79
     5
170
     0
171
     0
290
     0
174
     0
 93
        1
 44
0.0
173
     0
291
     1
 45
0.0
  0
VISUALSTYLE
  5
34
102
{ACAD_REACTORS
330
2A
102
}
330
2A
100
AcDbVisualStyle
  2
Conceptual
 70
     9
 71
     3
 72
     2
 73
     0
 90
        0
 40
0.6
 41
30.0
 62
     5
 63
     7
421
 16777215
 74
     2
 91
        2
 64
     7
 65
   257
 75
     1
175
     1
 42
179.0
 92
        8
 66
     7
 43
1.0
 76
     1
 77
     6
 78
     2
 67
     7
 79
     3
170
     0
171
     0
290
     0
174
     0
 93
        1
 44
0.0
173
     0
291
     0
 45
0.0
  0
VISUALSTYLE
  5
35
102
{ACAD_REACTORS
330
2A
102
}
330
2A
100
AcDbVisualStyle
  2
Dim
 70
    11
 71
     2
 72
     2
 73
     0
 90
        0
 40
0.6
 41
30.0
 62
     5
 63
     7
421
 16777215
 74
     1
 91
        4
 64
     7
 65
   257
 75
     1
175
     1
 42
1.0
 92
        8
 66
     7
 43
1.0
 76
     1
 77
     6
 78
     2
 67
     7
 79
     5
170
     0
171
     0
290
     0
174
     0
 93
        1
 44
-50.0
173
     0
291
     1
 45
0.0
  0
VISUALSTYLE
  5
3D
102
{ACAD_REACTORS
330
2A
102
}
330
2A
100
AcDbVisualStyle
  2
EdgeColorOff
 70
    22
 71
     2
 72
     2
 73
     0
 90
        0
 40
0.6
 41
30.0
 62
     5
 63
     7
421
 16777215
 74
     1
 91
        4
 64
     7
 65
   257
 75
     1
175
     1
 42
1.0
 92
        8
 66
     7
 43
1.0
 76
     1
 77
     6
 78
     2
 67
     7
 79
     5
170
     0
171
     0
290
     0
174
     0
 93
        1
 44
0.0
173
     0
291
     1
 45
0.0
  0
VISUALSTYLE
  5
39
102
{ACAD_REACTORS
330
2A
102
}
330
2A
100
AcDbVisualStyle
  2
Facepattern
 70
    15
 71
     2
 72
     2
 73
     0
 90
        0
 40
0.6
 41
30.0
 62
     5
 63
     7
421
 16777215
 74
     1
 91
        4
 64
     7
 65
   257
 75
     1
175
     1
 42
1.0
 92
        8
 66
     7
 43
1.0
 76
     1
 77
     6
 78
     2
 67
     7
 79
     5
170
     0
171
     0
290
     0
174
     0
 93
        1
 44
0.0
173
     0
291
     1
 45
0.0
  0
VISUALSTYLE
  5
2B
102
{ACAD_REACTORS
330
2A
102
}
330
2A
100
AcDbVisualStyle
  2
Flat
 70
     0
 71
     2
 72
     1
 73
     1
 90
        2
 40
0.6
 41
30.0
 62
     5
 63
     7
421
 16777215
 74
     0
 91
        0
 64
     7
 65
   257
 75
     1
175
     1
 42
1.0
 92
        8
 66
     7
 43
1.0
 76
     1
 77
     6
 78
     2
 67
     7
 79
     5
170
     0
171
     0
290
     0
174
     0
 93
       13
 44
0.0
173
     0
291
     1
 45
0.0
  0
VISUALSTYLE
  5
2C
102
{ACAD_REACTORS
330
2A
102
}
330
2A
100
AcDbVisualStyle
  2
FlatWithEdges
 70
     1
 71
     2
 72
     1
 73
     1
 90
        2
 40
0.6
 41
30.0
 62
     5
 63
     7
421
 16777215
 74
     1
 91
        0
 64
     7
 65
   257
 75
     1
175
     1
 42
1.0
 92
        0
 66
   257
 43
1.0
 76
     1
 77
     6
 78
     2
 67
     7
 79
     5
170
     0
171
     0
290
     0
174
     0
 93
       13
 44
0.0
173
     0
291
     1
 45
0.0
  0
VISUALSTYLE
  5
2D
102
{ACAD_REACTORS
330
2A
102
}
330
2A
100
AcDbVisualStyle
  2
Gouraud
 70
     2
 71
     2
 72
     2
 73
     1
 90
        2
 40
0.6
 41
30.0
 62
     5
 63
     7
421
 16777215
 74
     0
 91
        0
 64
     7
 65
   257
 75
     1
175
     1
 42
1.0
 92
        0
 66
     7
 43
1.0
 76
     1
 77
     6
 78
     2
 67
     7
 79
     5
170
     0
171
     0
290
     0
174
     0
 93
       13
 44
0.0
173
     0
291
     1
 45
0.0
  0
VISUALSTYLE
  5
2E
102
{ACAD_REACTORS
330
2A
102
}
330
2A
100
AcDbVisualStyle
  2
GouraudWithEdges
 70
     3
 71
     2
 72
     2
 73
     1
 90
        2
 40
0.6
 41
30.0
 62
     5
 63
     7
421
 16777215
 74
     1
 91
        0
 64
     7
 65
   257
 75
     1
175
     1
 42
1.0
 92
        0
 66
   257
 43
1.0
 76
     1
 77
     6
 78
     2
 67
     7
 79
     5
170
     0
171
     0
290
     0
174
     0
 93
       13
 44
0.0
173
     0
291
     1
 45
0.0
  0
VISUALSTYLE
  5
31
102
{ACAD_REACTORS
330
2A
102
}
330
2A
100
AcDbVisualStyle
  2
Hidden
 70
     6
 71
     1
 72
     2
 73
     2
 90
        0
 40
0.6
 41
30.0
 62
     5
 63
     7
421
 16777215
 74
     2
 91
        2
 64
     7
 65
   257
 75
     2
175
     1
 42
40.0
 92
        0
 66
   257
 43
1.0
 76
     1
 77
     6
 78
     2
 67
     7
 79
     3
170
     0
171
     0
290
     0
174
     0
 93
        1
 44
0.0
173
     0
291
     0
 45
0.0
  0
VISUALSTYLE
  5
3B
102
{ACAD_REACTORS
330
2A
102
}
330
2A
100
AcDbVisualStyle
  2
JitterOff
 70
    20
 71
     2
 72
     2
 73
     0
 90
        0
 40
0.6
 41
30.0
 62
     5
 63
     7
421
 16777215
 74
     1
 91
        4
 64
     7
 65
   257
 75
     1
175
     1
 42
1.0
 92
       10
 66
     7
 43
1.0
 76
     1
 77
     6
 78
     2
 67
     7
 79
     5
170
     0
171
     0
290
     0
174
     0
 93
        1
 44
0.0
173
     0
291
     1
 45
0.0
  0
VISUALSTYLE
  5
38
102
{ACAD_REACTORS
330
2A
102
}
330
2A
100
AcDbVisualStyle
  2
Linepattern
 70
    14
 71
     2
 72
     2
 73
     0
 90
        0
 40
0.6
 41
30.0
 62
     5
 63
     7
421
 16777215
 74
     1
 91
        4
 64
     7
 65
   257
 75
     7
175
     7
 42
1.0
 92
        8
 66
     7
 43
1.0
 76
     1
 77
     6
 78
     2
 67
     7
 79
     5
170
     0
171
     0
290
     0
174
     0
 93
        1
 44
0.0
173
     0
291
     1
 45
0.0
  0
VISUALSTYLE
  5
3C
102
{ACAD_REACTORS
330
2A
102
}
330
2A
100
AcDbVisualStyle
  2
OverhangOff
 70
    21
 71
     2
 72
     2
 73
     0
 90
        0
 40
0.6
 41
30.0
 62
     5
 63
     7
421
 16777215
 74
     1
 91
        4
 64
     7
 65
   257
 75
     1
175
     1
 42
1.0
 92
        9
 66
     7
 43
1.0
 76
     1
 77
     6
 78
     2
 67
     7
 79
     5
170
     0
171
     0
290
     0
174
     0
 93
        1
 44
0.0
173
     0
291
     1
 45
0.0
  0
VISUALSTYLE
  5
33
102
{ACAD_REACTORS
330
2A
102
}
330
2A
100
AcDbVisualStyle
  2
Realistic
 70
     8
 71
     2
 72
     3
 73
     0
 90
        2
 40
0.6
 41
30.0
 62
     5
 63
     7
421
 16777215
 74
     0
 91
        0
 64
     7
 65
   257
 75
     1
175
     1
 42
1.0
 92
        8
 66
   257
 43
1.0
 76
     1
 77
     6
 78
     2
 67
     7
 79
     3
170
     0
171
     0
290
     0
174
     0
 93
       13
 44
0.0
173
     0
291
     0
 45
0.0
  0
VISUALSTYLE
  5
42
102
{ACAD_REACTORS
330
2A
102
}
330
2A
100
AcDbVisualStyle
  2
Shaded
 70
    27
 71
     2
 72
     2
 73
     1
 90
        2
 40
0.6
 41
30.0
 62
     5
 63
     7
421
 16777215
 74
     0
 91
        4
 64
     7
 65
   257
 75
     1
175
     1
 42
1.0
 92
        8
 66
   257
 43
1.0
 76
     1
 77
     6
 78
     2
 67
     8
425
  7895160
 79
     3
170
     0
171
     0
290
     0
174
     0
 93
        5
 44
0.0
173
     0
291
     0
 45
0.0
  0
VISUALSTYLE
  5
41
102
{ACAD_REACTORS
330
2A
102
}
330
2A
100
AcDbVisualStyle
  2
Shaded with edges
 70
    26
 71
     2
 72
     2
 73
     1
 90
        2
 40
0.6
 41
30.0
 62
     5
 63
     7
421
 16777215
 74
     1
 91
       10
 64
     7
 65
   257
 75
     2
175
     1
 42
1.0
 92
        8
 66
   257
 43
1.0
 76
     1
 77
     6
 78
     2
 67
     7
 79
     3
170
     0
171
     0
290
     0
174
     0
 93
        5
 44
0.0
173
     0
291
     0
 45
0.0
  0
VISUALSTYLE
  5
3E
102
{ACAD_REACTORS
330
2A
102
}
330
2A
100
AcDbVisualStyle
  2
Shades of Gray
 70
    23
 71
     2
 72
     2
 73
     3
 90
        0
 40
0.6
 41
30.0
 62
     5
 63
     7
421
 16777215
 74
     2
 91
        2
 64
     7
 65
     7
 75
     1
175
     1
 42
40.0
 92
        8
 66
     7
 43
1.0
 76
     1
 77
     6
 78
     2
 67
     7
 79
     3
170
     0
171
     0
290
     0
174
     0
 93
        1
 44
0.0
173
     0
291
     0
 45
0.0
  0
VISUALSTYLE
  5
3F
102
{ACAD_REACTORS
330
2A
102
}
330
2A
100
AcDbVisualStyle
  2
Sketchy
 70
    24
 71
     1
 72
     2
 73
     2
 90
        0
 40
0.6
 41
30.0
 62
     5
 63
     7
421
 16777215
 74
     2
 91
        2
 64
     7
 65
     7
 75
     1
175
     1
 42
40.0
 92
       11
 66
     7
 43
1.0
 76
     1
 77
     6
 78
     2
 67
     7
 79
     6
170
     0
171
     0
290
     0
174
     0
 93
        1
 44
0.0
173
     0
291
     0
 45
0.0
  0
VISUALSTYLE
  5
37
102
{ACAD_REACTORS
330
2A
102
}
330
2A
100
AcDbVisualStyle
  2
Thicken
 70
    13
 71
     2
 72
     2
 73
     0
 90
        0
 40
0.6
 41
30.0
 62
     5
 63
     7
421
 16777215
 74
     1
 91
        4
 64
     7
 65
   257
 75
     1
175
     1
 42
1.0
 92
       12
 66
     7
 43
1.0
 76
     1
 77
     6
 78
     2
 67
     7
 79
     5
170
     0
171
     0
290
     0
174
     0
 93
        1
 44
0.0
173
     0
291
     1
 45
0.0
  0
VISUALSTYLE
  5
30
102
{ACAD_REACTORS
330
2A
102
}
330
2A
100
AcDbVisualStyle
  2
Wireframe
 70
     5
 71
     0
 72
     2
 73
     0
 90
        0
 40
0.6
 41
30.0
 62
     5
 63
     7
421
 16777215
 74
     1
 91
        4
 64
     7
 65
   257
 75
     1
175
     1
 42
1.0
 92
        0
 66
   257
 43
1.0
 76
     1
 77
     6
 78
     2
 67
     7
 79
     3
170
     0
171
     0
290
     0
174
     0
 93
        1
 44
0.0
173
     0
291
     0
 45
0.0
  0
VISUALSTYLE
  5
40
102
{ACAD_REACTORS
330
2A
102
}
330
2A
100
AcDbVisualStyle
  2
X-Ray
 70
    25
 71
     2
 72
     2
 73
     1
 90
        1
 40
0.5
 41
30.0
 62
     5
 63
     7
421
 16777215
 74
     1
 91
        0
 64
     7
 65
   257
 75
     1
175
     1
 42
1.0
 92
        8
 66
     7
 43
1.0
 76
     1
 77
     6
 78
     2
 67
     7
 79
     3
170
     0
171
     0
290
     0
174
     0
 93
       13
 44
0.0
173
     0
291
     0
 45
0.0
  0
DICTIONARYVAR
  5
2F4
102
{ACAD_REACTORS
330
2F3
102
}
330
2F3
100
DictionaryVariables
280
     0
  1
1:1
  0
DICTIONARYVAR
  5
2FA
102
{ACAD_REACTORS
330
2F3
102
}
330
2F3
100
DictionaryVariables
280
     0
  1
Standard
  0
DICTIONARYVAR
  5
2F9
102
{ACAD_REACTORS
330
2F3
102
}
330
2F3
100
DictionaryVariables
280
     0
  1
Standard
  0
DICTIONARY
  5
2F5
330
6A
100
AcDbDictionary
280
     1
281
     1
  3
ACAD_ROUNDTRIP_2008_TABLESTYLE_CELLSTYLEMAP
360
2F6
  0
CELLSTYLEMAP
  5
2F6
102
{ACAD_REACTORS
330
2F5
102
}
330
2F5
100
AcDbCellStyleMap
 90
        3
300
CELLSTYLE
  1
TABLEFORMAT_BEGIN
 90
        5
170
     1
 91
        0
 92
    32768
 62
   257
 93
        1
300
CONTENTFORMAT
  1
CONTENTFORMAT_BEGIN
 90
        0
 91
        0
 92
        4
 93
        0
300

 40
0.0
140
1.0
 94
        5
 62
     0
340
11
144
6.0
309
CONTENTFORMAT_END
171
     1
301
MARGIN
  1
CELLMARGIN_BEGIN
 40
1.5
 40
1.5
 40
1.5
 40
1.5
 40
1.5
 40
1.5
309
CELLMARGIN_END
 94
        6
 95
        1
302
GRIDFORMAT
  1
GRIDFORMAT_BEGIN
 90
        0
 91
        1
 62
     0
 92
       -2
340
14
 93
        0
 40
0.045
309
GRIDFORMAT_END
 95
        2
302
GRIDFORMAT
  1
GRIDFORMAT_BEGIN
 90
        0
 91
        1
 62
     0
 92
       -2
340
14
 93
        0
 40
0.045
309
GRIDFORMAT_END
 95
        4
302
GRIDFORMAT
  1
GRIDFORMAT_BEGIN
 90
        0
 91
        1
 62
     0
 92
       -2
340
14
 93
        0
 40
0.045
309
GRIDFORMAT_END
 95
        8
302
GRIDFORMAT
  1
GRIDFORMAT_BEGIN
 90
        0
 91
        1
 62
     0
 92
       -2
340
14
 93
        0
 40
0.045
309
GRIDFORMAT_END
 95
       16
302
GRIDFORMAT
  1
GRIDFORMAT_BEGIN
 90
        0
 91
        1
 62
     0
 92
       -2
340
14
 93
        0
 40
0.045
309
GRIDFORMAT_END
 95
       32
302
GRIDFORMAT
  1
GRIDFORMAT_BEGIN
 90
        0
 91
        1
 62
     0
 92
       -2
340
14
 93
        0
 40
0.045
309
GRIDFORMAT_END
309
TABLEFORMAT_END
  1
CELLSTYLE_BEGIN
 90
        1
 91
        1
300
_TITLE
309
CELLSTYLE_END
300
CELLSTYLE
  1
TABLEFORMAT_BEGIN
 90
        5
170
     1
 91
        0
 92
        0
 62
   257
 93
        1
300
CONTENTFORMAT
  1
CONTENTFORMAT_BEGIN
 90
        0
 91
        0
 92
        4
 93
        0
300

 40
0.0
140
1.0
 94
        5
 62
     0
340
11
144
4.5
309
CONTENTFORMAT_END
171
     1
301
MARGIN
  1
CELLMARGIN_BEGIN
 40
1.5
 40
1.5
 40
1.5
 40
1.5
 40
1.5
 40
1.5
309
CELLMARGIN_END
 94
        6
 95
        1
302
GRIDFORMAT
  1
GRIDFORMAT_BEGIN
 90
        0
 91
        1
 62
     0
 92
       -2
340
14
 93
        0
 40
0.045
309
GRIDFORMAT_END
 95
        2
302
GRIDFORMAT
  1
GRIDFORMAT_BEGIN
 90
        0
 91
        1
 62
     0
 92
       -2
340
14
 93
        0
 40
0.045
309
GRIDFORMAT_END
 95
        4
302
GRIDFORMAT
  1
GRIDFORMAT_BEGIN
 90
        0
 91
        1
 62
     0
 92
       -2
340
14
 93
        0
 40
0.045
309
GRIDFORMAT_END
 95
        8
302
GRIDFORMAT
  1
GRIDFORMAT_BEGIN
 90
        0
 91
        1
 62
     0
 92
       -2
340
14
 93
        0
 40
0.045
309
GRIDFORMAT_END
 95
       16
302
GRIDFORMAT
  1
GRIDFORMAT_BEGIN
 90
        0
 91
        1
 62
     0
 92
       -2
340
14
 93
        0
 40
0.045
309
GRIDFORMAT_END
 95
       32
302
GRIDFORMAT
  1
GRIDFORMAT_BEGIN
 90
        0
 91
        1
 62
     0
 92
       -2
340
14
 93
        0
 40
0.045
309
GRIDFORMAT_END
309
TABLEFORMAT_END
  1
CELLSTYLE_BEGIN
 90
        2
 91
        1
300
_HEADER
309
CELLSTYLE_END
300
CELLSTYLE
  1
TABLEFORMAT_BEGIN
 90
        5
170
     1
 91
        0
 92
        0
 62
   257
 93
        1
300
CONTENTFORMAT
  1
CONTENTFORMAT_BEGIN
 90
        0
 91
        0
 92
        4
 93
        0
300

 40
0.0
140
1.0
 94
        2
 62
     0
340
11
144
4.5
309
CONTENTFORMAT_END
171
     1
301
MARGIN
  1
CELLMARGIN_BEGIN
 40
1.5
 40
1.5
 40
1.5
 40
1.5
 40
1.5
 40
1.5
309
CELLMARGIN_END
 94
        6
 95
        1
302
GRIDFORMAT
  1
GRIDFORMAT_BEGIN
 90
        0
 91
        1
 62
     0
 92
       -2
340
14
 93
        0
 40
0.045
309
GRIDFORMAT_END
 95
        2
302
GRIDFORMAT
  1
GRIDFORMAT_BEGIN
 90
        0
 91
        1
 62
     0
 92
       -2
340
14
 93
        0
 40
0.045
309
GRIDFORMAT_END
 95
        4
302
GRIDFORMAT
  1
GRIDFORMAT_BEGIN
 90
        0
 91
        1
 62
     0
 92
       -2
340
14
 93
        0
 40
0.045
309
GRIDFORMAT_END
 95
        8
302
GRIDFORMAT
  1
GRIDFORMAT_BEGIN
 90
        0
 91
        1
 62
     0
 92
       -2
340
14
 93
        0
 40
0.045
309
GRIDFORMAT_END
 95
       16
302
GRIDFORMAT
  1
GRIDFORMAT_BEGIN
 90
        0
 91
        1
 62
     0
 92
       -2
340
14
 93
        0
 40
0.045
309
GRIDFORMAT_END
 95
       32
302
GRIDFORMAT
  1
GRIDFORMAT_BEGIN
 90
        0
 91
        1
 62
     0
 92
       -2
340
14
 93
        0
 40
0.045
309
GRIDFORMAT_END
309
TABLEFORMAT_END
  1
CELLSTYLE_BEGIN
 90
        3
 91
        2
300
_DATA
309
CELLSTYLE_END
  0
ENDSEC
  0
EOF
