  0
SECTION
  2
HEADER
  9
$ACADVER
  1
AC1021
  9
$ACADMAINTVER
 70
    25
  9
$DWGCODEPAGE
  3
ANSI_1250
  9
$INSBASE
 10
0.0
 20
0.0
 30
0.0
  9
$EXTMIN
 10
0.0
 20
0.0
 30
0.0
  9
$EXTMAX
 10
210.0
 20
297.0
 30
0.0
  9
$LIMMIN
 10
0.0
 20
0.0
  9
$LIMMAX
 10
210.0
 20
297.0
  9
$ORTHOMODE
 70
     0
  9
$REGENMODE
 70
     1
  9
$FILLMODE
 70
     1
  9
$QTEXTMODE
 70
     0
  9
$MIRRTEXT
 70
     1
  9
$LTSCALE
 40
1.0
  9
$ATTMODE
 70
     1
  9
$TEXTSIZE
 40
3.5
  9
$TRACEWID
 40
1.0
  9
$TEXTSTYLE
  7
Standard
  9
$CLAYER
  8
0
  9
$CELTYPE
  6
ByLayer
  9
$CECOLOR
 62
   256
  9
$CELTSCALE
 40
1.0
  9
$DISPSILH
 70
     0
  9
$DIMSCALE
 40
1.0
  9
$DIMASZ
 40
3.302
  9
$DIMEXO
 40
1.0
  9
$DIMDLI
 40
3.75
  9
$DIMRND
 40
0.0
  9
$DIMDLE
 40
0.0
  9
$DIMEXE
 40
1.0
  9
$DIMTP
 40
0.0
  9
$DIMTM
 40
0.0
  9
$DIMTXT
 40
3.5
  9
$DIMCEN
 40
2.5
  9
$DIMTSZ
 40
0.0
  9
$DIMTOL
 70
     0
  9
$DIMLIM
 70
     0
  9
$DIMTIH
 70
     1
  9
$DIMTOH
 70
     1
  9
$DIMSE1
 70
     0
  9
$DIMSE2
 70
     0
  9
$DIMTAD
 70
     1
  9
$DIMZIN
 70
     0
  9
$DIMBLK
  1

  9
$DIMASO
 70
     1
  9
$DIMSHO
 70
     1
  9
$DIMPOST
  1

  9
$DIMAPOST
  1

  9
$DIMALT
 70
     0
  9
$DIMALTD
 70
     3
  9
$DIMALTF
 40
0.0393700787
  9
$DIMLFAC
 40
50.0
  9
$DIMTOFL
 70
     1
  9
$DIMTVP
 40
0.0
  9
$DIMTIX
 70
     0
  9
$DIMSOXD
 70
     0
  9
$DIMSAH
 70
     0
  9
$DIMBLK1
  1

  9
$DIMBLK2
  1

  9
$DIMSTYLE
  2
ISO-25
  9
$DIMCLRD
 70
     0
  9
$DIMCLRE
 70
     0
  9
$DIMCLRT
 70
     0
  9
$DIMTFAC
 40
1.0
  9
$DIMGAP
 40
1.524
  9
$DIMJUST
 70
     0
  9
$DIMSD1
 70
     0
  9
$DIMSD2
 70
     0
  9
$DIMTOLJ
 70
     0
  9
$DIMTZIN
 70
     0
  9
$DIMALTZ
 70
     0
  9
$DIMALTTZ
 70
     0
  9
$DIMUPT
 70
     0
  9
$DIMDEC
 70
     2
  9
$DIMTDEC
 70
     2
  9
$DIMALTU
 70
     2
  9
$DIMALTTD
 70
     3
  9
$DIMTXSTY
  7
Standard
  9
$DIMAUNIT
 70
     0
  9
$DIMADEC
 70
     2
  9
$DIMALTRND
 40
0.0
  9
$DIMAZIN
 70
     0
  9
$DIMDSEP
 70
    44
  9
$DIMATFIT
 70
     3
  9
$DIMFRAC
 70
     0
  9
$DIMLDRBLK
  1

  9
$DIMLUNIT
 70
     2
  9
$DIMLWD
 70
    -2
  9
$DIMLWE
 70
    -2
  9
$DIMTMOVE
 70
     0
  9
$DIMFXL
 40
1.0
  9
$DIMFXLON
 70
     0
  9
$DIMJOGANG
 40
0.7853981634
  9
$DIMTFILL
 70
     0
  9
$DIMTFILLCLR
 70
     0
  9
$DIMARCSYM
 70
     0
  9
$DIMLTYPE
  6

  9
$DIMLTEX1
  6

  9
$DIMLTEX2
  6

  9
$LUNITS
 70
     2
  9
$LUPREC
 70
     2
  9
$SKETCHINC
 40
1.0
  9
$FILLETRAD
 40
10.0
  9
$AUNITS
 70
     0
  9
$AUPREC
 70
     2
  9
$MENU
  1
.
  9
$ELEVATION
 40
0.0
  9
$PELEVATION
 40
0.0
  9
$THICKNESS
 40
0.0
  9
$LIMCHECK
 70
     0
  9
$CHAMFERA
 40
0.0
  9
$CHAMFERB
 40
0.0
  9
$CHAMFERC
 40
0.0
  9
$CHAMFERD
 40
0.0
  9
$SKPOLY
 70
     0
  9
$TDCREATE
 40
2458198.368532141
  9
$TDUCREATE
 40
2458198.326865475
  9
$TDUPDATE
 40
2458198.368532419
  9
$TDUUPDATE
 40
2458198.326865752
  9
$TDINDWG
 40
0.0000000116
  9
$TDUSRTIMER
 40
0.0000000116
  9
$USRTIMER
 70
     1
  9
$ANGBASE
 50
0.0
  9
$ANGDIR
 70
     0
  9
$PDMODE
 70
     0
  9
$PDSIZE
 40
-1.0
  9
$PLINEWID
 40
0.0
  9
$SPLFRAME
 70
     0
  9
$SPLINETYPE
 70
     6
  9
$SPLINESEGS
 70
     8
  9
$HANDSEED
  5
269
  9
$SURFTAB1
 70
     6
  9
$SURFTAB2
 70
     6
  9
$SURFTYPE
 70
     6
  9
$SURFU
 70
     6
  9
$SURFV
 70
     6
  9
$UCSBASE
  2

  9
$UCSNAME
  2

  9
$UCSORG
 10
0.0
 20
0.0
 30
0.0
  9
$UCSXDIR
 10
1.0
 20
0.0
 30
0.0
  9
$UCSYDIR
 10
0.0
 20
1.0
 30
0.0
  9
$UCSORTHOREF
  2

  9
$UCSORTHOVIEW
 70
     0
  9
$UCSORGTOP
 10
0.0
 20
0.0
 30
0.0
  9
$UCSORGBOTTOM
 10
0.0
 20
0.0
 30
0.0
  9
$UCSORGLEFT
 10
0.0
 20
0.0
 30
0.0
  9
$UCSORGRIGHT
 10
0.0
 20
0.0
 30
0.0
  9
$UCSORGFRONT
 10
0.0
 20
0.0
 30
0.0
  9
$UCSORGBACK
 10
0.0
 20
0.0
 30
0.0
  9
$PUCSBASE
  2

  9
$PUCSNAME
  2

  9
$PUCSORG
 10
0.0
 20
0.0
 30
0.0
  9
$PUCSXDIR
 10
1.0
 20
0.0
 30
0.0
  9
$PUCSYDIR
 10
0.0
 20
1.0
 30
0.0
  9
$PUCSORTHOREF
  2

  9
$PUCSORTHOVIEW
 70
     0
  9
$PUCSORGTOP
 10
0.0
 20
0.0
 30
0.0
  9
$PUCSORGBOTTOM
 10
0.0
 20
0.0
 30
0.0
  9
$PUCSORGLEFT
 10
0.0
 20
0.0
 30
0.0
  9
$PUCSORGRIGHT
 10
0.0
 20
0.0
 30
0.0
  9
$PUCSORGFRONT
 10
0.0
 20
0.0
 30
0.0
  9
$PUCSORGBACK
 10
0.0
 20
0.0
 30
0.0
  9
$USERI1
 70
     0
  9
$USERI2
 70
     0
  9
$USERI3
 70
     0
  9
$USERI4
 70
     0
  9
$USERI5
 70
     0
  9
$USERR1
 40
0.0
  9
$USERR2
 40
0.0
  9
$USERR3
 40
0.0
  9
$USERR4
 40
0.0
  9
$USERR5
 40
0.0
  9
$WORLDVIEW
 70
     1
  9
$SHADEDGE
 70
     3
  9
$SHADEDIF
 70
    70
  9
$TILEMODE
 70
     1
  9
$MAXACTVP
 70
    64
  9
$PINSBASE
 10
0.0
 20
0.0
 30
0.0
  9
$PLIMCHECK
 70
     0
  9
$PEXTMIN
 10
1.0000000000E+20
 20
1.0000000000E+20
 30
1.0000000000E+20
  9
$PEXTMAX
 10
-1.0000000000E+20
 20
-1.0000000000E+20
 30
-1.0000000000E+20
  9
$PLIMMIN
 10
0.0
 20
0.0
  9
$PLIMMAX
 10
420.0
 20
297.0
  9
$UNITMODE
 70
     0
  9
$VISRETAIN
 70
     1
  9
$PLINEGEN
 70
     0
  9
$PSLTSCALE
 70
     1
  9
$TREEDEPTH
 70
  3020
  9
$CMLSTYLE
  2
Standard
  9
$CMLJUST
 70
     0
  9
$CMLSCALE
 40
20.0
  9
$PROXYGRAPHICS
 70
     1
  9
$MEASUREMENT
 70
     1
  9
$CELWEIGHT
370
    -1
  9
$ENDCAPS
280
     0
  9
$JOINSTYLE
280
     0
  9
$LWDISPLAY
290
     1
  9
$INSUNITS
 70
     4
  9
$HYPERLINKBASE
  1

  9
$STYLESHEET
  1

  9
$XEDIT
290
     1
  9
$CEPSNTYPE
380
     0
  9
$PSTYLEMODE
290
     1
  9
$FINGERPRINTGUID
  2
{594F95BF-A19F-4A0B-B69E-1E4981CA0FA1}
  9
$VERSIONGUID
  2
{FAEB1C32-E019-11D5-929B-00C0DF256EC4}
  9
$EXTNAMES
290
     1
  9
$PSVPSCALE
 40
0.0
  9
$OLESTARTUP
290
     0
  9
$SORTENTS
280
   127
  9
$INDEXCTL
280
     0
  9
$HIDETEXT
280
     1
  9
$XCLIPFRAME
290
     0
  9
$HALOGAP
280
     0
  9
$OBSCOLOR
 70
   257
  9
$OBSLTYPE
280
     0
  9
$INTERSECTIONDISPLAY
280
     0
  9
$INTERSECTIONCOLOR
 70
   257
  9
$DIMASSOC
280
     2
  9
$PROJECTNAME
  1

  9
$CAMERADISPLAY
290
     0
  9
$LENSLENGTH
 40
50.0
  9
$CAMERAHEIGHT
 40
0.0
  9
$STEPSPERSEC
 40
2.0
  9
$STEPSIZE
 40
6.0
  9
$3DDWFPREC
 40
2.0
  9
$PSOLWIDTH
 40
5.0
  9
$PSOLHEIGHT
 40
80.0
  9
$LOFTANG1
 40
1.5707963268
  9
$LOFTANG2
 40
1.5707963268
  9
$LOFTMAG1
 40
0.0
  9
$LOFTMAG2
 40
0.0
  9
$LOFTPARAM
 70
     7
  9
$LOFTNORMALS
280
     1
  9
$LATITUDE
 40
37.795
  9
$LONGITUDE
 40
-122.394
  9
$NORTHDIRECTION
 40
0.0
  9
$TIMEZONE
 70
 -8000
  9
$LIGHTGLYPHDISPLAY
280
     1
  9
$TILEMODELIGHTSYNCH
280
     1
  9
$CMATERIAL
347
44
  9
$SOLIDHIST
280
     0
  9
$SHOWHIST
280
     1
  9
$DWFFRAME
280
     2
  9
$DGNFRAME
280
     2
  9
$REALWORLDSCALE
290
     1
  9
$INTERFERECOLOR
 62
   256
  9
$CSHADOW
280
     0
  9
$SHADOWPLANELOCATION
 40
0.0
  0
ENDSEC
  0
SECTION
  2
CLASSES
  0
CLASS
  1
ACDBDICTIONARYWDFLT
  2
AcDbDictionaryWithDefault
  3
ObjectDBX Classes
 90
        0
 91
        4
280
     0
281
     0
  0
CLASS
  1
VISUALSTYLE
  2
AcDbVisualStyle
  3
ObjectDBX Classes
 90
     4095
 91
        4
280
     0
281
     0
  0
CLASS
  1
MATERIAL
  2
AcDbMaterial
  3
ObjectDBX Classes
 90
     1153
 91
        4
280
     0
281
     0
  0
CLASS
  1
SCALE
  2
AcDbScale
  3
ObjectDBX Classes
 90
     1153
 91
        4
280
     0
281
     0
  0
CLASS
  1
TABLESTYLE
  2
AcDbTableStyle
  3
ObjectDBX Classes
 90
     4095
 91
        4
280
     0
281
     0
  0
CLASS
  1
MLEADERSTYLE
  2
AcDbMLeaderStyle
  3
ACDB_MLEADERSTYLE_CLASS
 90
     4095
 91
        4
280
     0
281
     0
  0
CLASS
  1
SUN
  2
AcDbSun
  3
SCENEOE
 90
     1153
 91
        4
280
     0
281
     0
  0
CLASS
  1
DICTIONARYVAR
  2
AcDbDictionaryVar
  3
ObjectDBX Classes
 90
        0
 91
        4
280
     0
281
     0
  0
CLASS
  1
CELLSTYLEMAP
  2
AcDbCellStyleMap
  3
ObjectDBX Classes
 90
     1152
 91
        4
280
     0
281
     0
  0
ENDSEC
  0
SECTION
  2
TABLES
  0
TABLE
  2
VPORT
  5
8
330
0
100
AcDbSymbolTable
 70
     1
  0
VPORT
  5
29
330
8
100
AcDbSymbolTableRecord
100
AcDbViewportTableRecord
  2
*Active
 70
     0
 10
0.0
 20
0.0
 11
1.0
 21
1.0
 12
105.0
 22
148.5
 13
0.0
 23
0.0
 14
10.0
 24
10.0
 15
10.0
 25
10.0
 16
0.0
 26
0.0
 36
1.0
 17
0.0
 27
0.0
 37
0.0
 40
297.0
 41
0.7070707071
 42
50.0
 43
0.0
 44
0.0
 50
0.0
 51
0.0
 71
     0
 72
  2000
 73
     1
 74
     3
 75
     0
 76
     0
 77
     0
 78
     0
281
     0
 65
     1
110
0.0
120
0.0
130
0.0
111
1.0
121
0.0
131
0.0
112
0.0
122
1.0
132
0.0
 79
     0
146
0.0
 60
     3
 61
     5
292
     1
282
     1
141
0.0
142
0.0
 63
   250
361
6D
  0
ENDTAB
  0
TABLE
  2
LTYPE
  5
5
330
0
100
AcDbSymbolTable
 70
     6
  0
LTYPE
  5
14
330
5
100
AcDbSymbolTableRecord
100
AcDbLinetypeTableRecord
  2
ByBlock
 70
     0
  3

 72
    65
 73
     0
 40
0.0
  0
LTYPE
  5
15
330
5
100
AcDbSymbolTableRecord
100
AcDbLinetypeTableRecord
  2
ByLayer
 70
     0
  3

 72
    65
 73
     0
 40
0.0
  0
LTYPE
  5
16
330
5
100
AcDbSymbolTableRecord
100
AcDbLinetypeTableRecord
  2
Continuous
 70
     0
  3
Solid line
 72
    65
 73
     0
 40
0.0
  0
LTYPE
  5
6E
330
5
100
AcDbSymbolTableRecord
100
AcDbLinetypeTableRecord
  2
HIDDEN
 70
     0
  3
Hidden __ __ __ __ __ __ __ __ __ __ __ __ __ __
 72
    65
 73
     2
 40
1.905
 49
1.27
 74
     0
 49
-0.635
 74
     0
  0
LTYPE
  5
6F
330
5
100
AcDbSymbolTableRecord
100
AcDbLinetypeTableRecord
  2
PHANTOM
 70
     0
  3
Phantom ______  __  __  ______  __  __  ______
 72
    65
 73
     6
 40
12.7
 49
6.35
 74
     0
 49
-1.27
 74
     0
 49
1.27
 74
     0
 49
-1.27
 74
     0
 49
1.27
 74
     0
 49
-1.27
 74
     0
  0
LTYPE
  5
70
330
5
100
AcDbSymbolTableRecord
100
AcDbLinetypeTableRecord
  2
CENTER
 70
     0
  3
Center ____ _ ____ _ ____ _ ____ _ ____ _ ____
 72
    65
 73
     4
 40
10.16
 49
6.35
 74
     0
 49
-1.27
 74
     0
 49
1.27
 74
     0
 49
-1.27
 74
     0
  0
LTYPE
  5
71
330
5
100
AcDbSymbolTableRecord
100
AcDbLinetypeTableRecord
  2
CENTERX2
 70
     0
  3
Center (2x) ________  __  ________  __  _____
 72
    65
 73
     4
 40
20.32
 49
12.7
 74
     0
 49
-2.54
 74
     0
 49
2.54
 74
     0
 49
-2.54
 74
     0
  0
LTYPE
  5
72
330
5
100
AcDbSymbolTableRecord
100
AcDbLinetypeTableRecord
  2
DOT2
 70
     0
  3
Dot (.5x) ........................................
 72
    65
 73
     2
 40
0.635
 49
0.0
 74
     0
 49
-0.635
 74
     0
  0
ENDTAB
  0
TABLE
  2
LAYER
  5
2
330
0
100
AcDbSymbolTable
 70
     1
  0
LAYER
  5
10
330
2
100
AcDbSymbolTableRecord
100
AcDbLayerTableRecord
  2
0
 70
     0
 62
     7
  6
Continuous
370
    -3
390
F
347
46
  0
ENDTAB
  0
TABLE
  2
STYLE
  5
3
330
0
100
AcDbSymbolTable
 70
     1
  0
STYLE
  5
11
330
3
100
AcDbSymbolTableRecord
100
AcDbTextStyleTableRecord
  2
Standard
 70
     0
 40
0.0
 41
1.0
 50
0.0
 71
     0
 42
3.5
  3
txt
  4

  0
ENDTAB
  0
TABLE
  2
VIEW
  5
6
330
0
100
AcDbSymbolTable
 70
     0
  0
ENDTAB
  0
TABLE
  2
UCS
  5
7
330
0
100
AcDbSymbolTable
 70
     0
  0
ENDTAB
  0
TABLE
  2
APPID
  5
9
330
0
100
AcDbSymbolTable
 70
     2
  0
APPID
  5
12
330
9
100
AcDbSymbolTableRecord
100
AcDbRegAppTableRecord
  2
ACAD
 70
     0
  0
APPID
  5
263
330
9
100
AcDbSymbolTableRecord
100
AcDbRegAppTableRecord
  2
ACAD_MLEADERVER
 70
     0
  0
ENDTAB
  0
TABLE
  2
DIMSTYLE
  5
A
330
0
100
AcDbSymbolTable
 70
     1
100
AcDbDimStyleTable
  0
DIMSTYLE
105
27
330
A
100
AcDbSymbolTableRecord
100
AcDbDimStyleTableRecord
  2
ISO-25
 70
     0
 41
2.5
 42
0.625
 43
3.75
 44
1.25
 73
     0
 74
     0
 77
     1
 78
     8
140
2.5
141
2.5
143
0.0393700787
147
0.625
171
     3
172
     1
178
     0
271
     2
272
     2
274
     3
278
    44
283
     0
284
     8
340
11
  0
ENDTAB
  0
TABLE
  2
BLOCK_RECORD
  5
1
330
0
100
AcDbSymbolTable
 70
     1
  0
BLOCK_RECORD
  5
1F
330
1
100
AcDbSymbolTableRecord
100
AcDbBlockTableRecord
  2
*Model_Space
340
22
 70
     0
280
     1
281
     0
  0
BLOCK_RECORD
  5
1B
330
1
100
AcDbSymbolTableRecord
100
AcDbBlockTableRecord
  2
*Paper_Space
340
1E
 70
     0
280
     1
281
     0
  0
BLOCK_RECORD
  5
23
330
1
100
AcDbSymbolTableRecord
100
AcDbBlockTableRecord
  2
*Paper_Space0
340
26
 70
     0
280
     1
281
     0
  0
ENDTAB
  0
ENDSEC
  0
SECTION
  2
BLOCKS
  0
BLOCK
  5
20
330
1F
100
AcDbEntity
  8
0
100
AcDbBlockBegin
  2
*Model_Space
 70
     0
 10
0.0
 20
0.0
 30
0.0
  3
*Model_Space
  1

  0
ENDBLK
  5
21
330
1F
100
AcDbEntity
  8
0
100
AcDbBlockEnd
  0
BLOCK
  5
1C
330
1B
100
AcDbEntity
 67
     1
  8
0
100
AcDbBlockBegin
  2
*Paper_Space
 70
     0
 10
0.0
 20
0.0
 30
0.0
  3
*Paper_Space
  1

  0
ENDBLK
  5
1D
330
1B
100
AcDbEntity
 67
     1
  8
0
100
AcDbBlockEnd
  0
BLOCK
  5
24
330
23
100
AcDbEntity
  8
0
100
AcDbBlockBegin
  2
*Paper_Space0
 70
     0
 10
0.0
 20
0.0
 30
0.0
  3
*Paper_Space0
  1

  0
ENDBLK
  5
25
330
23
100
AcDbEntity
  8
0
100
AcDbBlockEnd
  0
ENDSEC
  0
SECTION
  2
ENTITIES
  0
LINE
  5
73
330
1F
100
AcDbEntity
  8
0
  6
Continuous
 62
     7
370
    25
100
AcDbLine
 10
118.1638143546
 20
138.5527062041
 30
0.0
 11
118.1638143546
 21
138.5451066119
 31
0.0
  0
LINE
  5
74
330
1F
100
AcDbEntity
  8
0
  6
Continuous
 62
     7
370
    25
100
AcDbLine
 10
118.443814326
 20
138.5451066119
 30
0.0
 11
118.443814326
 21
138.5527062041
 31
0.0
  0
ARC
  5
75
330
1F
100
AcDbEntity
  8
0
  6
Continuous
 62
     7
370
    25
100
AcDbCircle
 10
118.3038145549
 20
138.5014884725
 30
0.0
 40
0.1490747274041901
100
AcDbArc
 50
118.00594401
 51
159.9053469508
  0
ARC
  5
76
330
1F
100
AcDbEntity
  8
0
  6
Continuous
 62
     7
370
    25
100
AcDbCircle
 10
118.3038145549
 20
138.5014884725
 30
0.0
 40
0.1490747274041901
100
AcDbArc
 50
20.0946530492
 51
61.99405599
  0
LINE
  5
77
330
1F
100
AcDbEntity
  8
0
  6
Continuous
 62
     7
370
    25
100
AcDbLine
 10
123.3946083075
 20
138.5527062041
 30
0.0
 11
123.3946083075
 21
138.5451066119
 31
0.0
  0
LINE
  5
78
330
1F
100
AcDbEntity
  8
0
  6
Continuous
 62
     7
370
    25
100
AcDbLine
 10
123.6746082789
 20
138.5451066119
 30
0.0
 11
123.6746082789
 21
138.5527062041
 31
0.0
  0
ARC
  5
79
330
1F
100
AcDbEntity
  8
0
  6
Continuous
 62
     7
370
    25
100
AcDbCircle
 10
123.5346079937
 20
138.5014884725
 30
0.0
 40
0.1490747274041901
100
AcDbArc
 50
118.00594401
 51
159.9053469508
  0
ARC
  5
7A
330
1F
100
AcDbEntity
  8
0
  6
Continuous
 62
     7
370
    25
100
AcDbCircle
 10
123.5346079937
 20
138.5014884725
 30
0.0
 40
0.1490747274041901
100
AcDbArc
 50
20.0946530492
 51
61.99405599
  0
ARC
  5
7B
330
1F
100
AcDbEntity
  8
0
  6
Continuous
 62
     7
370
    25
100
AcDbCircle
 10
113.073021116
 20
138.5014884725
 30
0.0
 40
0.1490747274041901
100
AcDbArc
 50
118.00594401
 51
159.9053469508
  0
ARC
  5
7C
330
1F
100
AcDbEntity
  8
0
  6
Continuous
 62
     7
370
    25
100
AcDbCircle
 10
113.073021116
 20
138.5014884725
 30
0.0
 40
0.1490747274041901
100
AcDbArc
 50
20.0946530492
 51
61.99405599
  0
LINE
  5
7D
330
1F
100
AcDbEntity
  8
0
  6
Continuous
 62
     7
370
    25
100
AcDbLine
 10
112.9330209977
 20
138.5527062041
 30
0.0
 11
112.9330209977
 21
138.5451066119
 31
0.0
  0
LINE
  5
7E
330
1F
100
AcDbEntity
  8
0
  6
Continuous
 62
     7
370
    25
100
AcDbLine
 10
113.2130209691
 20
138.5451066119
 30
0.0
 11
113.2130209691
 21
138.5527062041
 31
0.0
  0
LINE
  5
7F
330
1F
100
AcDbEntity
  8
0
  6
Continuous
 62
     7
370
    25
100
AcDbLine
 10
121.4540098197
 20
149.1251074892
 30
0.0
 11
121.4540098197
 21
138.5451066119
 31
0.0
  0
LINE
  5
80
330
1F
100
AcDbEntity
  8
0
  6
Continuous
 62
     7
370
    25
100
AcDbLine
 10
122.1280096061
 20
138.5451066119
 30
0.0
 11
122.1280096061
 21
149.1251074892
 31
0.0
  0
LINE
  5
81
330
1F
100
AcDbEntity
  8
0
  6
Continuous
 62
     7
370
    25
100
AcDbLine
 10
121.4540098197
 20
171.4051043612
 30
0.0
 11
121.4540098197
 21
161.1051070315
 31
0.0
  0
LINE
  5
82
330
1F
100
AcDbEntity
  8
0
  6
Continuous
 62
     7
370
    25
100
AcDbLine
 10
122.1280096061
 20
161.1051070315
 30
0.0
 11
122.1280096061
 21
171.4051043612
 31
0.0
  0
LINE
  5
83
330
1F
100
AcDbEntity
  8
0
  6
Continuous
 62
     7
370
    25
100
AcDbLine
 10
121.4540098197
 20
160.4051053149
 30
0.0
 11
121.4540098197
 21
149.8251068217
 31
0.0
  0
LINE
  5
84
330
1F
100
AcDbEntity
  8
0
  6
Continuous
 62
     7
370
    25
100
AcDbLine
 10
122.1280096061
 20
149.8251068217
 30
0.0
 11
122.1280096061
 21
160.4051053149
 31
0.0
  0
LINE
  5
85
330
1F
100
AcDbEntity
  8
0
  6
Continuous
 62
     7
370
    25
100
AcDbLine
 10
124.9412057883
 20
149.1251074892
 30
0.0
 11
124.9412057883
 21
138.5451066119
 31
0.0
  0
LINE
  5
86
330
1F
100
AcDbEntity
  8
0
  6
Continuous
 62
     7
370
    25
100
AcDbLine
 10
125.6152055747
 20
138.5451066119
 30
0.0
 11
125.6152055747
 21
149.1251074892
 31
0.0
  0
LINE
  5
87
330
1F
100
AcDbEntity
  8
0
  6
Continuous
 62
     7
370
    25
100
AcDbLine
 10
124.9412057883
 20
171.4051043612
 30
0.0
 11
124.9412057883
 21
161.1051070315
 31
0.0
  0
LINE
  5
88
330
1F
100
AcDbEntity
  8
0
  6
Continuous
 62
     7
370
    25
100
AcDbLine
 10
125.6152055747
 20
161.1051070315
 30
0.0
 11
125.6152055747
 21
171.4051043612
 31
0.0
  0
LINE
  5
89
330
1F
100
AcDbEntity
  8
0
  6
Continuous
 62
     7
370
    25
100
AcDbLine
 10
124.9412057883
 20
160.4051053149
 30
0.0
 11
124.9412057883
 21
149.8251068217
 31
0.0
  0
LINE
  5
8A
330
1F
100
AcDbEntity
  8
0
  6
Continuous
 62
     7
370
    25
100
AcDbLine
 10
125.6152055747
 20
149.8251068217
 30
0.0
 11
125.6152055747
 21
160.4051053149
 31
0.0
  0
LINE
  5
8B
330
1F
100
AcDbEntity
  8
0
  6
Continuous
 62
     7
370
    25
100
AcDbLine
 10
114.4796190745
 20
149.1251074892
 30
0.0
 11
114.4796190745
 21
138.5451066119
 31
0.0
  0
LINE
  5
8C
330
1F
100
AcDbEntity
  8
0
  6
Continuous
 62
     7
370
    25
100
AcDbLine
 10
115.1536188609
 20
138.5451066119
 30
0.0
 11
115.1536188609
 21
149.1251074892
 31
0.0
  0
LINE
  5
8D
330
1F
100
AcDbEntity
  8
0
  6
Continuous
 62
     7
370
    25
100
AcDbLine
 10
114.4796190745
 20
171.4051043612
 30
0.0
 11
114.4796190745
 21
161.1051070315
 31
0.0
  0
LINE
  5
8E
330
1F
100
AcDbEntity
  8
0
  6
Continuous
 62
     7
370
    25
100
AcDbLine
 10
115.1536188609
 20
161.1051070315
 30
0.0
 11
115.1536188609
 21
171.4051043612
 31
0.0
  0
LINE
  5
8F
330
1F
100
AcDbEntity
  8
0
  6
Continuous
 62
     7
370
    25
100
AcDbLine
 10
114.4796190745
 20
160.4051053149
 30
0.0
 11
114.4796190745
 21
149.8251068217
 31
0.0
  0
LINE
  5
90
330
1F
100
AcDbEntity
  8
0
  6
Continuous
 62
     7
370
    25
100
AcDbLine
 10
115.1536188609
 20
149.8251068217
 30
0.0
 11
115.1536188609
 21
160.4051053149
 31
0.0
  0
LINE
  5
91
330
1F
100
AcDbEntity
  8
0
  6
Continuous
 62
     7
370
    25
100
AcDbLine
 10
110.9924233294
 20
149.1251074892
 30
0.0
 11
110.9924233294
 21
138.5451066119
 31
0.0
  0
LINE
  5
92
330
1F
100
AcDbEntity
  8
0
  6
Continuous
 62
     7
370
    25
100
AcDbLine
 10
111.6664233393
 20
138.5451066119
 30
0.0
 11
111.6664233393
 21
149.1251074892
 31
0.0
  0
LINE
  5
93
330
1F
100
AcDbEntity
  8
0
  6
Continuous
 62
     7
370
    25
100
AcDbLine
 10
110.9924233294
 20
171.4051043612
 30
0.0
 11
110.9924233294
 21
161.1051070315
 31
0.0
  0
LINE
  5
94
330
1F
100
AcDbEntity
  8
0
  6
Continuous
 62
     7
370
    25
100
AcDbLine
 10
111.6664233393
 20
161.1051070315
 30
0.0
 11
111.6664233393
 21
171.4051043612
 31
0.0
  0
LINE
  5
95
330
1F
100
AcDbEntity
  8
0
  6
Continuous
 62
     7
370
    25
100
AcDbLine
 10
110.9924233294
 20
160.4051053149
 30
0.0
 11
110.9924233294
 21
149.8251068217
 31
0.0
  0
LINE
  5
96
330
1F
100
AcDbEntity
  8
0
  6
Continuous
 62
     7
370
    25
100
AcDbLine
 10
111.6664233393
 20
149.8251068217
 30
0.0
 11
111.6664233393
 21
160.4051053149
 31
0.0
  0
LINE
  5
97
330
1F
100
AcDbEntity
  8
0
  6
Continuous
 62
     7
370
    25
100
AcDbLine
 10
120.9368906505
 20
120.2251063657
 30
0.0
 11
120.9368906505
 21
120.4051063952
 31
0.0
  0
LINE
  5
98
330
1F
100
AcDbEntity
  8
0
  6
Continuous
 62
     7
370
    25
100
AcDbLine
 10
119.2962102181
 20
120.4051063952
 30
0.0
 11
119.2962102181
 21
120.2251063657
 31
0.0
  0
LINE
  5
99
330
1F
100
AcDbEntity
  8
0
  6
Continuous
 62
     7
370
    25
100
AcDbLine
 10
117.9201803691
 20
120.4051063952
 30
0.0
 11
117.9201803691
 21
120.2251063657
 31
0.0
  0
LINE
  5
9A
330
1F
100
AcDbEntity
  8
0
  6
Continuous
 62
     7
370
    25
100
AcDbLine
 10
114.8189414627
 20
120.2251063657
 30
0.0
 11
114.8189414627
 21
119.9851064009
 31
0.0
  0
LINE
  5
9B
330
1F
100
AcDbEntity
  8
0
  6
Continuous
 62
     7
370
    25
100
AcDbLine
 10
116.4925364739
 20
119.9851064009
 30
0.0
 11
116.4925364739
 21
120.2251063657
 31
0.0
  0
LINE
  5
9C
330
1F
100
AcDbEntity
  8
0
  6
Continuous
 62
     7
370
    25
100
AcDbLine
 10
118.6874483115
 20
119.9851064009
 30
0.0
 11
118.6874483115
 21
120.2251063657
 31
0.0
  0
LINE
  5
9D
330
1F
100
AcDbEntity
  8
0
  6
Continuous
 62
     7
370
    25
100
AcDbLine
 10
127.0338140017
 20
125.951982699
 30
0.0
 11
127.2138140685
 21
125.951982699
 31
0.0
  0
LINE
  5
9E
330
1F
100
AcDbEntity
  8
0
  6
Continuous
 62
     7
370
    25
100
AcDbLine
 10
127.2138140685
 20
127.1519827467
 30
0.0
 11
127.0338140017
 21
127.1519827467
 31
0.0
  0
ARC
  5
9F
330
1F
100
AcDbEntity
  8
0
  6
Continuous
 62
     7
370
    25
100
AcDbCircle
 10
127.2138145549
 20
126.9519826548
 30
0.0
 40
0.1999999999999886
100
AcDbArc
 50
0.0
 51
90.0
  0
ARC
  5
A0
330
1F
100
AcDbEntity
  8
0
  6
Continuous
 62
     7
370
    25
100
AcDbCircle
 10
127.2138145549
 20
126.1519826548
 30
0.0
 40
0.1999999999999886
100
AcDbArc
 50
270.0
 51
0.0
  0
LINE
  5
A1
330
1F
100
AcDbEntity
  8
0
  6
Continuous
 62
     7
370
    25
100
AcDbLine
 10
127.0338140017
 20
133.5631012541
 30
0.0
 11
127.2138140685
 21
133.5631012541
 31
0.0
  0
LINE
  5
A2
330
1F
100
AcDbEntity
  8
0
  6
Continuous
 62
     7
370
    25
100
AcDbLine
 10
127.2138140685
 20
134.7631013018
 30
0.0
 11
127.0338140017
 21
134.7631013018
 31
0.0
  0
ARC
  5
A3
330
1F
100
AcDbEntity
  8
0
  6
Continuous
 62
     7
370
    25
100
AcDbCircle
 10
127.2138145549
 20
134.5631014092
 30
0.0
 40
0.1999999999999886
100
AcDbArc
 50
0.0
 51
90.0
  0
ARC
  5
A4
330
1F
100
AcDbEntity
  8
0
  6
Continuous
 62
     7
370
    25
100
AcDbCircle
 10
127.2138145549
 20
133.7631014092
 30
0.0
 40
0.1999999999999886
100
AcDbArc
 50
270.0
 51
0.0
  0
LINE
  5
A5
330
1F
100
AcDbEntity
  8
0
  6
Continuous
 62
     7
370
    25
100
AcDbLine
 10
85.8529243953
 20
186.3143050295
 30
0.0
 11
85.8529243953
 21
186.2951075655
 31
0.0
  0
LINE
  5
A6
330
1F
100
AcDbEntity
  8
0
  6
Continuous
 62
     7
370
    25
100
AcDbLine
 10
86.1577234752
 20
186.2951075655
 30
0.0
 11
86.1577234752
 21
186.3143050295
 31
0.0
  0
LINE
  5
A7
330
1F
100
AcDbEntity
  8
0
  6
Continuous
 62
     7
370
    25
100
AcDbLine
 10
104.6858386285
 20
186.3143050295
 30
0.0
 11
104.6858386285
 21
186.2951075655
 31
0.0
  0
LINE
  5
A8
330
1F
100
AcDbEntity
  8
0
  6
Continuous
 62
     7
370
    25
100
AcDbLine
 10
104.9906383044
 20
186.2951075655
 30
0.0
 11
104.9906383044
 21
186.3143050295
 31
0.0
  0
LINE
  5
A9
330
1F
100
AcDbEntity
  8
0
  6
Continuous
 62
     7
370
    25
100
AcDbLine
 10
96.0316894538
 20
175.8759057146
 30
0.0
 11
96.0316894538
 21
175.895107947
 31
0.0
  0
LINE
  5
AA
330
1F
100
AcDbEntity
  8
0
  6
Continuous
 62
     7
370
    25
100
AcDbLine
 10
95.7268891818
 20
175.895107947
 30
0.0
 11
95.7268891818
 21
175.8759057146
 31
0.0
  0
LINE
  5
AB
330
1F
100
AcDbEntity
  8
0
  6
Continuous
 62
     7
370
    25
100
AcDbLine
 10
86.1577234752
 20
175.8759057146
 30
0.0
 11
86.1577234752
 21
175.895107947
 31
0.0
  0
LINE
  5
AC
330
1F
100
AcDbEntity
  8
0
  6
Continuous
 62
     7
370
    25
100
AcDbLine
 10
85.8529243953
 20
175.895107947
 30
0.0
 11
85.8529243953
 21
175.8759057146
 31
0.0
  0
LINE
  5
AD
330
1F
100
AcDbEntity
  8
0
  6
Continuous
 62
     7
370
    25
100
AcDbLine
 10
80.4551921374
 20
175.8759057146
 30
0.0
 11
80.4551921374
 21
175.895107947
 31
0.0
  0
LINE
  5
AE
330
1F
100
AcDbEntity
  8
0
  6
Continuous
 62
     7
370
    25
100
AcDbLine
 10
80.1503930575
 20
175.895107947
 30
0.0
 11
80.1503930575
 21
175.8759057146
 31
0.0
  0
LINE
  5
AF
330
1F
100
AcDbEntity
  8
0
  6
Continuous
 62
     7
370
    25
100
AcDbLine
 10
95.7268891818
 20
186.3143050295
 30
0.0
 11
95.7268891818
 21
186.2951075655
 31
0.0
  0
LINE
  5
B0
330
1F
100
AcDbEntity
  8
0
  6
Continuous
 62
     7
370
    25
100
AcDbLine
 10
96.0316894538
 20
186.2951075655
 30
0.0
 11
96.0316894538
 21
186.3143050295
 31
0.0
  0
LINE
  5
B1
330
1F
100
AcDbEntity
  8
0
  6
Continuous
 62
     7
370
    25
100
AcDbLine
 10
101.1395875699
 20
186.3143050295
 30
0.0
 11
101.1395875699
 21
186.2951075655
 31
0.0
  0
LINE
  5
B2
330
1F
100
AcDbEntity
  8
0
  6
Continuous
 62
     7
370
    25
100
AcDbLine
 10
101.4443878419
 20
186.2951075655
 30
0.0
 11
101.4443878419
 21
186.3143050295
 31
0.0
  0
LINE
  5
B3
330
1F
100
AcDbEntity
  8
0
  6
Continuous
 62
     7
370
    25
100
AcDbLine
 10
80.1503930575
 20
186.3143050295
 30
0.0
 11
80.1503930575
 21
186.2951075655
 31
0.0
  0
LINE
  5
B4
330
1F
100
AcDbEntity
  8
0
  6
Continuous
 62
     7
370
    25
100
AcDbLine
 10
80.4551921374
 20
186.2951075655
 30
0.0
 11
80.4551921374
 21
186.3143050295
 31
0.0
  0
LINE
  5
B5
330
1F
100
AcDbEntity
  8
0
  6
Continuous
 62
     7
370
    25
100
AcDbLine
 10
104.9906383044
 20
175.8759057146
 30
0.0
 11
104.9906383044
 21
175.895107947
 31
0.0
  0
LINE
  5
B6
330
1F
100
AcDbEntity
  8
0
  6
Continuous
 62
     7
370
    25
100
AcDbLine
 10
104.6858386285
 20
175.895107947
 30
0.0
 11
104.6858386285
 21
175.8759057146
 31
0.0
  0
LINE
  5
B7
330
1F
100
AcDbEntity
  8
0
  6
Continuous
 62
     7
370
    25
100
AcDbLine
 10
101.4443878419
 20
175.8759057146
 30
0.0
 11
101.4443878419
 21
175.895107947
 31
0.0
  0
LINE
  5
B8
330
1F
100
AcDbEntity
  8
0
  6
Continuous
 62
     7
370
    25
100
AcDbLine
 10
101.1395875699
 20
175.895107947
 30
0.0
 11
101.1395875699
 21
175.8759057146
 31
0.0
  0
LINE
  5
B9
330
1F
100
AcDbEntity
  8
0
  6
Continuous
 62
     7
370
    25
100
AcDbLine
 10
77.1510801799
 20
186.2951075655
 30
0.0
 11
77.1510801799
 21
185.9151064974
 31
0.0
  0
LINE
  5
BA
330
1F
100
AcDbEntity
  8
0
  6
Continuous
 62
     7
370
    25
100
AcDbLine
 10
77.9510794169
 20
185.9151064974
 30
0.0
 11
77.9510794169
 21
176.2751042467
 31
0.0
  0
LINE
  5
BB
330
1F
100
AcDbEntity
  8
0
  6
Continuous
 62
     7
370
    25
100
AcDbLine
 10
77.1510801799
 20
176.2751042467
 30
0.0
 11
77.1510801799
 21
175.895107947
 31
0.0
  0
LINE
  5
BC
330
1F
100
AcDbEntity
  8
0
  6
Continuous
 62
     7
370
    25
100
AcDbLine
 10
109.9668145549
 20
187.8060233218
 30
0.0
 11
109.9668145549
 21
174.3841874224
 31
0.0
  0
LINE
  5
BD
330
1F
100
AcDbEntity
  8
0
  6
Continuous
 62
     7
370
    25
100
AcDbLine
 10
110.6408145613
 20
174.6881329638
 30
0.0
 11
110.6408145613
 21
187.5020825488
 31
0.0
  0
CIRCLE
  5
BE
330
1F
100
AcDbEntity
  8
0
  6
Continuous
 62
     7
370
    25
100
AcDbCircle
 10
126.3035480091
 20
121.1351598312
 30
0.0
 40
0.8813863255737857
  0
LINE
  5
BF
330
1F
100
AcDbEntity
  8
0
  6
Continuous
 62
     7
370
    25
100
AcDbLine
 10
79.3038139827
 20
220.1351105791
 30
0.0
 11
79.3038139827
 21
216.3351094347
 31
0.0
  0
LINE
  5
C0
330
1F
100
AcDbEntity
  8
0
  6
Continuous
 62
     7
370
    25
100
AcDbLine
 10
79.3038139827
 20
220.1351105791
 30
0.0
 11
127.3038146979
 21
220.1351105791
 31
0.0
  0
ARC
  5
C1
330
1F
100
AcDbEntity
  8
0
  6
Continuous
 62
     7
370
    25
100
AcDbCircle
 10
67.1510790621
 20
186.335106383
 30
0.0
 40
30.00000000000001
100
AcDbArc
 50
90.0
 51
180.0
  0
LINE
  5
C2
330
1F
100
AcDbEntity
  8
0
  6
Continuous
 62
     7
370
    25
100
AcDbLine
 10
157.30381589
 20
190.1351058108
 30
0.0
 11
157.30381589
 21
120.1351064068
 31
0.0
  0
ARC
  5
C3
330
1F
100
AcDbEntity
  8
0
  6
Continuous
 62
     7
370
    25
100
AcDbCircle
 10
127.3038145549
 20
120.135106383
 30
0.0
 40
30.0
100
AcDbArc
 50
270.0
 51
0.0
  0
ARC
  5
C4
330
1F
100
AcDbEntity
  8
0
  6
Continuous
 62
     7
370
    25
100
AcDbCircle
 10
127.3038145549
 20
190.135106383
 30
0.0
 40
30.0
100
AcDbArc
 50
0.0
 51
90.0
  0
ARC
  5
C5
330
1F
100
AcDbEntity
  8
0
  6
Continuous
 62
     7
370
    25
100
AcDbCircle
 10
88.9373723584
 20
120.135106383
 30
0.0
 40
30.0
100
AcDbArc
 50
180.0
 51
270.0
  0
LINE
  5
C6
330
1F
100
AcDbEntity
  8
0
  6
Continuous
 62
     7
370
    25
100
AcDbLine
 10
58.9373741633
 20
147.0814239603
 30
0.0
 11
58.9373741633
 21
120.1351064068
 31
0.0
  0
ARC
  5
C7
330
1F
100
AcDbEntity
  8
0
  6
Continuous
 62
     7
370
    25
100
AcDbCircle
 10
67.1510790621
 20
175.935106383
 30
0.0
 40
30.00000000000001
100
AcDbArc
 50
180.0
 51
254.1100676463
  0
LINE
  5
C8
330
1F
100
AcDbEntity
  8
0
  6
Continuous
 62
     7
370
    25
100
AcDbLine
 10
37.1510801799
 20
186.3351046664
 30
0.0
 11
37.1510801799
 21
175.9351050478
 31
0.0
  0
LINE
  5
C9
330
1F
100
AcDbEntity
  8
0
  6
Continuous
 62
     7
370
    25
100
AcDbLine
 10
88.9373717792
 20
90.1351058108
 30
0.0
 11
127.3038146979
 21
90.1351058108
 31
0.0
  0
LINE
  5
CA
330
1F
100
AcDbEntity
  8
0
  6
Continuous
 62
     7
370
    25
100
AcDbLine
 10
79.3038139827
 20
216.3351094347
 30
0.0
 11
67.1510801799
 21
216.3351094347
 31
0.0
  0
LINE
  5
CB
330
1F
100
AcDbEntity
  8
0
  6
Continuous
 62
     7
370
    25
100
AcDbLine
 10
118.1638143546
 20
138.5527062041
 30
0.0
 11
118.443814326
 21
138.5527062041
 31
0.0
  0
LINE
  5
CC
330
1F
100
AcDbEntity
  8
0
  6
Continuous
 62
     7
370
    25
100
AcDbLine
 10
118.2338146455
 20
138.6331069094
 30
0.0
 11
118.3738146312
 21
138.6331069094
 31
0.0
  0
LINE
  5
CD
330
1F
100
AcDbEntity
  8
0
  6
Continuous
 62
     7
370
    25
100
AcDbLine
 10
123.3946083075
 20
138.5527062041
 30
0.0
 11
123.6746082789
 21
138.5527062041
 31
0.0
  0
LINE
  5
CE
330
1F
100
AcDbEntity
  8
0
  6
Continuous
 62
     7
370
    25
100
AcDbLine
 10
123.4646080024
 20
138.6331069094
 30
0.0
 11
123.6046085841
 21
138.6331069094
 31
0.0
  0
LINE
  5
CF
330
1F
100
AcDbEntity
  8
0
  6
Continuous
 62
     7
370
    25
100
AcDbLine
 10
113.0030209906
 20
138.6331069094
 30
0.0
 11
113.1430209763
 21
138.6331069094
 31
0.0
  0
LINE
  5
D0
330
1F
100
AcDbEntity
  8
0
  6
Continuous
 62
     7
370
    25
100
AcDbLine
 10
112.9330209977
 20
138.5527062041
 30
0.0
 11
113.2130209691
 21
138.5527062041
 31
0.0
  0
ARC
  5
D1
330
1F
100
AcDbEntity
  8
0
  6
Continuous
 62
     7
370
    25
100
AcDbCircle
 10
126.3038145549
 20
137.135106383
 30
0.0
 40
0.9890000000000071
100
AcDbArc
 50
200.7256031944
 51
249.2743968055
  0
ARC
  5
D2
330
1F
100
AcDbEntity
  8
0
  6
Continuous
 62
     7
370
    25
100
AcDbCircle
 10
126.8928145549
 20
135.846106383
 30
0.0
 40
0.2999999999999977
100
AcDbArc
 50
0.0
 51
61.9657034658
  0
LINE
  5
D3
330
1F
100
AcDbEntity
  8
0
  6
Continuous
 62
     7
370
    25
100
AcDbLine
 10
127.1928141601
 20
122.4241064114
 30
0.0
 11
127.1928141601
 21
125.951982699
 31
0.0
  0
LINE
  5
D4
330
1F
100
AcDbEntity
  8
0
  6
Continuous
 62
     7
370
    25
100
AcDbLine
 10
127.1928141601
 20
127.1519827467
 30
0.0
 11
127.1928141601
 21
133.5631012541
 31
0.0
  0
LINE
  5
D5
330
1F
100
AcDbEntity
  8
0
  6
Continuous
 62
     7
370
    25
100
AcDbLine
 10
127.1928141601
 20
134.7631013018
 30
0.0
 11
127.1928141601
 21
135.8461069685
 31
0.0
  0
ARC
  5
D6
330
1F
100
AcDbEntity
  8
0
  6
Continuous
 62
     7
370
    25
100
AcDbCircle
 10
126.8928145549
 20
122.424106383
 30
0.0
 40
0.2999999999999977
100
AcDbArc
 50
298.0342965342
 51
0.0
  0
ARC
  5
D7
330
1F
100
AcDbEntity
  8
0
  6
Continuous
 62
     7
370
    25
100
AcDbCircle
 10
126.3038145549
 20
121.135106383
 30
0.0
 40
0.9890000000000121
100
AcDbArc
 50
110.7256031945
 51
159.2743968056
  0
ARC
  5
D8
330
1F
100
AcDbEntity
  8
0
  6
Continuous
 62
     7
370
    25
100
AcDbCircle
 10
125.0148145549
 20
120.546106383
 30
0.0
 40
0.3000000000000256
100
AcDbArc
 50
270.0
 51
331.9657034651
  0
LINE
  5
D9
330
1F
100
AcDbEntity
  8
0
  6
Continuous
 62
     7
370
    25
100
AcDbLine
 10
111.5928145832
 20
120.2461063859
 30
0.0
 11
117.9201803691
 21
120.2461063859
 31
0.0
  0
LINE
  5
DA
330
1F
100
AcDbEntity
  8
0
  6
Continuous
 62
     7
370
    25
100
AcDbLine
 10
120.9368906505
 20
120.2461063859
 30
0.0
 11
125.0148151404
 21
120.2461063859
 31
0.0
  0
ARC
  5
DB
330
1F
100
AcDbEntity
  8
0
  6
Continuous
 62
     7
370
    25
100
AcDbCircle
 10
111.5928145549
 20
120.546106383
 30
0.0
 40
0.2999999999999972
100
AcDbArc
 50
208.0342965349
 51
270.0
  0
ARC
  5
DC
330
1F
100
AcDbEntity
  8
0
  6
Continuous
 62
     7
370
    25
100
AcDbCircle
 10
110.3038145549
 20
121.135106383
 30
0.0
 40
0.9890000000000071
100
AcDbArc
 50
20.7256031944
 51
69.2743968056
  0
LINE
  5
DD
330
1F
100
AcDbEntity
  8
0
  6
Continuous
 62
     7
370
    25
100
AcDbLine
 10
109.9538145549
 20
122.1241063994
 30
0.0
 11
109.7148145511
 21
122.1241063994
 31
0.0
  0
ARC
  5
DE
330
1F
100
AcDbEntity
  8
0
  6
Continuous
 62
     7
370
    25
100
AcDbCircle
 10
109.7148145549
 20
122.424106383
 30
0.0
 40
0.3000000000000114
100
AcDbArc
 50
180.0
 51
270.0
  0
LINE
  5
DF
330
1F
100
AcDbEntity
  8
0
  6
Continuous
 62
     7
370
    25
100
AcDbLine
 10
109.4148145578
 20
122.4241064114
 30
0.0
 11
109.4148145578
 21
122.755106352
 31
0.0
  0
LINE
  5
E0
330
1F
100
AcDbEntity
  8
0
  6
Continuous
 62
     7
370
    25
100
AcDbLine
 10
109.4148145578
 20
123.135106377
 30
0.0
 11
109.4148145578
 21
135.1351058108
 31
0.0
  0
LINE
  5
E1
330
1F
100
AcDbEntity
  8
0
  6
Continuous
 62
     7
370
    25
100
AcDbLine
 10
109.4148145578
 20
135.5151068789
 30
0.0
 11
109.4148145578
 21
135.8461069685
 31
0.0
  0
ARC
  5
E2
330
1F
100
AcDbEntity
  8
0
  6
Continuous
 62
     7
370
    25
100
AcDbCircle
 10
109.7148145549
 20
135.846106383
 30
0.0
 40
0.3000000000000114
100
AcDbArc
 50
90.0
 51
180.0
  0
LINE
  5
E3
330
1F
100
AcDbEntity
  8
0
  6
Continuous
 62
     7
370
    25
100
AcDbLine
 10
109.9538145549
 20
136.1461066824
 30
0.0
 11
109.7148145511
 21
136.1461066824
 31
0.0
  0
ARC
  5
E4
330
1F
100
AcDbEntity
  8
0
  6
Continuous
 62
     7
370
    25
100
AcDbCircle
 10
110.3038145549
 20
137.135106383
 30
0.0
 40
0.9889999999999938
100
AcDbArc
 50
290.7256031944
 51
339.2743968056
  0
CIRCLE
  5
E5
330
1F
100
AcDbEntity
  8
0
  6
Continuous
 62
     7
370
    25
100
AcDbCircle
 10
110.3038145549
 20
123.735106383
 30
0.0
 40
0.0499999999999972
  0
CIRCLE
  5
E6
330
1F
100
AcDbEntity
  8
0
  6
Continuous
 62
     7
370
    25
100
AcDbCircle
 10
110.3038145549
 20
134.535106383
 30
0.0
 40
0.0499999999999972
  0
CIRCLE
  5
E7
330
1F
100
AcDbEntity
  8
0
  6
Continuous
 62
     7
370
    25
100
AcDbCircle
 10
110.3038145549
 20
129.135106383
 30
0.0
 40
0.0499999999999829
  0
LINE
  5
E8
330
1F
100
AcDbEntity
  8
0
  6
Continuous
 62
     7
370
    25
100
AcDbLine
 10
110.9238145835
 20
137.7851068598
 30
0.0
 11
111.2238145954
 21
137.4851059538
 31
0.0
  0
LINE
  5
E9
330
1F
100
AcDbEntity
  8
0
  6
Continuous
 62
     7
370
    25
100
AcDbLine
 10
110.9238145835
 20
137.7851068598
 30
0.0
 11
110.9238145835
 21
137.8451060873
 31
0.0
  0
LINE
  5
EA
330
1F
100
AcDbEntity
  8
0
  6
Continuous
 62
     7
370
    25
100
AcDbLine
 10
125.6838140971
 20
137.8451060873
 30
0.0
 11
110.9238145835
 21
137.8451060873
 31
0.0
  0
LINE
  5
EB
330
1F
100
AcDbEntity
  8
0
  6
Continuous
 62
     7
370
    25
100
AcDbLine
 10
125.6838140971
 20
137.7851068598
 30
0.0
 11
125.6838140971
 21
137.8451060873
 31
0.0
  0
LINE
  5
EC
330
1F
100
AcDbEntity
  8
0
  6
Continuous
 62
     7
370
    25
100
AcDbLine
 10
125.3838143832
 20
137.4851059538
 30
0.0
 11
111.2238145954
 21
137.4851059538
 31
0.0
  0
LINE
  5
ED
330
1F
100
AcDbEntity
  8
0
  6
Continuous
 62
     7
370
    25
100
AcDbLine
 10
125.3838143832
 20
137.4851059538
 30
0.0
 11
125.6838140971
 21
137.7851068598
 31
0.0
  0
ELLIPSE
  5
EE
330
1F
100
AcDbEntity
  8
0
  6
Continuous
 62
     7
370
    25
100
AcDbEllipse
 10
125.6130689628
 20
138.485106383
 30
0.0
 11
0.06928203230275187
 21
0.0
 31
0.0
210
0.0
220
0.0
230
1.0
 40
0.8660254038
 41
0.0
 42
1.570796326794897
  0
LINE
  5
EF
330
1F
100
AcDbEntity
  8
0
  6
Continuous
 62
     7
370
    25
100
AcDbLine
 10
125.6823513991
 20
137.905106507
 30
0.0
 11
125.6823513991
 21
138.4851061922
 31
0.0
  0
ELLIPSE
  5
F0
330
1F
100
AcDbEntity
  8
0
  6
Continuous
 62
     7
370
    25
100
AcDbEllipse
 10
125.6130689628
 20
137.905106383
 30
0.0
 11
0.06928203230275187
 21
0.0
 31
0.0
210
0.0
220
0.0
230
1.0
 40
0.8660254038
 41
4.712388980384702
 42
6.283185307179586
  0
ELLIPSE
  5
F1
330
1F
100
AcDbEntity
  8
0
  6
Continuous
 62
     7
370
    25
100
AcDbEllipse
 10
121.9584417588
 20
138.485106383
 30
0.0
 11
0.0
 21
0.05999999999997385
 31
0.0
210
0.0
220
0.0
230
1.0
 40
0.5773502692
 41
4.712388980384698
 42
6.283185307179586
  0
LINE
  5
F2
330
1F
100
AcDbEntity
  8
0
  6
Continuous
 62
     7
370
    25
100
AcDbLine
 10
121.9930825717
 20
137.905106507
 30
0.0
 11
121.9930825717
 21
138.4851061922
 31
0.0
  0
ELLIPSE
  5
F3
330
1F
100
AcDbEntity
  8
0
  6
Continuous
 62
     7
370
    25
100
AcDbEllipse
 10
121.9584417588
 20
137.905106383
 30
0.0
 11
0.0
 21
0.06000000000000227
 31
0.0
210
0.0
220
0.0
230
1.0
 40
0.5773502692
 41
3.141592653589793
 42
4.712388980384698
  0
LINE
  5
F4
330
1F
100
AcDbEntity
  8
0
  6
Continuous
 62
     7
370
    25
100
AcDbLine
 10
125.6823513991
 20
138.4851061922
 30
0.0
 11
121.9930825717
 21
138.4851061922
 31
0.0
  0
LINE
  5
F5
330
1F
100
AcDbEntity
  8
0
  6
Continuous
 62
     7
370
    25
100
AcDbLine
 10
125.6823513991
 20
137.905106507
 30
0.0
 11
121.9930825717
 21
137.905106507
 31
0.0
  0
ELLIPSE
  5
F6
330
1F
100
AcDbEntity
  8
0
  6
Continuous
 62
     7
370
    25
100
AcDbEllipse
 10
125.6130689628
 20
137.905106383
 30
0.0
 11
-0.06928203230278029
 21
0.0
 31
0.0
210
0.0
220
0.0
230
1.0
 40
0.8660254038
 41
1.570796326794897
 42
3.141592653589793
  0
LINE
  5
F7
330
1F
100
AcDbEntity
  8
0
  6
Continuous
 62
     7
370
    25
100
AcDbLine
 10
125.4435203559
 20
138.5451066119
 30
0.0
 11
122.1280096061
 21
138.5451066119
 31
0.0
  0
ELLIPSE
  5
F8
330
1F
100
AcDbEntity
  8
0
  6
Continuous
 62
     7
370
    25
100
AcDbEllipse
 10
125.6130689628
 20
138.485106383
 30
0.0
 11
-0.06928203230278029
 21
0.0
 31
0.0
210
0.0
220
0.0
230
1.0
 40
0.8660254038
 41
3.141592653589793
 42
4.712388980384702
  0
LINE
  5
F9
330
1F
100
AcDbEntity
  8
0
  6
Continuous
 62
     7
370
    25
100
AcDbLine
 10
121.6193447597
 20
138.5451066119
 30
0.0
 11
114.988284517
 21
138.5451066119
 31
0.0
  0
ELLIPSE
  5
FA
330
1F
100
AcDbEntity
  8
0
  6
Continuous
 62
     7
370
    25
100
AcDbEllipse
 10
121.9584417588
 20
138.485106383
 30
0.0
 11
0.0
 21
0.05999999999997385
 31
0.0
210
0.0
220
0.0
230
1.0
 40
0.5773502692
 41
4.712388980384698
 42
6.283185307179586
  0
LINE
  5
FB
330
1F
100
AcDbEntity
  8
0
  6
Continuous
 62
     7
370
    25
100
AcDbLine
 10
121.9930825717
 20
138.4851061922
 30
0.0
 11
114.6145464069
 21
138.4851061922
 31
0.0
  0
ELLIPSE
  5
FC
330
1F
100
AcDbEntity
  8
0
  6
Continuous
 62
     7
370
    25
100
AcDbEllipse
 10
114.6491873509
 20
138.485106383
 30
0.0
 11
0.0
 21
0.05999999999997385
 31
0.0
210
0.0
220
0.0
230
1.0
 40
0.5773502692
 41
0.0
 42
1.570796326794897
  0
LINE
  5
FD
330
1F
100
AcDbEntity
  8
0
  6
Continuous
 62
     7
370
    25
100
AcDbLine
 10
121.9930825717
 20
137.905106507
 30
0.0
 11
114.6145464069
 21
137.905106507
 31
0.0
  0
LINE
  5
FE
330
1F
100
AcDbEntity
  8
0
  6
Continuous
 62
     7
370
    25
100
AcDbLine
 10
114.6145464069
 20
137.905106507
 30
0.0
 11
114.6145464069
 21
138.4851061922
 31
0.0
  0
ELLIPSE
  5
FF
330
1F
100
AcDbEntity
  8
0
  6
Continuous
 62
     7
370
    25
100
AcDbEllipse
 10
121.9584417588
 20
137.905106383
 30
0.0
 11
0.0
 21
0.06000000000000227
 31
0.0
210
0.0
220
0.0
230
1.0
 40
0.5773502692
 41
3.141592653589793
 42
4.712388980384698
  0
ELLIPSE
  5
100
330
1F
100
AcDbEntity
  8
0
  6
Continuous
 62
     7
370
    25
100
AcDbEllipse
 10
114.6491873509
 20
137.905106383
 30
0.0
 11
0.0
 21
0.06000000000000227
 31
0.0
210
0.0
220
0.0
230
1.0
 40
0.5773502692
 41
1.570796326794897
 42
3.141592653589793
  0
ELLIPSE
  5
101
330
1F
100
AcDbEntity
  8
0
  6
Continuous
 62
     7
370
    25
100
AcDbEllipse
 10
110.9945601469
 20
137.905106383
 30
0.0
 11
0.06928203230276608
 21
0.0
 31
0.0
210
0.0
220
0.0
230
1.0
 40
0.8660254038
 41
3.141592653589793
 42
4.712388980384702
  0
ELLIPSE
  5
102
330
1F
100
AcDbEntity
  8
0
  6
Continuous
 62
     7
370
    25
100
AcDbEllipse
 10
110.9945601469
 20
138.485106383
 30
0.0
 11
0.06928203230276608
 21
0.0
 31
0.0
210
0.0
220
0.0
230
1.0
 40
0.8660254038
 41
1.570796326794897
 42
3.141592653589793
  0
LINE
  5
103
330
1F
100
AcDbEntity
  8
0
  6
Continuous
 62
     7
370
    25
100
AcDbLine
 10
110.925278101
 20
138.4851061922
 30
0.0
 11
110.925278101
 21
137.905106507
 31
0.0
  0
LINE
  5
104
330
1F
100
AcDbEntity
  8
0
  6
Continuous
 62
     7
370
    25
100
AcDbLine
 10
114.6145464069
 20
138.4851061922
 30
0.0
 11
110.925278101
 21
138.4851061922
 31
0.0
  0
LINE
  5
105
330
1F
100
AcDbEntity
  8
0
  6
Continuous
 62
     7
370
    25
100
AcDbLine
 10
114.6145464069
 20
137.905106507
 30
0.0
 11
110.925278101
 21
137.905106507
 31
0.0
  0
ELLIPSE
  5
106
330
1F
100
AcDbEntity
  8
0
  6
Continuous
 62
     7
370
    25
100
AcDbEllipse
 10
114.6491873509
 20
137.905106383
 30
0.0
 11
0.0
 21
0.06000000000000227
 31
0.0
210
0.0
220
0.0
230
1.0
 40
0.5773502692
 41
1.570796326794897
 42
3.141592653589793
  0
ELLIPSE
  5
107
330
1F
100
AcDbEntity
  8
0
  6
Continuous
 62
     7
370
    25
100
AcDbEllipse
 10
110.9945601469
 20
137.905106383
 30
0.0
 11
-0.06928203230275187
 21
0.0
 31
0.0
210
0.0
220
0.0
230
1.0
 40
0.8660254038
 41
0.0
 42
1.570796326794897
  0
ELLIPSE
  5
108
330
1F
100
AcDbEntity
  8
0
  6
Continuous
 62
     7
370
    25
100
AcDbEllipse
 10
114.6491873509
 20
138.485106383
 30
0.0
 11
0.0
 21
0.06000000000000227
 31
0.0
210
0.0
220
0.0
230
1.0
 40
0.5773502692
 41
0.0
 42
1.570796326794897
  0
LINE
  5
109
330
1F
100
AcDbEntity
  8
0
  6
Continuous
 62
     7
370
    25
100
AcDbLine
 10
114.4796190745
 20
138.5451066119
 30
0.0
 11
111.1641086227
 21
138.5451066119
 31
0.0
  0
ELLIPSE
  5
10A
330
1F
100
AcDbEntity
  8
0
  6
Continuous
 62
     7
370
    25
100
AcDbEllipse
 10
110.9945601469
 20
138.485106383
 30
0.0
 11
-0.06928203230275187
 21
0.0
 31
0.0
210
0.0
220
0.0
230
1.0
 40
0.8660254038
 41
4.712388980384702
 42
6.283185307179586
  0
ELLIPSE
  5
10B
330
1F
100
AcDbEntity
  8
0
  6
Continuous
 62
     7
370
    25
100
AcDbEllipse
 10
110.9945601469
 20
149.765106383
 30
0.0
 11
0.06928203230275187
 21
0.0
 31
0.0
210
0.0
220
0.0
230
1.0
 40
0.8660254038
 41
1.570796326794897
 42
3.141592653589793
  0
ELLIPSE
  5
10C
330
1F
100
AcDbEntity
  8
0
  6
Continuous
 62
     7
370
    25
100
AcDbEllipse
 10
110.9945601469
 20
149.185106383
 30
0.0
 11
0.06928203230275187
 21
0.0
 31
0.0
210
0.0
220
0.0
230
1.0
 40
0.8660254038
 41
3.141592653589793
 42
4.712388980384702
  0
LINE
  5
10D
330
1F
100
AcDbEntity
  8
0
  6
Continuous
 62
     7
370
    25
100
AcDbLine
 10
110.925278101
 20
149.7651064021
 30
0.0
 11
110.925278101
 21
149.1851055247
 31
0.0
  0
ELLIPSE
  5
10E
330
1F
100
AcDbEntity
  8
0
  6
Continuous
 62
     7
370
    25
100
AcDbEllipse
 10
125.6130689628
 20
149.185106383
 30
0.0
 11
0.06928203230275187
 21
0.0
 31
0.0
210
0.0
220
0.0
230
1.0
 40
0.8660254038
 41
4.712388980384702
 42
6.283185307179586
  0
ELLIPSE
  5
10F
330
1F
100
AcDbEntity
  8
0
  6
Continuous
 62
     7
370
    25
100
AcDbEllipse
 10
125.6130689628
 20
149.765106383
 30
0.0
 11
0.06928203230275187
 21
0.0
 31
0.0
210
0.0
220
0.0
230
1.0
 40
0.8660254038
 41
0.0
 42
1.570796326794897
  0
LINE
  5
110
330
1F
100
AcDbEntity
  8
0
  6
Continuous
 62
     7
370
    25
100
AcDbLine
 10
125.6823513991
 20
149.1851055247
 30
0.0
 11
125.6823513991
 21
149.7651064021
 31
0.0
  0
LINE
  5
111
330
1F
100
AcDbEntity
  8
0
  6
Continuous
 62
     7
370
    25
100
AcDbLine
 10
125.6823513991
 20
149.1851055247
 30
0.0
 11
121.9930825717
 21
149.1851055247
 31
0.0
  0
ELLIPSE
  5
112
330
1F
100
AcDbEntity
  8
0
  6
Continuous
 62
     7
370
    25
100
AcDbEllipse
 10
125.6130689628
 20
149.185106383
 30
0.0
 11
-0.06928203230278029
 21
0.0
 31
0.0
210
0.0
220
0.0
230
1.0
 40
0.8660254038
 41
1.570796326794897
 42
3.141592653589793
  0
LINE
  5
113
330
1F
100
AcDbEntity
  8
0
  6
Continuous
 62
     7
370
    25
100
AcDbLine
 10
125.4435203559
 20
149.1251074892
 30
0.0
 11
122.1280096061
 21
149.1251074892
 31
0.0
  0
ELLIPSE
  5
114
330
1F
100
AcDbEntity
  8
0
  6
Continuous
 62
     7
370
    25
100
AcDbEllipse
 10
121.9584417588
 20
149.185106383
 30
0.0
 11
0.0
 21
0.06000000000000227
 31
0.0
210
0.0
220
0.0
230
1.0
 40
0.5773502692
 41
3.141592653589793
 42
4.712388980384698
  0
ELLIPSE
  5
115
330
1F
100
AcDbEntity
  8
0
  6
Continuous
 62
     7
370
    25
100
AcDbEllipse
 10
121.9584417588
 20
149.765106383
 30
0.0
 11
0.0
 21
0.0600000000000307
 31
0.0
210
0.0
220
0.0
230
1.0
 40
0.5773502692
 41
4.712388980384698
 42
6.283185307179586
  0
LINE
  5
116
330
1F
100
AcDbEntity
  8
0
  6
Continuous
 62
     7
370
    25
100
AcDbLine
 10
121.9930825717
 20
149.1851055247
 30
0.0
 11
121.9930825717
 21
149.7651064021
 31
0.0
  0
LINE
  5
117
330
1F
100
AcDbEntity
  8
0
  6
Continuous
 62
     7
370
    25
100
AcDbLine
 10
125.4435203559
 20
149.8251068217
 30
0.0
 11
122.1280096061
 21
149.8251068217
 31
0.0
  0
ELLIPSE
  5
118
330
1F
100
AcDbEntity
  8
0
  6
Continuous
 62
     7
370
    25
100
AcDbEllipse
 10
125.6130689628
 20
149.765106383
 30
0.0
 11
-0.06928203230278029
 21
0.0
 31
0.0
210
0.0
220
0.0
230
1.0
 40
0.8660254038
 41
3.141592653589793
 42
4.712388980384702
  0
LINE
  5
119
330
1F
100
AcDbEntity
  8
0
  6
Continuous
 62
     7
370
    25
100
AcDbLine
 10
125.6823513991
 20
149.7651064021
 30
0.0
 11
121.9930825717
 21
149.7651064021
 31
0.0
  0
LINE
  5
11A
330
1F
100
AcDbEntity
  8
0
  6
Continuous
 62
     7
370
    25
100
AcDbLine
 10
114.4796190745
 20
149.1251074892
 30
0.0
 11
111.1641086227
 21
149.1251074892
 31
0.0
  0
ELLIPSE
  5
11B
330
1F
100
AcDbEntity
  8
0
  6
Continuous
 62
     7
370
    25
100
AcDbEllipse
 10
110.9945601469
 20
149.185106383
 30
0.0
 11
-0.06928203230275187
 21
0.0
 31
0.0
210
0.0
220
0.0
230
1.0
 40
0.8660254038
 41
0.0
 42
1.570796326794897
  0
LINE
  5
11C
330
1F
100
AcDbEntity
  8
0
  6
Continuous
 62
     7
370
    25
100
AcDbLine
 10
114.6145464069
 20
149.1851055247
 30
0.0
 11
110.925278101
 21
149.1851055247
 31
0.0
  0
ELLIPSE
  5
11D
330
1F
100
AcDbEntity
  8
0
  6
Continuous
 62
     7
370
    25
100
AcDbEllipse
 10
114.6491873509
 20
149.185106383
 30
0.0
 11
0.0
 21
0.06000000000000227
 31
0.0
210
0.0
220
0.0
230
1.0
 40
0.5773502692
 41
1.570796326794897
 42
3.141592653589793
  0
LINE
  5
11E
330
1F
100
AcDbEntity
  8
0
  6
Continuous
 62
     7
370
    25
100
AcDbLine
 10
114.6145464069
 20
149.7651064021
 30
0.0
 11
110.925278101
 21
149.7651064021
 31
0.0
  0
ELLIPSE
  5
11F
330
1F
100
AcDbEntity
  8
0
  6
Continuous
 62
     7
370
    25
100
AcDbEllipse
 10
110.9945601469
 20
149.765106383
 30
0.0
 11
-0.06928203230275187
 21
0.0
 31
0.0
210
0.0
220
0.0
230
1.0
 40
0.8660254038
 41
4.712388980384702
 42
6.283185307179586
  0
LINE
  5
120
330
1F
100
AcDbEntity
  8
0
  6
Continuous
 62
     7
370
    25
100
AcDbLine
 10
114.4796190745
 20
149.8251068217
 30
0.0
 11
111.1641086227
 21
149.8251068217
 31
0.0
  0
ELLIPSE
  5
121
330
1F
100
AcDbEntity
  8
0
  6
Continuous
 62
     7
370
    25
100
AcDbEllipse
 10
114.6491873509
 20
149.765106383
 30
0.0
 11
0.0
 21
0.0600000000000307
 31
0.0
210
0.0
220
0.0
230
1.0
 40
0.5773502692
 41
0.0
 42
1.570796326794897
  0
LINE
  5
122
330
1F
100
AcDbEntity
  8
0
  6
Continuous
 62
     7
370
    25
100
AcDbLine
 10
114.6145464069
 20
149.7651064021
 30
0.0
 11
114.6145464069
 21
149.1851055247
 31
0.0
  0
LINE
  5
123
330
1F
100
AcDbEntity
  8
0
  6
Continuous
 62
     7
370
    25
100
AcDbLine
 10
121.6193447597
 20
149.8251068217
 30
0.0
 11
114.988284517
 21
149.8251068217
 31
0.0
  0
ELLIPSE
  5
124
330
1F
100
AcDbEntity
  8
0
  6
Continuous
 62
     7
370
    25
100
AcDbEllipse
 10
121.9584417588
 20
149.765106383
 30
0.0
 11
0.0
 21
0.0600000000000307
 31
0.0
210
0.0
220
0.0
230
1.0
 40
0.5773502692
 41
4.712388980384698
 42
6.283185307179586
  0
LINE
  5
125
330
1F
100
AcDbEntity
  8
0
  6
Continuous
 62
     7
370
    25
100
AcDbLine
 10
121.9930825717
 20
149.7651064021
 30
0.0
 11
114.6145464069
 21
149.7651064021
 31
0.0
  0
ELLIPSE
  5
126
330
1F
100
AcDbEntity
  8
0
  6
Continuous
 62
     7
370
    25
100
AcDbEllipse
 10
114.6491873509
 20
149.765106383
 30
0.0
 11
0.0
 21
0.0600000000000307
 31
0.0
210
0.0
220
0.0
230
1.0
 40
0.5773502692
 41
0.0
 42
1.570796326794897
  0
LINE
  5
127
330
1F
100
AcDbEntity
  8
0
  6
Continuous
 62
     7
370
    25
100
AcDbLine
 10
121.9930825717
 20
149.1851055247
 30
0.0
 11
114.6145464069
 21
149.1851055247
 31
0.0
  0
LINE
  5
128
330
1F
100
AcDbEntity
  8
0
  6
Continuous
 62
     7
370
    25
100
AcDbLine
 10
121.6193447597
 20
149.1251074892
 30
0.0
 11
114.988284517
 21
149.1251074892
 31
0.0
  0
ELLIPSE
  5
129
330
1F
100
AcDbEntity
  8
0
  6
Continuous
 62
     7
370
    25
100
AcDbEllipse
 10
121.9584417588
 20
149.185106383
 30
0.0
 11
0.0
 21
0.06000000000000227
 31
0.0
210
0.0
220
0.0
230
1.0
 40
0.5773502692
 41
3.141592653589793
 42
4.712388980384698
  0
ELLIPSE
  5
12A
330
1F
100
AcDbEntity
  8
0
  6
Continuous
 62
     7
370
    25
100
AcDbEllipse
 10
114.6491873509
 20
149.185106383
 30
0.0
 11
0.0
 21
0.06000000000000227
 31
0.0
210
0.0
220
0.0
230
1.0
 40
0.5773502692
 41
1.570796326794897
 42
3.141592653589793
  0
ELLIPSE
  5
12B
330
1F
100
AcDbEntity
  8
0
  6
Continuous
 62
     7
370
    25
100
AcDbEllipse
 10
125.6130689628
 20
161.045106383
 30
0.0
 11
0.06928203230275187
 21
0.0
 31
0.0
210
0.0
220
0.0
230
1.0
 40
0.8660254038
 41
0.0
 42
1.570796326794897
  0
LINE
  5
12C
330
1F
100
AcDbEntity
  8
0
  6
Continuous
 62
     7
370
    25
100
AcDbLine
 10
125.6823513991
 20
160.4651057345
 30
0.0
 11
125.6823513991
 21
161.0451066119
 31
0.0
  0
ELLIPSE
  5
12D
330
1F
100
AcDbEntity
  8
0
  6
Continuous
 62
     7
370
    25
100
AcDbEllipse
 10
125.6130689628
 20
160.465106383
 30
0.0
 11
0.06928203230275187
 21
0.0
 31
0.0
210
0.0
220
0.0
230
1.0
 40
0.8660254038
 41
4.712388980384702
 42
6.283185307179586
  0
LINE
  5
12E
330
1F
100
AcDbEntity
  8
0
  6
Continuous
 62
     7
370
    25
100
AcDbLine
 10
125.6823513991
 20
161.0451066119
 30
0.0
 11
121.9930825717
 21
161.0451066119
 31
0.0
  0
LINE
  5
12F
330
1F
100
AcDbEntity
  8
0
  6
Continuous
 62
     7
370
    25
100
AcDbLine
 10
125.6823513991
 20
160.4651057345
 30
0.0
 11
121.9930825717
 21
160.4651057345
 31
0.0
  0
LINE
  5
130
330
1F
100
AcDbEntity
  8
0
  6
Continuous
 62
     7
370
    25
100
AcDbLine
 10
121.9930825717
 20
160.4651057345
 30
0.0
 11
121.9930825717
 21
161.0451066119
 31
0.0
  0
ELLIPSE
  5
131
330
1F
100
AcDbEntity
  8
0
  6
Continuous
 62
     7
370
    25
100
AcDbEllipse
 10
121.9584417588
 20
161.045106383
 30
0.0
 11
0.0
 21
0.06000000000000227
 31
0.0
210
0.0
220
0.0
230
1.0
 40
0.5773502692
 41
4.712388980384698
 42
6.283185307179586
  0
ELLIPSE
  5
132
330
1F
100
AcDbEntity
  8
0
  6
Continuous
 62
     7
370
    25
100
AcDbEllipse
 10
121.9584417588
 20
160.465106383
 30
0.0
 11
0.0
 21
0.06000000000000227
 31
0.0
210
0.0
220
0.0
230
1.0
 40
0.5773502692
 41
3.141592653589793
 42
4.712388980384698
  0
ELLIPSE
  5
133
330
1F
100
AcDbEntity
  8
0
  6
Continuous
 62
     7
370
    25
100
AcDbEllipse
 10
125.6130689628
 20
160.465106383
 30
0.0
 11
-0.06928203230278029
 21
0.0
 31
0.0
210
0.0
220
0.0
230
1.0
 40
0.8660254038
 41
1.570796326794897
 42
3.141592653589793
  0
LINE
  5
134
330
1F
100
AcDbEntity
  8
0
  6
Continuous
 62
     7
370
    25
100
AcDbLine
 10
125.4435203559
 20
160.4051053149
 30
0.0
 11
122.1280096061
 21
160.4051053149
 31
0.0
  0
LINE
  5
135
330
1F
100
AcDbEntity
  8
0
  6
Continuous
 62
     7
370
    25
100
AcDbLine
 10
125.4435203559
 20
161.1051070315
 30
0.0
 11
122.1280096061
 21
161.1051070315
 31
0.0
  0
ELLIPSE
  5
136
330
1F
100
AcDbEntity
  8
0
  6
Continuous
 62
     7
370
    25
100
AcDbEllipse
 10
125.6130689628
 20
161.045106383
 30
0.0
 11
-0.06928203230278029
 21
0.0
 31
0.0
210
0.0
220
0.0
230
1.0
 40
0.8660254038
 41
3.141592653589793
 42
4.712388980384702
  0
LINE
  5
137
330
1F
100
AcDbEntity
  8
0
  6
Continuous
 62
     7
370
    25
100
AcDbLine
 10
121.9930825717
 20
161.0451066119
 30
0.0
 11
114.6145464069
 21
161.0451066119
 31
0.0
  0
LINE
  5
138
330
1F
100
AcDbEntity
  8
0
  6
Continuous
 62
     7
370
    25
100
AcDbLine
 10
121.9930825717
 20
160.4651057345
 30
0.0
 11
114.6145464069
 21
160.4651057345
 31
0.0
  0
LINE
  5
139
330
1F
100
AcDbEntity
  8
0
  6
Continuous
 62
     7
370
    25
100
AcDbLine
 10
114.6145464069
 20
160.4651057345
 30
0.0
 11
114.6145464069
 21
161.0451066119
 31
0.0
  0
LINE
  5
13A
330
1F
100
AcDbEntity
  8
0
  6
Continuous
 62
     7
370
    25
100
AcDbLine
 10
121.6193447597
 20
160.4051053149
 30
0.0
 11
114.988284517
 21
160.4051053149
 31
0.0
  0
ELLIPSE
  5
13B
330
1F
100
AcDbEntity
  8
0
  6
Continuous
 62
     7
370
    25
100
AcDbEllipse
 10
121.9584417588
 20
160.465106383
 30
0.0
 11
0.0
 21
0.06000000000000227
 31
0.0
210
0.0
220
0.0
230
1.0
 40
0.5773502692
 41
3.141592653589793
 42
4.712388980384698
  0
ELLIPSE
  5
13C
330
1F
100
AcDbEntity
  8
0
  6
Continuous
 62
     7
370
    25
100
AcDbEllipse
 10
114.6491873509
 20
160.465106383
 30
0.0
 11
0.0
 21
0.06000000000000227
 31
0.0
210
0.0
220
0.0
230
1.0
 40
0.5773502692
 41
1.570796326794897
 42
3.141592653589793
  0
LINE
  5
13D
330
1F
100
AcDbEntity
  8
0
  6
Continuous
 62
     7
370
    25
100
AcDbLine
 10
121.6193447597
 20
161.1051070315
 30
0.0
 11
114.988284517
 21
161.1051070315
 31
0.0
  0
ELLIPSE
  5
13E
330
1F
100
AcDbEntity
  8
0
  6
Continuous
 62
     7
370
    25
100
AcDbEllipse
 10
121.9584417588
 20
161.045106383
 30
0.0
 11
0.0
 21
0.06000000000000227
 31
0.0
210
0.0
220
0.0
230
1.0
 40
0.5773502692
 41
4.712388980384698
 42
6.283185307179586
  0
ELLIPSE
  5
13F
330
1F
100
AcDbEntity
  8
0
  6
Continuous
 62
     7
370
    25
100
AcDbEllipse
 10
114.6491873509
 20
161.045106383
 30
0.0
 11
0.0
 21
0.06000000000000227
 31
0.0
210
0.0
220
0.0
230
1.0
 40
0.5773502692
 41
0.0
 42
1.570796326794897
  0
ELLIPSE
  5
140
330
1F
100
AcDbEntity
  8
0
  6
Continuous
 62
     7
370
    25
100
AcDbEllipse
 10
110.9945601469
 20
161.045106383
 30
0.0
 11
0.06928203230276608
 21
0.0
 31
0.0
210
0.0
220
0.0
230
1.0
 40
0.8660254038
 41
1.570796326794897
 42
3.141592653589793
  0
ELLIPSE
  5
141
330
1F
100
AcDbEntity
  8
0
  6
Continuous
 62
     7
370
    25
100
AcDbEllipse
 10
110.9945601469
 20
160.465106383
 30
0.0
 11
0.06928203230276608
 21
0.0
 31
0.0
210
0.0
220
0.0
230
1.0
 40
0.8660254038
 41
3.141592653589793
 42
4.712388980384702
  0
LINE
  5
142
330
1F
100
AcDbEntity
  8
0
  6
Continuous
 62
     7
370
    25
100
AcDbLine
 10
110.925278101
 20
161.0451066119
 30
0.0
 11
110.925278101
 21
160.4651057345
 31
0.0
  0
LINE
  5
143
330
1F
100
AcDbEntity
  8
0
  6
Continuous
 62
     7
370
    25
100
AcDbLine
 10
114.4796190745
 20
161.1051070315
 30
0.0
 11
111.1641086227
 21
161.1051070315
 31
0.0
  0
ELLIPSE
  5
144
330
1F
100
AcDbEntity
  8
0
  6
Continuous
 62
     7
370
    25
100
AcDbEllipse
 10
114.6491873509
 20
161.045106383
 30
0.0
 11
0.0
 21
0.06000000000000227
 31
0.0
210
0.0
220
0.0
230
1.0
 40
0.5773502692
 41
0.0
 42
1.570796326794897
  0
LINE
  5
145
330
1F
100
AcDbEntity
  8
0
  6
Continuous
 62
     7
370
    25
100
AcDbLine
 10
114.6145464069
 20
161.0451066119
 30
0.0
 11
110.925278101
 21
161.0451066119
 31
0.0
  0
ELLIPSE
  5
146
330
1F
100
AcDbEntity
  8
0
  6
Continuous
 62
     7
370
    25
100
AcDbEllipse
 10
110.9945601469
 20
161.045106383
 30
0.0
 11
-0.06928203230275187
 21
0.0
 31
0.0
210
0.0
220
0.0
230
1.0
 40
0.8660254038
 41
4.712388980384702
 42
6.283185307179586
  0
ELLIPSE
  5
147
330
1F
100
AcDbEntity
  8
0
  6
Continuous
 62
     7
370
    25
100
AcDbEllipse
 10
114.6491873509
 20
160.465106383
 30
0.0
 11
0.0
 21
0.06000000000000227
 31
0.0
210
0.0
220
0.0
230
1.0
 40
0.5773502692
 41
1.570796326794897
 42
3.141592653589793
  0
LINE
  5
148
330
1F
100
AcDbEntity
  8
0
  6
Continuous
 62
     7
370
    25
100
AcDbLine
 10
114.6145464069
 20
160.4651057345
 30
0.0
 11
110.925278101
 21
160.4651057345
 31
0.0
  0
LINE
  5
149
330
1F
100
AcDbEntity
  8
0
  6
Continuous
 62
     7
370
    25
100
AcDbLine
 10
114.4796190745
 20
160.4051053149
 30
0.0
 11
111.1641086227
 21
160.4051053149
 31
0.0
  0
ELLIPSE
  5
14A
330
1F
100
AcDbEntity
  8
0
  6
Continuous
 62
     7
370
    25
100
AcDbEllipse
 10
110.9945601469
 20
160.465106383
 30
0.0
 11
-0.06928203230275187
 21
0.0
 31
0.0
210
0.0
220
0.0
230
1.0
 40
0.8660254038
 41
0.0
 42
1.570796326794897
  0
LINE
  5
14B
330
1F
100
AcDbEntity
  8
0
  6
Continuous
 62
     7
370
    25
100
AcDbLine
 10
121.6193447597
 20
149.1251074892
 30
0.0
 11
122.1280096061
 21
149.1251074892
 31
0.0
  0
LINE
  5
14C
330
1F
100
AcDbEntity
  8
0
  6
Continuous
 62
     7
370
    25
100
AcDbLine
 10
122.1280096061
 20
138.5451066119
 30
0.0
 11
121.6193447597
 21
138.5451066119
 31
0.0
  0
LINE
  5
14D
330
1F
100
AcDbEntity
  8
0
  6
Continuous
 62
     7
370
    25
100
AcDbLine
 10
122.1280096061
 20
161.1051070315
 30
0.0
 11
121.6193447597
 21
161.1051070315
 31
0.0
  0
LINE
  5
14E
330
1F
100
AcDbEntity
  8
0
  6
Continuous
 62
     7
370
    25
100
AcDbLine
 10
122.1280096061
 20
149.8251068217
 30
0.0
 11
121.6193447597
 21
149.8251068217
 31
0.0
  0
LINE
  5
14F
330
1F
100
AcDbEntity
  8
0
  6
Continuous
 62
     7
370
    25
100
AcDbLine
 10
121.6193447597
 20
160.4051053149
 30
0.0
 11
122.1280096061
 21
160.4051053149
 31
0.0
  0
LINE
  5
150
330
1F
100
AcDbEntity
  8
0
  6
Continuous
 62
     7
370
    25
100
AcDbLine
 10
125.4435203559
 20
149.1251074892
 30
0.0
 11
125.6152055747
 21
149.1251074892
 31
0.0
  0
LINE
  5
151
330
1F
100
AcDbEntity
  8
0
  6
Continuous
 62
     7
370
    25
100
AcDbLine
 10
125.6152055747
 20
138.5451066119
 30
0.0
 11
125.4435203559
 21
138.5451066119
 31
0.0
  0
LINE
  5
152
330
1F
100
AcDbEntity
  8
0
  6
Continuous
 62
     7
370
    25
100
AcDbLine
 10
125.6152055747
 20
161.1051070315
 30
0.0
 11
125.4435203559
 21
161.1051070315
 31
0.0
  0
LINE
  5
153
330
1F
100
AcDbEntity
  8
0
  6
Continuous
 62
     7
370
    25
100
AcDbLine
 10
125.6152055747
 20
149.8251068217
 30
0.0
 11
125.4435203559
 21
149.8251068217
 31
0.0
  0
LINE
  5
154
330
1F
100
AcDbEntity
  8
0
  6
Continuous
 62
     7
370
    25
100
AcDbLine
 10
125.4435203559
 20
160.4051053149
 30
0.0
 11
125.6152055747
 21
160.4051053149
 31
0.0
  0
LINE
  5
155
330
1F
100
AcDbEntity
  8
0
  6
Continuous
 62
     7
370
    25
100
AcDbLine
 10
114.4796190745
 20
149.1251074892
 30
0.0
 11
114.988284517
 21
149.1251074892
 31
0.0
  0
LINE
  5
156
330
1F
100
AcDbEntity
  8
0
  6
Continuous
 62
     7
370
    25
100
AcDbLine
 10
114.988284517
 20
138.5451066119
 30
0.0
 11
114.4796190745
 21
138.5451066119
 31
0.0
  0
LINE
  5
157
330
1F
100
AcDbEntity
  8
0
  6
Continuous
 62
     7
370
    25
100
AcDbLine
 10
114.988284517
 20
161.1051070315
 30
0.0
 11
114.4796190745
 21
161.1051070315
 31
0.0
  0
LINE
  5
158
330
1F
100
AcDbEntity
  8
0
  6
Continuous
 62
     7
370
    25
100
AcDbLine
 10
114.988284517
 20
149.8251068217
 30
0.0
 11
114.4796190745
 21
149.8251068217
 31
0.0
  0
LINE
  5
159
330
1F
100
AcDbEntity
  8
0
  6
Continuous
 62
     7
370
    25
100
AcDbLine
 10
114.4796190745
 20
160.4051053149
 30
0.0
 11
114.988284517
 21
160.4051053149
 31
0.0
  0
LINE
  5
15A
330
1F
100
AcDbEntity
  8
0
  6
Continuous
 62
     7
370
    25
100
AcDbLine
 10
110.9924233294
 20
149.1251074892
 30
0.0
 11
111.1641086227
 21
149.1251074892
 31
0.0
  0
LINE
  5
15B
330
1F
100
AcDbEntity
  8
0
  6
Continuous
 62
     7
370
    25
100
AcDbLine
 10
111.1641086227
 20
138.5451066119
 30
0.0
 11
110.9924233294
 21
138.5451066119
 31
0.0
  0
LINE
  5
15C
330
1F
100
AcDbEntity
  8
0
  6
Continuous
 62
     7
370
    25
100
AcDbLine
 10
111.1641086227
 20
161.1051070315
 30
0.0
 11
110.9924233294
 21
161.1051070315
 31
0.0
  0
LINE
  5
15D
330
1F
100
AcDbEntity
  8
0
  6
Continuous
 62
     7
370
    25
100
AcDbLine
 10
110.9924233294
 20
160.4051053149
 30
0.0
 11
111.1641086227
 21
160.4051053149
 31
0.0
  0
LINE
  5
15E
330
1F
100
AcDbEntity
  8
0
  6
Continuous
 62
     7
370
    25
100
AcDbLine
 10
111.1641086227
 20
149.8251068217
 30
0.0
 11
110.9924233294
 21
149.8251068217
 31
0.0
  0
LINE
  5
15F
330
1F
100
AcDbEntity
  8
0
  6
Continuous
 62
     7
370
    25
100
AcDbLine
 10
121.4157329089
 20
171.4051043612
 30
0.0
 11
121.4157329089
 21
161.1051070315
 31
0.0
  0
LINE
  5
160
330
1F
100
AcDbEntity
  8
0
  6
Continuous
 62
     7
370
    25
100
AcDbLine
 10
121.4157329089
 20
160.4051053149
 30
0.0
 11
121.4157329089
 21
149.8251068217
 31
0.0
  0
LINE
  5
161
330
1F
100
AcDbEntity
  8
0
  6
Continuous
 62
     7
370
    25
100
AcDbLine
 10
121.4157329089
 20
149.1251074892
 30
0.0
 11
121.4157329089
 21
138.5451066119
 31
0.0
  0
LINE
  5
162
330
1F
100
AcDbEntity
  8
0
  6
Continuous
 62
     7
370
    25
100
AcDbLine
 10
115.1918963677
 20
171.4051043612
 30
0.0
 11
115.1918963677
 21
161.1051070315
 31
0.0
  0
LINE
  5
163
330
1F
100
AcDbEntity
  8
0
  6
Continuous
 62
     7
370
    25
100
AcDbLine
 10
115.1918963677
 20
160.4051053149
 30
0.0
 11
115.1918963677
 21
149.8251068217
 31
0.0
  0
LINE
  5
164
330
1F
100
AcDbEntity
  8
0
  6
Continuous
 62
     7
370
    25
100
AcDbLine
 10
115.1918963677
 20
149.1251074892
 30
0.0
 11
115.1918963677
 21
138.5451066119
 31
0.0
  0
LINE
  5
165
330
1F
100
AcDbEntity
  8
0
  6
Continuous
 62
     7
370
    25
100
AcDbLine
 10
111.8201709873
 20
171.4051043612
 30
0.0
 11
111.8201709873
 21
161.1051070315
 31
0.0
  0
LINE
  5
166
330
1F
100
AcDbEntity
  8
0
  6
Continuous
 62
     7
370
    25
100
AcDbLine
 10
111.8201709873
 20
160.4051053149
 30
0.0
 11
111.8201709873
 21
149.8251068217
 31
0.0
  0
LINE
  5
167
330
1F
100
AcDbEntity
  8
0
  6
Continuous
 62
     7
370
    25
100
AcDbLine
 10
111.8201709873
 20
149.1251074892
 30
0.0
 11
111.8201709873
 21
138.5451066119
 31
0.0
  0
LINE
  5
168
330
1F
100
AcDbEntity
  8
0
  6
Continuous
 62
     7
370
    25
100
AcDbLine
 10
124.7874579913
 20
171.4051043612
 30
0.0
 11
124.7874579913
 21
161.1051070315
 31
0.0
  0
LINE
  5
169
330
1F
100
AcDbEntity
  8
0
  6
Continuous
 62
     7
370
    25
100
AcDbLine
 10
124.7874579913
 20
160.4051053149
 30
0.0
 11
124.7874579913
 21
149.8251068217
 31
0.0
  0
LINE
  5
16A
330
1F
100
AcDbEntity
  8
0
  6
Continuous
 62
     7
370
    25
100
AcDbLine
 10
124.7874579913
 20
149.1251074892
 30
0.0
 11
124.7874579913
 21
138.5451066119
 31
0.0
  0
LINE
  5
16B
330
1F
100
AcDbEntity
  8
0
  6
Continuous
 62
     7
370
    25
100
AcDbLine
 10
125.6838140971
 20
120.4851063897
 30
0.0
 11
125.3838143832
 21
120.785106383
 31
0.0
  0
LINE
  5
16C
330
1F
100
AcDbEntity
  8
0
  6
Continuous
 62
     7
370
    25
100
AcDbLine
 10
110.9238145835
 20
120.4051063952
 30
0.0
 11
125.6838140971
 21
120.4051063952
 31
0.0
  0
LINE
  5
16D
330
1F
100
AcDbEntity
  8
0
  6
Continuous
 62
     7
370
    25
100
AcDbLine
 10
110.9238145835
 20
120.4051063952
 30
0.0
 11
110.9238145835
 21
120.4851063897
 31
0.0
  0
LINE
  5
16E
330
1F
100
AcDbEntity
  8
0
  6
Continuous
 62
     7
370
    25
100
AcDbLine
 10
111.2238145954
 20
120.785106383
 30
0.0
 11
110.9238145835
 21
120.4851063897
 31
0.0
  0
LINE
  5
16F
330
1F
100
AcDbEntity
  8
0
  6
Continuous
 62
     7
370
    25
100
AcDbLine
 10
111.2238145954
 20
120.785106383
 30
0.0
 11
125.3838143832
 21
120.785106383
 31
0.0
  0
LINE
  5
170
330
1F
100
AcDbEntity
  8
0
  6
Continuous
 62
     7
370
    25
100
AcDbLine
 10
125.6838140971
 20
120.4051063952
 30
0.0
 11
125.6838140971
 21
120.4851063897
 31
0.0
  0
LINE
  5
171
330
1F
100
AcDbEntity
  8
0
  6
Continuous
 62
     7
370
    25
100
AcDbLine
 10
120.6901381499
 20
120.2251063657
 30
0.0
 11
120.6901381499
 21
120.4051063952
 31
0.0
  0
LINE
  5
172
330
1F
100
AcDbEntity
  8
0
  6
Continuous
 62
     7
370
    25
100
AcDbLine
 10
120.9368906505
 20
120.2251063657
 30
0.0
 11
120.6901381499
 21
120.2251063657
 31
0.0
  0
LINE
  5
173
330
1F
100
AcDbEntity
  8
0
  6
Continuous
 62
     7
370
    25
100
AcDbLine
 10
119.434877444
 20
120.2251063657
 30
0.0
 11
119.434877444
 21
120.4051063952
 31
0.0
  0
LINE
  5
174
330
1F
100
AcDbEntity
  8
0
  6
Continuous
 62
     7
370
    25
100
AcDbLine
 10
120.6901381499
 20
120.2251063657
 30
0.0
 11
119.434877444
 21
120.2251063657
 31
0.0
  0
LINE
  5
175
330
1F
100
AcDbEntity
  8
0
  6
Continuous
 62
     7
370
    25
100
AcDbLine
 10
119.434877444
 20
120.2251063657
 30
0.0
 11
119.2962102181
 21
120.2251063657
 31
0.0
  0
LINE
  5
176
330
1F
100
AcDbEntity
  8
0
  6
Continuous
 62
     7
370
    25
100
AcDbLine
 10
118.4873304851
 20
120.2251063657
 30
0.0
 11
118.4873304851
 21
120.4051063952
 31
0.0
  0
LINE
  5
177
330
1F
100
AcDbEntity
  8
0
  6
Continuous
 62
     7
370
    25
100
AcDbLine
 10
119.2962102181
 20
120.2251063657
 30
0.0
 11
118.4873304851
 21
120.2251063657
 31
0.0
  0
LINE
  5
178
330
1F
100
AcDbEntity
  8
0
  6
Continuous
 62
     7
370
    25
100
AcDbLine
 10
118.4873304851
 20
120.2251063657
 30
0.0
 11
118.1202987916
 21
120.2251063657
 31
0.0
  0
LINE
  5
179
330
1F
100
AcDbEntity
  8
0
  6
Continuous
 62
     7
370
    25
100
AcDbLine
 10
115.0657777078
 20
119.9851064009
 30
0.0
 11
115.0657777078
 21
120.2251063657
 31
0.0
  0
LINE
  5
17A
330
1F
100
AcDbEntity
  8
0
  6
Continuous
 62
     7
370
    25
100
AcDbLine
 10
115.0657777078
 20
119.9851064009
 30
0.0
 11
114.8189414627
 21
119.9851064009
 31
0.0
  0
LINE
  5
17B
330
1F
100
AcDbEntity
  8
0
  6
Continuous
 62
     7
370
    25
100
AcDbLine
 10
115.0657777078
 20
120.2251063657
 30
0.0
 11
114.8189414627
 21
120.2251063657
 31
0.0
  0
LINE
  5
17C
330
1F
100
AcDbEntity
  8
0
  6
Continuous
 62
     7
370
    25
100
AcDbLine
 10
116.3210378177
 20
119.9851064009
 30
0.0
 11
116.3210378177
 21
120.2251063657
 31
0.0
  0
LINE
  5
17D
330
1F
100
AcDbEntity
  8
0
  6
Continuous
 62
     7
370
    25
100
AcDbLine
 10
116.3210378177
 20
119.9851064009
 30
0.0
 11
115.0657777078
 21
119.9851064009
 31
0.0
  0
LINE
  5
17E
330
1F
100
AcDbEntity
  8
0
  6
Continuous
 62
     7
370
    25
100
AcDbLine
 10
116.3210378177
 20
120.2251063657
 30
0.0
 11
115.0657777078
 21
120.2251063657
 31
0.0
  0
LINE
  5
17F
330
1F
100
AcDbEntity
  8
0
  6
Continuous
 62
     7
370
    25
100
AcDbLine
 10
116.4925364739
 20
119.9851064009
 30
0.0
 11
116.3210378177
 21
119.9851064009
 31
0.0
  0
LINE
  5
180
330
1F
100
AcDbEntity
  8
0
  6
Continuous
 62
     7
370
    25
100
AcDbLine
 10
116.4925364739
 20
120.2251063657
 30
0.0
 11
116.3210378177
 21
120.2251063657
 31
0.0
  0
LINE
  5
181
330
1F
100
AcDbEntity
  8
0
  6
Continuous
 62
     7
370
    25
100
AcDbLine
 10
118.1202987916
 20
119.9851064009
 30
0.0
 11
118.1202987916
 21
120.2251063657
 31
0.0
  0
LINE
  5
182
330
1F
100
AcDbEntity
  8
0
  6
Continuous
 62
     7
370
    25
100
AcDbLine
 10
118.1202987916
 20
119.9851064009
 30
0.0
 11
116.4925364739
 21
119.9851064009
 31
0.0
  0
LINE
  5
183
330
1F
100
AcDbEntity
  8
0
  6
Continuous
 62
     7
370
    25
100
AcDbLine
 10
118.1202987916
 20
120.2251063657
 30
0.0
 11
116.4925364739
 21
120.2251063657
 31
0.0
  0
LINE
  5
184
330
1F
100
AcDbEntity
  8
0
  6
Continuous
 62
     7
370
    25
100
AcDbLine
 10
118.6874483115
 20
119.9851064009
 30
0.0
 11
118.1202987916
 21
119.9851064009
 31
0.0
  0
LINE
  5
185
330
1F
100
AcDbEntity
  8
0
  6
Continuous
 62
     7
370
    25
100
AcDbLine
 10
126.6538141257
 20
174.3797909838
 30
0.0
 11
126.6538141257
 21
187.8104197604
 31
0.0
  0
LINE
  5
186
330
1F
100
AcDbEntity
  8
0
  6
Continuous
 62
     7
370
    25
100
AcDbLine
 10
127.0338140017
 20
174.2743622881
 30
0.0
 11
127.0338140017
 21
187.9158532244
 31
0.0
  0
LINE
  5
187
330
1F
100
AcDbEntity
  8
0
  6
Continuous
 62
     7
370
    25
100
AcDbLine
 10
126.9538150317
 20
136.5151059252
 30
0.0
 11
126.6538141257
 21
136.2151062113
 31
0.0
  0
LINE
  5
188
330
1F
100
AcDbEntity
  8
0
  6
Continuous
 62
     7
370
    25
100
AcDbLine
 10
127.0338140017
 20
136.5151059252
 30
0.0
 11
126.9538150317
 21
136.5151059252
 31
0.0
  0
LINE
  5
189
330
1F
100
AcDbEntity
  8
0
  6
Continuous
 62
     7
370
    25
100
AcDbLine
 10
126.6538141257
 20
122.0551064235
 30
0.0
 11
126.9538150317
 21
121.7551064116
 31
0.0
  0
LINE
  5
18A
330
1F
100
AcDbEntity
  8
0
  6
Continuous
 62
     7
370
    25
100
AcDbLine
 10
126.6538141257
 20
122.0551064235
 30
0.0
 11
126.6538141257
 21
136.2151062113
 31
0.0
  0
LINE
  5
18B
330
1F
100
AcDbEntity
  8
0
  6
Continuous
 62
     7
370
    25
100
AcDbLine
 10
127.0338140017
 20
121.7551064116
 30
0.0
 11
127.0338140017
 21
136.5151059252
 31
0.0
  0
LINE
  5
18C
330
1F
100
AcDbEntity
  8
0
  6
Continuous
 62
     7
370
    25
100
AcDbLine
 10
127.0338140017
 20
121.7551064116
 30
0.0
 11
126.9538150317
 21
121.7551064116
 31
0.0
  0
LINE
  5
18D
330
1F
100
AcDbEntity
  8
0
  6
Continuous
 62
     7
370
    25
100
AcDbLine
 10
127.4138150699
 20
126.9519829375
 30
0.0
 11
127.4138150699
 21
126.1519825083
 31
0.0
  0
LINE
  5
18E
330
1F
100
AcDbEntity
  8
0
  6
Continuous
 62
     7
370
    25
100
AcDbLine
 10
127.4138150699
 20
134.5631014925
 30
0.0
 11
127.4138150699
 21
133.7631010634
 31
0.0
  0
LINE
  5
18F
330
1F
100
AcDbEntity
  8
0
  6
Continuous
 62
     7
370
    25
100
AcDbLine
 10
126.0138140208
 20
136.2947368246
 30
0.0
 11
126.0138140208
 21
121.9754759592
 31
0.0
  0
LINE
  5
190
330
1F
100
AcDbEntity
  8
0
  6
Continuous
 62
     7
370
    25
100
AcDbLine
 10
126.5938148982
 20
136.2947368246
 30
0.0
 11
126.5938148982
 21
121.9754759592
 31
0.0
  0
LINE
  5
191
330
1F
100
AcDbEntity
  8
0
  6
Continuous
 62
     7
370
    25
100
AcDbLine
 10
125.9538147933
 20
136.3179027659
 30
0.0
 11
125.9538147933
 21
121.9523095709
 31
0.0
  0
LINE
  5
192
330
1F
100
AcDbEntity
  8
0
  6
Continuous
 62
     7
370
    25
100
AcDbLine
 10
126.6538141257
 20
136.3179027659
 30
0.0
 11
126.6538141257
 21
136.2151062113
 31
0.0
  0
LINE
  5
193
330
1F
100
AcDbEntity
  8
0
  6
Continuous
 62
     7
370
    25
100
AcDbLine
 10
126.6538141257
 20
122.0551064235
 30
0.0
 11
126.6538141257
 21
121.9523095709
 31
0.0
  0
LINE
  5
194
330
1F
100
AcDbEntity
  8
0
  6
Continuous
 62
     7
370
    25
100
AcDbLine
 10
125.9538147933
 20
187.4946820361
 30
0.0
 11
125.9538147933
 21
174.6955334765
 31
0.0
  0
LINE
  5
195
330
1F
100
AcDbEntity
  8
0
  6
Continuous
 62
     7
370
    25
100
AcDbLine
 10
111.1210177428
 20
120.785106383
 30
0.0
 11
111.2238145954
 21
120.785106383
 31
0.0
  0
LINE
  5
196
330
1F
100
AcDbEntity
  8
0
  6
Continuous
 62
     7
370
    25
100
AcDbLine
 10
125.3838143832
 20
120.785106383
 30
0.0
 11
125.4866109378
 21
120.785106383
 31
0.0
  0
LINE
  5
197
330
1F
100
AcDbEntity
  8
0
  6
Continuous
 62
     7
370
    25
100
AcDbLine
 10
111.1441841311
 20
120.8451063835
 30
0.0
 11
125.4634449965
 21
120.8451063835
 31
0.0
  0
LINE
  5
198
330
1F
100
AcDbEntity
  8
0
  6
Continuous
 62
     7
370
    25
100
AcDbLine
 10
111.1441841311
 20
121.4251064134
 30
0.0
 11
125.4634449965
 21
121.4251064134
 31
0.0
  0
LINE
  5
199
330
1F
100
AcDbEntity
  8
0
  6
Continuous
 62
     7
370
    25
100
AcDbLine
 10
111.1210177428
 20
121.485106386
 30
0.0
 11
125.4866109378
 21
121.485106386
 31
0.0
  0
LINE
  5
19A
330
1F
100
AcDbEntity
  8
0
  6
Continuous
 62
     7
370
    25
100
AcDbLine
 10
110.0138145554
 20
122.755106352
 30
0.0
 11
110.0138145554
 21
121.9754759592
 31
0.0
  0
LINE
  5
19B
330
1F
100
AcDbEntity
  8
0
  6
Continuous
 62
     7
370
    25
100
AcDbLine
 10
110.5938145853
 20
122.755106352
 30
0.0
 11
110.5938145853
 21
121.9754759592
 31
0.0
  0
LINE
  5
19C
330
1F
100
AcDbEntity
  8
0
  6
Continuous
 62
     7
370
    25
100
AcDbLine
 10
110.6538145579
 20
122.755106352
 30
0.0
 11
110.6538145579
 21
121.9523095709
 31
0.0
  0
LINE
  5
19D
330
1F
100
AcDbEntity
  8
0
  6
Continuous
 62
     7
370
    25
100
AcDbLine
 10
109.9538145549
 20
122.755106352
 30
0.0
 11
109.9538145549
 21
121.9523095709
 31
0.0
  0
LINE
  5
19E
330
1F
100
AcDbEntity
  8
0
  6
Continuous
 62
     7
370
    25
100
AcDbLine
 10
110.5938145853
 20
136.2947368246
 30
0.0
 11
110.5938145853
 21
135.5151068789
 31
0.0
  0
LINE
  5
19F
330
1F
100
AcDbEntity
  8
0
  6
Continuous
 62
     7
370
    25
100
AcDbLine
 10
110.6538145579
 20
136.3179027659
 30
0.0
 11
110.6538145579
 21
135.5151068789
 31
0.0
  0
LINE
  5
1A0
330
1F
100
AcDbEntity
  8
0
  6
Continuous
 62
     7
370
    25
100
AcDbLine
 10
110.0138145554
 20
136.2947368246
 30
0.0
 11
110.0138145554
 21
135.5151068789
 31
0.0
  0
LINE
  5
1A1
330
1F
100
AcDbEntity
  8
0
  6
Continuous
 62
     7
370
    25
100
AcDbLine
 10
109.9538145549
 20
136.3179027659
 30
0.0
 11
109.9538145549
 21
135.5151068789
 31
0.0
  0
LINE
  5
1A2
330
1F
100
AcDbEntity
  8
0
  6
Continuous
 62
     7
370
    25
100
AcDbLine
 10
101.473814655
 20
135.1351058108
 30
0.0
 11
101.473814655
 21
123.135106377
 31
0.0
  0
ARC
  5
1A3
330
1F
100
AcDbEntity
  8
0
  6
Continuous
 62
     7
370
    25
100
AcDbCircle
 10
103.6638145549
 20
133.4416780648
 30
0.0
 40
3.015825756012303
100
AcDbArc
 50
48.4580456642
 51
136.5662047554
  0
ARC
  5
1A4
330
1F
100
AcDbEntity
  8
0
  6
Continuous
 62
     7
370
    25
100
AcDbCircle
 10
103.6638145549
 20
124.8285347012
 30
0.0
 40
3.015825756012306
100
AcDbArc
 50
223.4337952446
 51
311.5419543358
  0
LINE
  5
1A5
330
1F
100
AcDbEntity
  8
0
  6
Continuous
 62
     7
370
    25
100
AcDbLine
 10
89.4738135821
 20
135.1351058108
 30
0.0
 11
89.4738135821
 21
123.135106377
 31
0.0
  0
ARC
  5
1A6
330
1F
100
AcDbEntity
  8
0
  6
Continuous
 62
     7
370
    25
100
AcDbCircle
 10
91.6638145549
 20
133.4416780648
 30
0.0
 40
3.015825756012319
100
AcDbArc
 50
48.4580456642
 51
136.5662047554
  0
ARC
  5
1A7
330
1F
100
AcDbEntity
  8
0
  6
Continuous
 62
     7
370
    25
100
AcDbCircle
 10
91.6638145549
 20
124.8285347012
 30
0.0
 40
3.015825756012309
100
AcDbArc
 50
223.4337952446
 51
311.5419543358
  0
LINE
  5
1A8
330
1F
100
AcDbEntity
  8
0
  6
Continuous
 62
     7
370
    25
100
AcDbLine
 10
93.4738145358
 20
135.1351058108
 30
0.0
 11
93.4738145358
 21
123.135106377
 31
0.0
  0
ARC
  5
1A9
330
1F
100
AcDbEntity
  8
0
  6
Continuous
 62
     7
370
    25
100
AcDbCircle
 10
95.6638145549
 20
133.4416780648
 30
0.0
 40
3.015825756012301
100
AcDbArc
 50
48.4580456642
 51
136.5662047554
  0
ARC
  5
1AA
330
1F
100
AcDbEntity
  8
0
  6
Continuous
 62
     7
370
    25
100
AcDbCircle
 10
95.6638145549
 20
124.8285347012
 30
0.0
 40
3.015825756012302
100
AcDbArc
 50
223.4337952446
 51
311.5419543358
  0
LINE
  5
1AB
330
1F
100
AcDbEntity
  8
0
  6
Continuous
 62
     7
370
    25
100
AcDbLine
 10
97.4738142974
 20
135.1351058108
 30
0.0
 11
97.4738142974
 21
123.135106377
 31
0.0
  0
ARC
  5
1AC
330
1F
100
AcDbEntity
  8
0
  6
Continuous
 62
     7
370
    25
100
AcDbCircle
 10
99.6638145549
 20
133.4416780648
 30
0.0
 40
3.015825756012322
100
AcDbArc
 50
48.4580456642
 51
136.5662047554
  0
ARC
  5
1AD
330
1F
100
AcDbEntity
  8
0
  6
Continuous
 62
     7
370
    25
100
AcDbCircle
 10
99.6638145549
 20
124.8285347012
 30
0.0
 40
3.015825756012301
100
AcDbArc
 50
223.4337952446
 51
311.5419543358
  0
ARC
  5
1AE
330
1F
100
AcDbEntity
  8
0
  6
Continuous
 62
     7
370
    25
100
AcDbCircle
 10
107.6638145549
 20
133.4416780648
 30
0.0
 40
3.015825756012301
100
AcDbArc
 50
54.4158744814
 51
136.5662047554
  0
ARC
  5
1AF
330
1F
100
AcDbEntity
  8
0
  6
Continuous
 62
     7
370
    25
100
AcDbCircle
 10
107.6638145549
 20
124.8285347012
 30
0.0
 40
3.015825756012315
100
AcDbArc
 50
223.4337952446
 51
305.5841255186
  0
LINE
  5
1B0
330
1F
100
AcDbEntity
  8
0
  6
Continuous
 62
     7
370
    25
100
AcDbLine
 10
105.4738144166
 20
135.1351058108
 30
0.0
 11
105.4738144166
 21
123.135106377
 31
0.0
  0
LINE
  5
1B1
330
1F
100
AcDbEntity
  8
0
  6
Continuous
 62
     7
370
    25
100
AcDbLine
 10
109.3416671417
 20
135.5151068789
 30
0.0
 11
109.3416671417
 21
135.1351058108
 31
0.0
  0
LINE
  5
1B2
330
1F
100
AcDbEntity
  8
0
  6
Continuous
 62
     7
370
    25
100
AcDbLine
 10
110.6538145579
 20
135.5151068789
 30
0.0
 11
110.6538145579
 21
135.1351058108
 31
0.0
  0
LINE
  5
1B3
330
1F
100
AcDbEntity
  8
0
  6
Continuous
 62
     7
370
    25
100
AcDbLine
 10
109.3416671417
 20
135.1351058108
 30
0.0
 11
110.6538145579
 21
135.1351058108
 31
0.0
  0
LINE
  5
1B4
330
1F
100
AcDbEntity
  8
0
  6
Continuous
 62
     7
370
    25
100
AcDbLine
 10
109.3416671417
 20
135.5151068789
 30
0.0
 11
110.6538145579
 21
135.5151068789
 31
0.0
  0
LINE
  5
1B5
330
1F
100
AcDbEntity
  8
0
  6
Continuous
 62
     7
370
    25
100
AcDbLine
 10
90.8803771026
 20
135.5151068789
 30
0.0
 11
90.8803771026
 21
135.1351058108
 31
0.0
  0
LINE
  5
1B6
330
1F
100
AcDbEntity
  8
0
  6
Continuous
 62
     7
370
    25
100
AcDbLine
 10
90.8803771026
 20
135.1351058108
 30
0.0
 11
109.3416671417
 21
135.1351058108
 31
0.0
  0
LINE
  5
1B7
330
1F
100
AcDbEntity
  8
0
  6
Continuous
 62
     7
370
    25
100
AcDbLine
 10
90.8803771026
 20
135.5151068789
 30
0.0
 11
109.3416671417
 21
135.5151068789
 31
0.0
  0
LINE
  5
1B8
330
1F
100
AcDbEntity
  8
0
  6
Continuous
 62
     7
370
    25
100
AcDbLine
 10
88.9373717792
 20
135.5151068789
 30
0.0
 11
88.9373717792
 21
135.1351058108
 31
0.0
  0
LINE
  5
1B9
330
1F
100
AcDbEntity
  8
0
  6
Continuous
 62
     7
370
    25
100
AcDbLine
 10
90.8803771026
 20
135.1351058108
 30
0.0
 11
88.9373717792
 21
135.1351058108
 31
0.0
  0
LINE
  5
1BA
330
1F
100
AcDbEntity
  8
0
  6
Continuous
 62
     7
370
    25
100
AcDbLine
 10
90.8803771026
 20
135.5151068789
 30
0.0
 11
88.9373717792
 21
135.5151068789
 31
0.0
  0
LINE
  5
1BB
330
1F
100
AcDbEntity
  8
0
  6
Continuous
 62
     7
370
    25
100
AcDbLine
 10
109.3416671417
 20
123.135106377
 30
0.0
 11
109.3416671417
 21
122.755106352
 31
0.0
  0
LINE
  5
1BC
330
1F
100
AcDbEntity
  8
0
  6
Continuous
 62
     7
370
    25
100
AcDbLine
 10
110.6538145579
 20
123.135106377
 30
0.0
 11
110.6538145579
 21
122.755106352
 31
0.0
  0
LINE
  5
1BD
330
1F
100
AcDbEntity
  8
0
  6
Continuous
 62
     7
370
    25
100
AcDbLine
 10
109.3416671417
 20
123.135106377
 30
0.0
 11
110.6538145579
 21
123.135106377
 31
0.0
  0
LINE
  5
1BE
330
1F
100
AcDbEntity
  8
0
  6
Continuous
 62
     7
370
    25
100
AcDbLine
 10
109.3416671417
 20
122.755106352
 30
0.0
 11
110.6538145579
 21
122.755106352
 31
0.0
  0
LINE
  5
1BF
330
1F
100
AcDbEntity
  8
0
  6
Continuous
 62
     7
370
    25
100
AcDbLine
 10
90.8803771026
 20
123.135106377
 30
0.0
 11
90.8803771026
 21
122.755106352
 31
0.0
  0
LINE
  5
1C0
330
1F
100
AcDbEntity
  8
0
  6
Continuous
 62
     7
370
    25
100
AcDbLine
 10
90.8803771026
 20
123.135106377
 30
0.0
 11
109.3416671417
 21
123.135106377
 31
0.0
  0
LINE
  5
1C1
330
1F
100
AcDbEntity
  8
0
  6
Continuous
 62
     7
370
    25
100
AcDbLine
 10
90.8803771026
 20
122.755106352
 30
0.0
 11
109.3416671417
 21
122.755106352
 31
0.0
  0
LINE
  5
1C2
330
1F
100
AcDbEntity
  8
0
  6
Continuous
 62
     7
370
    25
100
AcDbLine
 10
88.9373717792
 20
123.135106377
 30
0.0
 11
88.9373717792
 21
122.755106352
 31
0.0
  0
LINE
  5
1C3
330
1F
100
AcDbEntity
  8
0
  6
Continuous
 62
     7
370
    25
100
AcDbLine
 10
90.8803771026
 20
123.135106377
 30
0.0
 11
88.9373717792
 21
123.135106377
 31
0.0
  0
LINE
  5
1C4
330
1F
100
AcDbEntity
  8
0
  6
Continuous
 62
     7
370
    25
100
AcDbLine
 10
90.8803771026
 20
122.755106352
 30
0.0
 11
88.9373717792
 21
122.755106352
 31
0.0
  0
LINE
  5
1C5
330
1F
100
AcDbEntity
  8
0
  6
Continuous
 62
     7
370
    25
100
AcDbLine
 10
111.1441841311
 20
136.8451058489
 30
0.0
 11
125.4634449965
 21
136.8451058489
 31
0.0
  0
LINE
  5
1C6
330
1F
100
AcDbEntity
  8
0
  6
Continuous
 62
     7
370
    25
100
AcDbLine
 10
111.1441841311
 20
137.4251067263
 30
0.0
 11
125.4634449965
 21
137.4251067263
 31
0.0
  0
LINE
  5
1C7
330
1F
100
AcDbEntity
  8
0
  6
Continuous
 62
     7
370
    25
100
AcDbLine
 10
111.1210177428
 20
137.4851059538
 30
0.0
 11
111.2238145954
 21
137.4851059538
 31
0.0
  0
LINE
  5
1C8
330
1F
100
AcDbEntity
  8
0
  6
Continuous
 62
     7
370
    25
100
AcDbLine
 10
125.3838143832
 20
137.4851059538
 30
0.0
 11
125.4866109378
 21
137.4851059538
 31
0.0
  0
LINE
  5
1C9
330
1F
100
AcDbEntity
  8
0
  6
Continuous
 62
     7
370
    25
100
AcDbLine
 10
111.1210177428
 20
136.7851066214
 30
0.0
 11
125.4866109378
 21
136.7851066214
 31
0.0
  0
LINE
  5
1CA
330
1F
100
AcDbEntity
  8
0
  6
Continuous
 62
     7
370
    25
100
AcDbLine
 10
85.8529243953
 20
186.3143050295
 30
0.0
 11
86.1577234752
 21
186.3143050295
 31
0.0
  0
LINE
  5
1CB
330
1F
100
AcDbEntity
  8
0
  6
Continuous
 62
     7
370
    25
100
AcDbLine
 10
104.6858386285
 20
186.3143050295
 30
0.0
 11
104.9906383044
 21
186.3143050295
 31
0.0
  0
LINE
  5
1CC
330
1F
100
AcDbEntity
  8
0
  6
Continuous
 62
     7
370
    25
100
AcDbLine
 10
96.0316894538
 20
175.8759057146
 30
0.0
 11
95.7268891818
 21
175.8759057146
 31
0.0
  0
LINE
  5
1CD
330
1F
100
AcDbEntity
  8
0
  6
Continuous
 62
     7
370
    25
100
AcDbLine
 10
86.1577234752
 20
175.8759057146
 30
0.0
 11
85.8529243953
 21
175.8759057146
 31
0.0
  0
LINE
  5
1CE
330
1F
100
AcDbEntity
  8
0
  6
Continuous
 62
     7
370
    25
100
AcDbLine
 10
80.4551921374
 20
175.8759057146
 30
0.0
 11
80.1503930575
 21
175.8759057146
 31
0.0
  0
LINE
  5
1CF
330
1F
100
AcDbEntity
  8
0
  6
Continuous
 62
     7
370
    25
100
AcDbLine
 10
95.7268891818
 20
186.3143050295
 30
0.0
 11
96.0316894538
 21
186.3143050295
 31
0.0
  0
LINE
  5
1D0
330
1F
100
AcDbEntity
  8
0
  6
Continuous
 62
     7
370
    25
100
AcDbLine
 10
101.1395875699
 20
186.3143050295
 30
0.0
 11
101.4443878419
 21
186.3143050295
 31
0.0
  0
LINE
  5
1D1
330
1F
100
AcDbEntity
  8
0
  6
Continuous
 62
     7
370
    25
100
AcDbLine
 10
80.1503930575
 20
186.3143050295
 30
0.0
 11
80.4551921374
 21
186.3143050295
 31
0.0
  0
LINE
  5
1D2
330
1F
100
AcDbEntity
  8
0
  6
Continuous
 62
     7
370
    25
100
AcDbLine
 10
104.9906383044
 20
175.8759057146
 30
0.0
 11
104.6858386285
 21
175.8759057146
 31
0.0
  0
LINE
  5
1D3
330
1F
100
AcDbEntity
  8
0
  6
Continuous
 62
     7
370
    25
100
AcDbLine
 10
101.4443878419
 20
175.8759057146
 30
0.0
 11
101.1395875699
 21
175.8759057146
 31
0.0
  0
LINE
  5
1D4
330
1F
100
AcDbEntity
  8
0
  6
Continuous
 62
     7
370
    25
100
AcDbLine
 10
110.6538145579
 20
185.9151064974
 30
0.0
 11
110.6538145579
 21
186.2951075655
 31
0.0
  0
LINE
  5
1D5
330
1F
100
AcDbEntity
  8
0
  6
Continuous
 62
     7
370
    25
100
AcDbLine
 10
104.2122076041
 20
185.9151064974
 30
0.0
 11
109.9668145549
 21
185.9151064974
 31
0.0
  0
LINE
  5
1D6
330
1F
100
AcDbEntity
  8
0
  6
Continuous
 62
     7
370
    25
100
AcDbLine
 10
110.6408145613
 20
185.9151064974
 30
0.0
 11
110.6538145579
 21
185.9151064974
 31
0.0
  0
LINE
  5
1D7
330
1F
100
AcDbEntity
  8
0
  6
Continuous
 62
     7
370
    25
100
AcDbLine
 10
104.2122076041
 20
185.9151064974
 30
0.0
 11
104.2122076041
 21
186.2951075655
 31
0.0
  0
LINE
  5
1D8
330
1F
100
AcDbEntity
  8
0
  6
Continuous
 62
     7
370
    25
100
AcDbLine
 10
104.2122076041
 20
186.2951075655
 30
0.0
 11
109.9668145549
 21
186.2951075655
 31
0.0
  0
LINE
  5
1D9
330
1F
100
AcDbEntity
  8
0
  6
Continuous
 62
     7
370
    25
100
AcDbLine
 10
110.6408145613
 20
186.2951075655
 30
0.0
 11
110.6538145579
 21
186.2951075655
 31
0.0
  0
LINE
  5
1DA
330
1F
100
AcDbEntity
  8
0
  6
Continuous
 62
     7
370
    25
100
AcDbLine
 10
92.2977231032
 20
185.9151064974
 30
0.0
 11
92.2977231032
 21
186.2951075655
 31
0.0
  0
LINE
  5
1DB
330
1F
100
AcDbEntity
  8
0
  6
Continuous
 62
     7
370
    25
100
AcDbLine
 10
92.2977231032
 20
186.2951075655
 30
0.0
 11
104.2122076041
 21
186.2951075655
 31
0.0
  0
LINE
  5
1DC
330
1F
100
AcDbEntity
  8
0
  6
Continuous
 62
     7
370
    25
100
AcDbLine
 10
92.2977231032
 20
185.9151064974
 30
0.0
 11
104.2122076041
 21
185.9151064974
 31
0.0
  0
LINE
  5
1DD
330
1F
100
AcDbEntity
  8
0
  6
Continuous
 62
     7
370
    25
100
AcDbLine
 10
78.767427016
 20
185.9151064974
 30
0.0
 11
78.767427016
 21
186.2951075655
 31
0.0
  0
LINE
  5
1DE
330
1F
100
AcDbEntity
  8
0
  6
Continuous
 62
     7
370
    25
100
AcDbLine
 10
92.2977231032
 20
186.2951075655
 30
0.0
 11
78.767427016
 21
186.2951075655
 31
0.0
  0
LINE
  5
1DF
330
1F
100
AcDbEntity
  8
0
  6
Continuous
 62
     7
370
    25
100
AcDbLine
 10
92.2977231032
 20
185.9151064974
 30
0.0
 11
78.767427016
 21
185.9151064974
 31
0.0
  0
LINE
  5
1E0
330
1F
100
AcDbEntity
  8
0
  6
Continuous
 62
     7
370
    25
100
AcDbLine
 10
78.767427016
 20
186.2951075655
 30
0.0
 11
77.1510801799
 21
186.2951075655
 31
0.0
  0
LINE
  5
1E1
330
1F
100
AcDbEntity
  8
0
  6
Continuous
 62
     7
370
    25
100
AcDbLine
 10
78.767427016
 20
185.9151064974
 30
0.0
 11
77.1510801799
 21
185.9151064974
 31
0.0
  0
LINE
  5
1E2
330
1F
100
AcDbEntity
  8
0
  6
Continuous
 62
     7
370
    25
100
AcDbLine
 10
110.6538145579
 20
175.895107947
 30
0.0
 11
110.6538145579
 21
176.2751042467
 31
0.0
  0
LINE
  5
1E3
330
1F
100
AcDbEntity
  8
0
  6
Continuous
 62
     7
370
    25
100
AcDbLine
 10
104.2122076041
 20
175.895107947
 30
0.0
 11
104.2122076041
 21
176.2751042467
 31
0.0
  0
LINE
  5
1E4
330
1F
100
AcDbEntity
  8
0
  6
Continuous
 62
     7
370
    25
100
AcDbLine
 10
104.2122076041
 20
176.2751042467
 30
0.0
 11
109.9668145549
 21
176.2751042467
 31
0.0
  0
LINE
  5
1E5
330
1F
100
AcDbEntity
  8
0
  6
Continuous
 62
     7
370
    25
100
AcDbLine
 10
110.6408145613
 20
176.2751042467
 30
0.0
 11
110.6538145579
 21
176.2751042467
 31
0.0
  0
LINE
  5
1E6
330
1F
100
AcDbEntity
  8
0
  6
Continuous
 62
     7
370
    25
100
AcDbLine
 10
104.2122076041
 20
175.895107947
 30
0.0
 11
109.9668145549
 21
175.895107947
 31
0.0
  0
LINE
  5
1E7
330
1F
100
AcDbEntity
  8
0
  6
Continuous
 62
     7
370
    25
100
AcDbLine
 10
110.6408145613
 20
175.895107947
 30
0.0
 11
110.6538145579
 21
175.895107947
 31
0.0
  0
LINE
  5
1E8
330
1F
100
AcDbEntity
  8
0
  6
Continuous
 62
     7
370
    25
100
AcDbLine
 10
92.2977231032
 20
175.895107947
 30
0.0
 11
92.2977231032
 21
176.2751042467
 31
0.0
  0
LINE
  5
1E9
330
1F
100
AcDbEntity
  8
0
  6
Continuous
 62
     7
370
    25
100
AcDbLine
 10
92.2977231032
 20
176.2751042467
 30
0.0
 11
104.2122076041
 21
176.2751042467
 31
0.0
  0
LINE
  5
1EA
330
1F
100
AcDbEntity
  8
0
  6
Continuous
 62
     7
370
    25
100
AcDbLine
 10
92.2977231032
 20
175.895107947
 30
0.0
 11
104.2122076041
 21
175.895107947
 31
0.0
  0
LINE
  5
1EB
330
1F
100
AcDbEntity
  8
0
  6
Continuous
 62
     7
370
    25
100
AcDbLine
 10
78.767427016
 20
175.895107947
 30
0.0
 11
78.767427016
 21
176.2751042467
 31
0.0
  0
LINE
  5
1EC
330
1F
100
AcDbEntity
  8
0
  6
Continuous
 62
     7
370
    25
100
AcDbLine
 10
92.2977231032
 20
176.2751042467
 30
0.0
 11
78.767427016
 21
176.2751042467
 31
0.0
  0
LINE
  5
1ED
330
1F
100
AcDbEntity
  8
0
  6
Continuous
 62
     7
370
    25
100
AcDbLine
 10
92.2977231032
 20
175.895107947
 30
0.0
 11
78.767427016
 21
175.895107947
 31
0.0
  0
LINE
  5
1EE
330
1F
100
AcDbEntity
  8
0
  6
Continuous
 62
     7
370
    25
100
AcDbLine
 10
78.767427016
 20
176.2751042467
 30
0.0
 11
77.1510801799
 21
176.2751042467
 31
0.0
  0
LINE
  5
1EF
330
1F
100
AcDbEntity
  8
0
  6
Continuous
 62
     7
370
    25
100
AcDbLine
 10
78.767427016
 20
175.895107947
 30
0.0
 11
77.1510801799
 21
175.895107947
 31
0.0
  0
ARC
  5
1F0
330
1F
100
AcDbEntity
  8
0
  6
Continuous
 62
     7
370
    25
100
AcDbCircle
 10
110.5938145549
 20
175.835106383
 30
0.0
 40
0.0599999999999954
100
AcDbArc
 50
0.0
 51
38.4332063408
  0
LINE
  5
1F1
330
1F
100
AcDbEntity
  8
0
  6
Continuous
 62
     7
370
    25
100
AcDbLine
 10
110.6538145579
 20
175.8351075274
 30
0.0
 11
110.6538145579
 21
175.25510665
 31
0.0
  0
ARC
  5
1F2
330
1F
100
AcDbEntity
  8
0
  6
Continuous
 62
     7
370
    25
100
AcDbCircle
 10
110.5938145549
 20
175.255106383
 30
0.0
 40
0.0600000000000131
100
AcDbArc
 50
321.5667936591
 51
0.0
  0
LINE
  5
1F3
330
1F
100
AcDbEntity
  8
0
  6
Continuous
 62
     7
370
    25
100
AcDbLine
 10
110.6408145613
 20
175.2178084475
 30
0.0
 11
110.6408145613
 21
175.8724009615
 31
0.0
  0
LINE
  5
1F4
330
1F
100
AcDbEntity
  8
0
  6
Continuous
 62
     7
370
    25
100
AcDbLine
 10
109.9668145549
 20
175.8724009615
 30
0.0
 11
109.9668145549
 21
175.2178084475
 31
0.0
  0
ARC
  5
1F5
330
1F
100
AcDbEntity
  8
0
  6
Continuous
 62
     7
370
    25
100
AcDbCircle
 10
110.0138145549
 20
175.255106383
 30
0.0
 40
0.0600000000000131
100
AcDbArc
 50
180.0
 51
218.4332063409
  0
ARC
  5
1F6
330
1F
100
AcDbEntity
  8
0
  6
Continuous
 62
     7
370
    25
100
AcDbCircle
 10
110.0138145549
 20
175.835106383
 30
0.0
 40
0.0600000000000023
100
AcDbArc
 50
141.5667936592
 51
180.0
  0
LINE
  5
1F7
330
1F
100
AcDbEntity
  8
0
  6
Continuous
 62
     7
370
    25
100
AcDbLine
 10
109.9538145549
 20
175.25510665
 30
0.0
 11
109.9538145549
 21
175.8351075274
 31
0.0
  0
LINE
  5
1F8
330
1F
100
AcDbEntity
  8
0
  6
Continuous
 62
     7
370
    25
100
AcDbLine
 10
109.9668145549
 20
186.9724022967
 30
0.0
 11
109.9668145549
 21
186.3178097826
 31
0.0
  0
LINE
  5
1F9
330
1F
100
AcDbEntity
  8
0
  6
Continuous
 62
     7
370
    25
100
AcDbLine
 10
110.6408145613
 20
186.3178097826
 30
0.0
 11
110.6408145613
 21
186.9724022967
 31
0.0
  0
ARC
  5
1FA
330
1F
100
AcDbEntity
  8
0
  6
Continuous
 62
     7
370
    25
100
AcDbCircle
 10
110.0138145549
 20
186.935106383
 30
0.0
 40
0.0600000000000023
100
AcDbArc
 50
141.5667936592
 51
180.0
  0
ARC
  5
1FB
330
1F
100
AcDbEntity
  8
0
  6
Continuous
 62
     7
370
    25
100
AcDbCircle
 10
110.0138145549
 20
186.355106383
 30
0.0
 40
0.0600000000000023
100
AcDbArc
 50
180.0
 51
218.4332063409
  0
LINE
  5
1FC
330
1F
100
AcDbEntity
  8
0
  6
Continuous
 62
     7
370
    25
100
AcDbLine
 10
109.9538145549
 20
186.3551079852
 30
0.0
 11
109.9538145549
 21
186.9351040942
 31
0.0
  0
LINE
  5
1FD
330
1F
100
AcDbEntity
  8
0
  6
Continuous
 62
     7
370
    25
100
AcDbLine
 10
110.6538145579
 20
186.9351040942
 30
0.0
 11
110.6538145579
 21
186.3551079852
 31
0.0
  0
ARC
  5
1FE
330
1F
100
AcDbEntity
  8
0
  6
Continuous
 62
     7
370
    25
100
AcDbCircle
 10
110.5938145549
 20
186.355106383
 30
0.0
 40
0.0599999999999954
100
AcDbArc
 50
321.5667936592
 51
0.0
  0
ARC
  5
1FF
330
1F
100
AcDbEntity
  8
0
  6
Continuous
 62
     7
370
    25
100
AcDbCircle
 10
110.5938145549
 20
186.935106383
 30
0.0
 40
0.0599999999999954
100
AcDbArc
 50
0.0
 51
38.4332063408
  0
LINE
  5
200
330
1F
100
AcDbEntity
  8
0
  6
Continuous
 62
     7
370
    25
100
AcDbLine
 10
118.0351142175
 20
171.4051043612
 30
0.0
 11
118.3038143403
 21
171.4051043612
 31
0.0
  0
LWPOLYLINE
  5
201
330
1F
100
AcDbEntity
  8
0
  6
Continuous
 62
     7
370
    25
100
AcDbPolyline
 90
       22
 70
   128
 43
0.0
 10
118.0351142175
 20
171.4051043612
 10
117.9670880324
 20
171.4087044817
 10
117.899442125
 20
171.4194857699
 10
117.8325549848
 20
171.4373814684
 10
117.7668009288
 20
171.4623009783
 10
117.7025471217
 20
171.49409648
 10
117.6401535756
 20
171.5325915438
 10
117.5799683816
 20
171.5775763613
 10
117.5223283059
 20
171.6287982088
 10
117.4675564057
 20
171.6859662157
 10
117.4159584529
 20
171.7487609011
 10
117.3678229339
 20
171.8168341738
 10
117.3234192616
 20
171.8898045641
 10
117.2829959876
 20
171.9672667605
 10
117.2467784173
 20
172.0487773043
 10
117.2149698026
 20
172.133892737
 10
117.1877477653
 20
172.2221314532
 10
117.1652642972
 20
172.3130023104
 10
117.1476457602
 20
172.4059903246
 10
117.134989906
 20
172.5005852801
 10
117.1273682601
 20
172.5962483508
 10
117.1248225457
 20
172.6924550158
  0
LINE
  5
202
330
1F
100
AcDbEntity
  8
0
  6
Continuous
 62
     7
370
    25
100
AcDbLine
 10
117.1248225457
 20
172.6924550158
 30
0.0
 11
117.3935232646
 21
172.6924550158
 31
0.0
  0
LWPOLYLINE
  5
203
330
1F
100
AcDbEntity
  8
0
  6
Continuous
 62
     7
370
    25
100
AcDbPolyline
 90
       22
 70
   128
 43
0.0
 10
118.3038143403
 20
171.4051043612
 10
118.2357881553
 20
171.4087044817
 10
118.1681428439
 20
171.4194857699
 10
118.1012557036
 20
171.4373814684
 10
118.0355016477
 20
171.4623009783
 10
117.9712478406
 20
171.49409648
 10
117.9088536984
 20
171.5325915438
 10
117.8486691005
 20
171.5775763613
 10
117.7910290248
 20
171.6287982088
 10
117.7362571246
 20
171.6859662157
 10
117.6846591718
 20
171.7487609011
 10
117.6365236527
 20
171.8168341738
 10
117.5921199805
 20
171.8898045641
 10
117.5516967065
 20
171.9672667605
 10
117.5154791362
 20
172.0487773043
 10
117.4836705214
 20
172.133892737
 10
117.4564484841
 20
172.2221314532
 10
117.4339650161
 20
172.3130023104
 10
117.4163458831
 20
172.4059903246
 10
117.4036906249
 20
172.5005852801
 10
117.3960683829
 20
172.5962483508
 10
117.3935232646
 20
172.6924550158
  0
LWPOLYLINE
  5
204
330
1F
100
AcDbEntity
  8
0
  6
Continuous
 62
     7
370
    25
100
AcDbPolyline
 90
       16
 70
   128
 43
0.0
 10
127.7827082164
 20
188.7559306246
 10
127.7800057418
 20
188.6778294665
 10
127.771924544
 20
188.6004721743
 10
127.7585421092
 20
188.5246026141
 10
127.7399859912
 20
188.4509408099
 10
127.7164338119
 20
188.3801972491
 10
127.6881108767
 20
188.3130395037
 10
127.6552854068
 20
188.2501160723
 10
127.6182744986
 20
188.1920230013
 10
127.5774286277
 20
188.1393134219
 10
127.5331411845
 20
188.092502318
 10
127.4858317859
 20
188.0520236117
 10
127.4359558112
 20
188.0182730776
 10
127.3839865214
 20
187.9915701968
 10
127.3304234034
 20
187.9721724612
 10
127.275776673
 20
187.9602563006
  0
LWPOLYLINE
  5
205
330
1F
100
AcDbEntity
  8
0
  6
Continuous
 62
     7
370
    25
100
AcDbPolyline
 90
       93
 70
   128
 43
0.0
 10
127.275776673
 20
174.2299544436
 10
127.1212742812
 20
174.2562996966
 10
126.9674442298
 20
174.2895972353
 10
126.8144426829
 20
174.3298136813
 10
126.6624269969
 20
174.376906119
 10
126.5115485675
 20
174.4308316332
 10
126.3619635589
 20
174.4915282351
 10
126.2138221747
 20
174.5589434725
 10
126.0672758109
 20
174.6329962832
 10
125.922473479
 20
174.7136246783
 10
125.7795618064
 20
174.8007380587
 10
125.6386874206
 20
174.8942505938
 10
125.4999921805
 20
174.9940669161
 10
125.3636179454
 20
175.1000868899
 10
125.2297029979
 20
175.2122008425
 10
125.0983832366
 20
175.3302943331
 10
124.969792176
 20
175.4542481524
 10
124.8440621383
 20
175.5839383227
 10
124.7213182933
 20
175.7192313296
 10
124.6016870028
 20
175.8599888903
 10
124.4852886683
 20
176.0060679537
 10
124.3722436912
 20
176.1573207003
 10
124.2626653201
 20
176.3135945422
 10
124.156666804
 20
176.4747273547
 10
124.0543530471
 20
176.6405570132
 10
123.9558301455
 20
176.8109166247
 10
123.8611970431
 20
176.9856345278
 10
123.7705514914
 20
177.1645247561
 10
123.6839852817
 20
177.3474156481
 10
123.6015842444
 20
177.5341117007
 10
123.5234354026
 20
177.7244317156
 10
123.44961505
 20
177.9181754214
 10
123.3802006728
 20
178.1151520831
 10
123.3152626044
 20
178.3151566607
 10
123.2548652179
 20
178.5179888827
 10
123.1990716941
 20
178.7234389407
 10
123.1479368693
 20
178.9313017947
 10
123.1015143878
 20
179.141362868
 10
123.0598507411
 20
179.3534123522
 10
123.0229888446
 20
179.5672309023
 10
122.9909656531
 20
179.7825991732
 10
122.9638133532
 20
179.9993073565
 10
122.9415605552
 20
180.2171265704
 10
122.9242299087
 20
180.4358374697
 10
122.9118369109
 20
180.6552207095
 10
122.9043970591
 20
180.8750521761
 10
122.9019163138
 20
181.0951077563
 10
122.9043970591
 20
181.315158568
 10
122.9118369109
 20
181.5349900347
 10
122.9242299087
 20
181.7543732745
 10
122.9415605552
 20
181.9730841738
 10
122.9638133532
 20
182.1909033877
 10
122.9909656531
 20
182.407611571
 10
123.0229888446
 20
182.6229846102
 10
123.0598507411
 20
182.8368031603
 10
123.1015143878
 20
183.0488478762
 10
123.1479368693
 20
183.2589137179
 10
123.1990716941
 20
183.4667718035
 10
123.2548652179
 20
183.6722218615
 10
123.3152626044
 20
183.8750540835
 10
123.3802006728
 20
184.0750586611
 10
123.44961505
 20
184.2720353228
 10
123.5234354026
 20
184.4657790285
 10
123.6015842444
 20
184.6560990435
 10
123.6839852817
 20
184.8427998644
 10
123.7705514914
 20
185.0256859881
 10
123.8611970431
 20
185.2045809847
 10
123.9558301455
 20
185.3792941195
 10
124.0543530471
 20
185.549653731
 10
124.156666804
 20
185.7154833895
 10
124.2626653201
 20
185.8766209704
 10
124.3722436912
 20
186.0328900439
 10
124.4852886683
 20
186.1841475588
 10
124.6016870028
 20
186.3302266222
 10
124.7213182933
 20
186.470984183
 10
124.8440621383
 20
186.6062724215
 10
124.969792176
 20
186.7359625918
 10
125.0983832366
 20
186.8599211794
 10
125.2297029979
 20
186.97801467
 10
125.3636179454
 20
187.0901286227
 10
125.4999921805
 20
187.196143828
 10
125.6386874206
 20
187.2959601504
 10
125.7795618064
 20
187.3894726855
 10
125.922473479
 20
187.4765908343
 10
126.0672758109
 20
187.557214461
 10
126.2138221747
 20
187.63127204
 10
126.3619635589
 20
187.6986825091
 10
126.5115485675
 20
187.7593838793
 10
126.6624269969
 20
187.8133046252
 10
126.8144426829
 20
187.8603970629
 10
126.9674442298
 20
187.9006135088
 10
127.1212742812
 20
187.9339110476
 10
127.275776673
 20
187.9602563006
  0
LWPOLYLINE
  5
206
330
1F
100
AcDbEntity
  8
0
  6
Continuous
 62
     7
370
    25
100
AcDbPolyline
 90
       16
 70
   128
 43
0.0
 10
127.7827082164
 20
173.4342801196
 10
127.7800057418
 20
173.5123860461
 10
127.771924544
 20
173.5897385699
 10
127.7585421092
 20
173.6656081301
 10
127.7399859912
 20
173.7392699343
 10
127.7164338119
 20
173.8100182635
 10
127.6881108767
 20
173.8771712405
 10
127.6552854068
 20
173.9400994402
 10
127.6182744986
 20
173.9981925112
 10
127.5774286277
 20
174.0508973223
 10
127.5331411845
 20
174.0977131945
 10
127.4858317859
 20
174.1381871325
 10
127.4359558112
 20
174.1719376665
 10
127.3839865214
 20
174.1986405474
 10
127.3304234034
 20
174.2180430514
 10
127.275776673
 20
174.2299544436
  0
LINE
  5
207
330
1F
100
AcDbEntity
  8
0
  6
Continuous
 62
     7
370
    25
100
AcDbLine
 10
127.7827082164
 20
173.4342801196
 30
0.0
 11
127.7827082164
 21
172.2051083666
 31
0.0
  0
LWPOLYLINE
  5
208
330
1F
100
AcDbEntity
  8
0
  6
Continuous
 62
     7
370
    25
100
AcDbPolyline
 90
       17
 70
   128
 43
0.0
 10
127.7827082164
 20
172.2051083666
 10
127.7799842841
 20
172.126692496
 10
127.7718387134
 20
172.0490347964
 10
127.7583501822
 20
171.9728791338
 10
127.7396474368
 20
171.8989598376
 10
127.7159128673
 20
171.8279873949
 10
127.6873729712
 20
171.7606484515
 10
127.6543031222
 20
171.6975915057
 10
127.6170228011
 20
171.6394221407
 10
127.5758896357
 20
171.5866982561
 10
127.5313005931
 20
171.5399300677
 10
127.4836848266
 20
171.4995705706
 10
127.4335012919
 20
171.4660012347
 10
127.3812327868
 20
171.4395558459
 10
127.3273823745
 20
171.4204775912
 10
127.2724698073
 20
171.4089572054
 10
127.2170231826
 20
171.4051043612
  0
LINE
  5
209
330
1F
100
AcDbEntity
  8
0
  6
Continuous
 62
     7
370
    25
100
AcDbLine
 10
118.3038143403
 20
171.4051043612
 30
0.0
 11
127.2170231826
 21
171.4051043612
 31
0.0
  0
LINE
  5
20A
330
1F
100
AcDbEntity
  8
0
  6
Continuous
 62
     7
370
    25
100
AcDbLine
 10
117.3935232646
 20
179.5477616412
 30
0.0
 11
117.3935232646
 21
172.6924550158
 31
0.0
  0
LWPOLYLINE
  5
20B
330
1F
100
AcDbEntity
  8
0
  6
Continuous
 62
     7
370
    25
100
AcDbPolyline
 90
       22
 70
   128
 43
0.0
 10
118.3038143403
 20
180.8351075274
 10
118.2357881553
 20
180.8315074068
 10
118.1681428439
 20
180.8207261187
 10
118.1012557036
 20
180.8028304201
 10
118.0355016477
 20
180.7779109103
 10
117.9712478406
 20
180.7461154086
 10
117.9088536984
 20
180.7076203448
 10
117.8486691005
 20
180.6626355273
 10
117.7910290248
 20
180.6114136797
 10
117.7362571246
 20
180.5542456728
 10
117.6846591718
 20
180.4914509875
 10
117.6365236527
 20
180.4233777148
 10
117.5921199805
 20
180.3504073244
 10
117.5516967065
 20
180.2729498965
 10
117.5154791362
 20
180.1914345843
 10
117.4836705214
 20
180.1063191515
 10
117.4564484841
 20
180.0180804354
 10
117.4339650161
 20
179.9272143465
 10
117.4163458831
 20
179.8342215639
 10
117.4036906249
 20
179.7396313769
 10
117.3960683829
 20
179.6439635378
 10
117.3935232646
 20
179.5477616412
  0
LINE
  5
20C
330
1F
100
AcDbEntity
  8
0
  6
Continuous
 62
     7
370
    25
100
AcDbLine
 10
118.3038143403
 20
181.0951077563
 30
0.0
 11
118.3038143403
 21
180.8351075274
 31
0.0
  0
LINE
  5
20D
330
1F
100
AcDbEntity
  8
0
  6
Continuous
 62
     7
370
    25
100
AcDbLine
 10
118.5725150592
 20
181.0951077563
 30
0.0
 11
118.3038143403
 21
181.0951077563
 31
0.0
  0
LINE
  5
20E
330
1F
100
AcDbEntity
  8
0
  6
Continuous
 62
     7
370
    25
100
AcDbLine
 10
118.5725150592
 20
181.3551079852
 30
0.0
 11
118.5725150592
 21
181.0951077563
 31
0.0
  0
LINE
  5
20F
330
1F
100
AcDbEntity
  8
0
  6
Continuous
 62
     7
370
    25
100
AcDbLine
 10
118.5725150592
 20
190.785106383
 30
0.0
 11
127.2170231826
 21
190.785106383
 31
0.0
  0
LWPOLYLINE
  5
210
330
1F
100
AcDbEntity
  8
0
  6
Continuous
 62
     7
370
    25
100
AcDbPolyline
 90
       17
 70
   128
 43
0.0
 10
127.7827082164
 20
189.9851071459
 10
127.7799842841
 20
190.0635182482
 10
127.7718387134
 20
190.1411807162
 10
127.7583501822
 20
190.2173363787
 10
127.7396474368
 20
190.2912509066
 10
127.7159128673
 20
190.3622233492
 10
127.6873729712
 20
190.4295622927
 10
127.6543031222
 20
190.4926192385
 10
127.6170228011
 20
190.5507933718
 10
127.5758896357
 20
190.603512488
 10
127.5313005931
 20
190.6502806765
 10
127.4836848266
 20
190.6906449419
 10
127.4335012919
 20
190.7242095095
 10
127.3812327868
 20
190.7506596667
 10
127.3273823745
 20
190.769733153
 10
127.2724698073
 20
190.7812535387
 10
127.2170231826
 20
190.785106383
  0
LINE
  5
211
330
1F
100
AcDbEntity
  8
0
  6
Continuous
 62
     7
370
    25
100
AcDbLine
 10
127.7827082164
 20
189.9851071459
 30
0.0
 11
127.7827082164
 21
188.7559306246
 31
0.0
  0
LWPOLYLINE
  5
212
330
1F
100
AcDbEntity
  8
0
  6
Continuous
 62
     7
370
    25
100
AcDbPolyline
 90
       17
 70
   128
 43
0.0
 10
122.206339646
 20
189.1451060397
 10
122.1928105838
 20
189.1413008791
 10
122.1813402659
 20
189.1304623705
 10
122.1736763007
 20
189.1142403704
 10
122.170984555
 20
189.0951048952
 10
122.1736763007
 20
189.0759741885
 10
122.1813402659
 20
189.0597521883
 10
122.1928105838
 20
189.0489136797
 10
122.206339646
 20
189.0451085192
 10
122.2198699004
 20
189.0489136797
 10
122.2313402183
 20
189.0597521883
 10
122.2390041835
 20
189.0759741885
 10
122.2416947371
 20
189.0951048952
 10
122.2390041835
 20
189.1142403704
 10
122.2313402183
 20
189.1304623705
 10
122.2198699004
 20
189.1413008791
 10
122.206339646
 20
189.1451060397
  0
LWPOLYLINE
  5
213
330
1F
100
AcDbEntity
  8
0
  6
Continuous
 62
     7
370
    25
100
AcDbPolyline
 90
       17
 70
   128
 43
0.0
 10
125.4635785109
 20
189.1451060397
 10
125.4500482566
 20
189.1413008791
 10
125.4385779387
 20
189.1304623705
 10
125.4309139735
 20
189.1142403704
 10
125.4282234199
 20
189.0951048952
 10
125.4309139735
 20
189.0759741885
 10
125.4385779387
 20
189.0597521883
 10
125.4500482566
 20
189.0489136797
 10
125.4635785109
 20
189.0451085192
 10
125.4771087653
 20
189.0489136797
 10
125.4885778911
 20
189.0597521883
 10
125.4962430484
 20
189.0759741885
 10
125.498933602
 20
189.0951048952
 10
125.4962430484
 20
189.1142403704
 10
125.4885778911
 20
189.1304623705
 10
125.4771087653
 20
189.1413008791
 10
125.4635785109
 20
189.1451060397
  0
LWPOLYLINE
  5
214
330
1F
100
AcDbEntity
  8
0
  6
Continuous
 62
     7
370
    25
100
AcDbPolyline
 90
       17
 70
   128
 43
0.0
 10
118.820002485
 20
178.4651076418
 10
118.8064728267
 20
178.4613024813
 10
118.7950025088
 20
178.4504639727
 10
118.7873385436
 20
178.4342419726
 10
118.7846473939
 20
178.4151064974
 10
118.7873385436
 20
178.3959710223
 10
118.7950025088
 20
178.3797490221
 10
118.8064728267
 20
178.3689105135
 10
118.820002485
 20
178.365105353
 10
118.8335321433
 20
178.3689105135
 10
118.8450024611
 20
178.3797490221
 10
118.8526664264
 20
178.3959710223
 10
118.8553575761
 20
178.4151064974
 10
118.8526664264
 20
178.4342419726
 10
118.8450024611
 20
178.4504639727
 10
118.8335321433
 20
178.4613024813
 10
118.820002485
 20
178.4651076418
  0
LWPOLYLINE
  5
215
330
1F
100
AcDbEntity
  8
0
  6
Continuous
 62
     7
370
    25
100
AcDbPolyline
 90
       17
 70
   128
 43
0.0
 10
122.206339646
 20
173.1451069933
 10
122.1928105838
 20
173.1413018328
 10
122.1813402659
 20
173.1304633242
 10
122.1736763007
 20
173.1142413241
 10
122.170984555
 20
173.0951058489
 10
122.1736763007
 20
173.0759703738
 10
122.1813402659
 20
173.059753142
 10
122.1928105838
 20
173.0489146334
 10
122.206339646
 20
173.0451047045
 10
122.2198699004
 20
173.0489146334
 10
122.2313402183
 20
173.059753142
 10
122.2390041835
 20
173.0759703738
 10
122.2416947371
 20
173.0951058489
 10
122.2390041835
 20
173.1142413241
 10
122.2313402183
 20
173.1304633242
 10
122.2198699004
 20
173.1413018328
 10
122.206339646
 20
173.1451069933
  0
LWPOLYLINE
  5
216
330
1F
100
AcDbEntity
  8
0
  6
Continuous
 62
     7
370
    25
100
AcDbPolyline
 90
       17
 70
   128
 43
0.0
 10
118.820002485
 20
173.1451069933
 10
118.8064728267
 20
173.1413018328
 10
118.7950025088
 20
173.1304633242
 10
118.7873385436
 20
173.1142413241
 10
118.7846473939
 20
173.0951058489
 10
118.7873385436
 20
173.0759703738
 10
118.7950025088
 20
173.059753142
 10
118.8064728267
 20
173.0489146334
 10
118.820002485
 20
173.0451047045
 10
118.8335321433
 20
173.0489146334
 10
118.8450024611
 20
173.059753142
 10
118.8526664264
 20
173.0759703738
 10
118.8553575761
 20
173.0951058489
 10
118.8526664264
 20
173.1142413241
 10
118.8450024611
 20
173.1304633242
 10
118.8335321433
 20
173.1413018328
 10
118.820002485
 20
173.1451069933
  0
LWPOLYLINE
  5
217
330
1F
100
AcDbEntity
  8
0
  6
Continuous
 62
     7
370
    25
100
AcDbPolyline
 90
       17
 70
   128
 43
0.0
 10
125.4635785109
 20
173.1451069933
 10
125.4500482566
 20
173.1413018328
 10
125.4385779387
 20
173.1304633242
 10
125.4309139735
 20
173.1142413241
 10
125.4282234199
 20
173.0951058489
 10
125.4309139735
 20
173.0759703738
 10
125.4385779387
 20
173.059753142
 10
125.4500482566
 20
173.0489146334
 10
125.4635785109
 20
173.0451047045
 10
125.4771087653
 20
173.0489146334
 10
125.4885778911
 20
173.059753142
 10
125.4962430484
 20
173.0759703738
 10
125.498933602
 20
173.0951058489
 10
125.4962430484
 20
173.1142413241
 10
125.4885778911
 20
173.1304633242
 10
125.4771087653
 20
173.1413018328
 10
125.4635785109
 20
173.1451069933
  0
LINE
  5
218
330
1F
100
AcDbEntity
  8
0
  6
Continuous
 62
     7
370
    25
100
AcDbLine
 10
117.1248225457
 20
179.5477616412
 30
0.0
 11
117.1248225457
 21
172.6924550158
 31
0.0
  0
LINE
  5
219
330
1F
100
AcDbEntity
  8
0
  6
Continuous
 62
     7
370
    25
100
AcDbLine
 10
117.1248225457
 20
179.5477616412
 30
0.0
 11
117.3935232646
 21
179.5477616412
 31
0.0
  0
LWPOLYLINE
  5
21A
330
1F
100
AcDbEntity
  8
0
  6
Continuous
 62
     7
370
    25
100
AcDbPolyline
 90
       22
 70
   128
 43
0.0
 10
118.0351142175
 20
180.8351075274
 10
117.9670880324
 20
180.8315074068
 10
117.899442125
 20
180.8207261187
 10
117.8325549848
 20
180.8028304201
 10
117.7668009288
 20
180.7779109103
 10
117.7025471217
 20
180.7461154086
 10
117.6401535756
 20
180.7076203448
 10
117.5799683816
 20
180.6626355273
 10
117.5223283059
 20
180.6114136797
 10
117.4675564057
 20
180.5542456728
 10
117.4159584529
 20
180.4914509875
 10
117.3678229339
 20
180.4233777148
 10
117.3234192616
 20
180.3504073244
 10
117.2829959876
 20
180.2729498965
 10
117.2467784173
 20
180.1914345843
 10
117.2149698026
 20
180.1063191515
 10
117.1877477653
 20
180.0180804354
 10
117.1652642972
 20
179.9272143465
 10
117.1476457602
 20
179.8342215639
 10
117.134989906
 20
179.7396313769
 10
117.1273682601
 20
179.6439635378
 10
117.1248225457
 20
179.5477616412
  0
LINE
  5
21B
330
1F
100
AcDbEntity
  8
0
  6
Continuous
 62
     7
370
    25
100
AcDbLine
 10
118.0351142175
 20
180.8351075274
 30
0.0
 11
118.3038143403
 21
180.8351075274
 31
0.0
  0
LINE
  5
21C
330
1F
100
AcDbEntity
  8
0
  6
Continuous
 62
     7
370
    25
100
AcDbLine
 10
118.0351142175
 20
181.0951077563
 30
0.0
 11
118.3038143403
 21
181.0951077563
 31
0.0
  0
LINE
  5
21D
330
1F
100
AcDbEntity
  8
0
  6
Continuous
 62
     7
370
    25
100
AcDbLine
 10
118.0351142175
 20
181.0951077563
 30
0.0
 11
118.0351142175
 21
180.8351075274
 31
0.0
  0
LWPOLYLINE
  5
21E
330
1F
100
AcDbEntity
  8
0
  6
Continuous
 62
     7
370
    25
100
AcDbPolyline
 90
       16
 70
   128
 43
0.0
 10
108.8249209858
 20
173.4342801196
 10
108.8276232368
 20
173.5123860461
 10
108.8357041366
 20
173.5897385699
 10
108.8490865714
 20
173.6656081301
 10
108.8676426894
 20
173.7392699343
 10
108.8911950923
 20
173.8100182635
 10
108.9195188469
 20
173.8771712405
 10
108.9523432738
 20
173.9400994402
 10
108.989354927
 20
173.9981925112
 10
109.0302000529
 20
174.0508973223
 10
109.0744884647
 20
174.0977131945
 10
109.1217970437
 20
174.1381871325
 10
109.1716737635
 20
174.1719376665
 10
109.2236422337
 20
174.1986405474
 10
109.2772057987
 20
174.2180430514
 10
109.3318527899
 20
174.2299544436
  0
LWPOLYLINE
  5
21F
330
1F
100
AcDbEntity
  8
0
  6
Continuous
 62
     7
370
    25
100
AcDbPolyline
 90
       93
 70
   128
 43
0.0
 10
109.3318527899
 20
187.9602563006
 10
109.4863550699
 20
187.9339110476
 10
109.6401849351
 20
187.9006135088
 10
109.7931859977
 20
187.8603970629
 10
109.9452026826
 20
187.8133046252
 10
110.0960804763
 20
187.7593838793
 10
110.2456659786
 20
187.6986825091
 10
110.3938071392
 20
187.63127204
 10
110.540353354
 20
187.557214461
 10
110.6851555741
 20
187.4765908343
 10
110.8280667252
 20
187.3894726855
 10
110.9689414091
 20
187.2959601504
 10
111.1076364256
 20
187.196143828
 10
111.2440108842
 20
187.0901286227
 10
111.3779259808
 20
186.97801467
 10
111.509245593
 20
186.8599211794
 10
111.6378363556
 20
186.7359625918
 10
111.7635674364
 20
186.6062724215
 10
111.8863109834
 20
186.470984183
 10
112.0059424228
 20
186.3302266222
 10
112.1223398632
 20
186.1841475588
 10
112.2353851385
 20
186.0328900439
 10
112.3449632115
 20
185.8766209704
 10
112.4509627706
 20
185.7154833895
 10
112.5532762296
 20
185.549653731
 10
112.6517991311
 20
185.3792941195
 10
112.7464316375
 20
185.2045809847
 10
112.8370774872
 20
185.0256859881
 10
112.923644293
 20
184.8427998644
 10
113.0060444362
 20
184.6560990435
 10
113.0841941721
 20
184.4657790285
 10
113.1580136306
 20
184.2720353228
 10
113.2274280078
 20
184.0750586611
 10
113.2923669702
 20
183.8750540835
 10
113.3527640588
 20
183.6722218615
 10
113.4085578806
 20
183.4667718035
 10
113.4596921093
 20
183.2589137179
 10
113.5061145908
 20
183.0488478762
 10
113.5477779395
 20
182.8368031603
 10
113.584640134
 20
182.6229846102
 10
113.6166633255
 20
182.407611571
 10
113.6438153274
 20
182.1909033877
 10
113.6660681254
 20
181.9730841738
 10
113.683399368
 20
181.7543732745
 10
113.6957917697
 20
181.5349900347
 10
113.7032319195
 20
181.315158568
 10
113.7057129628
 20
181.0951077563
 10
113.7032319195
 20
180.8750521761
 10
113.6957917697
 20
180.6552207095
 10
113.683399368
 20
180.4358374697
 10
113.6660681254
 20
180.2171265704
 10
113.6438153274
 20
179.9993073565
 10
113.6166633255
 20
179.7825991732
 10
113.584640134
 20
179.5672309023
 10
113.5477779395
 20
179.3534123522
 10
113.5061145908
 20
179.141362868
 10
113.4596921093
 20
178.9313017947
 10
113.4085578806
 20
178.7234389407
 10
113.3527640588
 20
178.5179888827
 10
113.2923669702
 20
178.3151566607
 10
113.2274280078
 20
178.1151520831
 10
113.1580136306
 20
177.9181754214
 10
113.0841941721
 20
177.7244317156
 10
113.0060444362
 20
177.5341117007
 10
112.923644293
 20
177.3474156481
 10
112.8370774872
 20
177.1645247561
 10
112.7464316375
 20
176.9856345278
 10
112.6517991311
 20
176.8109166247
 10
112.5532762296
 20
176.6405570132
 10
112.4509627706
 20
176.4747273547
 10
112.3449632115
 20
176.3135945422
 10
112.2353851385
 20
176.1573207003
 10
112.1223398632
 20
176.0060679537
 10
112.0059424228
 20
175.8599888903
 10
111.8863109834
 20
175.7192313296
 10
111.7635674364
 20
175.5839383227
 10
111.6378363556
 20
175.4542481524
 10
111.509245593
 20
175.3302943331
 10
111.3779259808
 20
175.2122008425
 10
111.2440108842
 20
175.1000868899
 10
111.1076364256
 20
174.9940669161
 10
110.9689414091
 20
174.8942505938
 10
110.8280667252
 20
174.8007380587
 10
110.6851555741
 20
174.7136246783
 10
110.540353354
 20
174.6329962832
 10
110.3938071392
 20
174.5589434725
 10
110.2456659786
 20
174.4915282351
 10
110.0960804763
 20
174.4308316332
 10
109.9452026826
 20
174.376906119
 10
109.7931859977
 20
174.3298136813
 10
109.6401849351
 20
174.2895972353
 10
109.4863550699
 20
174.2562996966
 10
109.3318527899
 20
174.2299544436
  0
LWPOLYLINE
  5
220
330
1F
100
AcDbEntity
  8
0
  6
Continuous
 62
     7
370
    25
100
AcDbPolyline
 90
       16
 70
   128
 43
0.0
 10
108.8249209858
 20
188.7559306246
 10
108.8276232368
 20
188.6778294665
 10
108.8357041366
 20
188.6004721743
 10
108.8490865714
 20
188.5246026141
 10
108.8676426894
 20
188.4509408099
 10
108.8911950923
 20
188.3801972491
 10
108.9195188469
 20
188.3130395037
 10
108.9523432738
 20
188.2501160723
 10
108.989354927
 20
188.1920230013
 10
109.0302000529
 20
188.1393134219
 10
109.0744884647
 20
188.092502318
 10
109.1217970437
 20
188.0520236117
 10
109.1716737635
 20
188.0182730776
 10
109.2236422337
 20
187.9915701968
 10
109.2772057987
 20
187.9721724612
 10
109.3318527899
 20
187.9602563006
  0
LINE
  5
221
330
1F
100
AcDbEntity
  8
0
  6
Continuous
 62
     7
370
    25
100
AcDbLine
 10
108.8249209858
 20
188.7559306246
 30
0.0
 11
108.8249209858
 21
189.9851071459
 31
0.0
  0
LWPOLYLINE
  5
222
330
1F
100
AcDbEntity
  8
0
  6
Continuous
 62
     7
370
    25
100
AcDbPolyline
 90
       17
 70
   128
 43
0.0
 10
108.8249209858
 20
189.9851071459
 10
108.827644918
 20
190.0635182482
 10
108.8357904143
 20
190.1411807162
 10
108.8492791689
 20
190.2173363787
 10
108.8679811693
 20
190.2912509066
 10
108.8917163349
 20
190.3622233492
 10
108.9202561564
 20
190.4295622927
 10
108.9533256329
 20
190.4926192385
 10
108.990606401
 20
190.5507933718
 10
109.0317393429
 20
190.603512488
 10
109.0763283855
 20
190.6502806765
 10
109.1239440776
 20
190.6906449419
 10
109.1741279102
 20
190.7242095095
 10
109.2263965643
 20
190.7506596667
 10
109.2802466042
 20
190.769733153
 10
109.3351595066
 20
190.7812535387
 10
109.3906063921
 20
190.785106383
  0
LINE
  5
223
330
1F
100
AcDbEntity
  8
0
  6
Continuous
 62
     7
370
    25
100
AcDbLine
 10
118.3038143403
 20
190.785106383
 30
0.0
 11
109.3906063921
 21
190.785106383
 31
0.0
  0
LWPOLYLINE
  5
224
330
1F
100
AcDbEntity
  8
0
  6
Continuous
 62
     7
370
    25
100
AcDbPolyline
 90
       22
 70
   128
 43
0.0
 10
118.3038143403
 20
190.785106383
 10
118.3718405253
 20
190.7815062624
 10
118.4394864327
 20
190.7707297427
 10
118.506373573
 20
190.7528292757
 10
118.572127629
 20
190.7279145342
 10
118.6363814361
 20
190.6961190325
 10
118.6987749822
 20
190.6576192004
 10
118.7589601762
 20
190.6126343829
 10
118.8165996558
 20
190.5614173037
 10
118.871372152
 20
190.5042492968
 10
118.9229701049
 20
190.4414498431
 10
118.9711056239
 20
190.3733765704
 10
119.0155087001
 20
190.30040618
 10
119.0559325702
 20
190.2229487521
 10
119.0921501405
 20
190.1414334399
 10
119.1239587552
 20
190.0563180071
 10
119.1511807925
 20
189.968079291
 10
119.1736642606
 20
189.8772132021
 10
119.1912827975
 20
189.7842204195
 10
119.2039386517
 20
189.6896302325
 10
119.2115602977
 20
189.5939623934
 10
119.2141060121
 20
189.4977604967
  0
LINE
  5
225
330
1F
100
AcDbEntity
  8
0
  6
Continuous
 62
     7
370
    25
100
AcDbLine
 10
119.2141060121
 20
182.6424538714
 30
0.0
 11
119.2141060121
 21
189.4977604967
 31
0.0
  0
LWPOLYLINE
  5
226
330
1F
100
AcDbEntity
  8
0
  6
Continuous
 62
     7
370
    25
100
AcDbPolyline
 90
       22
 70
   128
 43
0.0
 10
118.3038143403
 20
181.3551079852
 10
118.3718405253
 20
181.3587081057
 10
118.4394864327
 20
181.3694846255
 10
118.506373573
 20
181.3873850924
 10
118.572127629
 20
181.4122998339
 10
118.6363814361
 20
181.4440953356
 10
118.6987749822
 20
181.4825951678
 10
118.7589601762
 20
181.5275799853
 10
118.8165996558
 20
181.5787970644
 10
118.871372152
 20
181.6359650713
 10
118.9229701049
 20
181.6987597567
 10
118.9711056239
 20
181.7668330294
 10
119.0155087001
 20
181.8398034197
 10
119.0559325702
 20
181.9172656161
 10
119.0921501405
 20
181.9987809283
 10
119.1239587552
 20
182.083896361
 10
119.1511807925
 20
182.1721303088
 10
119.1736642606
 20
182.263001166
 10
119.1912827975
 20
182.3559891802
 10
119.2039386517
 20
182.4505841357
 10
119.2115602977
 20
182.5462472063
 10
119.2141060121
 20
182.6424538714
  0
LINE
  5
227
330
1F
100
AcDbEntity
  8
0
  6
Continuous
 62
     7
370
    25
100
AcDbLine
 10
118.3038143403
 20
181.0951077563
 30
0.0
 11
118.3038143403
 21
181.3551079852
 31
0.0
  0
LINE
  5
228
330
1F
100
AcDbEntity
  8
0
  6
Continuous
 62
     7
370
    25
100
AcDbLine
 10
118.0351142175
 20
171.4051043612
 30
0.0
 11
109.3906063921
 21
171.4051043612
 31
0.0
  0
LWPOLYLINE
  5
229
330
1F
100
AcDbEntity
  8
0
  6
Continuous
 62
     7
370
    25
100
AcDbPolyline
 90
       17
 70
   128
 43
0.0
 10
108.8249209858
 20
172.2051083666
 10
108.827644918
 20
172.126692496
 10
108.8357904143
 20
172.0490347964
 10
108.8492791689
 20
171.9728791338
 10
108.8679811693
 20
171.8989598376
 10
108.8917163349
 20
171.8279873949
 10
108.9202561564
 20
171.7606484515
 10
108.9533256329
 20
171.6975915057
 10
108.990606401
 20
171.6394221407
 10
109.0317393429
 20
171.5866982561
 10
109.0763283855
 20
171.5399300677
 10
109.1239440776
 20
171.4995705706
 10
109.1741279102
 20
171.4660012347
 10
109.2263965643
 20
171.4395558459
 10
109.2802466042
 20
171.4204775912
 10
109.3351595066
 20
171.4089572054
 10
109.3906063921
 20
171.4051043612
  0
LINE
  5
22A
330
1F
100
AcDbEntity
  8
0
  6
Continuous
 62
     7
370
    25
100
AcDbLine
 10
108.8249209858
 20
172.2051083666
 30
0.0
 11
108.8249209858
 21
173.4342801196
 31
0.0
  0
LWPOLYLINE
  5
22B
330
1F
100
AcDbEntity
  8
0
  6
Continuous
 62
     7
370
    25
100
AcDbPolyline
 90
       17
 70
   128
 43
0.0
 10
114.4012890346
 20
173.0451047045
 10
114.4148189909
 20
173.0489146334
 10
114.4262890107
 20
173.059753142
 10
114.433953274
 20
173.0759703738
 10
114.4366444237
 20
173.0951058489
 10
114.433953274
 20
173.1142413241
 10
114.4262890107
 20
173.1304633242
 10
114.4148189909
 20
173.1413018328
 10
114.4012890346
 20
173.1451069933
 10
114.3877593762
 20
173.1413018328
 10
114.3762890584
 20
173.1304633242
 10
114.3686250932
 20
173.1142413241
 10
114.3659339435
 20
173.0951058489
 10
114.3686250932
 20
173.0759703738
 10
114.3762890584
 20
173.059753142
 10
114.3877593762
 20
173.0489146334
 10
114.4012890346
 20
173.0451047045
  0
LWPOLYLINE
  5
22C
330
1F
100
AcDbEntity
  8
0
  6
Continuous
 62
     7
370
    25
100
AcDbPolyline
 90
       17
 70
   128
 43
0.0
 10
111.1440506912
 20
173.0451047045
 10
111.157580573
 20
173.0489146334
 10
111.1690506674
 20
173.059753142
 10
111.1767147816
 20
173.0759703738
 10
111.1794060058
 20
173.0951058489
 10
111.1767147816
 20
173.1142413241
 10
111.1690506674
 20
173.1304633242
 10
111.157580573
 20
173.1413018328
 10
111.1440506912
 20
173.1451069933
 10
111.1305207349
 20
173.1413018328
 10
111.1190506405
 20
173.1304633242
 10
111.1113866008
 20
173.1142413241
 10
111.1086953021
 20
173.0951058489
 10
111.1113866008
 20
173.0759703738
 10
111.1190506405
 20
173.059753142
 10
111.1305207349
 20
173.0489146334
 10
111.1440506912
 20
173.0451047045
  0
LWPOLYLINE
  5
22D
330
1F
100
AcDbEntity
  8
0
  6
Continuous
 62
     7
370
    25
100
AcDbPolyline
 90
       17
 70
   128
 43
0.0
 10
117.7876267917
 20
183.7251078707
 10
117.80115645
 20
183.7289130312
 10
117.8126267678
 20
183.7397515398
 10
117.820290733
 20
183.75597354
 10
117.8229818828
 20
183.7751042467
 10
117.820290733
 20
183.7942397219
 10
117.8126267678
 20
183.810461722
 10
117.80115645
 20
183.8213002306
 10
117.7876267917
 20
183.8251053912
 10
117.7740965373
 20
183.8213002306
 10
117.7626268155
 20
183.810461722
 10
117.7549622542
 20
183.7942397219
 10
117.7522711045
 20
183.7751042467
 10
117.7549622542
 20
183.75597354
 10
117.7626268155
 20
183.7397515398
 10
117.7740965373
 20
183.7289130312
 10
117.7876267917
 20
183.7251078707
  0
LWPOLYLINE
  5
22E
330
1F
100
AcDbEntity
  8
0
  6
Continuous
 62
     7
370
    25
100
AcDbPolyline
 90
       17
 70
   128
 43
0.0
 10
114.4012890346
 20
189.0451085192
 10
114.4148189909
 20
189.0489136797
 10
114.4262890107
 20
189.0597521883
 10
114.433953274
 20
189.0759741885
 10
114.4366444237
 20
189.0951048952
 10
114.433953274
 20
189.1142403704
 10
114.4262890107
 20
189.1304623705
 10
114.4148189909
 20
189.1413008791
 10
114.4012890346
 20
189.1451060397
 10
114.3877593762
 20
189.1413008791
 10
114.3762890584
 20
189.1304623705
 10
114.3686250932
 20
189.1142403704
 10
114.3659339435
 20
189.0951048952
 10
114.3686250932
 20
189.0759741885
 10
114.3762890584
 20
189.0597521883
 10
114.3877593762
 20
189.0489136797
 10
114.4012890346
 20
189.0451085192
  0
LWPOLYLINE
  5
22F
330
1F
100
AcDbEntity
  8
0
  6
Continuous
 62
     7
370
    25
100
AcDbPolyline
 90
       17
 70
   128
 43
0.0
 10
117.7876267917
 20
189.0451085192
 10
117.80115645
 20
189.0489136797
 10
117.8126267678
 20
189.0597521883
 10
117.820290733
 20
189.0759741885
 10
117.8229818828
 20
189.0951048952
 10
117.820290733
 20
189.1142403704
 10
117.8126267678
 20
189.1304623705
 10
117.80115645
 20
189.1413008791
 10
117.7876267917
 20
189.1451060397
 10
117.7740965373
 20
189.1413008791
 10
117.7626268155
 20
189.1304623705
 10
117.7549622542
 20
189.1142403704
 10
117.7522711045
 20
189.0951048952
 10
117.7549622542
 20
189.0759741885
 10
117.7626268155
 20
189.0597521883
 10
117.7740965373
 20
189.0489136797
 10
117.7876267917
 20
189.0451085192
  0
LWPOLYLINE
  5
230
330
1F
100
AcDbEntity
  8
0
  6
Continuous
 62
     7
370
    25
100
AcDbPolyline
 90
       17
 70
   128
 43
0.0
 10
111.1440506912
 20
189.0451085192
 10
111.157580573
 20
189.0489136797
 10
111.1690506674
 20
189.0597521883
 10
111.1767147816
 20
189.0759741885
 10
111.1794060058
 20
189.0951048952
 10
111.1767147816
 20
189.1142403704
 10
111.1690506674
 20
189.1304623705
 10
111.157580573
 20
189.1413008791
 10
111.1440506912
 20
189.1451060397
 10
111.1305207349
 20
189.1413008791
 10
111.1190506405
 20
189.1304623705
 10
111.1113866008
 20
189.1142403704
 10
111.1086953021
 20
189.0951048952
 10
111.1113866008
 20
189.0759741885
 10
111.1190506405
 20
189.0597521883
 10
111.1305207349
 20
189.0489136797
 10
111.1440506912
 20
189.0451085192
  0
LINE
  5
231
330
1F
100
AcDbEntity
  8
0
  6
Continuous
 62
     7
370
    25
100
AcDbLine
 10
119.4828067309
 20
189.4977604967
 30
0.0
 11
119.2141060121
 21
189.4977604967
 31
0.0
  0
LINE
  5
232
330
1F
100
AcDbEntity
  8
0
  6
Continuous
 62
     7
370
    25
100
AcDbLine
 10
119.4828067309
 20
182.6424538714
 30
0.0
 11
119.4828067309
 21
189.4977604967
 31
0.0
  0
LINE
  5
233
330
1F
100
AcDbEntity
  8
0
  6
Continuous
 62
     7
370
    25
100
AcDbLine
 10
119.4828067309
 20
182.6424538714
 30
0.0
 11
119.2141060121
 21
182.6424538714
 31
0.0
  0
LWPOLYLINE
  5
234
330
1F
100
AcDbEntity
  8
0
  6
Continuous
 62
     7
370
    25
100
AcDbPolyline
 90
       22
 70
   128
 43
0.0
 10
118.5725150592
 20
181.3551079852
 10
118.6405412442
 20
181.3587081057
 10
118.7081871516
 20
181.3694846255
 10
118.7750742919
 20
181.3873850924
 10
118.8408283479
 20
181.4122998339
 10
118.9050821549
 20
181.4440953356
 10
118.967475701
 20
181.4825951678
 10
119.0276608951
 20
181.5275799853
 10
119.0853003747
 20
181.5787970644
 10
119.1400722749
 20
181.6359650713
 10
119.1916702277
 20
181.6987597567
 10
119.2398057467
 20
181.7668330294
 10
119.284209419
 20
181.8398034197
 10
119.324633289
 20
181.9172656161
 10
119.3608508594
 20
181.9987809283
 10
119.3926594741
 20
182.083896361
 10
119.4198815114
 20
182.1721303088
 10
119.4423649795
 20
182.263001166
 10
119.4599835164
 20
182.3559891802
 10
119.4726393706
 20
182.4505841357
 10
119.4802610166
 20
182.5462472063
 10
119.4828067309
 20
182.6424538714
  0
LINE
  5
235
330
1F
100
AcDbEntity
  8
0
  6
Continuous
 62
     7
370
    25
100
AcDbLine
 10
118.5725150592
 20
181.3551079852
 30
0.0
 11
118.3038143403
 21
181.3551079852
 31
0.0
  0
LINE
  5
236
330
1F
100
AcDbEntity
  8
0
  6
Continuous
 62
     7
370
    25
100
AcDbLine
 10
118.5725150592
 20
190.785106383
 30
0.0
 11
118.3038143403
 21
190.785106383
 31
0.0
  0
LWPOLYLINE
  5
237
330
1F
100
AcDbEntity
  8
0
  6
Continuous
 62
     7
370
    25
100
AcDbPolyline
 90
       22
 70
   128
 43
0.0
 10
118.5725150592
 20
190.785106383
 10
118.6405412442
 20
190.7815062624
 10
118.7081871516
 20
190.7707297427
 10
118.7750742919
 20
190.7528292757
 10
118.8408283479
 20
190.7279145342
 10
118.9050821549
 20
190.6961190325
 10
118.967475701
 20
190.6576192004
 10
119.0276608951
 20
190.6126343829
 10
119.0853003747
 20
190.5614173037
 10
119.1400722749
 20
190.5042492968
 10
119.1916702277
 20
190.4414498431
 10
119.2398057467
 20
190.3733765704
 10
119.284209419
 20
190.30040618
 10
119.324633289
 20
190.2229487521
 10
119.3608508594
 20
190.1414334399
 10
119.3926594741
 20
190.0563180071
 10
119.4198815114
 20
189.968079291
 10
119.4423649795
 20
189.8772132021
 10
119.4599835164
 20
189.7842204195
 10
119.4726393706
 20
189.6896302325
 10
119.4802610166
 20
189.5939623934
 10
119.4828067309
 20
189.4977604967
  0
LINE
  5
238
330
1F
100
AcDbEntity
  8
0
  6
Continuous
 62
     7
370
    25
100
AcDbLine
 10
109.9538145549
 20
175.1951062304
 30
0.0
 11
109.9538145549
 21
174.3797909838
 31
0.0
  0
LINE
  5
239
330
1F
100
AcDbEntity
  8
0
  6
Continuous
 62
     7
370
    25
100
AcDbLine
 10
110.6538145579
 20
175.1951062304
 30
0.0
 11
110.6408145613
 21
175.1951062304
 31
0.0
  0
LINE
  5
23A
330
1F
100
AcDbEntity
  8
0
  6
Continuous
 62
     7
370
    25
100
AcDbLine
 10
109.9668145549
 20
175.1951062304
 30
0.0
 11
109.9538145549
 21
175.1951062304
 31
0.0
  0
LINE
  5
23B
330
1F
100
AcDbEntity
  8
0
  6
Continuous
 62
     7
370
    25
100
AcDbLine
 10
110.6538145579
 20
175.895107947
 30
0.0
 11
110.6538145579
 21
175.8351075274
 31
0.0
  0
LINE
  5
23C
330
1F
100
AcDbEntity
  8
0
  6
Continuous
 62
     7
370
    25
100
AcDbLine
 10
110.6538145579
 20
175.25510665
 30
0.0
 11
110.6538145579
 21
175.1951062304
 31
0.0
  0
LINE
  5
23D
330
1F
100
AcDbEntity
  8
0
  6
Continuous
 62
     7
370
    25
100
AcDbLine
 10
109.4148145578
 20
185.9151064974
 30
0.0
 11
109.4148145578
 21
176.2751042467
 31
0.0
  0
LINE
  5
23E
330
1F
100
AcDbEntity
  8
0
  6
Continuous
 62
     7
370
    25
100
AcDbLine
 10
110.6538145579
 20
186.9951045138
 30
0.0
 11
110.6538145579
 21
186.9351040942
 31
0.0
  0
LINE
  5
23F
330
1F
100
AcDbEntity
  8
0
  6
Continuous
 62
     7
370
    25
100
AcDbLine
 10
110.6538145579
 20
186.3551079852
 30
0.0
 11
110.6538145579
 21
186.2951075655
 31
0.0
  0
LINE
  5
240
330
1F
100
AcDbEntity
  8
0
  6
Continuous
 62
     7
370
    25
100
AcDbLine
 10
110.6538145579
 20
186.9951045138
 30
0.0
 11
110.6408145613
 21
186.9951045138
 31
0.0
  0
LINE
  5
241
330
1F
100
AcDbEntity
  8
0
  6
Continuous
 62
     7
370
    25
100
AcDbLine
 10
109.9668145549
 20
186.9951045138
 30
0.0
 11
109.9538145549
 21
186.9951045138
 31
0.0
  0
LINE
  5
242
330
1F
100
AcDbEntity
  8
0
  6
Continuous
 62
     7
370
    25
100
AcDbLine
 10
109.9538145549
 20
187.8104197604
 30
0.0
 11
109.9538145549
 21
186.9951045138
 31
0.0
  0
ARC
  5
243
330
1F
100
AcDbEntity
  8
0
  6
Continuous
 62
     7
370
    25
100
AcDbCircle
 10
126.8928145549
 20
187.806106383
 30
0.0
 40
0.2999999999999985
100
AcDbArc
 50
0.0
 51
26.7839467156
  0
LINE
  5
244
330
1F
100
AcDbEntity
  8
0
  6
Continuous
 62
     7
370
    25
100
AcDbLine
 10
127.1928141601
 20
187.8061043841
 30
0.0
 11
127.1928141601
 21
174.3841063601
 31
0.0
  0
ARC
  5
245
330
1F
100
AcDbEntity
  8
0
  6
Continuous
 62
     7
370
    25
100
AcDbCircle
 10
126.8928145549
 20
174.384106383
 30
0.0
 40
0.3000000000000082
100
AcDbArc
 50
333.216053284
 51
0.0
  0
LINE
  5
246
330
1F
100
AcDbEntity
  8
0
  6
Continuous
 62
     7
370
    25
100
AcDbLine
 10
109.9538145549
 20
186.9951045138
 30
0.0
 11
109.9538145549
 21
186.9351040942
 31
0.0
  0
LINE
  5
247
330
1F
100
AcDbEntity
  8
0
  6
Continuous
 62
     7
370
    25
100
AcDbLine
 10
109.9538145549
 20
186.3551079852
 30
0.0
 11
109.9538145549
 21
186.2951075655
 31
0.0
  0
LINE
  5
248
330
1F
100
AcDbEntity
  8
0
  6
Continuous
 62
     7
370
    25
100
AcDbLine
 10
109.9538145549
 20
175.895107947
 30
0.0
 11
109.9538145549
 21
175.8351075274
 31
0.0
  0
LINE
  5
249
330
1F
100
AcDbEntity
  8
0
  6
Continuous
 62
     7
370
    25
100
AcDbLine
 10
109.9538145549
 20
175.25510665
 30
0.0
 11
109.9538145549
 21
175.1951062304
 31
0.0
  0
CIRCLE
  5
24A
330
1F
100
AcDbEntity
  8
0
  6
Continuous
 62
     7
370
    25
100
AcDbCircle
 10
110.3038145549
 20
137.135106383
 30
0.0
 40
0.88900000000001
  0
CIRCLE
  5
24B
330
1F
100
AcDbEntity
  8
0
  6
Continuous
 62
     7
370
    25
100
AcDbCircle
 10
110.3038145549
 20
121.135106383
 30
0.0
 40
0.88900000000001
  0
CIRCLE
  5
24C
330
1F
100
AcDbEntity
  8
0
  6
Continuous
 62
     7
370
    25
100
AcDbCircle
 10
126.3038145549
 20
137.135106383
 30
0.0
 40
0.88900000000001
  0
CIRCLE
  5
24D
330
1F
100
AcDbEntity
  8
0
  6
Continuous
 62
     7
370
    25
100
AcDbCircle
 10
126.3038145549
 20
121.135106383
 30
0.0
 40
0.88900000000001
  0
CIRCLE
  5
24E
330
1F
100
AcDbEntity
  8
0
  6
Continuous
 62
     7
370
    25
100
AcDbCircle
 10
110.3038698105
 20
137.1351130351
 30
0.0
 40
0.0049931958483837
  0
CIRCLE
  5
24F
330
1F
100
AcDbEntity
  8
0
  6
Continuous
 62
     7
370
    25
100
AcDbCircle
 10
110.3038707128
 20
137.1351089042
 30
0.0
 40
0.8849976140748758
  0
CIRCLE
  5
250
330
1F
100
AcDbEntity
  8
0
  6
Continuous
 62
     7
370
    25
100
AcDbCircle
 10
110.303869879
 20
121.1351133901
 30
0.0
 40
0.0049933109316225
  0
CIRCLE
  5
251
330
1F
100
AcDbEntity
  8
0
  6
Continuous
 62
     7
370
    25
100
AcDbCircle
 10
110.3038707181
 20
121.135108821
 30
0.0
 40
0.884997533359077
  0
CIRCLE
  5
252
330
1F
100
AcDbEntity
  8
0
  6
Continuous
 62
     7
370
    25
100
AcDbCircle
 10
126.3038702746
 20
121.135113701
 30
0.0
 40
0.0049930055308912
  0
CIRCLE
  5
253
330
1F
100
AcDbEntity
  8
0
  6
Continuous
 62
     7
370
    25
100
AcDbCircle
 10
126.3038711334
 20
121.1351086809
 30
0.0
 40
0.8849976734948491
  0
CIRCLE
  5
254
330
1F
100
AcDbEntity
  8
0
  6
Continuous
 62
     7
370
    25
100
AcDbCircle
 10
126.3038702061
 20
137.135113346
 30
0.0
 40
0.0049928903971887
  0
CIRCLE
  5
255
330
1F
100
AcDbEntity
  8
0
  6
Continuous
 62
     7
370
    25
100
AcDbCircle
 10
126.3038711281
 20
137.1351087641
 30
0.0
 40
0.8849977542106306
  0
LINE
  5
256
330
1F
100
AcDbEntity
  8
0
  6
Continuous
 62
     1
370
    25
100
AcDbLine
 10
127.2138140685
 20
125.951982699
 30
0.0
 11
127.2138140685
 21
127.1519827467
 31
0.0
  0
LINE
  5
257
330
1F
100
AcDbEntity
  8
0
  6
Continuous
 62
     1
370
    25
100
AcDbLine
 10
127.2138140685
 20
133.5631012541
 30
0.0
 11
127.2138140685
 21
134.7631013018
 31
0.0
  0
LINE
  5
258
330
1F
100
AcDbEntity
  8
0
  6
Continuous
 62
     1
370
    25
100
AcDbLine
 10
126.5938148982
 20
187.7896821123
 30
0.0
 11
126.5938148982
 21
174.4005334002
 31
0.0
  0
LINE
  5
259
330
1F
100
AcDbEntity
  8
0
  6
Continuous
 62
     1
370
    25
100
AcDbLine
 10
126.0138140208
 20
187.5283228976
 30
0.0
 11
126.0138140208
 21
174.6618878466
 31
0.0
  0
LINE
  5
25A
330
1F
100
AcDbEntity
  8
0
  6
Continuous
 62
     1
370
    25
100
AcDbLine
 10
106.6396607048
 20
176.2751042467
 30
0.0
 11
106.6396607048
 21
185.9151064974
 31
0.0
  0
LINE
  5
25B
330
1F
100
AcDbEntity
  8
0
  6
Continuous
 62
     1
370
    25
100
AcDbLine
 10
106.0981641299
 20
176.2751042467
 30
0.0
 11
106.0981641299
 21
185.9151064974
 31
0.0
  0
LINE
  5
25C
330
1F
100
AcDbEntity
  8
0
  6
Continuous
 62
     1
370
    25
100
AcDbLine
 10
94.183679629
 20
176.2751042467
 30
0.0
 11
94.183679629
 21
185.9151064974
 31
0.0
  0
LINE
  5
25D
330
1F
100
AcDbEntity
  8
0
  6
Continuous
 62
     1
370
    25
100
AcDbLine
 10
85.7577047831
 20
176.2751042467
 30
0.0
 11
85.7577047831
 21
185.9151064974
 31
0.0
  0
LINE
  5
25E
330
1F
100
AcDbEntity
  8
0
  6
Continuous
 62
     1
370
    25
100
AcDbLine
 10
78.8490496165
 20
176.2751042467
 30
0.0
 11
78.8490496165
 21
185.9151064974
 31
0.0
  0
ENDSEC
  0
SECTION
  2
OBJECTS
  0
DICTIONARY
  5
C
330
0
100
AcDbDictionary
281
     1
  3
ACAD_DETAILVIEWSTYLE
350
267
  3
ACAD_GROUP
350
D
  3
ACAD_LAYOUT
350
1A
  3
ACAD_MATERIAL
350
43
  3
ACAD_MLEADERSTYLE
350
6B
  3
ACAD_MLINESTYLE
350
17
  3
ACAD_PLOTSETTINGS
350
19
  3
ACAD_PLOTSTYLENAME
350
E
  3
ACAD_SCALELIST
350
47
  3
ACAD_SECTIONVIEWSTYLE
350
268
  3
ACAD_TABLESTYLE
350
69
  3
ACAD_VISUALSTYLE
350
2A
  3
ACDB_RECOMPOSE_DATA
350
264
  3
AcDbVariableDictionary
350
25F
  0
SUN
  5
6D
330
29
100
AcDbSun
 90
        1
290
     0
 63
     7
421
 16777215
 40
1.0
291
     1
 91
  2455826
 92
 54000000
292
     0
 70
     2
 71
   256
280
     1
  0
DICTIONARY
  5
267
102
{ACAD_REACTORS
330
C
102
}
330
C
100
AcDbDictionary
281
     1
  0
DICTIONARY
  5
D
102
{ACAD_REACTORS
330
C
102
}
330
C
100
AcDbDictionary
281
     1
  0
DICTIONARY
  5
1A
102
{ACAD_REACTORS
330
C
102
}
330
C
100
AcDbDictionary
281
     1
  3
Layout1
350
1E
  3
Layout2
350
26
  3
Model
350
22
  0
DICTIONARY
  5
43
102
{ACAD_REACTORS
330
C
102
}
330
C
100
AcDbDictionary
281
     1
  3
ByBlock
350
45
  3
ByLayer
350
44
  3
Global
350
46
  0
DICTIONARY
  5
6B
102
{ACAD_REACTORS
330
C
102
}
330
C
100
AcDbDictionary
281
     1
  3
Standard
350
6C
  0
DICTIONARY
  5
17
102
{ACAD_REACTORS
330
C
102
}
330
C
100
AcDbDictionary
281
     1
  3
Standard
350
18
  0
DICTIONARY
  5
19
102
{ACAD_REACTORS
330
C
102
}
330
C
100
AcDbDictionary
281
     1
  0
ACDBDICTIONARYWDFLT
  5
E
102
{ACAD_REACTORS
330
C
102
}
330
C
100
AcDbDictionary
281
     1
  3
Normal
350
F
100
AcDbDictionaryWithDefault
340
F
  0
DICTIONARY
  5
47
102
{ACAD_REACTORS
330
C
102
}
330
C
100
AcDbDictionary
281
     1
  3
A0
350
48
  3
A1
350
49
  3
A2
350
4A
  3
A3
350
4B
  3
A4
350
4C
  3
A5
350
4D
  3
A6
350
4E
  3
A7
350
4F
  3
A8
350
50
  3
A9
350
51
  3
B0
350
52
  3
B1
350
53
  3
B2
350
54
  3
B3
350
55
  3
B4
350
56
  3
B5
350
57
  3
B6
350
58
  3
B7
350
59
  3
B8
350
5A
  3
B9
350
5B
  3
C0
350
5C
  3
C1
350
5D
  3
C2
350
5E
  3
C3
350
5F
  3
C4
350
60
  3
C5
350
61
  3
C6
350
62
  3
C7
350
63
  3
C8
350
64
  3
C9
350
65
  3
D0
350
66
  3
D1
350
67
  3
D2
350
68
  0
DICTIONARY
  5
268
102
{ACAD_REACTORS
330
C
102
}
330
C
100
AcDbDictionary
281
     1
  0
DICTIONARY
  5
69
102
{ACAD_REACTORS
330
C
102
}
330
C
100
AcDbDictionary
281
     1
  3
Standard
350
6A
  0
DICTIONARY
  5
2A
102
{ACAD_REACTORS
330
C
102
}
330
C
100
AcDbDictionary
281
     1
  3
2dWireframe
350
2F
  3
Basic
350
32
  3
Brighten
350
36
  3
ColorChange
350
3A
  3
Conceptual
350
34
  3
Dim
350
35
  3
EdgeColorOff
350
3D
  3
Facepattern
350
39
  3
Flat
350
2B
  3
FlatWithEdges
350
2C
  3
Gouraud
350
2D
  3
GouraudWithEdges
350
2E
  3
Hidden
350
31
  3
JitterOff
350
3B
  3
Linepattern
350
38
  3
OverhangOff
350
3C
  3
Realistic
350
33
  3
Shaded
350
42
  3
Shaded with edges
350
41
  3
Shades of Gray
350
3E
  3
Sketchy
350
3F
  3
Thicken
350
37
  3
Wireframe
350
30
  3
X-Ray
350
40
  0
XRECORD
  5
264
102
{ACAD_REACTORS
330
C
102
}
330
C
100
AcDbXrecord
280
     1
 90
        1
330
6A
  0
DICTIONARY
  5
25F
102
{ACAD_REACTORS
330
C
102
}
330
C
100
AcDbDictionary
281
     1
  3
CANNOSCALE
350
260
  3
CMLEADERSTYLE
350
266
  3
CTABLESTYLE
350
265
  0
LAYOUT
  5
1E
102
{ACAD_REACTORS
330
1A
102
}
330
1A
100
AcDbPlotSettings
  1

  2
none_device
  4

  6

 40
0.0
 41
0.0
 42
0.0
 43
0.0
 44
0.0
 45
0.0
 46
0.0
 47
0.0
 48
0.0
 49
0.0
140
0.0
141
0.0
142
1.0
143
1.0
 70
   688
 72
     1
 73
     0
 74
     5
  7

 75
    16
 76
     0
 77
     2
 78
   300
147
1.0
148
0.0
149
0.0
100
AcDbLayout
  1
Layout1
 70
     1
 71
     1
 10
0.0
 20
0.0
 11
420.0
 21
297.0
 12
0.0
 22
0.0
 32
0.0
 14
1.0000000000E+20
 24
1.0000000000E+20
 34
1.0000000000E+20
 15
-1.0000000000E+20
 25
-1.0000000000E+20
 35
-1.0000000000E+20
146
0.0
 13
0.0
 23
0.0
 33
0.0
 16
1.0
 26
0.0
 36
0.0
 17
0.0
 27
1.0
 37
0.0
 76
     0
330
1B
  0
LAYOUT
  5
26
102
{ACAD_REACTORS
330
1A
102
}
330
1A
100
AcDbPlotSettings
  1

  2
none_device
  4

  6

 40
0.0
 41
0.0
 42
0.0
 43
0.0
 44
0.0
 45
0.0
 46
0.0
 47
0.0
 48
0.0
 49
0.0
140
0.0
141
0.0
142
1.0
143
1.0
 70
   688
 72
     1
 73
     0
 74
     5
  7

 75
    16
 76
     0
 77
     2
 78
   300
147
1.0
148
0.0
149
0.0
100
AcDbLayout
  1
Layout2
 70
     1
 71
     2
 10
0.0
 20
0.0
 11
0.0
 21
0.0
 12
0.0
 22
0.0
 32
0.0
 14
0.0
 24
0.0
 34
0.0
 15
0.0
 25
0.0
 35
0.0
146
0.0
 13
0.0
 23
0.0
 33
0.0
 16
1.0
 26
0.0
 36
0.0
 17
0.0
 27
1.0
 37
0.0
 76
     0
330
23
  0
LAYOUT
  5
22
102
{ACAD_REACTORS
330
1A
102
}
330
1A
100
AcDbPlotSettings
  1

  2
none_device
  4
Letter_(8.50_x_11.00_Inches)
  6

 40
6.35
 41
6.35
 42
6.35000508
 43
6.35000508
 44
215.9
 45
279.4
 46
0.0
 47
0.0
 48
0.0
 49
0.0
140
0.0
141
0.0
142
1.0
143
1.0
 70
  1712
 72
     1
 73
     0
 74
     0
  7

 75
     0
 76
     0
 77
     2
 78
   300
147
1.0
148
0.0
149
0.0
100
AcDbLayout
  1
Model
 70
     1
 71
     0
 10
0.0
 20
0.0
 11
210.0
 21
297.0
 12
0.0
 22
0.0
 32
0.0
 14
0.0
 24
0.0
 34
0.0
 15
210.0
 25
297.0
 35
0.0
146
0.0
 13
0.0
 23
0.0
 33
0.0
 16
1.0
 26
0.0
 36
0.0
 17
0.0
 27
1.0
 37
0.0
 76
     0
330
1F
331
29
  0
MATERIAL
  5
45
102
{ACAD_REACTORS
330
43
102
}
330
43
100
AcDbMaterial
  1
ByBlock
 72
     1
 94
      127
  0
MATERIAL
  5
44
102
{ACAD_REACTORS
330
43
102
}
330
43
100
AcDbMaterial
  1
ByLayer
 72
     1
 94
      127
  0
MATERIAL
  5
46
102
{ACAD_REACTORS
330
43
102
}
330
43
100
AcDbMaterial
  1
Global
 72
     1
 94
      127
  0
MLEADERSTYLE
  5
6C
102
{ACAD_REACTORS
330
6B
102
}
330
6B
100
AcDbMLeaderStyle
170
     2
171
     1
172
     0
 90
        2
 40
0.0
 41
0.0
173
     1
 91
-1056964608
340
14
 92
       -2
290
     1
 42
2.0
291
     1
 43
8.0
  3
Standard
341
0
 44
4.0
300

342
11
174
     1
178
     6
175
     1
176
     0
 93
-1056964608
 45
4.0
292
     0
297
     0
 46
4.0
343
0
 94
-1056964608
 47
1.0
 49
1.0
140
1.0
293
     1
141
0.0
294
     1
177
     0
142
1.0
295
     0
296
     0
143
3.75
1001
ACAD_MLEADERVER
1070
     2
  0
MLINESTYLE
  5
18
102
{ACAD_REACTORS
330
17
102
}
330
17
100
AcDbMlineStyle
  2
Standard
 70
     0
  3

 62
   256
 51
90.0
 52
90.0
 71
     2
 49
0.5
 62
   256
  6
BYLAYER
 49
-0.5
 62
   256
  6
BYLAYER
  0
ACDBPLACEHOLDER
  5
F
102
{ACAD_REACTORS
330
E
102
}
330
E
  0
SCALE
  5
48
102
{ACAD_REACTORS
330
47
102
}
330
47
100
AcDbScale
 70
     0
300
1:1
140
1.0
141
1.0
290
     1
  0
SCALE
  5
49
102
{ACAD_REACTORS
330
47
102
}
330
47
100
AcDbScale
 70
     0
300
1:2
140
1.0
141
2.0
290
     0
  0
SCALE
  5
4A
102
{ACAD_REACTORS
330
47
102
}
330
47
100
AcDbScale
 70
     0
300
1:4
140
1.0
141
4.0
290
     0
  0
SCALE
  5
4B
102
{ACAD_REACTORS
330
47
102
}
330
47
100
AcDbScale
 70
     0
300
1:5
140
1.0
141
5.0
290
     0
  0
SCALE
  5
4C
102
{ACAD_REACTORS
330
47
102
}
330
47
100
AcDbScale
 70
     0
300
1:8
140
1.0
141
8.0
290
     0
  0
SCALE
  5
4D
102
{ACAD_REACTORS
330
47
102
}
330
47
100
AcDbScale
 70
     0
300
1:10
140
1.0
141
10.0
290
     0
  0
SCALE
  5
4E
102
{ACAD_REACTORS
330
47
102
}
330
47
100
AcDbScale
 70
     0
300
1:16
140
1.0
141
16.0
290
     0
  0
SCALE
  5
4F
102
{ACAD_REACTORS
330
47
102
}
330
47
100
AcDbScale
 70
     0
300
1:20
140
1.0
141
20.0
290
     0
  0
SCALE
  5
50
102
{ACAD_REACTORS
330
47
102
}
330
47
100
AcDbScale
 70
     0
300
1:30
140
1.0
141
30.0
290
     0
  0
SCALE
  5
51
102
{ACAD_REACTORS
330
47
102
}
330
47
100
AcDbScale
 70
     0
300
1:40
140
1.0
141
40.0
290
     0
  0
SCALE
  5
52
102
{ACAD_REACTORS
330
47
102
}
330
47
100
AcDbScale
 70
     0
300
1:50
140
1.0
141
50.0
290
     0
  0
SCALE
  5
53
102
{ACAD_REACTORS
330
47
102
}
330
47
100
AcDbScale
 70
     0
300
1:100
140
1.0
141
100.0
290
     0
  0
SCALE
  5
54
102
{ACAD_REACTORS
330
47
102
}
330
47
100
AcDbScale
 70
     0
300
2:1
140
2.0
141
1.0
290
     0
  0
SCALE
  5
55
102
{ACAD_REACTORS
330
47
102
}
330
47
100
AcDbScale
 70
     0
300
4:1
140
4.0
141
1.0
290
     0
  0
SCALE
  5
56
102
{ACAD_REACTORS
330
47
102
}
330
47
100
AcDbScale
 70
     0
300
8:1
140
8.0
141
1.0
290
     0
  0
SCALE
  5
57
102
{ACAD_REACTORS
330
47
102
}
330
47
100
AcDbScale
 70
     0
300
10:1
140
10.0
141
1.0
290
     0
  0
SCALE
  5
58
102
{ACAD_REACTORS
330
47
102
}
330
47
100
AcDbScale
 70
     0
300
100:1
140
100.0
141
1.0
290
     0
  0
SCALE
  5
59
102
{ACAD_REACTORS
330
47
102
}
330
47
100
AcDbScale
 70
     0
300
1/128" = 1'-0"
140
0.0078125
141
12.0
290
     0
  0
SCALE
  5
5A
102
{ACAD_REACTORS
330
47
102
}
330
47
100
AcDbScale
 70
     0
300
1/64" = 1'-0"
140
0.015625
141
12.0
290
     0
  0
SCALE
  5
5B
102
{ACAD_REACTORS
330
47
102
}
330
47
100
AcDbScale
 70
     0
300
1/32" = 1'-0"
140
0.03125
141
12.0
290
     0
  0
SCALE
  5
5C
102
{ACAD_REACTORS
330
47
102
}
330
47
100
AcDbScale
 70
     0
300
1/16" = 1'-0"
140
0.0625
141
12.0
290
     0
  0
SCALE
  5
5D
102
{ACAD_REACTORS
330
47
102
}
330
47
100
AcDbScale
 70
     0
300
3/32" = 1'-0"
140
0.09375
141
12.0
290
     0
  0
SCALE
  5
5E
102
{ACAD_REACTORS
330
47
102
}
330
47
100
AcDbScale
 70
     0
300
1/8" = 1'-0"
140
0.125
141
12.0
290
     0
  0
SCALE
  5
5F
102
{ACAD_REACTORS
330
47
102
}
330
47
100
AcDbScale
 70
     0
300
3/16" = 1'-0"
140
0.1875
141
12.0
290
     0
  0
SCALE
  5
60
102
{ACAD_REACTORS
330
47
102
}
330
47
100
AcDbScale
 70
     0
300
1/4" = 1'-0"
140
0.25
141
12.0
290
     0
  0
SCALE
  5
61
102
{ACAD_REACTORS
330
47
102
}
330
47
100
AcDbScale
 70
     0
300
3/8" = 1'-0"
140
0.375
141
12.0
290
     0
  0
SCALE
  5
62
102
{ACAD_REACTORS
330
47
102
}
330
47
100
AcDbScale
 70
     0
300
1/2" = 1'-0"
140
0.5
141
12.0
290
     0
  0
SCALE
  5
63
102
{ACAD_REACTORS
330
47
102
}
330
47
100
AcDbScale
 70
     0
300
3/4" = 1'-0"
140
0.75
141
12.0
290
     0
  0
SCALE
  5
64
102
{ACAD_REACTORS
330
47
102
}
330
47
100
AcDbScale
 70
     0
300
1" = 1'-0"
140
1.0
141
12.0
290
     0
  0
SCALE
  5
65
102
{ACAD_REACTORS
330
47
102
}
330
47
100
AcDbScale
 70
     0
300
1-1/2" = 1'-0"
140
1.5
141
12.0
290
     0
  0
SCALE
  5
66
102
{ACAD_REACTORS
330
47
102
}
330
47
100
AcDbScale
 70
     0
300
3" = 1'-0"
140
3.0
141
12.0
290
     0
  0
SCALE
  5
67
102
{ACAD_REACTORS
330
47
102
}
330
47
100
AcDbScale
 70
     0
300
6" = 1'-0"
140
6.0
141
12.0
290
     0
  0
SCALE
  5
68
102
{ACAD_REACTORS
330
47
102
}
330
47
100
AcDbScale
 70
     0
300
1'-0" = 1'-0"
140
12.0
141
12.0
290
     0
  0
TABLESTYLE
  5
6A
102
{ACAD_REACTORS
330
69
102
}
102
{ACAD_XDICTIONARY
360
261
102
}
330
69
100
AcDbTableStyle
  3
Standard
 70
     0
 71
     0
 40
0.06
 41
0.06
280
     0
281
     0
  7
Standard
140
4.5
170
     2
 62
     0
 63
   257
283
     0
 90
        4
 91
        0
  1

274
    -2
284
     1
 64
     0
275
    -2
285
     1
 65
     0
276
    -2
286
     1
 66
     0
277
    -2
287
     1
 67
     0
278
    -2
288
     1
 68
     0
279
    -2
289
     1
 69
     0
  7
Standard
140
6.0
170
     5
 62
     0
 63
   257
283
     0
 90
        4
 91
        0
  1

274
    -2
284
     1
 64
     0
275
    -2
285
     1
 65
     0
276
    -2
286
     1
 66
     0
277
    -2
287
     1
 67
     0
278
    -2
288
     1
 68
     0
279
    -2
289
     1
 69
     0
  7
Standard
140
4.5
170
     5
 62
     0
 63
   257
283
     0
 90
        4
 91
        0
  1

274
    -2
284
     1
 64
     0
275
    -2
285
     1
 65
     0
276
    -2
286
     1
 66
     0
277
    -2
287
     1
 67
     0
278
    -2
288
     1
 68
     0
279
    -2
289
     1
 69
     0
  0
VISUALSTYLE
  5
2F
102
{ACAD_REACTORS
330
2A
102
}
330
2A
100
AcDbVisualStyle
  2
2dWireframe
 70
     4
 71
     0
 72
     2
 73
     0
 90
        0
 40
0.6
 41
30.0
 62
     5
 63
     7
421
 16777215
 74
     1
 91
        4
 64
     7
 65
   257
 75
     1
175
     1
 42
1.0
 92
        0
 66
   257
 43
1.0
 76
     1
 77
     6
 78
     2
 67
     7
 79
     5
170
     0
171
     0
290
     0
174
     0
 93
        1
 44
0.0
173
     0
291
     0
 45
0.0
  0
VISUALSTYLE
  5
32
102
{ACAD_REACTORS
330
2A
102
}
330
2A
100
AcDbVisualStyle
  2
Basic
 70
     7
 71
     1
 72
     0
 73
     1
 90
        0
 40
0.6
 41
30.0
 62
     5
 63
     7
421
 16777215
 74
     0
 91
        4
 64
     7
 65
   257
 75
     1
175
     1
 42
1.0
 92
        8
 66
     7
 43
1.0
 76
     1
 77
     6
 78
     2
 67
     7
 79
     5
170
     0
171
     0
290
     0
174
     0
 93
        1
 44
0.0
173
     0
291
     1
 45
0.0
  0
VISUALSTYLE
  5
36
102
{ACAD_REACTORS
330
2A
102
}
330
2A
100
AcDbVisualStyle
  2
Brighten
 70
    12
 71
     2
 72
     2
 73
     0
 90
        0
 40
0.6
 41
30.0
 62
     5
 63
     7
421
 16777215
 74
     1
 91
        4
 64
     7
 65
   257
 75
     1
175
     1
 42
1.0
 92
        8
 66
     7
 43
1.0
 76
     1
 77
     6
 78
     2
 67
     7
 79
     5
170
     0
171
     0
290
     0
174
     0
 93
        1
 44
50.0
173
     0
291
     1
 45
0.0
  0
VISUALSTYLE
  5
3A
102
{ACAD_REACTORS
330
2A
102
}
330
2A
100
AcDbVisualStyle
  2
ColorChange
 70
    16
 71
     2
 72
     2
 73
     3
 90
        0
 40
0.6
 41
30.0
 62
     5
 63
     8
421
  8421504
 74
     1
 91
        4
 64
     7
 65
   257
 75
     1
175
     1
 42
1.0
 92
        8
 66
     8
424
  8421504
 43
1.0
 76
     1
 77
     6
 78
     2
 67
     7
 79
     5
170
     0
171
     0
290
     0
174
     0
 93
        1
 44
0.0
173
     0
291
     1
 45
0.0
  0
VISUALSTYLE
  5
34
102
{ACAD_REACTORS
330
2A
102
}
330
2A
100
AcDbVisualStyle
  2
Conceptual
 70
     9
 71
     3
 72
     2
 73
     0
 90
        0
 40
0.6
 41
30.0
 62
     5
 63
     7
421
 16777215
 74
     2
 91
        2
 64
     7
 65
   257
 75
     1
175
     1
 42
179.0
 92
        8
 66
     7
 43
1.0
 76
     1
 77
     6
 78
     2
 67
     7
 79
     3
170
     0
171
     0
290
     0
174
     0
 93
        1
 44
0.0
173
     0
291
     0
 45
0.0
  0
VISUALSTYLE
  5
35
102
{ACAD_REACTORS
330
2A
102
}
330
2A
100
AcDbVisualStyle
  2
Dim
 70
    11
 71
     2
 72
     2
 73
     0
 90
        0
 40
0.6
 41
30.0
 62
     5
 63
     7
421
 16777215
 74
     1
 91
        4
 64
     7
 65
   257
 75
     1
175
     1
 42
1.0
 92
        8
 66
     7
 43
1.0
 76
     1
 77
     6
 78
     2
 67
     7
 79
     5
170
     0
171
     0
290
     0
174
     0
 93
        1
 44
-50.0
173
     0
291
     1
 45
0.0
  0
VISUALSTYLE
  5
3D
102
{ACAD_REACTORS
330
2A
102
}
330
2A
100
AcDbVisualStyle
  2
EdgeColorOff
 70
    22
 71
     2
 72
     2
 73
     0
 90
        0
 40
0.6
 41
30.0
 62
     5
 63
     7
421
 16777215
 74
     1
 91
        4
 64
     7
 65
   257
 75
     1
175
     1
 42
1.0
 92
        8
 66
     7
 43
1.0
 76
     1
 77
     6
 78
     2
 67
     7
 79
     5
170
     0
171
     0
290
     0
174
     0
 93
        1
 44
0.0
173
     0
291
     1
 45
0.0
  0
VISUALSTYLE
  5
39
102
{ACAD_REACTORS
330
2A
102
}
330
2A
100
AcDbVisualStyle
  2
Facepattern
 70
    15
 71
     2
 72
     2
 73
     0
 90
        0
 40
0.6
 41
30.0
 62
     5
 63
     7
421
 16777215
 74
     1
 91
        4
 64
     7
 65
   257
 75
     1
175
     1
 42
1.0
 92
        8
 66
     7
 43
1.0
 76
     1
 77
     6
 78
     2
 67
     7
 79
     5
170
     0
171
     0
290
     0
174
     0
 93
        1
 44
0.0
173
     0
291
     1
 45
0.0
  0
VISUALSTYLE
  5
2B
102
{ACAD_REACTORS
330
2A
102
}
330
2A
100
AcDbVisualStyle
  2
Flat
 70
     0
 71
     2
 72
     1
 73
     1
 90
        2
 40
0.6
 41
30.0
 62
     5
 63
     7
421
 16777215
 74
     0
 91
        0
 64
     7
 65
   257
 75
     1
175
     1
 42
1.0
 92
        8
 66
     7
 43
1.0
 76
     1
 77
     6
 78
     2
 67
     7
 79
     5
170
     0
171
     0
290
     0
174
     0
 93
       13
 44
0.0
173
     0
291
     1
 45
0.0
  0
VISUALSTYLE
  5
2C
102
{ACAD_REACTORS
330
2A
102
}
330
2A
100
AcDbVisualStyle
  2
FlatWithEdges
 70
     1
 71
     2
 72
     1
 73
     1
 90
        2
 40
0.6
 41
30.0
 62
     5
 63
     7
421
 16777215
 74
     1
 91
        0
 64
     7
 65
   257
 75
     1
175
     1
 42
1.0
 92
        0
 66
   257
 43
1.0
 76
     1
 77
     6
 78
     2
 67
     7
 79
     5
170
     0
171
     0
290
     0
174
     0
 93
       13
 44
0.0
173
     0
291
     1
 45
0.0
  0
VISUALSTYLE
  5
2D
102
{ACAD_REACTORS
330
2A
102
}
330
2A
100
AcDbVisualStyle
  2
Gouraud
 70
     2
 71
     2
 72
     2
 73
     1
 90
        2
 40
0.6
 41
30.0
 62
     5
 63
     7
421
 16777215
 74
     0
 91
        0
 64
     7
 65
   257
 75
     1
175
     1
 42
1.0
 92
        0
 66
     7
 43
1.0
 76
     1
 77
     6
 78
     2
 67
     7
 79
     5
170
     0
171
     0
290
     0
174
     0
 93
       13
 44
0.0
173
     0
291
     1
 45
0.0
  0
VISUALSTYLE
  5
2E
102
{ACAD_REACTORS
330
2A
102
}
330
2A
100
AcDbVisualStyle
  2
GouraudWithEdges
 70
     3
 71
     2
 72
     2
 73
     1
 90
        2
 40
0.6
 41
30.0
 62
     5
 63
     7
421
 16777215
 74
     1
 91
        0
 64
     7
 65
   257
 75
     1
175
     1
 42
1.0
 92
        0
 66
   257
 43
1.0
 76
     1
 77
     6
 78
     2
 67
     7
 79
     5
170
     0
171
     0
290
     0
174
     0
 93
       13
 44
0.0
173
     0
291
     1
 45
0.0
  0
VISUALSTYLE
  5
31
102
{ACAD_REACTORS
330
2A
102
}
330
2A
100
AcDbVisualStyle
  2
Hidden
 70
     6
 71
     1
 72
     2
 73
     2
 90
        0
 40
0.6
 41
30.0
 62
     5
 63
     7
421
 16777215
 74
     2
 91
        2
 64
     7
 65
   257
 75
     2
175
     1
 42
40.0
 92
        0
 66
   257
 43
1.0
 76
     1
 77
     6
 78
     2
 67
     7
 79
     3
170
     0
171
     0
290
     0
174
     0
 93
        1
 44
0.0
173
     0
291
     0
 45
0.0
  0
VISUALSTYLE
  5
3B
102
{ACAD_REACTORS
330
2A
102
}
330
2A
100
AcDbVisualStyle
  2
JitterOff
 70
    20
 71
     2
 72
     2
 73
     0
 90
        0
 40
0.6
 41
30.0
 62
     5
 63
     7
421
 16777215
 74
     1
 91
        4
 64
     7
 65
   257
 75
     1
175
     1
 42
1.0
 92
       10
 66
     7
 43
1.0
 76
     1
 77
     6
 78
     2
 67
     7
 79
     5
170
     0
171
     0
290
     0
174
     0
 93
        1
 44
0.0
173
     0
291
     1
 45
0.0
  0
VISUALSTYLE
  5
38
102
{ACAD_REACTORS
330
2A
102
}
330
2A
100
AcDbVisualStyle
  2
Linepattern
 70
    14
 71
     2
 72
     2
 73
     0
 90
        0
 40
0.6
 41
30.0
 62
     5
 63
     7
421
 16777215
 74
     1
 91
        4
 64
     7
 65
   257
 75
     7
175
     7
 42
1.0
 92
        8
 66
     7
 43
1.0
 76
     1
 77
     6
 78
     2
 67
     7
 79
     5
170
     0
171
     0
290
     0
174
     0
 93
        1
 44
0.0
173
     0
291
     1
 45
0.0
  0
VISUALSTYLE
  5
3C
102
{ACAD_REACTORS
330
2A
102
}
330
2A
100
AcDbVisualStyle
  2
OverhangOff
 70
    21
 71
     2
 72
     2
 73
     0
 90
        0
 40
0.6
 41
30.0
 62
     5
 63
     7
421
 16777215
 74
     1
 91
        4
 64
     7
 65
   257
 75
     1
175
     1
 42
1.0
 92
        9
 66
     7
 43
1.0
 76
     1
 77
     6
 78
     2
 67
     7
 79
     5
170
     0
171
     0
290
     0
174
     0
 93
        1
 44
0.0
173
     0
291
     1
 45
0.0
  0
VISUALSTYLE
  5
33
102
{ACAD_REACTORS
330
2A
102
}
330
2A
100
AcDbVisualStyle
  2
Realistic
 70
     8
 71
     2
 72
     3
 73
     0
 90
        2
 40
0.6
 41
30.0
 62
     5
 63
     7
421
 16777215
 74
     0
 91
        0
 64
     7
 65
   257
 75
     1
175
     1
 42
1.0
 92
        8
 66
   257
 43
1.0
 76
     1
 77
     6
 78
     2
 67
     7
 79
     3
170
     0
171
     0
290
     0
174
     0
 93
       13
 44
0.0
173
     0
291
     0
 45
0.0
  0
VISUALSTYLE
  5
42
102
{ACAD_REACTORS
330
2A
102
}
330
2A
100
AcDbVisualStyle
  2
Shaded
 70
    27
 71
     2
 72
     2
 73
     1
 90
        2
 40
0.6
 41
30.0
 62
     5
 63
     7
421
 16777215
 74
     0
 91
        4
 64
     7
 65
   257
 75
     1
175
     1
 42
1.0
 92
        8
 66
   257
 43
1.0
 76
     1
 77
     6
 78
     2
 67
     8
425
  7895160
 79
     3
170
     0
171
     0
290
     0
174
     0
 93
        5
 44
0.0
173
     0
291
     0
 45
0.0
  0
VISUALSTYLE
  5
41
102
{ACAD_REACTORS
330
2A
102
}
330
2A
100
AcDbVisualStyle
  2
Shaded with edges
 70
    26
 71
     2
 72
     2
 73
     1
 90
        2
 40
0.6
 41
30.0
 62
     5
 63
     7
421
 16777215
 74
     1
 91
       10
 64
     7
 65
   257
 75
     2
175
     1
 42
1.0
 92
        8
 66
   257
 43
1.0
 76
     1
 77
     6
 78
     2
 67
     7
 79
     3
170
     0
171
     0
290
     0
174
     0
 93
        5
 44
0.0
173
     0
291
     0
 45
0.0
  0
VISUALSTYLE
  5
3E
102
{ACAD_REACTORS
330
2A
102
}
330
2A
100
AcDbVisualStyle
  2
Shades of Gray
 70
    23
 71
     2
 72
     2
 73
     3
 90
        0
 40
0.6
 41
30.0
 62
     5
 63
     7
421
 16777215
 74
     2
 91
        2
 64
     7
 65
     7
 75
     1
175
     1
 42
40.0
 92
        8
 66
     7
 43
1.0
 76
     1
 77
     6
 78
     2
 67
     7
 79
     3
170
     0
171
     0
290
     0
174
     0
 93
        1
 44
0.0
173
     0
291
     0
 45
0.0
  0
VISUALSTYLE
  5
3F
102
{ACAD_REACTORS
330
2A
102
}
330
2A
100
AcDbVisualStyle
  2
Sketchy
 70
    24
 71
     1
 72
     2
 73
     2
 90
        0
 40
0.6
 41
30.0
 62
     5
 63
     7
421
 16777215
 74
     2
 91
        2
 64
     7
 65
     7
 75
     1
175
     1
 42
40.0
 92
       11
 66
     7
 43
1.0
 76
     1
 77
     6
 78
     2
 67
     7
 79
     6
170
     0
171
     0
290
     0
174
     0
 93
        1
 44
0.0
173
     0
291
     0
 45
0.0
  0
VISUALSTYLE
  5
37
102
{ACAD_REACTORS
330
2A
102
}
330
2A
100
AcDbVisualStyle
  2
Thicken
 70
    13
 71
     2
 72
     2
 73
     0
 90
        0
 40
0.6
 41
30.0
 62
     5
 63
     7
421
 16777215
 74
     1
 91
        4
 64
     7
 65
   257
 75
     1
175
     1
 42
1.0
 92
       12
 66
     7
 43
1.0
 76
     1
 77
     6
 78
     2
 67
     7
 79
     5
170
     0
171
     0
290
     0
174
     0
 93
        1
 44
0.0
173
     0
291
     1
 45
0.0
  0
VISUALSTYLE
  5
30
102
{ACAD_REACTORS
330
2A
102
}
330
2A
100
AcDbVisualStyle
  2
Wireframe
 70
     5
 71
     0
 72
     2
 73
     0
 90
        0
 40
0.6
 41
30.0
 62
     5
 63
     7
421
 16777215
 74
     1
 91
        4
 64
     7
 65
   257
 75
     1
175
     1
 42
1.0
 92
        0
 66
   257
 43
1.0
 76
     1
 77
     6
 78
     2
 67
     7
 79
     3
170
     0
171
     0
290
     0
174
     0
 93
        1
 44
0.0
173
     0
291
     0
 45
0.0
  0
VISUALSTYLE
  5
40
102
{ACAD_REACTORS
330
2A
102
}
330
2A
100
AcDbVisualStyle
  2
X-Ray
 70
    25
 71
     2
 72
     2
 73
     1
 90
        1
 40
0.5
 41
30.0
 62
     5
 63
     7
421
 16777215
 74
     1
 91
        0
 64
     7
 65
   257
 75
     1
175
     1
 42
1.0
 92
        8
 66
     7
 43
1.0
 76
     1
 77
     6
 78
     2
 67
     7
 79
     3
170
     0
171
     0
290
     0
174
     0
 93
       13
 44
0.0
173
     0
291
     0
 45
0.0
  0
DICTIONARYVAR
  5
260
102
{ACAD_REACTORS
330
25F
102
}
330
25F
100
DictionaryVariables
280
     0
  1
1:1
  0
DICTIONARYVAR
  5
266
102
{ACAD_REACTORS
330
25F
102
}
330
25F
100
DictionaryVariables
280
     0
  1
Standard
  0
DICTIONARYVAR
  5
265
102
{ACAD_REACTORS
330
25F
102
}
330
25F
100
DictionaryVariables
280
     0
  1
Standard
  0
DICTIONARY
  5
261
330
6A
100
AcDbDictionary
280
     1
281
     1
  3
ACAD_ROUNDTRIP_2008_TABLESTYLE_CELLSTYLEMAP
360
262
  0
CELLSTYLEMAP
  5
262
102
{ACAD_REACTORS
330
261
102
}
330
261
100
AcDbCellStyleMap
 90
        3
300
CELLSTYLE
  1
TABLEFORMAT_BEGIN
 90
        5
170
     1
 91
        0
 92
    32768
 62
   257
 93
        1
300
CONTENTFORMAT
  1
CONTENTFORMAT_BEGIN
 90
        0
 91
        0
 92
        4
 93
        0
300

 40
0.0
140
1.0
 94
        5
 62
     0
340
11
144
6.0
309
CONTENTFORMAT_END
171
     1
301
MARGIN
  1
CELLMARGIN_BEGIN
 40
1.5
 40
1.5
 40
1.5
 40
1.5
 40
1.5
 40
1.5
309
CELLMARGIN_END
 94
        6
 95
        1
302
GRIDFORMAT
  1
GRIDFORMAT_BEGIN
 90
        0
 91
        1
 62
     0
 92
       -2
340
14
 93
        0
 40
0.045
309
GRIDFORMAT_END
 95
        2
302
GRIDFORMAT
  1
GRIDFORMAT_BEGIN
 90
        0
 91
        1
 62
     0
 92
       -2
340
14
 93
        0
 40
0.045
309
GRIDFORMAT_END
 95
        4
302
GRIDFORMAT
  1
GRIDFORMAT_BEGIN
 90
        0
 91
        1
 62
     0
 92
       -2
340
14
 93
        0
 40
0.045
309
GRIDFORMAT_END
 95
        8
302
GRIDFORMAT
  1
GRIDFORMAT_BEGIN
 90
        0
 91
        1
 62
     0
 92
       -2
340
14
 93
        0
 40
0.045
309
GRIDFORMAT_END
 95
       16
302
GRIDFORMAT
  1
GRIDFORMAT_BEGIN
 90
        0
 91
        1
 62
     0
 92
       -2
340
14
 93
        0
 40
0.045
309
GRIDFORMAT_END
 95
       32
302
GRIDFORMAT
  1
GRIDFORMAT_BEGIN
 90
        0
 91
        1
 62
     0
 92
       -2
340
14
 93
        0
 40
0.045
309
GRIDFORMAT_END
309
TABLEFORMAT_END
  1
CELLSTYLE_BEGIN
 90
        1
 91
        1
300
_TITLE
309
CELLSTYLE_END
300
CELLSTYLE
  1
TABLEFORMAT_BEGIN
 90
        5
170
     1
 91
        0
 92
        0
 62
   257
 93
        1
300
CONTENTFORMAT
  1
CONTENTFORMAT_BEGIN
 90
        0
 91
        0
 92
        4
 93
        0
300

 40
0.0
140
1.0
 94
        5
 62
     0
340
11
144
4.5
309
CONTENTFORMAT_END
171
     1
301
MARGIN
  1
CELLMARGIN_BEGIN
 40
1.5
 40
1.5
 40
1.5
 40
1.5
 40
1.5
 40
1.5
309
CELLMARGIN_END
 94
        6
 95
        1
302
GRIDFORMAT
  1
GRIDFORMAT_BEGIN
 90
        0
 91
        1
 62
     0
 92
       -2
340
14
 93
        0
 40
0.045
309
GRIDFORMAT_END
 95
        2
302
GRIDFORMAT
  1
GRIDFORMAT_BEGIN
 90
        0
 91
        1
 62
     0
 92
       -2
340
14
 93
        0
 40
0.045
309
GRIDFORMAT_END
 95
        4
302
GRIDFORMAT
  1
GRIDFORMAT_BEGIN
 90
        0
 91
        1
 62
     0
 92
       -2
340
14
 93
        0
 40
0.045
309
GRIDFORMAT_END
 95
        8
302
GRIDFORMAT
  1
GRIDFORMAT_BEGIN
 90
        0
 91
        1
 62
     0
 92
       -2
340
14
 93
        0
 40
0.045
309
GRIDFORMAT_END
 95
       16
302
GRIDFORMAT
  1
GRIDFORMAT_BEGIN
 90
        0
 91
        1
 62
     0
 92
       -2
340
14
 93
        0
 40
0.045
309
GRIDFORMAT_END
 95
       32
302
GRIDFORMAT
  1
GRIDFORMAT_BEGIN
 90
        0
 91
        1
 62
     0
 92
       -2
340
14
 93
        0
 40
0.045
309
GRIDFORMAT_END
309
TABLEFORMAT_END
  1
CELLSTYLE_BEGIN
 90
        2
 91
        1
300
_HEADER
309
CELLSTYLE_END
300
CELLSTYLE
  1
TABLEFORMAT_BEGIN
 90
        5
170
     1
 91
        0
 92
        0
 62
   257
 93
        1
300
CONTENTFORMAT
  1
CONTENTFORMAT_BEGIN
 90
        0
 91
        0
 92
        4
 93
        0
300

 40
0.0
140
1.0
 94
        2
 62
     0
340
11
144
4.5
309
CONTENTFORMAT_END
171
     1
301
MARGIN
  1
CELLMARGIN_BEGIN
 40
1.5
 40
1.5
 40
1.5
 40
1.5
 40
1.5
 40
1.5
309
CELLMARGIN_END
 94
        6
 95
        1
302
GRIDFORMAT
  1
GRIDFORMAT_BEGIN
 90
        0
 91
        1
 62
     0
 92
       -2
340
14
 93
        0
 40
0.045
309
GRIDFORMAT_END
 95
        2
302
GRIDFORMAT
  1
GRIDFORMAT_BEGIN
 90
        0
 91
        1
 62
     0
 92
       -2
340
14
 93
        0
 40
0.045
309
GRIDFORMAT_END
 95
        4
302
GRIDFORMAT
  1
GRIDFORMAT_BEGIN
 90
        0
 91
        1
 62
     0
 92
       -2
340
14
 93
        0
 40
0.045
309
GRIDFORMAT_END
 95
        8
302
GRIDFORMAT
  1
GRIDFORMAT_BEGIN
 90
        0
 91
        1
 62
     0
 92
       -2
340
14
 93
        0
 40
0.045
309
GRIDFORMAT_END
 95
       16
302
GRIDFORMAT
  1
GRIDFORMAT_BEGIN
 90
        0
 91
        1
 62
     0
 92
       -2
340
14
 93
        0
 40
0.045
309
GRIDFORMAT_END
 95
       32
302
GRIDFORMAT
  1
GRIDFORMAT_BEGIN
 90
        0
 91
        1
 62
     0
 92
       -2
340
14
 93
        0
 40
0.045
309
GRIDFORMAT_END
309
TABLEFORMAT_END
  1
CELLSTYLE_BEGIN
 90
        3
 91
        2
300
_DATA
309
CELLSTYLE_END
  0
ENDSEC
  0
EOF
