  0
SECTION
  2
HEADER
  9
$ACADVER
  1
AC1015
  9
$ACADMAINTVER
 70
     6
  9
$DWGCODEPAGE
  3
ANSI_1250
  9
$INSBASE
 10
0.0
 20
0.0
 30
0.0
  9
$EXTMIN
 10
0.0
 20
0.0
 30
0.0
  9
$EXTMAX
 10
0.4318
 20
0.2794
 30
0.0
  9
$LIMMIN
 10
0.0
 20
0.0
  9
$LIMMAX
 10
0.4318
 20
0.2794
  9
$ORTHOMODE
 70
     0
  9
$REGENMODE
 70
     1
  9
$FILLMODE
 70
     1
  9
$QTEXTMODE
 70
     0
  9
$MIRRTEXT
 70
     1
  9
$LTSCALE
 40
1.0
  9
$ATTMODE
 70
     1
  9
$TEXTSIZE
 40
0.0035
  9
$TRACEWID
 40
1.0
  9
$TEXTSTYLE
  7
Standard
  9
$CLAYER
  8
0
  9
$CELTYPE
  6
ByLayer
  9
$CECOLOR
 62
   256
  9
$CELTSCALE
 40
1.0
  9
$DISPSILH
 70
     0
  9
$DIMSCALE
 40
1.0
  9
$DIMASZ
 40
0.003302
  9
$DIMEXO
 40
0.001
  9
$DIMDLI
 40
3.75
  9
$DIMRND
 40
0.0
  9
$DIMDLE
 40
0.0
  9
$DIMEXE
 40
0.001
  9
$DIMTP
 40
0.0
  9
$DIMTM
 40
0.0
  9
$DIMTXT
 40
0.0035
  9
$DIMCEN
 40
2.5
  9
$DIMTSZ
 40
0.0
  9
$DIMTOL
 70
     0
  9
$DIMLIM
 70
     0
  9
$DIMTIH
 70
     1
  9
$DIMTOH
 70
     1
  9
$DIMSE1
 70
     0
  9
$DIMSE2
 70
     0
  9
$DIMTAD
 70
     1
  9
$DIMZIN
 70
     0
  9
$DIMBLK
  1

  9
$DIMASO
 70
     1
  9
$DIMSHO
 70
     1
  9
$DIMPOST
  1

  9
$DIMAPOST
  1

  9
$DIMALT
 70
     0
  9
$DIMALTD
 70
     3
  9
$DIMALTF
 40
39.3700787402
  9
$DIMLFAC
 40
1.0
  9
$DIMTOFL
 70
     1
  9
$DIMTVP
 40
0.0
  9
$DIMTIX
 70
     0
  9
$DIMSOXD
 70
     0
  9
$DIMSAH
 70
     0
  9
$DIMBLK1
  1

  9
$DIMBLK2
  1

  9
$DIMSTYLE
  2
ISO-25
  9
$DIMCLRD
 70
     0
  9
$DIMCLRE
 70
     0
  9
$DIMCLRT
 70
     0
  9
$DIMTFAC
 40
1.0
  9
$DIMGAP
 40
0.001524
  9
$DIMJUST
 70
     0
  9
$DIMSD1
 70
     0
  9
$DIMSD2
 70
     0
  9
$DIMTOLJ
 70
     0
  9
$DIMTZIN
 70
     0
  9
$DIMALTZ
 70
     0
  9
$DIMALTTZ
 70
     0
  9
$DIMUPT
 70
     0
  9
$DIMDEC
 70
     2
  9
$DIMTDEC
 70
     2
  9
$DIMALTU
 70
     2
  9
$DIMALTTD
 70
     3
  9
$DIMTXSTY
  7
Standard
  9
$DIMAUNIT
 70
     0
  9
$DIMADEC
 70
     2
  9
$DIMALTRND
 40
0.0
  9
$DIMAZIN
 70
     0
  9
$DIMDSEP
 70
    44
  9
$DIMATFIT
 70
     3
  9
$DIMFRAC
 70
     0
  9
$DIMLDRBLK
  1

  9
$DIMLUNIT
 70
     2
  9
$DIMLWD
 70
    -2
  9
$DIMLWE
 70
    -2
  9
$DIMTMOVE
 70
     0
  9
$LUNITS
 70
     2
  9
$LUPREC
 70
     2
  9
$SKETCHINC
 40
1.0
  9
$FILLETRAD
 40
10.0
  9
$AUNITS
 70
     0
  9
$AUPREC
 70
     2
  9
$MENU
  1
.
  9
$ELEVATION
 40
0.0
  9
$PELEVATION
 40
0.0
  9
$THICKNESS
 40
0.0
  9
$LIMCHECK
 70
     0
  9
$CHAMFERA
 40
0.0
  9
$CHAMFERB
 40
0.0
  9
$CHAMFERC
 40
0.0
  9
$CHAMFERD
 40
0.0
  9
$SKPOLY
 70
     0
  9
$TDCREATE
 40
2458715.51785838
  9
$TDUCREATE
 40
2458715.434525046
  9
$TDUPDATE
 40
2458715.517859653
  9
$TDUUPDATE
 40
2458715.43452632
  9
$TDINDWG
 40
0.0000000116
  9
$TDUSRTIMER
 40
0.0000000116
  9
$USRTIMER
 70
     1
  9
$ANGBASE
 50
0.0
  9
$ANGDIR
 70
     0
  9
$PDMODE
 70
     0
  9
$PDSIZE
 40
-1.0
  9
$PLINEWID
 40
0.0
  9
$SPLFRAME
 70
     0
  9
$SPLINETYPE
 70
     6
  9
$SPLINESEGS
 70
     8
  9
$HANDSEED
  5
347
  9
$SURFTAB1
 70
     6
  9
$SURFTAB2
 70
     6
  9
$SURFTYPE
 70
     6
  9
$SURFU
 70
     6
  9
$SURFV
 70
     6
  9
$UCSBASE
  2

  9
$UCSNAME
  2

  9
$UCSORG
 10
0.0
 20
0.0
 30
0.0
  9
$UCSXDIR
 10
1.0
 20
0.0
 30
0.0
  9
$UCSYDIR
 10
0.0
 20
1.0
 30
0.0
  9
$UCSORTHOREF
  2

  9
$UCSORTHOVIEW
 70
     0
  9
$UCSORGTOP
 10
0.0
 20
0.0
 30
0.0
  9
$UCSORGBOTTOM
 10
0.0
 20
0.0
 30
0.0
  9
$UCSORGLEFT
 10
0.0
 20
0.0
 30
0.0
  9
$UCSORGRIGHT
 10
0.0
 20
0.0
 30
0.0
  9
$UCSORGFRONT
 10
0.0
 20
0.0
 30
0.0
  9
$UCSORGBACK
 10
0.0
 20
0.0
 30
0.0
  9
$PUCSBASE
  2

  9
$PUCSNAME
  2

  9
$PUCSORG
 10
0.0
 20
0.0
 30
0.0
  9
$PUCSXDIR
 10
1.0
 20
0.0
 30
0.0
  9
$PUCSYDIR
 10
0.0
 20
1.0
 30
0.0
  9
$PUCSORTHOREF
  2

  9
$PUCSORTHOVIEW
 70
     0
  9
$PUCSORGTOP
 10
0.0
 20
0.0
 30
0.0
  9
$PUCSORGBOTTOM
 10
0.0
 20
0.0
 30
0.0
  9
$PUCSORGLEFT
 10
0.0
 20
0.0
 30
0.0
  9
$PUCSORGRIGHT
 10
0.0
 20
0.0
 30
0.0
  9
$PUCSORGFRONT
 10
0.0
 20
0.0
 30
0.0
  9
$PUCSORGBACK
 10
0.0
 20
0.0
 30
0.0
  9
$USERI1
 70
     0
  9
$USERI2
 70
     0
  9
$USERI3
 70
     0
  9
$USERI4
 70
     0
  9
$USERI5
 70
     0
  9
$USERR1
 40
0.0
  9
$USERR2
 40
0.0
  9
$USERR3
 40
0.0
  9
$USERR4
 40
0.0
  9
$USERR5
 40
0.0
  9
$WORLDVIEW
 70
     1
  9
$SHADEDGE
 70
     3
  9
$SHADEDIF
 70
    70
  9
$TILEMODE
 70
     1
  9
$MAXACTVP
 70
    64
  9
$PINSBASE
 10
0.0
 20
0.0
 30
0.0
  9
$PLIMCHECK
 70
     0
  9
$PEXTMIN
 10
1.0000000000E+20
 20
1.0000000000E+20
 30
1.0000000000E+20
  9
$PEXTMAX
 10
-1.0000000000E+20
 20
-1.0000000000E+20
 30
-1.0000000000E+20
  9
$PLIMMIN
 10
0.0
 20
0.0
  9
$PLIMMAX
 10
420.0
 20
297.0
  9
$UNITMODE
 70
     0
  9
$VISRETAIN
 70
     1
  9
$PLINEGEN
 70
     0
  9
$PSLTSCALE
 70
     1
  9
$TREEDEPTH
 70
  3020
  9
$CMLSTYLE
  2
Standard
  9
$CMLJUST
 70
     0
  9
$CMLSCALE
 40
20.0
  9
$PROXYGRAPHICS
 70
     1
  9
$MEASUREMENT
 70
     1
  9
$CELWEIGHT
370
    -1
  9
$ENDCAPS
280
     0
  9
$JOINSTYLE
280
     0
  9
$LWDISPLAY
290
     1
  9
$INSUNITS
 70
     4
  9
$HYPERLINKBASE
  1

  9
$STYLESHEET
  1

  9
$XEDIT
290
     1
  9
$CEPSNTYPE
380
     0
  9
$PSTYLEMODE
290
     1
  9
$FINGERPRINTGUID
  2
{107D8469-8A14-482A-BF47-6E96E2826AED}
  9
$VERSIONGUID
  2
{FAEB1C32-E019-11D5-929B-00C0DF256EC4}
  9
$EXTNAMES
290
     1
  9
$PSVPSCALE
 40
0.0
  9
$OLESTARTUP
290
     0
  0
ENDSEC
  0
SECTION
  2
CLASSES
  0
CLASS
  1
ACDBDICTIONARYWDFLT
  2
AcDbDictionaryWithDefault
  3
ObjectDBX Classes
 90
        0
280
     0
281
     0
  0
CLASS
  1
VISUALSTYLE
  2
AcDbVisualStyle
  3
ObjectDBX Classes
 90
     4095
280
     0
281
     0
  0
CLASS
  1
MATERIAL
  2
AcDbMaterial
  3
ObjectDBX Classes
 90
     1153
280
     0
281
     0
  0
CLASS
  1
SCALE
  2
AcDbScale
  3
ObjectDBX Classes
 90
     1153
280
     0
281
     0
  0
CLASS
  1
TABLESTYLE
  2
AcDbTableStyle
  3
ObjectDBX Classes
 90
     4095
280
     0
281
     0
  0
CLASS
  1
MLEADERSTYLE
  2
AcDbMLeaderStyle
  3
ACDB_MLEADERSTYLE_CLASS
 90
     4095
280
     0
281
     0
  0
CLASS
  1
SUN
  2
AcDbSun
  3
SCENEOE
 90
     1153
280
     0
281
     0
  0
CLASS
  1
ACDBPLACEHOLDER
  2
AcDbPlaceHolder
  3
ObjectDBX Classes
 90
        0
280
     0
281
     0
  0
CLASS
  1
LAYOUT
  2
AcDbLayout
  3
ObjectDBX Classes
 90
        0
280
     0
281
     0
  0
ENDSEC
  0
SECTION
  2
TABLES
  0
TABLE
  2
VPORT
  5
8
330
0
100
AcDbSymbolTable
 70
     1
  0
VPORT
  5
29
330
8
100
AcDbSymbolTableRecord
100
AcDbViewportTableRecord
  2
*Active
 70
     0
 10
0.0
 20
0.0
 11
1.0
 21
1.0
 12
0.2159
 22
0.1397
 13
0.0
 23
0.0
 14
10.0
 24
10.0
 15
10.0
 25
10.0
 16
0.0
 26
0.0
 36
1.0
 17
0.0
 27
0.0
 37
0.0
 40
0.2794
 41
1.5454545455
 42
50.0
 43
0.0
 44
0.0
 50
0.0
 51
0.0
 71
     0
 72
  2000
 73
     1
 74
     3
 75
     0
 76
     0
 77
     0
 78
     0
281
     0
 65
     1
110
0.0
120
0.0
130
0.0
111
1.0
121
0.0
131
0.0
112
0.0
122
1.0
132
0.0
 79
     0
146
0.0
  0
ENDTAB
  0
TABLE
  2
LTYPE
  5
5
330
0
100
AcDbSymbolTable
 70
     6
  0
LTYPE
  5
14
330
5
100
AcDbSymbolTableRecord
100
AcDbLinetypeTableRecord
  2
ByBlock
 70
     0
  3

 72
    65
 73
     0
 40
0.0
  0
LTYPE
  5
15
330
5
100
AcDbSymbolTableRecord
100
AcDbLinetypeTableRecord
  2
ByLayer
 70
     0
  3

 72
    65
 73
     0
 40
0.0
  0
LTYPE
  5
16
330
5
100
AcDbSymbolTableRecord
100
AcDbLinetypeTableRecord
  2
Continuous
 70
     0
  3
Solid line
 72
    65
 73
     0
 40
0.0
  0
LTYPE
  5
6E
330
5
100
AcDbSymbolTableRecord
100
AcDbLinetypeTableRecord
  2
HIDDEN
 70
     0
  3
Hidden __ __ __ __ __ __ __ __ __ __ __ __ __ __
 72
    65
 73
     2
 40
0.001905
 49
0.00127
 74
     0
 49
-0.000635
 74
     0
  0
LTYPE
  5
6F
330
5
100
AcDbSymbolTableRecord
100
AcDbLinetypeTableRecord
  2
PHANTOM
 70
     0
  3
Phantom ______  __  __  ______  __  __  ______
 72
    65
 73
     6
 40
0.0127
 49
0.00635
 74
     0
 49
-0.00127
 74
     0
 49
0.00127
 74
     0
 49
-0.00127
 74
     0
 49
0.00127
 74
     0
 49
-0.00127
 74
     0
  0
LTYPE
  5
70
330
5
100
AcDbSymbolTableRecord
100
AcDbLinetypeTableRecord
  2
CENTER
 70
     0
  3
Center ____ _ ____ _ ____ _ ____ _ ____ _ ____
 72
    65
 73
     4
 40
0.01016
 49
0.00635
 74
     0
 49
-0.00127
 74
     0
 49
0.00127
 74
     0
 49
-0.00127
 74
     0
  0
LTYPE
  5
71
330
5
100
AcDbSymbolTableRecord
100
AcDbLinetypeTableRecord
  2
CENTERX2
 70
     0
  3
Center (2x) ________  __  ________  __  _____
 72
    65
 73
     4
 40
0.02032
 49
0.0127
 74
     0
 49
-0.00254
 74
     0
 49
0.00254
 74
     0
 49
-0.00254
 74
     0
  0
LTYPE
  5
72
330
5
100
AcDbSymbolTableRecord
100
AcDbLinetypeTableRecord
  2
DOT2
 70
     0
  3
Dot (.5x) ........................................
 72
    65
 73
     2
 40
0.000635
 49
0.0
 74
     0
 49
-0.000635
 74
     0
  0
ENDTAB
  0
TABLE
  2
LAYER
  5
2
330
0
100
AcDbSymbolTable
 70
     1
  0
LAYER
  5
10
330
2
100
AcDbSymbolTableRecord
100
AcDbLayerTableRecord
  2
0
 70
     0
 62
     7
  6
Continuous
370
    -3
390
F
  0
ENDTAB
  0
TABLE
  2
STYLE
  5
3
330
0
100
AcDbSymbolTable
 70
     1
  0
STYLE
  5
11
330
3
100
AcDbSymbolTableRecord
100
AcDbTextStyleTableRecord
  2
Standard
 70
     0
 40
0.0
 41
1.0
 50
0.0
 71
     0
 42
0.0035
  3
txt
  4

  0
ENDTAB
  0
TABLE
  2
VIEW
  5
6
330
0
100
AcDbSymbolTable
 70
     0
  0
ENDTAB
  0
TABLE
  2
UCS
  5
7
330
0
100
AcDbSymbolTable
 70
     0
  0
ENDTAB
  0
TABLE
  2
APPID
  5
9
330
0
100
AcDbSymbolTable
 70
     1
  0
APPID
  5
12
330
9
100
AcDbSymbolTableRecord
100
AcDbRegAppTableRecord
  2
ACAD
 70
     0
  0
ENDTAB
  0
TABLE
  2
DIMSTYLE
  5
A
330
0
100
AcDbSymbolTable
 70
     1
100
AcDbDimStyleTable
  0
DIMSTYLE
105
27
330
A
100
AcDbSymbolTableRecord
100
AcDbDimStyleTableRecord
  2
ISO-25
 70
     0
 41
2.5
 42
0.625
 43
3.75
 44
1.25
 73
     0
 74
     0
 77
     1
 78
     8
140
2.5
141
2.5
143
0.0393700787
147
0.625
171
     3
172
     1
178
     0
271
     2
272
     2
274
     3
278
    44
283
     0
284
     8
340
11
  0
ENDTAB
  0
TABLE
  2
BLOCK_RECORD
  5
1
330
0
100
AcDbSymbolTable
 70
     1
  0
BLOCK_RECORD
  5
1F
330
1
100
AcDbSymbolTableRecord
100
AcDbBlockTableRecord
  2
*Model_Space
340
22
  0
BLOCK_RECORD
  5
1B
330
1
100
AcDbSymbolTableRecord
100
AcDbBlockTableRecord
  2
*Paper_Space
340
1E
  0
BLOCK_RECORD
  5
23
330
1
100
AcDbSymbolTableRecord
100
AcDbBlockTableRecord
  2
*Paper_Space0
340
26
  0
ENDTAB
  0
ENDSEC
  0
SECTION
  2
BLOCKS
  0
BLOCK
  5
20
330
1F
100
AcDbEntity
  8
0
100
AcDbBlockBegin
  2
*Model_Space
 70
     0
 10
0.0
 20
0.0
 30
0.0
  3
*Model_Space
  1

  0
ENDBLK
  5
21
330
1F
100
AcDbEntity
  8
0
100
AcDbBlockEnd
  0
BLOCK
  5
1C
330
1B
100
AcDbEntity
 67
     1
  8
0
100
AcDbBlockBegin
  2
*Paper_Space
 70
     0
 10
0.0
 20
0.0
 30
0.0
  3
*Paper_Space
  1

  0
ENDBLK
  5
1D
330
1B
100
AcDbEntity
 67
     1
  8
0
100
AcDbBlockEnd
  0
BLOCK
  5
24
330
23
100
AcDbEntity
  8
0
100
AcDbBlockBegin
  2
*Paper_Space0
 70
     0
 10
0.0
 20
0.0
 30
0.0
  3
*Paper_Space0
  1

  0
ENDBLK
  5
25
330
23
100
AcDbEntity
  8
0
100
AcDbBlockEnd
  0
ENDSEC
  0
SECTION
  2
ENTITIES
  0
ARC
  5
73
330
1F
100
AcDbEntity
  8
0
  6
Continuous
 62
     7
370
    25
100
AcDbCircle
 10
1.292313078
 20
-0.9465370467
 30
0.0
 40
0.0211922721733765
100
AcDbArc
 50
270.0
 51
336.7956588034
  0
ARC
  5
74
330
1F
100
AcDbEntity
  8
0
  6
Continuous
 62
     7
370
    25
100
AcDbCircle
 10
1.292313078
 20
-0.9465370467
 30
0.0
 40
0.0211922721733765
100
AcDbArc
 50
23.2043411966
 51
66.7956588034
  0
ARC
  5
75
330
1F
100
AcDbEntity
  8
0
  6
Continuous
 62
     7
370
    25
100
AcDbCircle
 10
1.292313078
 20
-0.9465370467
 30
0.0
 40
0.0211922721733763
100
AcDbArc
 50
113.2043411966
 51
156.7956588034
  0
ARC
  5
76
330
1F
100
AcDbEntity
  8
0
  6
Continuous
 62
     7
370
    25
100
AcDbCircle
 10
1.292313078
 20
-0.9465370467
 30
0.0
 40
0.0211922721733765
100
AcDbArc
 50
203.2043411966
 51
270.0
  0
ARC
  5
77
330
1F
100
AcDbEntity
  8
0
  6
Continuous
 62
     7
370
    25
100
AcDbCircle
 10
1.584313078
 20
-1.4243449474
 30
0.0
 40
0.0211922721733765
100
AcDbArc
 50
270.0
 51
336.7956588034
  0
ARC
  5
78
330
1F
100
AcDbEntity
  8
0
  6
Continuous
 62
     7
370
    25
100
AcDbCircle
 10
1.584313078
 20
-1.4243449474
 30
0.0
 40
0.0211922721733765
100
AcDbArc
 50
23.2043411966
 51
79.361081282
  0
ARC
  5
79
330
1F
100
AcDbEntity
  8
0
  6
Continuous
 62
     7
370
    25
100
AcDbCircle
 10
1.584313078
 20
-1.4243449474
 30
0.0
 40
0.0211922721733765
100
AcDbArc
 50
125.7697636753
 51
156.7956588034
  0
ARC
  5
7A
330
1F
100
AcDbEntity
  8
0
  6
Continuous
 62
     7
370
    25
100
AcDbCircle
 10
1.584313078
 20
-1.4243449474
 30
0.0
 40
0.0211922721733765
100
AcDbArc
 50
203.2043411966
 51
270.0
  0
ARC
  5
7B
330
1F
100
AcDbEntity
  8
0
  6
Continuous
 62
     7
370
    25
100
AcDbCircle
 10
1.658313078
 20
-0.9465370467
 30
0.0
 40
0.0211922721733765
100
AcDbArc
 50
270.0
 51
89.3044081207
  0
ARC
  5
7C
330
1F
100
AcDbEntity
  8
0
  6
Continuous
 62
     7
370
    25
100
AcDbCircle
 10
1.658313078
 20
-0.9465370467
 30
0.0
 40
0.0211922721733765
100
AcDbArc
 50
135.713090514
 51
156.7956588034
  0
ARC
  5
7D
330
1F
100
AcDbEntity
  8
0
  6
Continuous
 62
     7
370
    25
100
AcDbCircle
 10
1.658313078
 20
-0.9465370467
 30
0.0
 40
0.0211922721733764
100
AcDbArc
 50
203.2043411966
 51
270.0
  0
ARC
  5
7E
330
1F
100
AcDbEntity
  8
0
  6
Continuous
 62
     7
370
    25
100
AcDbCircle
 10
1.292313078
 20
-1.1058063469
 30
0.0
 40
0.0211922721733765
100
AcDbArc
 50
265.4278414763
 51
336.7956588034
  0
ARC
  5
7F
330
1F
100
AcDbEntity
  8
0
  6
Continuous
 62
     7
370
    25
100
AcDbCircle
 10
1.292313078
 20
-1.1058063469
 30
0.0
 40
0.0211922721733765
100
AcDbArc
 50
23.2043411966
 51
66.7956588034
  0
ARC
  5
80
330
1F
100
AcDbEntity
  8
0
  6
Continuous
 62
     7
370
    25
100
AcDbCircle
 10
1.292313078
 20
-1.1058063469
 30
0.0
 40
0.0211922721733765
100
AcDbArc
 50
113.2043411966
 51
156.7956588034
  0
ARC
  5
81
330
1F
100
AcDbEntity
  8
0
  6
Continuous
 62
     7
370
    25
100
AcDbCircle
 10
1.292313078
 20
-1.1058063469
 30
0.0
 40
0.0211922721733765
100
AcDbArc
 50
203.2043411966
 51
265.4278414763
  0
ARC
  5
82
330
1F
100
AcDbEntity
  8
0
  6
Continuous
 62
     7
370
    25
100
AcDbCircle
 10
1.292313078
 20
-1.2650756472
 30
0.0
 40
0.0211922721733765
100
AcDbArc
 50
240.7981303329
 51
336.7956588034
  0
ARC
  5
83
330
1F
100
AcDbEntity
  8
0
  6
Continuous
 62
     7
370
    25
100
AcDbCircle
 10
1.292313078
 20
-1.2650756472
 30
0.0
 40
0.0211922721733765
100
AcDbArc
 50
23.2043411966
 51
66.7956588034
  0
ARC
  5
84
330
1F
100
AcDbEntity
  8
0
  6
Continuous
 62
     7
370
    25
100
AcDbCircle
 10
1.292313078
 20
-1.2650756472
 30
0.0
 40
0.0211922721733765
100
AcDbArc
 50
113.2043411966
 51
156.7956588034
  0
ARC
  5
85
330
1F
100
AcDbEntity
  8
0
  6
Continuous
 62
     7
370
    25
100
AcDbCircle
 10
1.292313078
 20
-1.2650756472
 30
0.0
 40
0.0211922721733765
100
AcDbArc
 50
203.2043411966
 51
240.7981303329
  0
ARC
  5
86
330
1F
100
AcDbEntity
  8
0
  6
Continuous
 62
     7
370
    25
100
AcDbCircle
 10
1.513313078
 20
-1.1058063469
 30
0.0
 40
0.0211922721733765
100
AcDbArc
 50
270.0
 51
336.7956588034
  0
ARC
  5
87
330
1F
100
AcDbEntity
  8
0
  6
Continuous
 62
     7
370
    25
100
AcDbCircle
 10
1.513313078
 20
-1.1058063469
 30
0.0
 40
0.0211922721733765
100
AcDbArc
 50
23.2043411966
 51
156.7956588034
  0
ARC
  5
88
330
1F
100
AcDbEntity
  8
0
  6
Continuous
 62
     7
370
    25
100
AcDbCircle
 10
1.513313078
 20
-1.1058063469
 30
0.0
 40
0.0211922721733765
100
AcDbArc
 50
203.2043411966
 51
270.0
  0
ARC
  5
89
330
1F
100
AcDbEntity
  8
0
  6
Continuous
 62
     7
370
    25
100
AcDbCircle
 10
0.728313078
 20
-1.4243449474
 30
0.0
 40
0.0211922721733765
100
AcDbArc
 50
270.0
 51
336.7956588034
  0
ARC
  5
8A
330
1F
100
AcDbEntity
  8
0
  6
Continuous
 62
     7
370
    25
100
AcDbCircle
 10
0.728313078
 20
-1.4243449474
 30
0.0
 40
0.0211922721733765
100
AcDbArc
 50
23.2043411966
 51
44.286909486
  0
ARC
  5
8B
330
1F
100
AcDbEntity
  8
0
  6
Continuous
 62
     7
370
    25
100
AcDbCircle
 10
0.728313078
 20
-1.4243449474
 30
0.0
 40
0.0211922721733765
100
AcDbArc
 50
90.6955918793
 51
270.0
  0
ARC
  5
8C
330
1F
100
AcDbEntity
  8
0
  6
Continuous
 62
     7
370
    25
100
AcDbCircle
 10
0.926313078
 20
-0.9465370467
 30
0.0
 40
0.0211922721733765
100
AcDbArc
 50
270.0
 51
336.7956588034
  0
ARC
  5
8D
330
1F
100
AcDbEntity
  8
0
  6
Continuous
 62
     7
370
    25
100
AcDbCircle
 10
0.926313078
 20
-0.9465370467
 30
0.0
 40
0.0211922721733763
100
AcDbArc
 50
23.2043411966
 51
44.286909486
  0
ARC
  5
8E
330
1F
100
AcDbEntity
  8
0
  6
Continuous
 62
     7
370
    25
100
AcDbCircle
 10
0.926313078
 20
-0.9465370467
 30
0.0
 40
0.0211922721733765
100
AcDbArc
 50
90.6955918793
 51
270.0
  0
ARC
  5
8F
330
1F
100
AcDbEntity
  8
0
  6
Continuous
 62
     7
370
    25
100
AcDbCircle
 10
1.724313078
 20
-1.1058063469
 30
0.0
 40
0.0211922721733765
100
AcDbArc
 50
328.9598821538
 51
89.3044081207
  0
ARC
  5
90
330
1F
100
AcDbEntity
  8
0
  6
Continuous
 62
     7
370
    25
100
AcDbCircle
 10
1.724313078
 20
-1.1058063469
 30
0.0
 40
0.0211922721733766
100
AcDbArc
 50
135.713090514
 51
156.7956588034
  0
ARC
  5
91
330
1F
100
AcDbEntity
  8
0
  6
Continuous
 62
     7
370
    25
100
AcDbCircle
 10
1.724313078
 20
-1.1058063469
 30
0.0
 40
0.0211922721733765
100
AcDbArc
 50
203.2043411966
 51
328.9598821538
  0
ARC
  5
92
330
1F
100
AcDbEntity
  8
0
  6
Continuous
 62
     7
370
    25
100
AcDbCircle
 10
0.860313078
 20
-1.1058063469
 30
0.0
 40
0.0211922721733765
100
AcDbArc
 50
270.0
 51
336.7956588034
  0
ARC
  5
93
330
1F
100
AcDbEntity
  8
0
  6
Continuous
 62
     7
370
    25
100
AcDbCircle
 10
0.860313078
 20
-1.1058063469
 30
0.0
 40
0.0211922721733766
100
AcDbArc
 50
23.2043411966
 51
44.286909486
  0
ARC
  5
94
330
1F
100
AcDbEntity
  8
0
  6
Continuous
 62
     7
370
    25
100
AcDbCircle
 10
0.860313078
 20
-1.1058063469
 30
0.0
 40
0.0211922721733765
100
AcDbArc
 50
90.6955918793
 51
270.0
  0
ARC
  5
95
330
1F
100
AcDbEntity
  8
0
  6
Continuous
 62
     7
370
    25
100
AcDbCircle
 10
0.794313078
 20
-1.2650756472
 30
0.0
 40
0.0211922721733765
100
AcDbArc
 50
270.0
 51
336.7956588034
  0
ARC
  5
96
330
1F
100
AcDbEntity
  8
0
  6
Continuous
 62
     7
370
    25
100
AcDbCircle
 10
0.794313078
 20
-1.2650756472
 30
0.0
 40
0.0211922721733765
100
AcDbArc
 50
23.2043411966
 51
44.286909486
  0
ARC
  5
97
330
1F
100
AcDbEntity
  8
0
  6
Continuous
 62
     7
370
    25
100
AcDbCircle
 10
0.794313078
 20
-1.2650756472
 30
0.0
 40
0.0211922721733765
100
AcDbArc
 50
90.6955918793
 51
270.0
  0
ARC
  5
98
330
1F
100
AcDbEntity
  8
0
  6
Continuous
 62
     7
370
    25
100
AcDbCircle
 10
1.0862396117
 20
-1.1058063469
 30
0.0
 40
0.0211922721733765
100
AcDbArc
 50
270.0
 51
336.7956588034
  0
ARC
  5
99
330
1F
100
AcDbEntity
  8
0
  6
Continuous
 62
     7
370
    25
100
AcDbCircle
 10
1.0862396117
 20
-1.1058063469
 30
0.0
 40
0.0211922721733765
100
AcDbArc
 50
23.2043411966
 51
156.7956588034
  0
ARC
  5
9A
330
1F
100
AcDbEntity
  8
0
  6
Continuous
 62
     7
370
    25
100
AcDbCircle
 10
1.0862396117
 20
-1.1058063469
 30
0.0
 40
0.0211922721733765
100
AcDbArc
 50
203.2043411966
 51
270.0
  0
ARC
  5
9B
330
1F
100
AcDbEntity
  8
0
  6
Continuous
 62
     7
370
    25
100
AcDbCircle
 10
1.292313078
 20
-1.4243449474
 30
0.0
 40
0.0211922721733765
100
AcDbArc
 50
270.0
 51
336.7956588034
  0
ARC
  5
9C
330
1F
100
AcDbEntity
  8
0
  6
Continuous
 62
     7
370
    25
100
AcDbCircle
 10
1.292313078
 20
-1.4243449474
 30
0.0
 40
0.0211922721733765
100
AcDbArc
 50
23.2043411966
 51
66.7956588034
  0
ARC
  5
9D
330
1F
100
AcDbEntity
  8
0
  6
Continuous
 62
     7
370
    25
100
AcDbCircle
 10
1.292313078
 20
-1.4243449474
 30
0.0
 40
0.0211922721733765
100
AcDbArc
 50
113.2043411966
 51
156.7956588034
  0
ARC
  5
9E
330
1F
100
AcDbEntity
  8
0
  6
Continuous
 62
     7
370
    25
100
AcDbCircle
 10
1.292313078
 20
-1.4243449474
 30
0.0
 40
0.0211922721733765
100
AcDbArc
 50
203.2043411966
 51
270.0
  0
ARC
  5
9F
330
1F
100
AcDbEntity
  8
0
  6
Continuous
 62
     7
370
    25
100
AcDbCircle
 10
1.0432763448
 20
-1.2650756472
 30
0.0
 40
0.0211922721733762
100
AcDbArc
 50
230.0741516343
 51
336.7956588034
  0
ARC
  5
A0
330
1F
100
AcDbEntity
  8
0
  6
Continuous
 62
     7
370
    25
100
AcDbCircle
 10
1.0432763448
 20
-1.2650756472
 30
0.0
 40
0.0211922721733765
100
AcDbArc
 50
23.2043411966
 51
51.6993100834
  0
ARC
  5
A1
330
1F
100
AcDbEntity
  8
0
  6
Continuous
 62
     7
370
    25
100
AcDbCircle
 10
1.0432763448
 20
-1.2650756472
 30
0.0
 40
0.0211922721733765
100
AcDbArc
 50
98.1079924767
 51
156.7956588034
  0
ARC
  5
A2
330
1F
100
AcDbEntity
  8
0
  6
Continuous
 62
     7
370
    25
100
AcDbCircle
 10
1.0432763448
 20
-1.2650756472
 30
0.0
 40
0.0211922721733765
100
AcDbArc
 50
203.2043411966
 51
230.0741516343
  0
ARC
  5
A3
330
1F
100
AcDbEntity
  8
0
  6
Continuous
 62
     7
370
    25
100
AcDbCircle
 10
1.790313078
 20
-1.2650756472
 30
0.0
 40
0.0211922721733765
100
AcDbArc
 50
328.8509160898
 51
89.3044081207
  0
ARC
  5
A4
330
1F
100
AcDbEntity
  8
0
  6
Continuous
 62
     7
370
    25
100
AcDbCircle
 10
1.790313078
 20
-1.2650756472
 30
0.0
 40
0.0211922721733766
100
AcDbArc
 50
135.713090514
 51
156.7956588034
  0
ARC
  5
A5
330
1F
100
AcDbEntity
  8
0
  6
Continuous
 62
     7
370
    25
100
AcDbCircle
 10
1.790313078
 20
-1.2650756472
 30
0.0
 40
0.0211922721733765
100
AcDbArc
 50
203.2043411966
 51
328.8509160898
  0
ARC
  5
A6
330
1F
100
AcDbEntity
  8
0
  6
Continuous
 62
     7
370
    25
100
AcDbCircle
 10
1.856313078
 20
-1.4243449474
 30
0.0
 40
0.0211922721733765
100
AcDbArc
 50
280.9856762353
 51
89.3044081207
  0
ARC
  5
A7
330
1F
100
AcDbEntity
  8
0
  6
Continuous
 62
     7
370
    25
100
AcDbCircle
 10
1.856313078
 20
-1.4243449474
 30
0.0
 40
0.0211922721733766
100
AcDbArc
 50
135.713090514
 51
156.7956588034
  0
ARC
  5
A8
330
1F
100
AcDbEntity
  8
0
  6
Continuous
 62
     7
370
    25
100
AcDbCircle
 10
1.856313078
 20
-1.4243449474
 30
0.0
 40
0.0211922721733765
100
AcDbArc
 50
203.2043411966
 51
280.9856762353
  0
ARC
  5
A9
330
1F
100
AcDbEntity
  8
0
  6
Continuous
 62
     7
370
    25
100
AcDbCircle
 10
1.548813078
 20
-1.2650756472
 30
0.0
 40
0.0211922721733765
100
AcDbArc
 50
270.0
 51
336.7956588034
  0
ARC
  5
AA
330
1F
100
AcDbEntity
  8
0
  6
Continuous
 62
     7
370
    25
100
AcDbCircle
 10
1.548813078
 20
-1.2650756472
 30
0.0
 40
0.0211922721733765
100
AcDbArc
 50
23.2043411966
 51
79.361081282
  0
ARC
  5
AB
330
1F
100
AcDbEntity
  8
0
  6
Continuous
 62
     7
370
    25
100
AcDbCircle
 10
1.548813078
 20
-1.2650756472
 30
0.0
 40
0.0211922721733765
100
AcDbArc
 50
125.7697636753
 51
156.7956588034
  0
ARC
  5
AC
330
1F
100
AcDbEntity
  8
0
  6
Continuous
 62
     7
370
    25
100
AcDbCircle
 10
1.548813078
 20
-1.2650756472
 30
0.0
 40
0.0211922721733765
100
AcDbArc
 50
203.2043411966
 51
270.0
  0
LWPOLYLINE
  5
AD
330
1F
100
AcDbEntity
  8
0
  6
Continuous
 62
     7
370
    25
100
AcDbPolyline
 90
        3
 70
   128
 43
0.0
 10
1.0166767778
 20
-1.4108786092
 10
1.0147789659
 20
-1.4088577733
 10
1.013447875
 20
-1.4077138409
  0
ARC
  5
AE
330
1F
100
AcDbEntity
  8
0
  6
Continuous
 62
     7
370
    25
100
AcDbCircle
 10
1.000313078
 20
-1.4243449474
 30
0.0
 40
0.0211922721733764
100
AcDbArc
 50
98.1079924767
 51
156.7956588034
  0
ARC
  5
AF
330
1F
100
AcDbEntity
  8
0
  6
Continuous
 62
     7
370
    25
100
AcDbCircle
 10
1.000313078
 20
-1.4243449474
 30
0.0
 40
0.0211922721733763
100
AcDbArc
 50
203.2043411966
 51
336.7956588034
  0
ARC
  5
B0
330
1F
100
AcDbEntity
  8
0
  6
Continuous
 62
     7
370
    25
100
AcDbCircle
 10
1.000313078
 20
-1.4243449474
 30
0.0
 40
0.0211922721733765
100
AcDbArc
 50
23.2043411966
 51
39.4526532994
  0
LINE
  5
B1
330
1F
100
AcDbEntity
  8
0
  6
Continuous
 62
     7
370
    25
100
AcDbLine
 10
0.9760225954
 20
-0.8047677979
 30
0.0
 11
0.9235709848
 21
-0.9313425526
 31
0.0
  0
LINE
  5
B2
330
1F
100
AcDbEntity
  8
0
  6
Continuous
 62
     7
370
    25
100
AcDbLine
 10
0.9111424627
 20
-0.9613346562
 30
0.0
 11
0.8575710001
 21
-1.0906118855
 31
0.0
  0
LINE
  5
B3
330
1F
100
AcDbEntity
  8
0
  6
Continuous
 62
     7
370
    25
100
AcDbLine
 10
0.845142478
 20
-1.1206039891
 30
0.0
 11
0.7915710153
 21
-1.2498812184
 31
0.0
  0
LINE
  5
B4
330
1F
100
AcDbEntity
  8
0
  6
Continuous
 62
     7
370
    25
100
AcDbLine
 10
0.7791424932
 20
-1.2798730836
 30
0.0
 11
0.7255710306
 21
-1.4091505513
 31
0.0
  0
LINE
  5
B5
330
1F
100
AcDbEntity
  8
0
  6
Continuous
 62
     7
370
    25
100
AcDbLine
 10
0.7131425085
 20
-1.4391424165
 30
0.0
 11
0.6580241861
 21
-1.5721525655
 31
0.0
  0
LINE
  5
B6
330
1F
100
AcDbEntity
  8
0
  6
Continuous
 62
     7
370
    25
100
AcDbLine
 10
0.6734520139
 20
-1.5785457597
 30
0.0
 11
0.7285703363
 21
-1.4455356107
 31
0.0
  0
LINE
  5
B7
330
1F
100
AcDbEntity
  8
0
  6
Continuous
 62
     7
370
    25
100
AcDbLine
 10
0.7409988584
 20
-1.4155437455
 30
0.0
 11
0.7945703211
 21
-1.2862662778
 31
0.0
  0
LINE
  5
B8
330
1F
100
AcDbEntity
  8
0
  6
Continuous
 62
     7
370
    25
100
AcDbLine
 10
0.8069988432
 20
-1.2562744126
 30
0.0
 11
0.8605703058
 21
-1.1269969449
 31
0.0
  0
LINE
  5
B9
330
1F
100
AcDbEntity
  8
0
  6
Continuous
 62
     7
370
    25
100
AcDbLine
 10
0.8729988279
 20
-1.0970050797
 30
0.0
 11
0.9265702905
 21
-0.9677278504
 31
0.0
  0
LINE
  5
BA
330
1F
100
AcDbEntity
  8
0
  6
Continuous
 62
     7
370
    25
100
AcDbLine
 10
0.9389988126
 20
-0.9377357468
 30
0.0
 11
0.9940997305
 21
-0.8047677979
 31
0.0
  0
LINE
  5
BB
330
1F
100
AcDbEntity
  8
0
  6
Continuous
 62
     7
370
    25
100
AcDbLine
 10
1.5905264558
 20
-0.8047677979
 30
0.0
 11
1.6456273737
 21
-0.9377357468
 31
0.0
  0
LINE
  5
BC
330
1F
100
AcDbEntity
  8
0
  6
Continuous
 62
     7
370
    25
100
AcDbLine
 10
1.6580558958
 20
-0.9677278504
 30
0.0
 11
1.7116273584
 21
-1.0970050797
 31
0.0
  0
LINE
  5
BD
330
1F
100
AcDbEntity
  8
0
  6
Continuous
 62
     7
370
    25
100
AcDbLine
 10
1.7240558805
 20
-1.1269969449
 30
0.0
 11
1.7776273431
 21
-1.2562744126
 31
0.0
  0
LINE
  5
BE
330
1F
100
AcDbEntity
  8
0
  6
Continuous
 62
     7
370
    25
100
AcDbLine
 10
1.7900558653
 20
-1.2862662778
 30
0.0
 11
1.8436273279
 21
-1.4155437455
 31
0.0
  0
LINE
  5
BF
330
1F
100
AcDbEntity
  8
0
  6
Continuous
 62
     7
370
    25
100
AcDbLine
 10
1.85605585
 20
-1.4455356107
 30
0.0
 11
1.9111741724
 21
-1.5785457597
 31
0.0
  0
LINE
  5
C0
330
1F
100
AcDbEntity
  8
0
  6
Continuous
 62
     7
370
    25
100
AcDbLine
 10
1.9266020002
 20
-1.5721525655
 30
0.0
 11
1.8714836778
 21
-1.4391424165
 31
0.0
  0
LINE
  5
C1
330
1F
100
AcDbEntity
  8
0
  6
Continuous
 62
     7
370
    25
100
AcDbLine
 10
1.8590551557
 20
-1.4091505513
 30
0.0
 11
1.8054836931
 21
-1.2798730836
 31
0.0
  0
LINE
  5
C2
330
1F
100
AcDbEntity
  8
0
  6
Continuous
 62
     7
370
    25
100
AcDbLine
 10
1.793055171
 20
-1.2498812184
 30
0.0
 11
1.7394837084
 21
-1.1206039891
 31
0.0
  0
LINE
  5
C3
330
1F
100
AcDbEntity
  8
0
  6
Continuous
 62
     7
370
    25
100
AcDbLine
 10
1.7270551862
 20
-1.0906118855
 30
0.0
 11
1.6734837236
 21
-0.9613346562
 31
0.0
  0
LINE
  5
C4
330
1F
100
AcDbEntity
  8
0
  6
Continuous
 62
     7
370
    25
100
AcDbLine
 10
1.6610552015
 20
-0.9313425526
 30
0.0
 11
1.6086035909
 21
-0.8047677979
 31
0.0
  0
LINE
  5
C5
330
1F
100
AcDbEntity
  8
0
  6
Continuous
 62
     7
370
    25
100
AcDbLine
 10
1.2839630785
 20
-0.8047677979
 30
0.0
 11
1.2839630785
 21
-0.9341279969
 31
0.0
  0
LINE
  5
C6
330
1F
100
AcDbEntity
  8
0
  6
Continuous
 62
     7
370
    25
100
AcDbLine
 10
1.3006631078
 20
-0.9341279969
 30
0.0
 11
1.3006631078
 21
-0.8047677979
 31
0.0
  0
LINE
  5
C7
330
1F
100
AcDbEntity
  8
0
  6
Continuous
 62
     7
370
    25
100
AcDbLine
 10
1.5094004812
 20
-1.1266343102
 30
0.0
 11
1.5379246416
 21
-1.2546064362
 31
0.0
  0
LINE
  5
C8
330
1F
100
AcDbEntity
  8
0
  6
Continuous
 62
     7
370
    25
100
AcDbLine
 10
1.5542246046
 20
-1.2509734139
 30
0.0
 11
1.5257006826
 21
-1.1230012879
 31
0.0
  0
LINE
  5
C9
330
1F
100
AcDbEntity
  8
0
  6
Continuous
 62
     7
370
    25
100
AcDbLine
 10
1.5449005308
 20
-1.2859036431
 30
0.0
 11
1.5734246912
 21
-1.4138757691
 31
0.0
  0
LINE
  5
CA
330
1F
100
AcDbEntity
  8
0
  6
Continuous
 62
     7
370
    25
100
AcDbLine
 10
1.5897246542
 20
-1.4102427468
 30
0.0
 11
1.5612004938
 21
-1.2822703824
 31
0.0
  0
LINE
  5
CB
330
1F
100
AcDbEntity
  8
0
  6
Continuous
 62
     7
370
    25
100
AcDbLine
 10
1.0731049719
 20
-1.122437428
 30
0.0
 11
1.0385135355
 21
-1.2506713376
 31
0.0
  0
LINE
  5
CC
330
1F
100
AcDbEntity
  8
0
  6
Continuous
 62
     7
370
    25
100
AcDbLine
 10
1.0546370687
 20
-1.2550205693
 30
0.0
 11
1.0892285051
 21
-1.1267868981
 31
0.0
  0
LINE
  5
CD
330
1F
100
AcDbEntity
  8
0
  6
Continuous
 62
     7
370
    25
100
AcDbLine
 10
1.0301417055
 20
-1.2817067609
 30
0.0
 11
0.9955502691
 21
-1.4099406705
 31
0.0
  0
LINE
  5
CE
330
1F
100
AcDbEntity
  8
0
  6
Continuous
 62
     7
370
    25
100
AcDbLine
 10
1.0116738023
 20
-1.4142899022
 30
0.0
 11
1.0462652387
 21
-1.2860559926
 31
0.0
  0
LINE
  5
CF
330
1F
100
AcDbEntity
  8
0
  6
Continuous
 62
     7
370
    25
100
AcDbLine
 10
0.9457911195
 20
-0.9548871026
 30
0.0
 11
1.2728351297
 21
-0.9548871026
 31
0.0
  0
LINE
  5
D0
330
1F
100
AcDbEntity
  8
0
  6
Continuous
 62
     7
370
    25
100
AcDbLine
 10
1.3117910566
 20
-0.9548871026
 30
0.0
 11
1.6388350668
 21
-0.9548871026
 31
0.0
  0
LINE
  5
D1
330
1F
100
AcDbEntity
  8
0
  6
Continuous
 62
     7
370
    25
100
AcDbLine
 10
1.6388350668
 20
-0.9381870732
 30
0.0
 11
1.3117910566
 21
-0.9381870732
 31
0.0
  0
LINE
  5
D2
330
1F
100
AcDbEntity
  8
0
  6
Continuous
 62
     7
370
    25
100
AcDbLine
 10
1.2728351297
 20
-0.9381870732
 30
0.0
 11
0.9457911195
 21
-0.9381870732
 31
0.0
  0
LINE
  5
D3
330
1F
100
AcDbEntity
  8
0
  6
Continuous
 62
     7
370
    25
100
AcDbLine
 10
1.2839630785
 20
-0.9660150513
 30
0.0
 11
1.2839630785
 21
-1.0933973298
 31
0.0
  0
LINE
  5
D4
330
1F
100
AcDbEntity
  8
0
  6
Continuous
 62
     7
370
    25
100
AcDbLine
 10
1.3006631078
 20
-1.0933973298
 30
0.0
 11
1.3006631078
 21
-0.9660150513
 31
0.0
  0
LINE
  5
D5
330
1F
100
AcDbEntity
  8
0
  6
Continuous
 62
     7
370
    25
100
AcDbLine
 10
1.2839630785
 20
-1.1252843842
 30
0.0
 11
1.2839630785
 21
-1.2526666627
 31
0.0
  0
LINE
  5
D6
330
1F
100
AcDbEntity
  8
0
  6
Continuous
 62
     7
370
    25
100
AcDbLine
 10
1.3006631078
 20
-1.2526666627
 30
0.0
 11
1.3006631078
 21
-1.1252843842
 31
0.0
  0
LINE
  5
D7
330
1F
100
AcDbEntity
  8
0
  6
Continuous
 62
     7
370
    25
100
AcDbLine
 10
1.2839630785
 20
-1.2845534787
 30
0.0
 11
1.2839630785
 21
-1.4119359956
 31
0.0
  0
LINE
  5
D8
330
1F
100
AcDbEntity
  8
0
  6
Continuous
 62
     7
370
    25
100
AcDbLine
 10
1.3006631078
 20
-1.4119359956
 30
0.0
 11
1.3006631078
 21
-1.2845534787
 31
0.0
  0
LINE
  5
D9
330
1F
100
AcDbEntity
  8
0
  6
Continuous
 62
     7
370
    25
100
AcDbLine
 10
1.2839630785
 20
-1.4438228116
 30
0.0
 11
1.2839630785
 21
-1.5753490433
 31
0.0
  0
LINE
  5
DA
330
1F
100
AcDbEntity
  8
0
  6
Continuous
 62
     7
370
    25
100
AcDbLine
 10
1.3006631078
 20
-1.5753490433
 30
0.0
 11
1.3006631078
 21
-1.4438228116
 31
0.0
  0
LINE
  5
DB
330
1F
100
AcDbEntity
  8
0
  6
Continuous
 62
     7
370
    25
100
AcDbLine
 10
0.7477909269
 20
-1.4326948628
 30
0.0
 11
0.9808350744
 21
-1.4326948628
 31
0.0
  0
LINE
  5
DC
330
1F
100
AcDbEntity
  8
0
  6
Continuous
 62
     7
370
    25
100
AcDbLine
 10
1.0197910013
 20
-1.4326948628
 30
0.0
 11
1.2728351297
 21
-1.4326948628
 31
0.0
  0
LINE
  5
DD
330
1F
100
AcDbEntity
  8
0
  6
Continuous
 62
     7
370
    25
100
AcDbLine
 10
1.3117910566
 20
-1.4326948628
 30
0.0
 11
1.564835185
 21
-1.4326948628
 31
0.0
  0
LINE
  5
DE
330
1F
100
AcDbEntity
  8
0
  6
Continuous
 62
     7
370
    25
100
AcDbLine
 10
1.6037911119
 20
-1.4326948628
 30
0.0
 11
1.8368352594
 21
-1.4326948628
 31
0.0
  0
LINE
  5
DF
330
1F
100
AcDbEntity
  8
0
  6
Continuous
 62
     7
370
    25
100
AcDbLine
 10
1.8368352594
 20
-1.4159948334
 30
0.0
 11
1.6037911119
 21
-1.4159948334
 31
0.0
  0
LINE
  5
E0
330
1F
100
AcDbEntity
  8
0
  6
Continuous
 62
     7
370
    25
100
AcDbLine
 10
1.564835185
 20
-1.4159948334
 30
0.0
 11
1.3117910566
 21
-1.4159948334
 31
0.0
  0
LINE
  5
E1
330
1F
100
AcDbEntity
  8
0
  6
Continuous
 62
     7
370
    25
100
AcDbLine
 10
1.2728351297
 20
-1.4159948334
 30
0.0
 11
1.0197910013
 21
-1.4159948334
 31
0.0
  0
LINE
  5
E2
330
1F
100
AcDbEntity
  8
0
  6
Continuous
 62
     7
370
    25
100
AcDbLine
 10
0.9808350744
 20
-1.4159948334
 30
0.0
 11
0.7477909269
 21
-1.4159948334
 31
0.0
  0
LINE
  5
E3
330
1F
100
AcDbEntity
  8
0
  6
Continuous
 62
     7
370
    25
100
AcDbLine
 10
0.8137909116
 20
-1.2734255299
 30
0.0
 11
1.0237983408
 21
-1.2734255299
 31
0.0
  0
LINE
  5
E4
330
1F
100
AcDbEntity
  8
0
  6
Continuous
 62
     7
370
    25
100
AcDbLine
 10
1.0627542677
 20
-1.2734255299
 30
0.0
 11
1.2728351297
 21
-1.2734255299
 31
0.0
  0
LINE
  5
E5
330
1F
100
AcDbEntity
  8
0
  6
Continuous
 62
     7
370
    25
100
AcDbLine
 10
1.3117910566
 20
-1.2734255299
 30
0.0
 11
1.5293351354
 21
-1.2734255299
 31
0.0
  0
LINE
  5
E6
330
1F
100
AcDbEntity
  8
0
  6
Continuous
 62
     7
370
    25
100
AcDbLine
 10
1.5682910623
 20
-1.2734255299
 30
0.0
 11
1.7708350362
 21
-1.2734255299
 31
0.0
  0
LINE
  5
E7
330
1F
100
AcDbEntity
  8
0
  6
Continuous
 62
     7
370
    25
100
AcDbLine
 10
1.7708350362
 20
-1.256725739
 30
0.0
 11
1.5682910623
 21
-1.256725739
 31
0.0
  0
LINE
  5
E8
330
1F
100
AcDbEntity
  8
0
  6
Continuous
 62
     7
370
    25
100
AcDbLine
 10
1.5293351354
 20
-1.256725739
 30
0.0
 11
1.3117910566
 21
-1.256725739
 31
0.0
  0
LINE
  5
E9
330
1F
100
AcDbEntity
  8
0
  6
Continuous
 62
     7
370
    25
100
AcDbLine
 10
1.2728351297
 20
-1.256725739
 30
0.0
 11
1.0627542677
 21
-1.256725739
 31
0.0
  0
LINE
  5
EA
330
1F
100
AcDbEntity
  8
0
  6
Continuous
 62
     7
370
    25
100
AcDbLine
 10
1.0237983408
 20
-1.256725739
 30
0.0
 11
0.8137909116
 21
-1.256725739
 31
0.0
  0
LINE
  5
EB
330
1F
100
AcDbEntity
  8
0
  6
Continuous
 62
     7
370
    25
100
AcDbLine
 10
0.8797908964
 20
-1.1141564355
 30
0.0
 11
1.0667616071
 21
-1.1141564355
 31
0.0
  0
LINE
  5
EC
330
1F
100
AcDbEntity
  8
0
  6
Continuous
 62
     7
370
    25
100
AcDbLine
 10
1.105717534
 20
-1.1141564355
 30
0.0
 11
1.2728351297
 21
-1.1141564355
 31
0.0
  0
LINE
  5
ED
330
1F
100
AcDbEntity
  8
0
  6
Continuous
 62
     7
370
    25
100
AcDbLine
 10
1.3117910566
 20
-1.1141564355
 30
0.0
 11
1.4938350858
 21
-1.1141564355
 31
0.0
  0
LINE
  5
EE
330
1F
100
AcDbEntity
  8
0
  6
Continuous
 62
     7
370
    25
100
AcDbLine
 10
1.5327910127
 20
-1.1141564355
 30
0.0
 11
1.7048350515
 21
-1.1141564355
 31
0.0
  0
LINE
  5
EF
330
1F
100
AcDbEntity
  8
0
  6
Continuous
 62
     7
370
    25
100
AcDbLine
 10
1.7048350515
 20
-1.0974564061
 30
0.0
 11
1.5327910127
 21
-1.0974564061
 31
0.0
  0
LINE
  5
F0
330
1F
100
AcDbEntity
  8
0
  6
Continuous
 62
     7
370
    25
100
AcDbLine
 10
1.4938350858
 20
-1.0974564061
 30
0.0
 11
1.3117910566
 21
-1.0974564061
 31
0.0
  0
LINE
  5
F1
330
1F
100
AcDbEntity
  8
0
  6
Continuous
 62
     7
370
    25
100
AcDbLine
 10
1.2728351297
 20
-1.0974564061
 30
0.0
 11
1.105717534
 21
-1.0974564061
 31
0.0
  0
LINE
  5
F2
330
1F
100
AcDbEntity
  8
0
  6
Continuous
 62
     7
370
    25
100
AcDbLine
 10
1.0667616071
 20
-1.0974564061
 30
0.0
 11
0.8797908964
 21
-1.0974564061
 31
0.0
  0
LINE
  5
F3
330
1F
100
AcDbEntity
  8
0
  6
Continuous
 62
     7
370
    25
100
AcDbLine
 10
0.8444830122
 20
0.8057322993
 30
0.0
 11
0.8448630514
 21
0.8057322993
 31
0.0
  0
LINE
  5
F4
330
1F
100
AcDbEntity
  8
0
  6
Continuous
 62
     7
370
    25
100
AcDbLine
 10
0.8448630514
 20
0.8197322383
 30
0.0
 11
0.8444830122
 21
0.8197322383
 31
0.0
  0
ARC
  5
F5
330
1F
100
AcDbEntity
  8
0
  6
Continuous
 62
     7
370
    25
100
AcDbCircle
 10
0.8470439735
 20
0.8127322504
 30
0.0
 40
0.0074537363702096
100
AcDbArc
 50
110.0946570538
 51
151.9940599945
  0
ARC
  5
F6
330
1F
100
AcDbEntity
  8
0
  6
Continuous
 62
     7
370
    25
100
AcDbCircle
 10
0.8470439735
 20
0.8127322504
 30
0.0
 40
0.0074537363702095
100
AcDbArc
 50
208.0059480145
 51
249.9053509553
  0
ARC
  5
F7
330
1F
100
AcDbEntity
  8
0
  6
Continuous
 62
     7
370
    25
100
AcDbCircle
 10
0.8452630783
 20
0.8083322503
 30
0.0
 40
0.0004
100
AcDbArc
 50
120.7583992189
 51
180.0000040045
  0
ARC
  5
F8
330
1F
100
AcDbEntity
  8
0
  6
Continuous
 62
     7
370
    25
100
AcDbCircle
 10
0.8452630777
 20
0.8171322503
 30
0.0
 40
0.0004000000000002
100
AcDbArc
 50
180.0000040045
 51
270.0000040045
  0
LINE
  5
F9
330
1F
100
AcDbEntity
  8
0
  6
Continuous
 62
     7
370
    25
100
AcDbLine
 10
0.8444832506
 20
0.005732347
 30
0.0
 11
0.8448630514
 21
0.005732347
 31
0.0
  0
LINE
  5
FA
330
1F
100
AcDbEntity
  8
0
  6
Continuous
 62
     7
370
    25
100
AcDbLine
 10
0.8448630514
 20
0.019732286
 30
0.0
 11
0.8444832506
 21
0.019732286
 31
0.0
  0
ARC
  5
FB
330
1F
100
AcDbEntity
  8
0
  6
Continuous
 62
     7
370
    25
100
AcDbCircle
 10
0.8470440294
 20
0.0127322504
 30
0.0
 40
0.0074537363702096
100
AcDbArc
 50
208.0059480145
 51
249.9053509553
  0
ARC
  5
FC
330
1F
100
AcDbEntity
  8
0
  6
Continuous
 62
     7
370
    25
100
AcDbCircle
 10
0.8470440294
 20
0.0127322504
 30
0.0
 40
0.0074537363702094
100
AcDbArc
 50
110.0946570538
 51
151.9940599946
  0
ARC
  5
FD
330
1F
100
AcDbEntity
  8
0
  6
Continuous
 62
     7
370
    25
100
AcDbCircle
 10
0.8452631342
 20
0.0083322503
 30
0.0
 40
0.0004
100
AcDbArc
 50
120.7583992189
 51
180.0000040046
  0
ARC
  5
FE
330
1F
100
AcDbEntity
  8
0
  6
Continuous
 62
     7
370
    25
100
AcDbCircle
 10
0.8452631336
 20
0.0171322503
 30
0.0
 40
0.0004
100
AcDbArc
 50
180.0000040046
 51
270.0000040045
  0
LINE
  5
FF
330
1F
100
AcDbEntity
  8
0
  6
Continuous
 62
     7
370
    25
100
AcDbLine
 10
-0.659856802
 20
0.8197322383
 30
0.0
 11
-0.6602367816
 21
0.8197322383
 31
0.0
  0
LINE
  5
100
330
1F
100
AcDbEntity
  8
0
  6
Continuous
 62
     7
370
    25
100
AcDbLine
 10
-0.6602367816
 20
0.8057322993
 30
0.0
 11
-0.659856802
 21
0.8057322993
 31
0.0
  0
ARC
  5
101
330
1F
100
AcDbEntity
  8
0
  6
Continuous
 62
     7
370
    25
100
AcDbCircle
 10
-0.6624176916
 20
0.8127322504
 30
0.0
 40
0.0074537363702097
100
AcDbArc
 50
28.0059400054
 51
69.9053429462
  0
ARC
  5
102
330
1F
100
AcDbEntity
  8
0
  6
Continuous
 62
     7
370
    25
100
AcDbCircle
 10
-0.6624176916
 20
0.8127322504
 30
0.0
 40
0.0074537363702097
100
AcDbArc
 50
290.0946490447
 51
331.9940519855
  0
ARC
  5
103
330
1F
100
AcDbEntity
  8
0
  6
Continuous
 62
     7
370
    25
100
AcDbCircle
 10
-0.6606367957
 20
0.8171322503
 30
0.0
 40
0.0004
100
AcDbArc
 50
300.7590881424
 51
359.9999959955
  0
ARC
  5
104
330
1F
100
AcDbEntity
  8
0
  6
Continuous
 62
     7
370
    25
100
AcDbCircle
 10
-0.6606367964
 20
0.8083322503
 30
0.0
 40
0.0004
100
AcDbArc
 50
359.9999959954
 51
89.9999959955
  0
LINE
  5
105
330
1F
100
AcDbEntity
  8
0
  6
Continuous
 62
     7
370
    25
100
AcDbLine
 10
-0.6598568616
 20
0.019732286
 30
0.0
 11
-0.6602368412
 21
0.019732286
 31
0.0
  0
LINE
  5
106
330
1F
100
AcDbEntity
  8
0
  6
Continuous
 62
     7
370
    25
100
AcDbLine
 10
-0.6602368412
 20
0.005732347
 30
0.0
 11
-0.6598568616
 21
0.005732347
 31
0.0
  0
ARC
  5
107
330
1F
100
AcDbEntity
  8
0
  6
Continuous
 62
     7
370
    25
100
AcDbCircle
 10
-0.6624177551
 20
0.0127322504
 30
0.0
 40
0.0074537363702096
100
AcDbArc
 50
28.0059400054
 51
69.9053429462
  0
ARC
  5
108
330
1F
100
AcDbEntity
  8
0
  6
Continuous
 62
     7
370
    25
100
AcDbCircle
 10
-0.6624177551
 20
0.0127322504
 30
0.0
 40
0.0074537363702098
100
AcDbArc
 50
290.0946490447
 51
331.9940519855
  0
ARC
  5
109
330
1F
100
AcDbEntity
  8
0
  6
Continuous
 62
     7
370
    25
100
AcDbCircle
 10
-0.6606368593
 20
0.0171322503
 30
0.0
 40
0.0004000000000001
100
AcDbArc
 50
300.7583912099
 51
359.9999959954
  0
ARC
  5
10A
330
1F
100
AcDbEntity
  8
0
  6
Continuous
 62
     7
370
    25
100
AcDbCircle
 10
-0.6606368599
 20
0.0083322503
 30
0.0
 40
0.0004000000000001
100
AcDbArc
 50
359.9999959954
 51
89.9999959955
  0
ARC
  5
10B
330
1F
100
AcDbEntity
  8
0
  6
Continuous
 62
     7
370
    25
100
AcDbCircle
 10
0.3527786083
 20
0.5527322536
 30
0.0
 40
0.0211922721733764
100
AcDbArc
 50
112.9253151943
 51
173.6334073925
  0
ARC
  5
10C
330
1F
100
AcDbEntity
  8
0
  6
Continuous
 62
     7
370
    25
100
AcDbCircle
 10
0.3527786083
 20
0.5527322536
 30
0.0
 40
0.0211922721733762
100
AcDbArc
 50
222.6200581241
 51
247.1199318297
  0
ARC
  5
10D
330
1F
100
AcDbEntity
  8
0
  6
Continuous
 62
     7
370
    25
100
AcDbCircle
 10
0.3527786083
 20
0.5527322536
 30
0.0
 40
0.0211922721733764
100
AcDbArc
 50
293.5292965831
 51
319.8530754769
  0
ARC
  5
10E
330
1F
100
AcDbEntity
  8
0
  6
Continuous
 62
     7
370
    25
100
AcDbCircle
 10
0.3527786083
 20
0.5527322536
 30
0.0
 40
0.0211922721733764
100
AcDbArc
 50
3.0814084866
 51
66.5159504409
  0
ARC
  5
10F
330
1F
100
AcDbEntity
  8
0
  6
Continuous
 62
     7
370
    25
100
AcDbCircle
 10
-0.1643686943
 20
0.2727322535
 30
0.0
 40
0.0211922721733763
100
AcDbArc
 50
183.0813419802
 51
246.7956588053
  0
ARC
  5
110
330
1F
100
AcDbEntity
  8
0
  6
Continuous
 62
     7
370
    25
100
AcDbCircle
 10
-0.1643686943
 20
0.2727322535
 30
0.0
 40
0.0211922721733764
100
AcDbArc
 50
293.2043411986
 51
353.6334611531
  0
ARC
  5
111
330
1F
100
AcDbEntity
  8
0
  6
Continuous
 62
     7
370
    25
100
AcDbCircle
 10
-0.1643686943
 20
0.2727322535
 30
0.0
 40
0.0211922721733764
100
AcDbArc
 50
42.6201324166
 51
66.7956588053
  0
ARC
  5
112
330
1F
100
AcDbEntity
  8
0
  6
Continuous
 62
     7
370
    25
100
AcDbCircle
 10
-0.1643686943
 20
0.2727322535
 30
0.0
 40
0.0211922721733764
100
AcDbArc
 50
113.2043411986
 51
139.8529915669
  0
LINE
  5
113
330
1F
100
AcDbEntity
  8
0
  6
Continuous
 62
     7
370
    25
100
AcDbLine
 10
-0.4459313212
 20
0.5527050986
 30
0.0
 11
-0.4459005652
 21
0.551590015
 31
0.0
  0
ARC
  5
114
330
1F
100
AcDbEntity
  8
0
  6
Continuous
 62
     7
370
    25
100
AcDbCircle
 10
-0.4247390871
 20
0.5527322535
 30
0.0
 40
0.0211922721733763
100
AcDbArc
 50
229.4877721181
 51
246.7956772661
  0
ARC
  5
115
330
1F
100
AcDbEntity
  8
0
  6
Continuous
 62
     7
370
    25
100
AcDbCircle
 10
-0.4247390871
 20
0.5527322535
 30
0.0
 40
0.0211922721733763
100
AcDbArc
 50
293.2043596594
 51
308.9164878929
  0
ARC
  5
116
330
1F
100
AcDbEntity
  8
0
  6
Continuous
 62
     7
370
    25
100
AcDbCircle
 10
-0.4247390871
 20
0.5527322535
 30
0.0
 40
0.0211922721733764
100
AcDbArc
 50
0.6615630693
 51
66.7956429177
  0
ARC
  5
117
330
1F
100
AcDbEntity
  8
0
  6
Continuous
 62
     7
370
    25
100
AcDbCircle
 10
-0.4247390871
 20
0.5527322535
 30
0.0
 40
0.0211922721733763
100
AcDbArc
 50
113.2043253109
 51
180.0733636974
  0
ARC
  5
118
330
1F
100
AcDbEntity
  8
0
  6
Continuous
 62
     7
370
    25
100
AcDbCircle
 10
0.0923131372
 20
0.2727322535
 30
0.0
 40
0.0211922721733763
100
AcDbArc
 50
113.2043411986
 51
139.8530710575
  0
ARC
  5
119
330
1F
100
AcDbEntity
  8
0
  6
Continuous
 62
     7
370
    25
100
AcDbCircle
 10
0.0923131372
 20
0.2727322535
 30
0.0
 40
0.0211922721733765
100
AcDbArc
 50
183.0814034588
 51
246.7956588053
  0
ARC
  5
11A
330
1F
100
AcDbEntity
  8
0
  6
Continuous
 62
     7
370
    25
100
AcDbCircle
 10
0.0923131372
 20
0.2727322535
 30
0.0
 40
0.0211922721733764
100
AcDbArc
 50
293.2043411986
 51
356.9185922472
  0
ARC
  5
11B
330
1F
100
AcDbEntity
  8
0
  6
Continuous
 62
     7
370
    25
100
AcDbCircle
 10
0.0923131372
 20
0.2727322535
 30
0.0
 40
0.0211922721733763
100
AcDbArc
 50
40.1469237123
 51
66.7956588053
  0
ARC
  5
11C
330
1F
100
AcDbEntity
  8
0
  6
Continuous
 62
     7
370
    25
100
AcDbCircle
 10
0.0923131372
 20
0.5527322535
 30
0.0
 40
0.0211922721733764
100
AcDbArc
 50
113.2043411986
 51
177.153041233
  0
ARC
  5
11D
330
1F
100
AcDbEntity
  8
0
  6
Continuous
 62
     7
370
    25
100
AcDbCircle
 10
0.0923131372
 20
0.5527322535
 30
0.0
 40
0.0211922721733765
100
AcDbArc
 50
220.3986473894
 51
246.7956588053
  0
ARC
  5
11E
330
1F
100
AcDbEntity
  8
0
  6
Continuous
 62
     7
370
    25
100
AcDbCircle
 10
0.0923131372
 20
0.5527322535
 30
0.0
 40
0.0211922721733763
100
AcDbArc
 50
293.2043411986
 51
319.8530765754
  0
ARC
  5
11F
330
1F
100
AcDbEntity
  8
0
  6
Continuous
 62
     7
370
    25
100
AcDbCircle
 10
0.0923131372
 20
0.5527322535
 30
0.0
 40
0.0211922721733764
100
AcDbArc
 50
3.081407386
 51
66.7956588053
  0
LINE
  5
120
330
1F
100
AcDbEntity
  8
0
  6
Continuous
 62
     7
370
    25
100
AcDbLine
 10
-0.1855599938
 20
0.5529379144
 30
0.0
 11
-0.1855609474
 21
0.552691628
 31
0.0
  0
ARC
  5
121
330
1F
100
AcDbEntity
  8
0
  6
Continuous
 62
     7
370
    25
100
AcDbCircle
 10
-0.1643686943
 20
0.5527322535
 30
0.0
 40
0.0211922721733763
100
AcDbArc
 50
224.7197359821
 51
246.7956588053
  0
ARC
  5
122
330
1F
100
AcDbEntity
  8
0
  6
Continuous
 62
     7
370
    25
100
AcDbCircle
 10
-0.1643686943
 20
0.5527322535
 30
0.0
 40
0.0211922721733763
100
AcDbArc
 50
293.2043411986
 51
313.4776854344
  0
ARC
  5
123
330
1F
100
AcDbEntity
  8
0
  6
Continuous
 62
     7
370
    25
100
AcDbCircle
 10
-0.1643686943
 20
0.5527322535
 30
0.0
 40
0.0211922721733764
100
AcDbArc
 50
3.6524202485
 51
66.7956588053
  0
ARC
  5
124
330
1F
100
AcDbEntity
  8
0
  6
Continuous
 62
     7
370
    25
100
AcDbCircle
 10
-0.1643686943
 20
0.5527322535
 30
0.0
 40
0.0211922721733763
100
AcDbArc
 50
113.2043411986
 51
179.4439912741
  0
ARC
  5
125
330
1F
100
AcDbEntity
  8
0
  6
Continuous
 62
     7
370
    25
100
AcDbCircle
 10
0.6131489819
 20
0.2727322536
 30
0.0
 40
0.0211922721733764
100
AcDbArc
 50
112.6012081174
 51
137.3799418786
  0
ARC
  5
126
330
1F
100
AcDbEntity
  8
0
  6
Continuous
 62
     7
370
    25
100
AcDbCircle
 10
0.6131489819
 20
0.2727322536
 30
0.0
 40
0.0211922721733764
100
AcDbArc
 50
186.3665926105
 51
247.4440390622
  0
ARC
  5
127
330
1F
100
AcDbEntity
  8
0
  6
Continuous
 62
     7
370
    25
100
AcDbCircle
 10
0.6131489819
 20
0.2727322536
 30
0.0
 40
0.0211922721733765
100
AcDbArc
 50
293.8556651765
 51
356.9185805266
  0
ARC
  5
128
330
1F
100
AcDbEntity
  8
0
  6
Continuous
 62
     7
370
    25
100
AcDbCircle
 10
0.6131489819
 20
0.2727322536
 30
0.0
 40
0.0211922721733764
100
AcDbArc
 50
40.1469354329
 51
66.1895820031
  0
ARC
  5
129
330
1F
100
AcDbEntity
  8
0
  6
Continuous
 62
     7
370
    25
100
AcDbCircle
 10
0.6131489819
 20
0.5527322536
 30
0.0
 40
0.0211922721733764
100
AcDbArc
 50
112.9253142358
 51
173.6334073916
  0
ARC
  5
12A
330
1F
100
AcDbEntity
  8
0
  6
Continuous
 62
     7
370
    25
100
AcDbCircle
 10
0.6131489819
 20
0.5527322536
 30
0.0
 40
0.0211922721733764
100
AcDbArc
 50
222.6200581229
 51
247.1199329438
  0
ARC
  5
12B
330
1F
100
AcDbEntity
  8
0
  6
Continuous
 62
     7
370
    25
100
AcDbCircle
 10
0.6131489819
 20
0.5527322536
 30
0.0
 40
0.0211922721733765
100
AcDbArc
 50
293.5292977019
 51
319.8530743789
  0
ARC
  5
12C
330
1F
100
AcDbEntity
  8
0
  6
Continuous
 62
     7
370
    25
100
AcDbCircle
 10
0.6131489819
 20
0.5527322536
 30
0.0
 40
0.0211922721733763
100
AcDbArc
 50
3.0814095867
 51
66.5159494777
  0
ARC
  5
12D
330
1F
100
AcDbEntity
  8
0
  6
Continuous
 62
     7
370
    25
100
AcDbCircle
 10
-0.4247390871
 20
0.2727322535
 30
0.0
 40
0.0211922721733763
100
AcDbArc
 50
183.0812796182
 51
246.7956957615
  0
ARC
  5
12E
330
1F
100
AcDbEntity
  8
0
  6
Continuous
 62
     7
370
    25
100
AcDbCircle
 10
-0.4247390871
 20
0.2727322535
 30
0.0
 40
0.0211922721733764
100
AcDbArc
 50
293.2043781547
 51
353.6335205601
  0
ARC
  5
12F
330
1F
100
AcDbEntity
  8
0
  6
Continuous
 62
     7
370
    25
100
AcDbCircle
 10
-0.4247390871
 20
0.2727322535
 30
0.0
 40
0.0211922721733764
100
AcDbArc
 50
42.6202126501
 51
66.7956244223
  0
ARC
  5
130
330
1F
100
AcDbEntity
  8
0
  6
Continuous
 62
     7
370
    25
100
AcDbCircle
 10
-0.4247390871
 20
0.2727322535
 30
0.0
 40
0.0211922721733764
100
AcDbArc
 50
113.2043068156
 51
139.852910934
  0
ARC
  5
131
330
1F
100
AcDbEntity
  8
0
  6
Continuous
 62
     7
370
    25
100
AcDbCircle
 10
0.3527786083
 20
0.2727322536
 30
0.0
 40
0.0211922721733763
100
AcDbArc
 50
112.6012101868
 51
137.3799418786
  0
ARC
  5
132
330
1F
100
AcDbEntity
  8
0
  6
Continuous
 62
     7
370
    25
100
AcDbCircle
 10
0.3527786083
 20
0.2727322536
 30
0.0
 40
0.0211922721733764
100
AcDbArc
 50
186.3665926105
 51
247.4440368372
  0
ARC
  5
133
330
1F
100
AcDbEntity
  8
0
  6
Continuous
 62
     7
370
    25
100
AcDbCircle
 10
0.3527786083
 20
0.2727322536
 30
0.0
 40
0.0211922721733765
100
AcDbArc
 50
293.8556629312
 51
356.9185863858
  0
ARC
  5
134
330
1F
100
AcDbEntity
  8
0
  6
Continuous
 62
     7
370
    25
100
AcDbCircle
 10
0.3527786083
 20
0.2727322536
 30
0.0
 40
0.0211922721733764
100
AcDbArc
 50
40.1469295737
 51
66.1895840928
  0
LINE
  5
135
330
1F
100
AcDbEntity
  8
0
  6
Continuous
 62
     7
370
    25
100
AcDbLine
 10
0.6217045726
 20
0.2921207442
 30
0.0
 11
0.6216093244
 21
0.5333019986
 31
0.0
  0
LINE
  5
136
330
1F
100
AcDbEntity
  8
0
  6
Continuous
 62
     7
370
    25
100
AcDbLine
 10
0.6049092951
 20
0.5332073465
 30
0.0
 11
0.6050044241
 21
0.2922970548
 31
0.0
  0
LINE
  5
137
330
1F
100
AcDbEntity
  8
0
  6
Continuous
 62
     7
370
    25
100
AcDbLine
 10
0.6218029203
 20
0.0428822532
 30
0.0
 11
0.6217198314
 21
0.2533505454
 31
0.0
  0
LINE
  5
138
330
1F
100
AcDbEntity
  8
0
  6
Continuous
 62
     7
370
    25
100
AcDbLine
 10
0.6050199213
 20
0.2531611219
 30
0.0
 11
0.6051030101
 21
0.0428822532
 31
0.0
  0
LINE
  5
139
330
1F
100
AcDbEntity
  8
0
  6
Continuous
 62
     7
370
    25
100
AcDbLine
 10
0.6215939464
 20
0.5721692338
 30
0.0
 11
0.6215108576
 21
0.7825822129
 31
0.0
  0
LINE
  5
13A
330
1F
100
AcDbEntity
  8
0
  6
Continuous
 62
     7
370
    25
100
AcDbLine
 10
0.6048108282
 20
0.7825822129
 30
0.0
 11
0.6048939171
 21
0.5722506538
 31
0.0
  0
LINE
  5
13B
330
1F
100
AcDbEntity
  8
0
  6
Continuous
 62
     7
370
    25
100
AcDbLine
 10
0.3613341989
 20
0.2921207442
 30
0.0
 11
0.3612389507
 21
0.5333019986
 31
0.0
  0
LINE
  5
13C
330
1F
100
AcDbEntity
  8
0
  6
Continuous
 62
     7
370
    25
100
AcDbLine
 10
0.3445389213
 20
0.5332073465
 30
0.0
 11
0.3446340503
 21
0.2922970548
 31
0.0
  0
LINE
  5
13D
330
1F
100
AcDbEntity
  8
0
  6
Continuous
 62
     7
370
    25
100
AcDbLine
 10
0.3614325466
 20
0.0428822532
 30
0.0
 11
0.3613494577
 21
0.2533505454
 31
0.0
  0
LINE
  5
13E
330
1F
100
AcDbEntity
  8
0
  6
Continuous
 62
     7
370
    25
100
AcDbLine
 10
0.3446495475
 20
0.2531611219
 30
0.0
 11
0.3447326364
 21
0.0428822532
 31
0.0
  0
LINE
  5
13F
330
1F
100
AcDbEntity
  8
0
  6
Continuous
 62
     7
370
    25
100
AcDbLine
 10
0.3612235727
 20
0.5721692338
 30
0.0
 11
0.3611404838
 21
0.7825822129
 31
0.0
  0
LINE
  5
140
330
1F
100
AcDbEntity
  8
0
  6
Continuous
 62
     7
370
    25
100
AcDbLine
 10
0.3444404545
 20
0.7825822129
 30
0.0
 11
0.3445235433
 21
0.5722506538
 31
0.0
  0
LINE
  5
141
330
1F
100
AcDbEntity
  8
0
  6
Continuous
 62
     7
370
    25
100
AcDbLine
 10
0.08396315
 20
0.7825822129
 30
0.0
 11
0.08396315
 21
0.5722102418
 31
0.0
  0
LINE
  5
142
330
1F
100
AcDbEntity
  8
0
  6
Continuous
 62
     7
370
    25
100
AcDbLine
 10
0.08396315
 20
0.5332543149
 30
0.0
 11
0.08396315
 21
0.2922101512
 31
0.0
  0
LINE
  5
143
330
1F
100
AcDbEntity
  8
0
  6
Continuous
 62
     7
370
    25
100
AcDbLine
 10
0.08396315
 20
0.2532543435
 30
0.0
 11
0.08396315
 21
0.0428822532
 31
0.0
  0
LINE
  5
144
330
1F
100
AcDbEntity
  8
0
  6
Continuous
 62
     7
370
    25
100
AcDbLine
 10
0.1006631794
 20
0.0428822532
 30
0.0
 11
0.1006631794
 21
0.2532543435
 31
0.0
  0
LINE
  5
145
330
1F
100
AcDbEntity
  8
0
  6
Continuous
 62
     7
370
    25
100
AcDbLine
 10
0.1006631794
 20
0.2922101512
 30
0.0
 11
0.1006631794
 21
0.5332543149
 31
0.0
  0
LINE
  5
146
330
1F
100
AcDbEntity
  8
0
  6
Continuous
 62
     7
370
    25
100
AcDbLine
 10
0.1006631794
 20
0.5722102418
 30
0.0
 11
0.1006631794
 21
0.7825822129
 31
0.0
  0
LINE
  5
147
330
1F
100
AcDbEntity
  8
0
  6
Continuous
 62
     7
370
    25
100
AcDbLine
 10
0.1133747043
 20
0.270382215
 30
0.0
 11
0.3321627321
 21
0.270382215
 31
0.0
  0
LINE
  5
148
330
1F
100
AcDbEntity
  8
0
  6
Continuous
 62
     7
370
    25
100
AcDbLine
 10
0.3738402071
 20
0.270382215
 30
0.0
 11
0.5925331058
 21
0.270382215
 31
0.0
  0
LINE
  5
149
330
1F
100
AcDbEntity
  8
0
  6
Continuous
 62
     7
370
    25
100
AcDbLine
 10
0.6342105808
 20
0.270382215
 30
0.0
 11
0.8478630724
 21
0.270382215
 31
0.0
  0
LINE
  5
14A
330
1F
100
AcDbEntity
  8
0
  6
Continuous
 62
     7
370
    25
100
AcDbLine
 10
0.8478630724
 20
0.2870822444
 30
0.0
 11
0.6287435236
 21
0.2870822444
 31
0.0
  0
LINE
  5
14B
330
1F
100
AcDbEntity
  8
0
  6
Continuous
 62
     7
370
    25
100
AcDbLine
 10
0.59788453
 20
0.2870822444
 30
0.0
 11
0.3683731498
 21
0.2870822444
 31
0.0
  0
LINE
  5
14C
330
1F
100
AcDbEntity
  8
0
  6
Continuous
 62
     7
370
    25
100
AcDbLine
 10
0.3375141563
 20
0.2870822444
 30
0.0
 11
0.1079076471
 21
0.2870822444
 31
0.0
  0
LINE
  5
14D
330
1F
100
AcDbEntity
  8
0
  6
Continuous
 62
     7
370
    25
100
AcDbLine
 10
0.1079076471
 20
0.5383822217
 30
0.0
 11
0.3375141563
 21
0.5383822217
 31
0.0
  0
LINE
  5
14E
330
1F
100
AcDbEntity
  8
0
  6
Continuous
 62
     7
370
    25
100
AcDbLine
 10
0.3683731498
 20
0.5383822217
 30
0.0
 11
0.59788453
 21
0.5383822217
 31
0.0
  0
LINE
  5
14F
330
1F
100
AcDbEntity
  8
0
  6
Continuous
 62
     7
370
    25
100
AcDbLine
 10
0.6287435236
 20
0.5383822217
 30
0.0
 11
0.8478630724
 21
0.5383822217
 31
0.0
  0
LINE
  5
150
330
1F
100
AcDbEntity
  8
0
  6
Continuous
 62
     7
370
    25
100
AcDbLine
 10
0.8478630724
 20
0.5550822511
 30
0.0
 11
0.6342105808
 21
0.5550822511
 31
0.0
  0
LINE
  5
151
330
1F
100
AcDbEntity
  8
0
  6
Continuous
 62
     7
370
    25
100
AcDbLine
 10
0.5925331058
 20
0.5550822511
 30
0.0
 11
0.3738402071
 21
0.5550822511
 31
0.0
  0
LINE
  5
152
330
1F
100
AcDbEntity
  8
0
  6
Continuous
 62
     7
370
    25
100
AcDbLine
 10
0.3321627321
 20
0.5550822511
 30
0.0
 11
0.1133747043
 21
0.5550822511
 31
0.0
  0
LINE
  5
153
330
1F
100
AcDbEntity
  8
0
  6
Continuous
 62
     7
370
    25
100
AcDbLine
 10
-0.6632369218
 20
0.5351741805
 30
0.0
 11
-0.4379112778
 21
0.5361308351
 31
0.0
  0
LINE
  5
154
330
1F
100
AcDbEntity
  8
0
  6
Continuous
 62
     7
370
    25
100
AcDbLine
 10
-0.4117081223
 20
0.5362421766
 30
0.0
 11
-0.1788194237
 21
0.5372310176
 31
0.0
  0
LINE
  5
155
330
1F
100
AcDbEntity
  8
0
  6
Continuous
 62
     7
370
    25
100
AcDbLine
 10
-0.1500953493
 20
0.5373529687
 30
0.0
 11
0.0767795982
 21
0.5383161798
 31
0.0
  0
LINE
  5
156
330
1F
100
AcDbEntity
  8
0
  6
Continuous
 62
     7
370
    25
100
AcDbLine
 10
0.0712417307
 20
0.5549928441
 30
0.0
 11
-0.1436684189
 21
0.5540804162
 31
0.0
  0
LINE
  5
157
330
1F
100
AcDbEntity
  8
0
  6
Continuous
 62
     7
370
    25
100
AcDbLine
 10
-0.1855286417
 20
0.5539026752
 30
0.0
 11
-0.4039982019
 21
0.5529749885
 31
0.0
  0
LINE
  5
158
330
1F
100
AcDbEntity
  8
0
  6
Continuous
 62
     7
370
    25
100
AcDbLine
 10
-0.4459312616
 20
0.552797009
 30
0.0
 11
-0.6632369218
 21
0.5518743291
 31
0.0
  0
LINE
  5
159
330
1F
100
AcDbEntity
  8
0
  6
Continuous
 62
     7
370
    25
100
AcDbLine
 10
-0.1437528191
 20
0.270382215
 30
0.0
 11
0.0712515058
 21
0.270382215
 31
0.0
  0
LINE
  5
15A
330
1F
100
AcDbEntity
  8
0
  6
Continuous
 62
     7
370
    25
100
AcDbLine
 10
0.076718563
 20
0.2870822444
 30
0.0
 11
-0.1491042433
 21
0.2870822444
 31
0.0
  0
LINE
  5
15B
330
1F
100
AcDbEntity
  8
0
  6
Continuous
 62
     7
370
    25
100
AcDbLine
 10
-0.4041232524
 20
0.2703823343
 30
0.0
 11
-0.1854302941
 21
0.2703823343
 31
0.0
  0
LINE
  5
15C
330
1F
100
AcDbEntity
  8
0
  6
Continuous
 62
     7
370
    25
100
AcDbLine
 10
-0.1799632368
 20
0.2870822444
 30
0.0
 11
-0.409474617
 21
0.2870822444
 31
0.0
  0
LINE
  5
15D
330
1F
100
AcDbEntity
  8
0
  6
Continuous
 62
     7
370
    25
100
AcDbLine
 10
-0.6632369218
 20
0.2703823343
 30
0.0
 11
-0.4458006678
 21
0.2703823343
 31
0.0
  0
LINE
  5
15E
330
1F
100
AcDbEntity
  8
0
  6
Continuous
 62
     7
370
    25
100
AcDbLine
 10
-0.4403336106
 20
0.2870822444
 30
0.0
 11
-0.6632369218
 21
0.2870823636
 31
0.0
  0
LINE
  5
15F
330
1F
100
AcDbEntity
  8
0
  6
Continuous
 62
     7
370
    25
100
AcDbLine
 10
-0.4163890539
 20
0.5722102418
 30
0.0
 11
-0.4163891135
 21
0.7825822129
 31
0.0
  0
LINE
  5
160
330
1F
100
AcDbEntity
  8
0
  6
Continuous
 62
     7
370
    25
100
AcDbLine
 10
-0.4330890832
 20
0.7825822129
 30
0.0
 11
-0.4330890832
 21
0.5722102418
 31
0.0
  0
LINE
  5
161
330
1F
100
AcDbEntity
  8
0
  6
Continuous
 62
     7
370
    25
100
AcDbLine
 10
-0.4163890539
 20
0.0428822532
 30
0.0
 11
-0.4163890539
 21
0.2532543435
 31
0.0
  0
LINE
  5
162
330
1F
100
AcDbEntity
  8
0
  6
Continuous
 62
     7
370
    25
100
AcDbLine
 10
-0.4163890539
 20
0.2922101512
 30
0.0
 11
-0.4163890539
 21
0.5332543149
 31
0.0
  0
LINE
  5
163
330
1F
100
AcDbEntity
  8
0
  6
Continuous
 62
     7
370
    25
100
AcDbLine
 10
-0.4330890832
 20
0.5332543149
 30
0.0
 11
-0.4330890832
 21
0.2922101512
 31
0.0
  0
LINE
  5
164
330
1F
100
AcDbEntity
  8
0
  6
Continuous
 62
     7
370
    25
100
AcDbLine
 10
-0.4330890832
 20
0.2532543435
 30
0.0
 11
-0.4330890832
 21
0.0428822532
 31
0.0
  0
LINE
  5
165
330
1F
100
AcDbEntity
  8
0
  6
Continuous
 62
     7
370
    25
100
AcDbLine
 10
-0.1560187397
 20
0.0428822532
 30
0.0
 11
-0.1560187397
 21
0.2532543435
 31
0.0
  0
LINE
  5
166
330
1F
100
AcDbEntity
  8
0
  6
Continuous
 62
     7
370
    25
100
AcDbLine
 10
-0.1560187397
 20
0.2922101512
 30
0.0
 11
-0.1560187397
 21
0.5332543149
 31
0.0
  0
LINE
  5
167
330
1F
100
AcDbEntity
  8
0
  6
Continuous
 62
     7
370
    25
100
AcDbLine
 10
-0.1727186499
 20
0.5332543149
 30
0.0
 11
-0.1727186499
 21
0.2922101512
 31
0.0
  0
LINE
  5
168
330
1F
100
AcDbEntity
  8
0
  6
Continuous
 62
     7
370
    25
100
AcDbLine
 10
-0.1727186499
 20
0.2532543435
 30
0.0
 11
-0.1727186499
 21
0.0428822532
 31
0.0
  0
LINE
  5
169
330
1F
100
AcDbEntity
  8
0
  6
Continuous
 62
     7
370
    25
100
AcDbLine
 10
-0.1560187397
 20
0.5722102418
 30
0.0
 11
-0.1560187397
 21
0.7825822129
 31
0.0
  0
LINE
  5
16A
330
1F
100
AcDbEntity
  8
0
  6
Continuous
 62
     7
370
    25
100
AcDbLine
 10
-0.1727186499
 20
0.7825822129
 30
0.0
 11
-0.1727186499
 21
0.5722102418
 31
0.0
  0
LINE
  5
16B
330
1F
100
AcDbEntity
  8
0
  6
Continuous
 62
     7
370
    25
100
AcDbLine
 10
0.8566607179
 20
0.8428822055
 30
0.0
 11
-0.6720991788
 21
0.8428822055
 31
0.0
  0
LINE
  5
16C
330
1F
100
AcDbEntity
  8
0
  6
Continuous
 62
     7
370
    25
100
AcDbLine
 10
-0.6720345078
 20
0.7825822129
 30
0.0
 11
0.8567255678
 21
0.7825822129
 31
0.0
  0
LINE
  5
16D
330
1F
100
AcDbEntity
  8
0
  6
Continuous
 62
     7
370
    25
100
AcDbLine
 10
0.8566607179
 20
0.0428822532
 30
0.0
 11
-0.672099298
 21
0.0428822532
 31
0.0
  0
LINE
  5
16E
330
1F
100
AcDbEntity
  8
0
  6
Continuous
 62
     7
370
    25
100
AcDbLine
 10
-0.6720345674
 20
-0.0174178586
 30
0.0
 11
0.8567255678
 21
-0.0174178586
 31
0.0
  0
LINE
  5
16F
330
1F
100
AcDbEntity
  8
0
  6
Continuous
 62
     7
370
    25
100
AcDbLine
 10
-1.5441869257
 20
0.6427323117
 30
0.0
 11
-1.5631869195
 21
0.6427323117
 31
0.0
  0
LINE
  5
170
330
1F
100
AcDbEntity
  8
0
  6
Continuous
 62
     7
370
    25
100
AcDbLine
 10
-1.5631869195
 20
0.1827321544
 30
0.0
 11
-1.5441869257
 21
0.1827321544
 31
0.0
  0
LINE
  5
171
330
1F
100
AcDbEntity
  8
0
  6
Continuous
 62
     7
370
    25
100
AcDbLine
 10
0.8558131399
 20
-0.2281114564
 30
0.0
 11
0.8468130769
 21
-0.2281114564
 31
0.0
  0
LINE
  5
172
330
1F
100
AcDbEntity
  8
0
  6
Continuous
 62
     7
370
    25
100
AcDbLine
 10
0.8468130769
 20
-0.2881116376
 30
0.0
 11
0.8558131399
 21
-0.2881116376
 31
0.0
  0
ARC
  5
173
330
1F
100
AcDbEntity
  8
0
  6
Continuous
 62
     7
370
    25
100
AcDbCircle
 10
0.846813078
 20
-0.27811156
 30
0.0
 40
0.0100000000000002
100
AcDbArc
 50
180.0
 51
270.0
  0
ARC
  5
174
330
1F
100
AcDbEntity
  8
0
  6
Continuous
 62
     7
370
    25
100
AcDbCircle
 10
0.846813078
 20
-0.23811156
 30
0.0
 40
0.0100000000000002
100
AcDbArc
 50
90.0
 51
180.0
  0
ARC
  5
175
330
1F
100
AcDbEntity
  8
0
  6
Continuous
 62
     7
370
    25
100
AcDbCircle
 10
0.846813078
 20
-0.6586674977
 30
0.0
 40
0.0099999999999998
100
AcDbArc
 50
180.0
 51
270.0
  0
ARC
  5
176
330
1F
100
AcDbEntity
  8
0
  6
Continuous
 62
     7
370
    25
100
AcDbCircle
 10
0.846813078
 20
-0.6186674977
 30
0.0
 40
0.0099999999999998
100
AcDbArc
 50
90.0
 51
180.0
  0
LINE
  5
177
330
1F
100
AcDbEntity
  8
0
  6
Continuous
 62
     7
370
    25
100
AcDbLine
 10
0.8558131399
 20
-0.6086675629
 30
0.0
 11
0.8468130769
 21
-0.6086675629
 31
0.0
  0
LINE
  5
178
330
1F
100
AcDbEntity
  8
0
  6
Continuous
 62
     7
370
    25
100
AcDbLine
 10
0.8468130769
 20
-0.6686675057
 30
0.0
 11
0.8558131399
 21
-0.6686675057
 31
0.0
  0
LINE
  5
179
330
1F
100
AcDbEntity
  8
0
  6
Continuous
 62
     7
370
    25
100
AcDbLine
 10
1.7378131094
 20
0.5443860784
 30
0.0
 11
1.7288130464
 21
0.5443860784
 31
0.0
  0
LINE
  5
17A
330
1F
100
AcDbEntity
  8
0
  6
Continuous
 62
     7
370
    25
100
AcDbLine
 10
1.7288130464
 20
0.4623519674
 30
0.0
 11
1.7378131094
 21
0.4623519674
 31
0.0
  0
LINE
  5
17B
330
1F
100
AcDbEntity
  8
0
  6
Continuous
 62
     7
370
    25
100
AcDbLine
 10
1.7288130464
 20
0.3935505643
 30
0.0
 11
1.7378131094
 21
0.3935505643
 31
0.0
  0
LINE
  5
17C
330
1F
100
AcDbEntity
  8
0
  6
Continuous
 62
     7
370
    25
100
AcDbLine
 10
1.7378131094
 20
0.2384886041
 30
0.0
 11
1.7498131933
 21
0.2384886041
 31
0.0
  0
LINE
  5
17D
330
1F
100
AcDbEntity
  8
0
  6
Continuous
 62
     7
370
    25
100
AcDbLine
 10
1.7498131933
 20
0.3221683994
 30
0.0
 11
1.7378131094
 21
0.3221683994
 31
0.0
  0
LINE
  5
17E
330
1F
100
AcDbEntity
  8
0
  6
Continuous
 62
     7
370
    25
100
AcDbLine
 10
1.7498131933
 20
0.4319139018
 30
0.0
 11
1.7378131094
 21
0.4319139018
 31
0.0
  0
LINE
  5
17F
330
1F
100
AcDbEntity
  8
0
  6
Continuous
 62
     7
370
    25
100
AcDbLine
 10
0.9334455671
 20
-0.8041176305
 30
0.0
 11
1.6511806192
 21
-0.8041176305
 31
0.0
  0
LINE
  5
180
330
1F
100
AcDbEntity
  8
0
  6
Continuous
 62
     7
370
    25
100
AcDbLine
 10
1.6511744203
 20
-0.7704176411
 30
0.0
 11
0.933451766
 21
-0.7704176411
 31
0.0
  0
ARC
  5
181
330
1F
100
AcDbEntity
  8
0
  6
Continuous
 62
     7
370
    25
100
AcDbCircle
 10
-0.236199881
 20
2.5623667186
 30
0.0
 40
0.0168500000000001
100
AcDbArc
 50
355.9992194812
 51
175.9992194812
  0
LWPOLYLINE
  5
182
330
1F
100
AcDbEntity
  8
0
  6
Continuous
 62
     7
370
    25
100
AcDbPolyline
 90
       30
 70
   128
 43
0.0
 10
-0.2530088482
 20
2.5635423556
 10
-0.2530214844
 20
2.5633621111
 10
-0.2530591545
 20
2.5628218248
 10
-0.253122097
 20
2.5619227781
 10
-0.2532099543
 20
2.5606671467
 10
-0.2533224879
 20
2.5590580001
 10
-0.2534594593
 20
2.5570991233
 10
-0.2536206303
 20
2.5547953143
 10
-0.2538054047
 20
2.5521520868
 10
-0.2540136633
 20
2.549175848
 10
-0.2542445717
 20
2.5458736911
 10
-0.2544977722
 20
2.5422536328
 10
-0.2547725497
 20
2.5383243754
 10
-0.2550683079
 20
2.5340953961
 10
-0.2553843317
 20
2.5295768872
 10
-0.2557199059
 20
2.5247796967
 10
-0.2560740767
 20
2.5197154179
 10
-0.2564461289
 20
2.5143962398
 10
-0.2568351088
 20
2.5088349774
 10
-0.2572400627
 20
2.503045012
 10
-0.2576600371
 20
2.4970403209
 10
-0.2580939589
 20
2.4908353582
 10
-0.2585408745
 20
2.4844450846
 10
-0.2589997111
 20
2.4778848484
 10
-0.2594693957
 20
2.4711705044
 10
-0.259948617
 20
2.4643182054
 10
-0.2604363022
 20
2.4573444619
 10
-0.2609313784
 20
2.4502660825
 10
-0.2614326535
 20
2.4431001141
 10
-0.261447793
 20
2.4428822591
  0
LWPOLYLINE
  5
183
330
1F
100
AcDbEntity
  8
0
  6
Continuous
 62
     7
370
    25
100
AcDbPolyline
 90
       29
 70
   128
 43
0.0
 10
-0.2276655493
 20
2.4428822591
 10
-0.2273135243
 20
2.4479148283
 10
-0.2268184481
 20
2.4549932077
 10
-0.2263307629
 20
2.4619669512
 10
-0.2258514223
 20
2.4688192501
 10
-0.2253818569
 20
2.4755335942
 10
-0.2249230204
 20
2.4820938304
 10
-0.2244761048
 20
2.4884841039
 10
-0.224042183
 20
2.4946890965
 10
-0.2236222086
 20
2.5006937876
 10
-0.2232172547
 20
2.5064837232
 10
-0.2228282748
 20
2.5120449856
 10
-0.2224562226
 20
2.5173641637
 10
-0.2221020518
 20
2.5224284425
 10
-0.2217664776
 20
2.5272256329
 10
-0.2214504538
 20
2.5317441716
 10
-0.2211546955
 20
2.535973151
 10
-0.2208799181
 20
2.5399023786
 10
-0.2206267176
 20
2.5435224369
 10
-0.22039569
 20
2.5468245938
 10
-0.2201875506
 20
2.5498008623
 10
-0.220002657
 20
2.5524440601
 10
-0.2198416052
 20
2.554747869
 10
-0.2197046337
 20
2.5567067459
 10
-0.219591981
 20
2.5583159223
 10
-0.2195042429
 20
2.5595715239
 10
-0.2194413004
 20
2.5604705706
 10
-0.2194035111
 20
2.5610108569
 10
-0.2193909941
 20
2.5611911013
  0
ARC
  5
184
330
1F
100
AcDbEntity
  8
0
  6
Continuous
 62
     7
370
    25
100
AcDbCircle
 10
0.5553196162
 20
2.5605980353
 30
0.0
 40
0.0168500000000001
100
AcDbArc
 50
9.6767093668
 51
189.6767093668
  0
LWPOLYLINE
  5
185
330
1F
100
AcDbEntity
  8
0
  6
Continuous
 62
     7
370
    25
100
AcDbPolyline
 90
       29
 70
   128
 43
0.0
 10
0.5387093963
 20
2.5577657416
 10
0.5387396755
 20
2.5575876429
 10
0.5388307514
 20
2.5570537343
 10
0.5389822664
 20
2.5561653271
 10
0.5391938629
 20
2.5549245372
 10
0.5394649448
 20
2.5533343747
 10
0.5397950353
 20
2.551398684
 10
0.5401831808
 20
2.5491221144
 10
0.5406286659
 20
2.5465101197
 10
0.5411300602
 20
2.5435690477
 10
0.5416865291
 20
2.5403059318
 10
0.5422965231
 20
2.5367286697
 10
0.5429586115
 20
2.5328458741
 10
0.5436711254
 20
2.5286668732
 10
0.5444325151
 20
2.5242017403
 10
0.5452408733
 20
2.5194612637
 10
0.5460941734
 20
2.5144568577
 10
0.5469903888
 20
2.5092005625
 10
0.5479274931
 20
2.5037050142
 10
0.5489031019
 20
2.4979835048
 10
0.5499149503
 20
2.492049773
 10
0.5509604158
 20
2.4859181538
 10
0.5520372333
 20
2.4796033993
 10
0.5531425419
 20
2.4731207385
 10
0.5542739572
 20
2.4664857581
 10
0.5554284992
 20
2.459714432
 10
0.5566036644
 20
2.4528231218
 10
0.5577963533
 20
2.4458284273
 10
0.5582987013
 20
2.4428822591
  0
LWPOLYLINE
  5
186
330
1F
100
AcDbEntity
  8
0
  6
Continuous
 62
     7
370
    25
100
AcDbPolyline
 90
       30
 70
   128
 43
0.0
 10
0.5924850645
 20
2.4428822591
 10
0.5922243538
 20
2.4444117441
 10
0.5910168829
 20
2.4514930144
 10
0.5898241939
 20
2.4584877088
 10
0.5886490287
 20
2.465379019
 10
0.5874944868
 20
2.4721503451
 10
0.5863630714
 20
2.4787853255
 10
0.5852577629
 20
2.4852679863
 10
0.5841809454
 20
2.4915827408
 10
0.5831353607
 20
2.49771436
 10
0.5821236314
 20
2.5036480918
 10
0.5811480226
 20
2.5093696013
 10
0.5802109184
 20
2.5148651495
 10
0.579314703
 20
2.5201214447
 10
0.5784614029
 20
2.5251258507
 10
0.5776530447
 20
2.5298663571
 10
0.5768916549
 20
2.5343314603
 10
0.5761790218
 20
2.5385104611
 10
0.5755170526
 20
2.5423932567
 10
0.5749070587
 20
2.5459705188
 10
0.5743505897
 20
2.5492336347
 10
0.5738490762
 20
2.5521747067
 10
0.5734037103
 20
2.5547867015
 10
0.5730155649
 20
2.5570632711
 10
0.5726854744
 20
2.5589989915
 10
0.5724143924
 20
2.5605891242
 10
0.572202796
 20
2.5618299141
 10
0.5720512809
 20
2.5627183213
 10
0.571960205
 20
2.5632522299
 10
0.5719299259
 20
2.5634303286
  0
ARC
  5
187
330
1F
100
AcDbEntity
  8
0
  6
Continuous
 62
     7
370
    25
100
AcDbCircle
 10
0.0853784782
 20
2.5502054584
 30
0.0
 40
0.01685
100
AcDbArc
 50
336.417939065
 51
156.417939065
  0
LWPOLYLINE
  5
188
330
1F
100
AcDbEntity
  8
0
  6
Continuous
 62
     7
370
    25
100
AcDbPolyline
 90
       30
 70
   128
 43
0.0
 10
0.0699356737
 20
2.5569465056
 10
0.0698633136
 20
2.5567809239
 10
0.0696467104
 20
2.5562845364
 10
0.0692861023
 20
2.555458565
 10
0.0687825622
 20
2.5543050065
 10
0.0681372823
 20
2.5528266027
 10
0.0673516931
 20
2.5510269597
 10
0.0664277019
 20
2.5489103689
 10
0.0653676929
 20
2.5464819863
 10
0.0641741695
 20
2.5437475934
 10
0.0628498735
 20
2.5407138362
 10
0.0613980236
 20
2.5373879864
 10
0.0598223152
 20
2.5337780907
 10
0.0581263246
 20
2.5298928216
 10
0.0563142242
 20
2.5257415369
 10
0.0543903055
 20
2.5213342204
 10
0.0523593368
 20
2.5166815415
 10
0.0502260866
 20
2.5117946758
 10
0.0479958
 20
2.5066853657
 10
0.0456738414
 20
2.501365979
 10
0.0432656946
 20
2.4958493307
 10
0.0407773199
 20
2.490148653
 10
0.0382145586
 20
2.4842777147
 10
0.0355836096
 20
2.4782506719
 10
0.0328909101
 20
2.4720820084
 10
0.0301428976
 20
2.4657866254
 10
0.0273461284
 20
2.4593796625
 10
0.0245073976
 20
2.4528765574
 10
0.0216336193
 20
2.4462929859
 10
0.0201446953
 20
2.4428822591
  0
LWPOLYLINE
  5
189
330
1F
100
AcDbEntity
  8
0
  6
Continuous
 62
     7
370
    25
100
AcDbPolyline
 90
       28
 70
   128
 43
0.0
 10
0.0569155159
 20
2.4428822591
 10
0.0582318248
 20
2.4458975687
 10
0.0610284748
 20
2.4523045316
 10
0.0637766065
 20
2.4585999146
 10
0.066469306
 20
2.4647685781
 10
0.0691001358
 20
2.4707956209
 10
0.0716628971
 20
2.4766665592
 10
0.074151391
 20
2.4823672369
 10
0.0765595379
 20
2.4878838852
 10
0.0788814964
 20
2.4932032719
 10
0.081111783
 20
2.498312582
 10
0.0832450332
 20
2.5031994477
 10
0.0852760019
 20
2.5078521266
 10
0.0871998014
 20
2.5122594431
 10
0.0890119018
 20
2.5164107278
 10
0.0907078924
 20
2.5202959969
 10
0.09228372
 20
2.5239059224
 10
0.0937354507
 20
2.5272317424
 10
0.0950597467
 20
2.5302654996
 10
0.0962533893
 20
2.5329998925
 10
0.0973133983
 20
2.5354282751
 10
0.0982372703
 20
2.5375448659
 10
0.0990228595
 20
2.5393445089
 10
0.0996682586
 20
2.5408229127
 10
0.1001717987
 20
2.5419764712
 10
0.1005322876
 20
2.5428024426
 10
0.1007490101
 20
2.5432988301
 10
0.1008212509
 20
2.5434644118
  0
ARC
  5
18A
330
1F
100
AcDbEntity
  8
0
  6
Continuous
 62
     7
370
    25
100
AcDbCircle
 10
0.3241875739
 20
2.5624214331
 30
0.0
 40
0.0168500000000001
100
AcDbArc
 50
3.6891118834
 51
183.6891118834
  0
LWPOLYLINE
  5
18B
330
1F
100
AcDbEntity
  8
0
  6
Continuous
 62
     7
370
    25
100
AcDbPolyline
 90
       29
 70
   128
 43
0.0
 10
0.3073724451
 20
2.5613372519
 10
0.3073841276
 20
2.5611569479
 10
0.3074189367
 20
2.560616453
 10
0.3074769916
 20
2.5597171083
 10
0.3075579347
 20
2.5584610298
 10
0.307661766
 20
2.5568512573
 10
0.3077881279
 20
2.554891695
 10
0.3079366626
 20
2.5525870516
 10
0.3081071319
 20
2.5499428406
 10
0.3082991781
 20
2.5469654992
 10
0.3085120859
 20
2.5436621502
 10
0.3087456169
 20
2.5400407806
 10
0.3089990558
 20
2.5361100927
 10
0.3092718067
 20
2.5318795636
 10
0.3095632734
 20
2.5273593857
 10
0.3098726215
 20
2.522560437
 10
0.3101993742
 20
2.5174943104
 10
0.3105424585
 20
2.5121731951
 10
0.3109011593
 20
2.5066098764
 10
0.3112745228
 20
2.5008178249
 10
0.3116618337
 20
2.4948109284
 10
0.3120620193
 20
2.4886037007
 10
0.312474245
 20
2.4822110727
 10
0.312897438
 20
2.4756484523
 10
0.3133304062
 20
2.4689316347
 10
0.3137724342
 20
2.4620768323
 10
0.3142222109
 20
2.4551005557
 10
0.3146787824
 20
2.4480195835
 10
0.315010065
 20
2.4428822591
  0
LWPOLYLINE
  5
18C
330
1F
100
AcDbEntity
  8
0
  6
Continuous
 62
     7
370
    25
100
AcDbPolyline
 90
       30
 70
   128
 43
0.0
 10
0.3487800302
 20
2.4428822591
 10
0.3487712087
 20
2.4430193498
 10
0.3483089151
 20
2.4501879409
 10
0.3478524627
 20
2.4572689131
 10
0.3474025669
 20
2.4642451897
 10
0.346960658
 20
2.4710999921
 10
0.3465275707
 20
2.4778168097
 10
0.3461043777
 20
2.4843794301
 10
0.3456922712
 20
2.490772058
 10
0.3452920856
 20
2.4969792857
 10
0.3449047746
 20
2.5029861822
 10
0.3445312919
 20
2.5087782338
 10
0.3441725912
 20
2.5143415227
 10
0.3438295068
 20
2.5196626678
 10
0.3435028734
 20
2.5247287944
 10
0.3431934061
 20
2.5295277133
 10
0.3429019394
 20
2.5340478912
 10
0.3426291885
 20
2.5382784202
 10
0.3423757496
 20
2.5422091081
 10
0.3421423378
 20
2.5458305075
 10
0.3419293108
 20
2.5491338566
 10
0.3417373838
 20
2.552111198
 10
0.3415667953
 20
2.5547553792
 10
0.3414182605
 20
2.5570600524
 10
0.3412918987
 20
2.5590196147
 10
0.3411880674
 20
2.5606293574
 10
0.3411071243
 20
2.5618854358
 10
0.3410491886
 20
2.5627848103
 10
0.3410142603
 20
2.5633253052
 10
0.341002697
 20
2.5635056093
  0
ARC
  5
18D
330
1F
100
AcDbEntity
  8
0
  6
Continuous
 62
     7
370
    25
100
AcDbCircle
 10
0.6057462199
 20
2.2648664718
 30
0.0
 40
0.0168500000000001
100
AcDbArc
 50
189.6767093668
 51
9.6767093668
  0
LWPOLYLINE
  5
18E
330
1F
100
AcDbEntity
  8
0
  6
Continuous
 62
     7
370
    25
100
AcDbPolyline
 90
       30
 70
   128
 43
0.0
 10
0.5685807409
 20
2.3825822517
 10
0.5688415708
 20
2.3810527816
 10
0.5700490417
 20
2.3739715114
 10
0.5712417307
 20
2.3669767871
 10
0.5724167766
 20
2.3600854769
 10
0.5735713186
 20
2.3533141806
 10
0.574702734
 20
2.3466791853
 10
0.5758081617
 20
2.3401965096
 10
0.57688486
 20
2.3338817551
 10
0.5779304447
 20
2.3277501359
 10
0.5789421739
 20
2.321816419
 10
0.5799177828
 20
2.3160949021
 10
0.580854887
 20
2.3105993688
 10
0.5817511024
 20
2.3053430587
 10
0.5826045217
 20
2.3003386452
 10
0.5834127607
 20
2.2955981612
 10
0.5841741504
 20
2.2911330506
 10
0.5848867836
 20
2.2869540572
 10
0.585548872
 20
2.2830712467
 10
0.5861588659
 20
2.2794939845
 10
0.5867152157
 20
2.2762308761
 10
0.5872167291
 20
2.2732897892
 10
0.587662095
 20
2.2706778094
 10
0.5880502405
 20
2.2684012249
 10
0.588380331
 20
2.2664655268
 10
0.5886515321
 20
2.2648753792
 10
0.5888630094
 20
2.2636346042
 10
0.5890145244
 20
2.2627461895
 10
0.5891056003
 20
2.2622122883
 10
0.5891359987
 20
2.2620341748
  0
LWPOLYLINE
  5
18F
330
1F
100
AcDbEntity
  8
0
  6
Continuous
 62
     7
370
    25
100
AcDbPolyline
 90
       29
 70
   128
 43
0.0
 10
0.6223565283
 20
2.2676987692
 10
0.6223261299
 20
2.2678768754
 10
0.622235054
 20
2.2684107765
 10
0.622083539
 20
2.2692991912
 10
0.6218720617
 20
2.2705399662
 10
0.6216008606
 20
2.2721301213
 10
0.62127077
 20
2.2740658193
 10
0.6208826246
 20
2.2763423964
 10
0.6204372587
 20
2.2789543762
 10
0.6199357452
 20
2.2818954631
 10
0.6193792762
 20
2.2851585716
 10
0.6187694015
 20
2.2887358337
 10
0.6181073131
 20
2.2926186442
 10
0.61739468
 20
2.2967976376
 10
0.6166332903
 20
2.3012627557
 10
0.6158250513
 20
2.3060032323
 10
0.614971632
 20
2.3110076531
 10
0.6140754165
 20
2.3162639632
 10
0.6131383123
 20
2.3217594817
 10
0.6121627035
 20
2.327481006
 10
0.6111509742
 20
2.3334147229
 10
0.6101053896
 20
2.3395463422
 10
0.6090286913
 20
2.3458610966
 10
0.6079232635
 20
2.3523437723
 10
0.6067918482
 20
2.3589787677
 10
0.6056373062
 20
2.3657500639
 10
0.6044622602
 20
2.3726413741
 10
0.6032694521
 20
2.3796360984
 10
0.6027671041
 20
2.3825822517
  0
ARC
  5
190
330
1F
100
AcDbEntity
  8
0
  6
Continuous
 62
     7
370
    25
100
AcDbCircle
 10
0.3434903748
 20
2.263043074
 30
0.0
 40
0.0168500000000001
100
AcDbArc
 50
183.6891118834
 51
3.6891118834
  0
LWPOLYLINE
  5
191
330
1F
100
AcDbEntity
  8
0
  6
Continuous
 62
     7
370
    25
100
AcDbPolyline
 90
       30
 70
   128
 43
0.0
 10
0.3188979568
 20
2.3825822517
 10
0.3189067783
 20
2.3824451759
 10
0.3193689527
 20
2.37527657
 10
0.3198255243
 20
2.3681955978
 10
0.3202753009
 20
2.3612193212
 10
0.320717329
 20
2.3543645039
 10
0.3211504163
 20
2.3476477012
 10
0.3215734901
 20
2.3410850957
 10
0.3219857158
 20
2.3346924677
 10
0.3223859014
 20
2.3284852251
 10
0.3227732124
 20
2.3224783435
 10
0.3231466951
 20
2.3166862622
 10
0.3235053959
 20
2.3111229732
 10
0.3238484802
 20
2.3058018431
 10
0.3241751136
 20
2.3007357165
 10
0.324484581
 20
2.2959367826
 10
0.3247759285
 20
2.2914166048
 10
0.3250486793
 20
2.2871860757
 10
0.3253021183
 20
2.2832553878
 10
0.3255356493
 20
2.2796340108
 10
0.3257486763
 20
2.2763306617
 10
0.3259406032
 20
2.2733533129
 10
0.3261110725
 20
2.2707091242
 10
0.3262597265
 20
2.2684044659
 10
0.3263860883
 20
2.2664448961
 10
0.3264898004
 20
2.2648351386
 10
0.3265708627
 20
2.2635790601
 10
0.3266287985
 20
2.2626796931
 10
0.3266636076
 20
2.2621392056
 10
0.3266752901
 20
2.2619589015
  0
LWPOLYLINE
  5
192
330
1F
100
AcDbEntity
  8
0
  6
Continuous
 62
     7
370
    25
100
AcDbPolyline
 90
       29
 70
   128
 43
0.0
 10
0.3603054228
 20
2.2641272515
 10
0.3602938595
 20
2.2643075555
 10
0.3602589311
 20
2.264848043
 10
0.3602009954
 20
2.26574741
 10
0.3601200523
 20
2.267003481
 10
0.360016221
 20
2.268613246
 10
0.3598898592
 20
2.2705728158
 10
0.3597413244
 20
2.2728774666
 10
0.3595707359
 20
2.2755216553
 10
0.3593788089
 20
2.2784990117
 10
0.3591657819
 20
2.2818023607
 10
0.3589323702
 20
2.2854237377
 10
0.3586789312
 20
2.2893544256
 10
0.3584061804
 20
2.2935849547
 10
0.3581147136
 20
2.2981051251
 10
0.3578052463
 20
2.302904059
 10
0.3574786129
 20
2.307970193
 10
0.3571355285
 20
2.3132913157
 10
0.3567768278
 20
2.3188546195
 10
0.3564033451
 20
2.324646686
 10
0.3560160341
 20
2.3306535825
 10
0.3556158485
 20
2.3368608102
 10
0.355203742
 20
2.3432534381
 10
0.354780549
 20
2.3498160585
 10
0.3543474617
 20
2.3565328613
 10
0.3539055528
 20
2.3633876636
 10
0.353455657
 20
2.3703639552
 10
0.3529992046
 20
2.3774449274
 10
0.352667922
 20
2.3825822517
  0
ARC
  5
193
330
1F
100
AcDbEntity
  8
0
  6
Continuous
 62
     7
370
    25
100
AcDbCircle
 10
-0.0346401529
 20
2.2752590487
 30
0.0
 40
0.01685
100
AcDbArc
 50
156.417939065
 51
336.417939065
  0
LWPOLYLINE
  5
194
330
1F
100
AcDbEntity
  8
0
  6
Continuous
 62
     7
370
    25
100
AcDbPolyline
 90
       28
 70
   128
 43
0.0
 10
-0.0061771927
 20
2.3825822517
 10
-0.0074935017
 20
2.3795669421
 10
-0.0102901516
 20
2.3731599792
 10
-0.0130382834
 20
2.3668645814
 10
-0.0157309828
 20
2.3606959328
 10
-0.0183618126
 20
2.354668875
 10
-0.0209245739
 20
2.3487979516
 10
-0.0234130678
 20
2.343097274
 10
-0.0258212147
 20
2.3375806108
 10
-0.0281431732
 20
2.3322612241
 10
-0.0303734598
 20
2.3271519437
 10
-0.0325067101
 20
2.3222650632
 10
-0.0345376787
 20
2.3176123693
 10
-0.0364614783
 20
2.3132050752
 10
-0.0382735787
 20
2.3090537831
 10
-0.0399695692
 20
2.3051685065
 10
-0.0415453968
 20
2.3015585959
 10
-0.0429971276
 20
2.298232761
 10
-0.0443214236
 20
2.2951989963
 10
-0.0455150662
 20
2.2924646183
 10
-0.0465750752
 20
2.2900362208
 10
-0.0474989472
 20
2.287919645
 10
-0.0482845364
 20
2.2861199945
 10
-0.0489299355
 20
2.2846416056
 10
-0.0494334755
 20
2.2834880322
 10
-0.0497939644
 20
2.2826620683
 10
-0.0500106869
 20
2.2821656882
 10
-0.0500829277
 20
2.2820000916
  0
LWPOLYLINE
  5
195
330
1F
100
AcDbEntity
  8
0
  6
Continuous
 62
     7
370
    25
100
AcDbPolyline
 90
       30
 70
   128
 43
0.0
 10
-0.0191973505
 20
2.2685180053
 10
-0.0191249905
 20
2.2686835944
 10
-0.0189083872
 20
2.2691799745
 10
-0.0185477791
 20
2.2700059458
 10
-0.0180442391
 20
2.2711595118
 10
-0.0173989592
 20
2.2726379007
 10
-0.01661337
 20
2.2744375512
 10
-0.0156893788
 20
2.276554127
 10
-0.0146293698
 20
2.2789825245
 10
-0.0134358464
 20
2.2817169025
 10
-0.0121115504
 20
2.2847506672
 10
-0.0106597004
 20
2.2880765095
 10
-0.009083992
 20
2.2916864127
 10
-0.0073880015
 20
2.2955716967
 10
-0.0055759011
 20
2.2997229814
 10
-0.0036519823
 20
2.304130283
 10
-0.0016210137
 20
2.3087829694
 10
0.0005122366
 20
2.3136698424
 10
0.0027425232
 20
2.3187791302
 10
0.0050644817
 20
2.324098517
 10
0.0074726286
 20
2.3296151802
 10
0.0099610033
 20
2.3353158578
 10
0.0125237646
 20
2.3411867812
 10
0.0151547136
 20
2.347213839
 10
0.017847413
 20
2.3533824876
 10
0.0205954256
 20
2.3596778854
 10
0.0233921947
 20
2.3660848483
 10
0.0262309255
 20
2.3725879386
 10
0.0291047039
 20
2.37917151
 10
0.0305936279
 20
2.3825822517
  0
ARC
  5
196
330
1F
100
AcDbEntity
  8
0
  6
Continuous
 62
     7
370
    25
100
AcDbCircle
 10
-0.2571308999
 20
2.2630977886
 30
0.0
 40
0.0168500000000001
100
AcDbArc
 50
175.9992194812
 51
355.9992194812
  0
LWPOLYLINE
  5
197
330
1F
100
AcDbEntity
  8
0
  6
Continuous
 62
     7
370
    25
100
AcDbPolyline
 90
       29
 70
   128
 43
0.0
 10
-0.2656652985
 20
2.3825822517
 10
-0.2660172043
 20
2.3775496676
 10
-0.2665122805
 20
2.3704712882
 10
-0.2670000849
 20
2.3634975448
 10
-0.2674793063
 20
2.3566452458
 10
-0.2679488716
 20
2.3499309018
 10
-0.2684077082
 20
2.3433706805
 10
-0.2688546238
 20
2.336980392
 10
-0.2692886648
 20
2.3307754293
 10
-0.2697086392
 20
2.3247707381
 10
-0.2701135931
 20
2.3189807728
 10
-0.270502573
 20
2.3134195178
 10
-0.270874506
 20
2.3081003323
 10
-0.271228796
 20
2.3030360534
 10
-0.271564251
 20
2.2982388705
 10
-0.2718802748
 20
2.2937203466
 10
-0.2721760331
 20
2.2894913673
 10
-0.2724509297
 20
2.2855621174
 10
-0.2727041302
 20
2.2819420591
 10
-0.2729350386
 20
2.2786399245
 10
-0.273143178
 20
2.275663656
 10
-0.2733280716
 20
2.2730204358
 10
-0.2734892426
 20
2.2707166269
 10
-0.2736262141
 20
2.2687577724
 10
-0.2737387476
 20
2.267148596
 10
-0.2738266049
 20
2.2658929795
 10
-0.2738894282
 20
2.2649939477
 10
-0.2739272175
 20
2.264453654
 10
-0.2739398537
 20
2.264273417
  0
LWPOLYLINE
  5
198
330
1F
100
AcDbEntity
  8
0
  6
Continuous
 62
     7
370
    25
100
AcDbPolyline
 90
       30
 70
   128
 43
0.0
 10
-0.2403219996
 20
2.2619221627
 10
-0.2403093634
 20
2.2621024072
 10
-0.2402715741
 20
2.2626426935
 10
-0.2402086315
 20
2.2635417327
 10
-0.2401208935
 20
2.2647973492
 10
-0.2400083599
 20
2.2664065182
 10
-0.2398712693
 20
2.2683653727
 10
-0.2397102175
 20
2.2706691891
 10
-0.2395253239
 20
2.2733124092
 10
-0.2393171845
 20
2.2762886703
 10
-0.2390861569
 20
2.2795908123
 10
-0.2388330756
 20
2.2832108631
 10
-0.2385581789
 20
2.2871401205
 10
-0.2382624207
 20
2.2913690999
 10
-0.2379463969
 20
2.2958876237
 10
-0.2376109419
 20
2.3006847992
 10
-0.2372566519
 20
2.3057490855
 10
-0.2368845997
 20
2.3110682636
 10
-0.236495739
 20
2.3166295334
 10
-0.2360907851
 20
2.3224194839
 10
-0.2356708107
 20
2.328424175
 10
-0.2352367697
 20
2.3346291378
 10
-0.2347898541
 20
2.3410194262
 10
-0.2343310175
 20
2.3475796476
 10
-0.2338614521
 20
2.3542939916
 10
-0.2333822308
 20
2.3611462906
 10
-0.2328944264
 20
2.368120034
 10
-0.2323993502
 20
2.3751984134
 10
-0.2318981943
 20
2.3823643967
 10
-0.2318829356
 20
2.3825822517
  0
LINE
  5
199
330
1F
100
AcDbEntity
  8
0
  6
Continuous
 62
     7
370
    25
100
AcDbLine
 10
0.8621631803
 20
2.3770799383
 30
0.0
 11
0.8621631803
 21
0.848319818
 31
0.0
  0
LINE
  5
19A
330
1F
100
AcDbEntity
  8
0
  6
Continuous
 62
     7
370
    25
100
AcDbLine
 10
0.9224630537
 20
0.8483845487
 30
0.0
 11
0.9224630537
 21
2.377144669
 31
0.0
  0
LINE
  5
19B
330
1F
100
AcDbEntity
  8
0
  6
Continuous
 62
     7
370
    25
100
AcDbLine
 10
0.8596514406
 20
2.4428822591
 30
0.0
 11
-0.6750253496
 21
2.4428822591
 31
0.0
  0
LINE
  5
19C
330
1F
100
AcDbEntity
  8
0
  6
Continuous
 62
     7
370
    25
100
AcDbLine
 10
-0.6730072556
 20
2.3825822517
 30
0.0
 11
0.8576334657
 21
2.3825822517
 31
0.0
  0
LINE
  5
19D
330
1F
100
AcDbEntity
  8
0
  6
Continuous
 62
     7
370
    25
100
AcDbLine
 10
-0.7378369031
 20
2.3770799383
 30
0.0
 11
-0.7378369031
 21
0.848319818
 31
0.0
  0
LINE
  5
19E
330
1F
100
AcDbEntity
  8
0
  6
Continuous
 62
     7
370
    25
100
AcDbLine
 10
-0.6775369106
 20
0.8483845487
 30
0.0
 11
-0.6775369106
 21
2.377144669
 31
0.0
  0
SPLINE
  5
19F
330
1F
100
AcDbEntity
  8
0
  6
Continuous
 62
     7
370
    25
100
AcDbSpline
210
0.0
220
0.0
230
1.0
 70
    11
 71
     3
 72
    54
 73
    50
 74
     0
 42
0.000000001
 43
0.00000001
 40
0.0
 40
0.0
 40
0.0
 40
0.0
 40
0.0220504908130875
 40
0.0432286245435409
 40
0.063535464304551
 40
0.0829700769140225
 40
0.1015322288375135
 40
0.119221813872774
 40
0.1441071561826349
 40
0.1670309345102499
 40
0.1879945014956254
 40
0.2069955746830096
 40
0.2240334415430572
 40
0.2391074004554578
 40
0.2522183831234062
 40
0.2641568910487806
 40
0.2882087872011249
 40
0.3125533366703434
 40
0.3371897140929235
 40
0.3621186229525527
 40
0.3873059942175593
 40
0.4125302544126203
 40
0.4377552803336073
 40
0.4629802173176775
 40
0.4882048069078513
 40
0.5134305348791075
 40
0.538654988690426
 40
0.5638802176202865
 40
0.5891051039204109
 40
0.6143299263557496
 40
0.6394328485702626
 40
0.6638671390711344
 40
0.6875688390338077
 40
0.7105373490482126
 40
0.7254496779334498
 40
0.7400348914017051
 40
0.7554667652846425
 40
0.7732403236200022
 40
0.7933623061973886
 40
0.8158302415433538
 40
0.8342287663178173
 40
0.8539467294009337
 40
0.8749852174660842
 40
0.897342997530489
 40
0.92102033720357
 40
0.9460169746839134
 40
0.9634244105215487
 40
0.9814184207442654
 40
1.0
 40
1.0
 40
1.0
 40
1.0
 10
0.9355355443651266
 20
2.404134754796384
 30
0.0
 10
0.9358537692176557
 20
2.406146657139352
 30
0.0
 10
0.936477629375101
 20
2.410090867349439
 30
0.0
 10
0.9363815217590875
 20
2.415976652923336
 30
0.0
 10
0.9356085806660742
 20
2.421553105578777
 30
0.0
 10
0.9342031280898807
 20
2.426758238090088
 30
0.0
 10
0.9322794644162232
 20
2.431532759162968
 30
0.0
 10
0.9295823034769676
 20
2.436496406280397
 30
0.0
 10
0.9260069001933205
 20
2.441397512699115
 30
0.0
 10
0.9215263655597751
 20
2.445917760883666
 30
0.0
 10
0.9169000049682624
 20
2.449443510350976
 30
0.0
 10
0.9123453259075199
 20
2.452093341465209
 30
0.0
 10
0.9080201139207286
 20
2.453990892717599
 30
0.0
 10
0.9040443815037033
 20
2.455271662905456
 30
0.0
 10
0.9004319211244322
 20
2.456093145583922
 30
0.0
 10
0.8959480712110365
 20
2.456750586944108
 30
0.0
 10
0.8903631006887097
 20
2.456932479830578
 30
0.0
 10
0.883651302542095
 20
2.456117739196568
 30
0.0
 10
0.8770610395810313
 20
2.454272448963705
 30
0.0
 10
0.870768863078566
 20
2.451385785538198
 30
0.0
 10
0.8649601344186469
 20
2.447520921996321
 30
0.0
 10
0.8598103759882646
 20
2.442771736270188
 30
0.0
 10
0.8554808581039072
 20
2.437260728575918
 30
0.0
 10
0.8520649984753007
 20
2.431141195279252
 30
0.0
 10
0.8496675019363621
 20
2.424555110868607
 30
0.0
 10
0.8483351069162391
 20
2.41767494953296
 30
0.0
 10
0.8481030504054702
 20
2.410669806635938
 30
0.0
 10
0.8489889035031083
 20
2.403717786652162
 30
0.0
 10
0.8509489213941298
 20
2.396989011429301
 30
0.0
 10
0.8539526501274218
 20
2.390668964112348
 30
0.0
 10
0.8578669129603572
 20
2.384958479535728
 30
0.0
 10
0.8625209414677301
 20
2.380025908068874
 30
0.0
 10
0.8677120570779367
 20
2.375980068835494
 30
0.0
 10
0.8726676285034795
 20
2.373163267946149
 30
0.0
 10
0.8771357443108815
 20
2.371288867901244
 30
0.0
 10
0.8810951224056113
 20
2.370046978606502
 30
0.0
 10
0.8854121513034584
 20
2.369125979684618
 30
0.0
 10
0.8903125899529153
 20
2.368600942606245
 30
0.0
 10
0.8958940722903056
 20
2.368674455755
 30
0.0
 10
0.9014770601111511
 20
2.369503172897717
 30
0.0
 10
0.9068665711438452
 20
2.371020865232078
 30
0.0
 10
0.9119156345948302
 20
2.37312535050881
 30
0.0
 10
0.9169711062763023
 20
2.376043899077907
 30
0.0
 10
0.9218798392097992
 20
2.379841831186233
 30
0.0
 10
0.9264407072447215
 20
2.384577299659001
 30
0.0
 10
0.929968059293914
 20
2.38958111425061
 30
0.0
 10
0.9325437302965162
 20
2.394528735015745
 30
0.0
 10
0.9343759326024529
 20
2.399175902761804
 30
0.0
 10
0.9351448894716913
 20
2.402464195842533
 30
0.0
 10
0.9355355443651266
 20
2.404134754796384
 30
0.0
  0
LINE
  5
1A0
330
1F
100
AcDbEntity
  8
0
  6
Continuous
 62
     7
370
    25
100
AcDbLine
 10
-1.3686469218
 20
-1.4949388013
 30
0.0
 11
-1.3676869219
 21
-1.4949388013
 31
0.0
  0
LINE
  5
1A1
330
1F
100
AcDbEntity
  8
0
  6
Continuous
 62
     7
370
    25
100
AcDbLine
 10
-1.3676869219
 20
-1.4796988473
 30
0.0
 11
-1.3686469218
 21
-1.4796988473
 31
0.0
  0
LINE
  5
1A2
330
1F
100
AcDbEntity
  8
0
  6
Continuous
 62
     7
370
    25
100
AcDbLine
 10
-1.3686469218
 20
-1.2098123536
 30
0.0
 11
-1.3676869219
 21
-1.2098123536
 31
0.0
  0
LINE
  5
1A3
330
1F
100
AcDbEntity
  8
0
  6
Continuous
 62
     7
370
    25
100
AcDbLine
 10
-1.3676869219
 20
-1.1945721612
 30
0.0
 11
-1.3686469218
 21
-1.1945721612
 31
0.0
  0
LINE
  5
1A4
330
1F
100
AcDbEntity
  8
0
  6
Continuous
 62
     7
370
    25
100
AcDbLine
 10
-1.3686469218
 20
-0.7161139951
 30
0.0
 11
-1.3676869219
 21
-0.7161139951
 31
0.0
  0
LINE
  5
1A5
330
1F
100
AcDbEntity
  8
0
  6
Continuous
 62
     7
370
    25
100
AcDbLine
 10
-1.3676869219
 20
-0.7008740411
 30
0.0
 11
-1.3686469218
 21
-0.7008740411
 31
0.0
  0
LINE
  5
1A6
330
1F
100
AcDbEntity
  8
0
  6
Continuous
 62
     7
370
    25
100
AcDbLine
 10
-1.3686469218
 20
-0.4454791055
 30
0.0
 11
-1.3676869219
 21
-0.4454791055
 31
0.0
  0
LINE
  5
1A7
330
1F
100
AcDbEntity
  8
0
  6
Continuous
 62
     7
370
    25
100
AcDbLine
 10
-1.3676869219
 20
-0.4302391515
 30
0.0
 11
-1.3686469218
 21
-0.4302391515
 31
0.0
  0
LINE
  5
1A8
330
1F
100
AcDbEntity
  8
0
  6
Continuous
 62
     7
370
    25
100
AcDbLine
 10
-0.8467269299
 20
-0.7008740411
 30
0.0
 11
-0.8476869223
 21
-0.7008740411
 31
0.0
  0
LINE
  5
1A9
330
1F
100
AcDbEntity
  8
0
  6
Continuous
 62
     7
370
    25
100
AcDbLine
 10
-0.8476869223
 20
-0.7161139951
 30
0.0
 11
-0.8467269299
 21
-0.7161139951
 31
0.0
  0
LINE
  5
1AA
330
1F
100
AcDbEntity
  8
0
  6
Continuous
 62
     7
370
    25
100
AcDbLine
 10
-0.8467269299
 20
-1.1945721612
 30
0.0
 11
-0.8476869223
 21
-1.1945721612
 31
0.0
  0
LINE
  5
1AB
330
1F
100
AcDbEntity
  8
0
  6
Continuous
 62
     7
370
    25
100
AcDbLine
 10
-0.8476869223
 20
-1.2098123536
 30
0.0
 11
-0.8467269299
 21
-1.2098123536
 31
0.0
  0
LINE
  5
1AC
330
1F
100
AcDbEntity
  8
0
  6
Continuous
 62
     7
370
    25
100
AcDbLine
 10
-0.8467269299
 20
-0.2529265389
 30
0.0
 11
-0.8476869223
 21
-0.2529265389
 31
0.0
  0
LINE
  5
1AD
330
1F
100
AcDbEntity
  8
0
  6
Continuous
 62
     7
370
    25
100
AcDbLine
 10
-0.8476869223
 20
-0.2681664929
 30
0.0
 11
-0.8467269299
 21
-0.2681664929
 31
0.0
  0
LINE
  5
1AE
330
1F
100
AcDbEntity
  8
0
  6
Continuous
 62
     7
370
    25
100
AcDbLine
 10
-0.8467269299
 20
-0.4302391515
 30
0.0
 11
-0.8476869223
 21
-0.4302391515
 31
0.0
  0
LINE
  5
1AF
330
1F
100
AcDbEntity
  8
0
  6
Continuous
 62
     7
370
    25
100
AcDbLine
 10
-0.8476869223
 20
-0.4454791055
 30
0.0
 11
-0.8467269299
 21
-0.4454791055
 31
0.0
  0
LINE
  5
1B0
330
1F
100
AcDbEntity
  8
0
  6
Continuous
 62
     7
370
    25
100
AcDbLine
 10
-1.3686469218
 20
-0.2681664929
 30
0.0
 11
-1.3676869219
 21
-0.2681664929
 31
0.0
  0
LINE
  5
1B1
330
1F
100
AcDbEntity
  8
0
  6
Continuous
 62
     7
370
    25
100
AcDbLine
 10
-1.3676869219
 20
-0.2529265389
 30
0.0
 11
-1.3686469218
 21
-0.2529265389
 31
0.0
  0
LINE
  5
1B2
330
1F
100
AcDbEntity
  8
0
  6
Continuous
 62
     7
370
    25
100
AcDbLine
 10
-0.8467269299
 20
-1.4796988473
 30
0.0
 11
-0.8476869223
 21
-1.4796988473
 31
0.0
  0
LINE
  5
1B3
330
1F
100
AcDbEntity
  8
0
  6
Continuous
 62
     7
370
    25
100
AcDbLine
 10
-0.8476869223
 20
-1.4949388013
 30
0.0
 11
-0.8467269299
 21
-1.4949388013
 31
0.0
  0
LINE
  5
1B4
330
1F
100
AcDbEntity
  8
0
  6
Continuous
 62
     7
370
    25
100
AcDbLine
 10
-1.3676869219
 20
-1.6449045644
 30
0.0
 11
-1.3486869206
 21
-1.6449045644
 31
0.0
  0
LINE
  5
1B5
330
1F
100
AcDbEntity
  8
0
  6
Continuous
 62
     7
370
    25
100
AcDbLine
 10
-1.3486869206
 20
-1.6049046025
 30
0.0
 11
-0.8666869161
 21
-1.6049046025
 31
0.0
  0
LINE
  5
1B6
330
1F
100
AcDbEntity
  8
0
  6
Continuous
 62
     7
370
    25
100
AcDbLine
 10
-0.8666869161
 20
-1.6449045644
 30
0.0
 11
-0.8476869223
 21
-1.6449045644
 31
0.0
  0
LINE
  5
1B7
330
1F
100
AcDbEntity
  8
0
  6
Continuous
 62
     7
370
    25
100
AcDbLine
 10
-1.4665544538
 20
-0.0041176781
 30
0.0
 11
-0.7488194166
 21
-0.0041176781
 31
0.0
  0
LINE
  5
1B8
330
1F
100
AcDbEntity
  8
0
  6
Continuous
 62
     7
370
    25
100
AcDbLine
 10
-0.748825675
 20
0.0295823112
 30
0.0
 11
-1.4665482549
 21
0.0295823112
 31
0.0
  0
SPLINE
  5
1B9
330
1F
100
AcDbEntity
  8
0
  6
Continuous
 62
     7
370
    25
100
AcDbSpline
210
0.0
220
0.0
230
1.0
 70
    11
 71
     3
 72
    54
 73
    50
 74
     0
 42
0.000000001
 43
0.00000001
 40
0.0
 40
0.0
 40
0.0
 40
0.0
 40
0.0220499517051506
 40
0.0432283525561993
 40
0.0635350835792393
 40
0.0829699542003382
 40
0.1015310328068443
 40
0.1192216425406384
 40
0.144106677826097
 40
0.1670303773208358
 40
0.1879933876334492
 40
0.2069945130312341
 40
0.2240322051049911
 40
0.2391070487343294
 40
0.2522172853847679
 40
0.2641566291022071
 40
0.2882085123726687
 40
0.3125530205857793
 40
0.3371894245972622
 40
0.3621175924689869
 40
0.3873048418355656
 40
0.4125299518897776
 40
0.437754594240541
 40
0.4629795286567576
 40
0.4882041156791131
 40
0.5134304175754815
 40
0.5386544381922224
 40
0.5638792889470382
 40
0.589104465867887
 40
0.6143288675340399
 40
0.6394321869718482
 40
0.6638665924798723
 40
0.687567925645882
 40
0.7105373688076704
 40
0.7254490474061027
 40
0.7400341142442906
 40
0.7554659753175237
 40
0.7732403715222038
 40
0.7933614925238001
 40
0.815830222764866
 40
0.8342278578221459
 40
0.8539457567387735
 40
0.8749843503112883
 40
0.8973430732206972
 40
0.9210195023100348
 40
0.9460160051706007
 40
0.9634236302008721
 40
0.9814178492735753
 40
1.0
 40
1.0
 40
1.0
 40
1.0
 10
1.683715695350844
 20
-0.0304903492733253
 30
0.0
 10
1.685727560821576
 20
-0.030808472059821
 30
0.0
 10
1.689671770361235
 20
-0.0314321434471641
 30
0.0
 10
1.695557511397125
 20
-0.031336104450769
 30
0.0
 10
1.701134009848472
 20
-0.0305631445427275
 30
0.0
 10
1.706339038564185
 20
-0.0291576812848709
 30
0.0
 10
1.711113687382217
 20
-0.0272342638229782
 30
0.0
 10
1.716077181964531
 20
-0.0245368735882888
 30
0.0
 10
1.720978355392742
 20
-0.0209614752071042
 30
0.0
 10
1.72549844654358
 20
-0.016480913963473
 30
0.0
 10
1.729024408108444
 20
-0.0118547914905212
 30
0.0
 10
1.731674225934935
 20
-0.0073001605585961
 30
0.0
 10
1.733571675098956
 20
-0.0029748225831328
 30
0.0
 10
1.734852355956434
 20
0.0010009226369436
 30
0.0
 10
1.735674169195726
 20
0.0046134022646171
 30
0.0
 10
1.736331416745908
 20
0.009097298129884
 30
0.0
 10
1.736513246776792
 20
0.0146823232558732
 30
0.0
 10
1.735698666435725
 20
0.0213941392588079
 30
0.0
 10
1.733853361373492
 20
0.0279843427912358
 30
0.0
 10
1.730966546238302
 20
0.0342763576890447
 30
0.0
 10
1.727101767445499
 20
0.0400851296074322
 30
0.0
 10
1.722352627115268
 20
0.0452349756016259
 30
0.0
 10
1.71684165512832
 20
0.0495646196501557
 30
0.0
 10
1.710722126427224
 20
0.0529804058998553
 30
0.0
 10
1.704136022068576
 20
0.0553780393347933
 30
0.0
 10
1.697255749423257
 20
0.0567100063925898
 30
0.0
 10
1.690250676773951
 20
0.0569420631231145
 30
0.0
 10
1.683298609361502
 20
0.0560566870636849
 30
0.0
 10
1.676570039395194
 20
0.0540961336343745
 30
0.0
 10
1.670249796108934
 20
0.0510928226929836
 30
0.0
 10
1.664539301460385
 20
0.0471785191781237
 30
0.0
 10
1.659606652427558
 20
0.0425245585436448
 30
0.0
 10
1.655560901881044
 20
0.0373332677669222
 30
0.0
 10
1.652744257251121
 20
0.0323776516752629
 30
0.0
 10
1.650869452290224
 20
0.0279096834338727
 30
0.0
 10
1.649627874038569
 20
0.0239502778040083
 30
0.0
 10
1.648706787628442
 20
0.0196332133419438
 30
0.0
 10
1.648181853432722
 20
0.0147327545860194
 30
0.0
 10
1.648255465579047
 20
0.0091512188413038
 30
0.0
 10
1.649083925223453
 20
0.0035682766539832
 30
0.0
 10
1.650601699287531
 20
-0.0018211980943668
 30
0.0
 10
1.652706050459423
 20
-0.0068702354678952
 30
0.0
 10
1.655624774944984
 20
-0.0119257080990685
 30
0.0
 10
1.659422581308425
 20
-0.0168345597977667
 30
0.0
 10
1.664158188926339
 20
-0.0213952679459695
 30
0.0
 10
1.669161859344038
 20
-0.0249226947261714
 30
0.0
 10
1.67410957868569
 20
-0.0274982107815998
 30
0.0
 10
1.678756676445983
 20
-0.0293308399165345
 30
0.0
 10
1.682045069745456
 20
-0.0300997264387873
 30
0.0
 10
1.683715695350844
 20
-0.0304903492733253
 30
0.0
  0
SPLINE
  5
1BA
330
1F
100
AcDbEntity
  8
0
  6
Continuous
 62
     7
370
    25
100
AcDbSpline
210
0.0
220
0.0
230
1.0
 70
    11
 71
     3
 72
    54
 73
    50
 74
     0
 42
0.000000001
 43
0.00000001
 40
0.0
 40
0.0
 40
0.0
 40
0.0
 40
0.0220503806951499
 40
0.0432283522620691
 40
0.0635352981208276
 40
0.082969962179863
 40
0.101531641586416
 40
0.1192216846753685
 40
0.1441070697818844
 40
0.1670307709633294
 40
0.1879937828183831
 40
0.2069948013253506
 40
0.2240326677046053
 40
0.2391074463401703
 40
0.2522175883827196
 40
0.2641569642020421
 40
0.2882088561973676
 40
0.3125533920531759
 40
0.3371897978773843
 40
0.3621179675833023
 40
0.3873053381375444
 40
0.4125301578555678
 40
0.4377551407309532
 40
0.4629800770031989
 40
0.4882046658815579
 40
0.5134303351221712
 40
0.5386547882216789
 40
0.5638798545492184
 40
0.5891050333261142
 40
0.614329436848257
 40
0.639432402774103
 40
0.6638666534207306
 40
0.6875683858408292
 40
0.7105376179123041
 40
0.7254491309174909
 40
0.7400343923592001
 40
0.7554662545678963
 40
0.7732406749649549
 40
0.7933617974470459
 40
0.8158305609036798
 40
0.8342282557695032
 40
0.853946239016194
 40
0.8749847264876577
 40
0.8973431872489316
 40
0.9210199283539896
 40
0.9460166091540858
 40
0.9634240445004992
 40
0.9814182648972017
 40
1.0
 40
1.0
 40
1.0
 40
1.0
 10
-0.7162844000165872
 20
-0.0304903492733253
 30
0.0
 10
-0.7142724946106229
 20
-0.0308084739367268
 30
0.0
 10
-0.7103282835419175
 20
-0.0314321368658557
 30
0.0
 10
-0.7044425271662289
 20
-0.0313360927235267
 30
0.0
 10
-0.6988660574731306
 20
-0.030563170417612
 30
0.0
 10
-0.6936610024623896
 20
-0.0291576193587142
 30
0.0
 10
-0.6888862997555323
 20
-0.0272343636465081
 30
0.0
 10
-0.6839228776158517
 20
-0.0245367664428012
 30
0.0
 10
-0.6790216203957687
 20
-0.020961530966901
 30
0.0
 10
-0.674501544315667
 20
-0.0164809013363399
 30
0.0
 10
-0.6709755406260628
 20
-0.0118548181894438
 30
0.0
 10
-0.6683258560515627
 20
-0.0073001093066046
 30
0.0
 10
-0.6664282089260314
 20
-0.0029748625909441
 30
0.0
 10
-0.6651475909833847
 20
0.0010009168743692
 30
0.0
 10
-0.6643259733636276
 20
0.0046134231086964
 30
0.0
 10
-0.6636685702984252
 20
0.0090972859449669
 30
0.0
 10
-0.6634867052389503
 20
0.0146823299761233
 30
0.0
 10
-0.6643013900094838
 20
0.0213941347102646
 30
0.0
 10
-0.6661466738439914
 20
0.0279843393384817
 30
0.0
 10
-0.6690334742667489
 20
0.0342763841055
 30
0.0
 10
-0.6728983472947333
 20
0.0400850623505251
 30
0.0
 10
-0.6776473473159904
 20
0.0452350610688023
 30
0.0
 10
-0.6831584382132606
 20
0.0495645743770904
 30
0.0
 10
-0.6892779617456681
 20
0.0529804162967457
 30
0.0
 10
-0.6958640214944616
 20
0.0553780076296068
 30
0.0
 10
-0.7027442620093577
 20
0.0567100321147004
 30
0.0
 10
-0.7097493395209572
 20
0.0569420571526273
 30
0.0
 10
-0.7167014675453097
 20
0.0560566975447351
 30
0.0
 10
-0.7234300537326234
 20
0.0540961283496117
 30
0.0
 10
-0.7297502779307073
 20
0.0510928529789298
 30
0.0
 10
-0.7354606980668149
 20
0.0471785083809081
 30
0.0
 10
-0.7403932474730953
 20
0.0425244795494243
 30
0.0
 10
-0.7444392118410453
 20
0.0373333567639715
 30
0.0
 10
-0.7472557786852327
 20
0.0323776637577903
 30
0.0
 10
-0.7491303270613796
 20
0.0279096226744819
 30
0.0
 10
-0.7503722320246017
 20
0.0239503182266935
 30
0.0
 10
-0.7512932086532892
 20
0.0196332020549405
 30
0.0
 10
-0.7518182708996238
 20
0.0147327620885349
 30
0.0
 10
-0.7517446340689791
 20
0.0091512125872492
 30
0.0
 10
-0.7509161139183977
 20
0.003568272613263
 30
0.0
 10
-0.7493982780971931
 20
-0.0018212029049099
 30
0.0
 10
-0.7472938507212178
 20
-0.0068702097597933
 30
0.0
 10
-0.7443752010969836
 20
-0.011925684199559
 30
0.0
 10
-0.7405775191179829
 20
-0.0168346354789142
 30
0.0
 10
-0.7358417769908362
 20
-0.0213952455726468
 30
0.0
 10
-0.7308380798976863
 20
-0.024922662169844
 30
0.0
 10
-0.7258903861997562
 20
-0.0274982285845096
 30
0.0
 10
-0.7212433328164357
 20
-0.0293308170932401
 30
0.0
 10
-0.7179549843843005
 20
-0.0300997216096533
 30
0.0
 10
-0.7162844000165872
 20
-0.0304903492733253
 30
0.0
  0
ARC
  5
1BB
330
1F
100
AcDbEntity
  8
0
  6
Continuous
 62
     7
370
    25
100
AcDbCircle
 10
1.9145991719
 20
-1.5868108323
 30
0.0
 40
1.5
100
AcDbArc
 50
269.554197939
 51
31.5909956738
  0
LINE
  5
1BC
330
1F
100
AcDbEntity
  8
0
  6
Continuous
 62
     7
370
    25
100
AcDbLine
 10
1.9029282274
 20
-3.0867652402
 30
0.0
 11
0.0512158813
 21
-3.0795616612
 31
0.0
  0
ARC
  5
1BD
330
1F
100
AcDbEntity
  8
0
  6
Continuous
 62
     7
370
    25
100
AcDbCircle
 10
-0.8507195446
 20
-2.6476905709
 30
0.0
 40
1.0
100
AcDbArc
 50
270.0
 51
334.4136428626
  0
LINE
  5
1BE
330
1F
100
AcDbEntity
  8
0
  6
Continuous
 62
     7
370
    25
100
AcDbLine
 10
-1.3709211482
 20
-3.6476907239
 30
0.0
 11
-0.8507195471
 21
-3.6476907239
 31
0.0
  0
ARC
  5
1BF
330
1F
100
AcDbEntity
  8
0
  6
Continuous
 62
     7
370
    25
100
AcDbCircle
 10
-1.370921148
 20
-2.6476905709
 30
0.0
 40
1.0
100
AcDbArc
 50
180.0
 51
270.0
  0
LINE
  5
1C0
330
1F
100
AcDbEntity
  8
0
  6
Continuous
 62
     7
370
    25
100
AcDbLine
 10
-2.3709211407
 20
-2.6476907239
 30
0.0
 11
-2.3709211407
 21
-1.2139815793
 31
0.0
  0
ARC
  5
1C1
330
1F
100
AcDbEntity
  8
0
  6
Continuous
 62
     7
370
    25
100
AcDbCircle
 10
-1.507686922
 20
0.0127322536
 30
0.0
 40
1.5
100
AcDbArc
 50
180.0
 51
234.8660817339
  0
LINE
  5
1C2
330
1F
100
AcDbEntity
  8
0
  6
Continuous
 62
     7
370
    25
100
AcDbLine
 10
-3.0076869784
 20
0.0127323165
 30
0.0
 11
-3.0076869784
 21
0.8127322688
 31
0.0
  0
ARC
  5
1C3
330
1F
100
AcDbEntity
  8
0
  6
Continuous
 62
     7
370
    25
100
AcDbCircle
 10
-1.507686922
 20
0.8127322536
 30
0.0
 40
1.5
100
AcDbArc
 50
116.8306723802
 51
180.0
  0
ARC
  5
1C4
330
1F
100
AcDbEntity
  8
0
  6
Continuous
 62
     7
370
    25
100
AcDbCircle
 10
-0.707686922
 20
2.4127322536
 30
0.0
 40
1.499999999999985
100
AcDbArc
 50
90.0
 51
190.0392252656
  0
LINE
  5
1C5
330
1F
100
AcDbEntity
  8
0
  6
Continuous
 62
     7
370
    25
100
AcDbLine
 10
-0.7076869068
 20
3.9127322927
 30
0.0
 11
0.892313117
 21
3.9127322927
 31
0.0
  0
ARC
  5
1C6
330
1F
100
AcDbEntity
  8
0
  6
Continuous
 62
     7
370
    25
100
AcDbCircle
 10
0.892313078
 20
2.4127322536
 30
0.0
 40
1.499999999999985
100
AcDbArc
 50
349.9607747344
 51
90.0
  0
ARC
  5
1C7
330
1F
100
AcDbEntity
  8
0
  6
Continuous
 62
     7
370
    25
100
AcDbCircle
 10
1.692313078
 20
0.8127322536
 30
0.0
 40
1.5
100
AcDbArc
 50
0.0
 51
63.1693276198
  0
LINE
  5
1C8
330
1F
100
AcDbEntity
  8
0
  6
Continuous
 62
     7
370
    25
100
AcDbLine
 10
3.1923133077
 20
-0.8010327325
 30
0.0
 11
3.1923133077
 21
0.8127322688
 31
0.0
  0
LWPOLYLINE
  5
1C9
330
1F
100
AcDbEntity
  8
0
  6
Continuous
 62
     7
370
    25
100
AcDbPolyline
 90
        9
 70
   128
 43
0.0
 10
0.0943150463
 20
0.8104180589
 10
0.0944400968
 20
0.8107783094
 10
0.0945653858
 20
0.8111395135
 10
0.0946909132
 20
0.8115013137
 10
0.094816679
 20
0.8118634715
 10
0.0949423256
 20
0.8122256293
 10
0.0950678529
 20
0.8125874295
 10
0.0951931419
 20
0.8129486337
 10
0.0953181925
 20
0.8133088842
  0
LWPOLYLINE
  5
1CA
330
1F
100
AcDbEntity
  8
0
  6
Continuous
 62
     7
370
    25
100
AcDbPolyline
 90
        9
 70
   128
 43
0.0
 10
0.0953181925
 20
0.8133088842
 10
0.0950686874
 20
0.8135973706
 10
0.0948185863
 20
0.8138864532
 10
0.0945680084
 20
0.8141761317
 10
0.094317192
 20
0.8144660487
 10
0.0940664949
 20
0.8147558465
 10
0.093815917
 20
0.8150455251
 10
0.0935656967
 20
0.8153347268
 10
0.0933161916
 20
0.8156230941
  0
LWPOLYLINE
  5
1CB
330
1F
100
AcDbEntity
  8
0
  6
Continuous
 62
     7
370
    25
100
AcDbPolyline
 90
        9
 70
   128
 43
0.0
 10
0.0933161916
 20
0.8156230941
 10
0.0929417553
 20
0.8155512109
 10
0.092566246
 20
0.8154792085
 10
0.0921901407
 20
0.8154069677
 10
0.0918136778
 20
0.8153347268
 10
0.0914372148
 20
0.815262486
 10
0.0910611095
 20
0.8151903644
 10
0.0906856003
 20
0.815118362
 10
0.0903111639
 20
0.8150464788
  0
LWPOLYLINE
  5
1CC
330
1F
100
AcDbEntity
  8
0
  6
Continuous
 62
     7
370
    25
100
AcDbPolyline
 90
        9
 70
   128
 43
0.0
 10
0.0903111639
 20
0.8150464788
 10
0.0901861133
 20
0.8146861091
 10
0.0900607052
 20
0.8143250241
 10
0.0899351778
 20
0.8139631047
 10
0.0898095312
 20
0.8136010661
 10
0.0896838846
 20
0.8132389083
 10
0.0895583572
 20
0.8128771081
 10
0.089432949
 20
0.812515904
 10
0.0893078985
 20
0.8121555343
  0
LWPOLYLINE
  5
1CD
330
1F
100
AcDbEntity
  8
0
  6
Continuous
 62
     7
370
    25
100
AcDbPolyline
 90
        9
 70
   128
 43
0.0
 10
0.0893078985
 20
0.8121555343
 10
0.0895574035
 20
0.811867167
 10
0.0898076238
 20
0.8115780845
 10
0.0900582018
 20
0.8112884059
 10
0.0903088989
 20
0.8109984889
 10
0.0905597152
 20
0.8107085719
 10
0.0908102932
 20
0.8104190126
 10
0.0910603943
 20
0.8101298108
 10
0.0913098993
 20
0.8098414436
  0
LWPOLYLINE
  5
1CE
330
1F
100
AcDbEntity
  8
0
  6
Continuous
 62
     7
370
    25
100
AcDbPolyline
 90
        9
 70
   128
 43
0.0
 10
0.0913098993
 20
0.8098414436
 10
0.0916844549
 20
0.8099133268
 10
0.0920599641
 20
0.8099853292
 10
0.0924360695
 20
0.8100574508
 10
0.0928125324
 20
0.8101296916
 10
0.0931888761
 20
0.8102019324
 10
0.0935651006
 20
0.8102741733
 10
0.0939404907
 20
0.8103461757
 10
0.0943150463
 20
0.8104180589
  0
CIRCLE
  5
1CF
330
1F
100
AcDbEntity
  8
0
  6
Continuous
 62
     7
370
    25
100
AcDbCircle
 10
0.0923130777
 20
0.8127322536
 30
0.0
 40
0.0099227988090175
  0
LINE
  5
1D0
330
1F
100
AcDbEntity
  8
0
  6
Continuous
 62
     7
370
    25
100
AcDbLine
 10
0.0913098993
 20
0.8098414436
 30
0.0
 11
0.0943150463
 21
0.8104180589
 31
0.0
  0
LINE
  5
1D1
330
1F
100
AcDbEntity
  8
0
  6
Continuous
 62
     7
370
    25
100
AcDbLine
 10
0.0953181925
 20
0.8133088842
 30
0.0
 11
0.0933161916
 21
0.8156230941
 31
0.0
  0
LINE
  5
1D2
330
1F
100
AcDbEntity
  8
0
  6
Continuous
 62
     7
370
    25
100
AcDbLine
 10
0.0943150463
 20
0.8104180589
 30
0.0
 11
0.0953181925
 21
0.8133088842
 31
0.0
  0
CIRCLE
  5
1D3
330
1F
100
AcDbEntity
  8
0
  6
Continuous
 62
     7
370
    25
100
AcDbCircle
 10
0.0923130777
 20
0.8127322536
 30
0.0
 40
0.01
  0
ARC
  5
1D4
330
1F
100
AcDbEntity
  8
0
  6
Continuous
 62
     7
370
    25
100
AcDbCircle
 10
0.0923130776
 20
0.8127322536
 30
0.0
 40
0.01
100
AcDbArc
 50
89.9999999302
 51
269.9999999303
  0
LWPOLYLINE
  5
1D5
330
1F
100
AcDbEntity
  8
0
  6
Continuous
 62
     7
370
    25
100
AcDbPolyline
 90
        9
 70
   128
 43
0.0
 10
0.0938430967
 20
0.010082294
 10
0.0940337124
 20
0.0104125037
 10
0.0942249241
 20
0.0107436671
 10
0.0944163742
 20
0.0110753074
 10
0.0946080627
 20
0.0114071861
 10
0.0947997513
 20
0.0117393031
 10
0.0949912014
 20
0.0120709434
 10
0.0951824131
 20
0.0124021068
 10
0.0953730287
 20
0.0127323165
  0
LWPOLYLINE
  5
1D6
330
1F
100
AcDbEntity
  8
0
  6
Continuous
 62
     7
370
    25
100
AcDbPolyline
 90
        9
 70
   128
 43
0.0
 10
0.0953730287
 20
0.0127323165
 10
0.0951824131
 20
0.0130625262
 10
0.0949912014
 20
0.0133936897
 10
0.0947997513
 20
0.0137253299
 10
0.0946080627
 20
0.0140572086
 10
0.0944163742
 20
0.0143893256
 10
0.0942249241
 20
0.0147209659
 10
0.0940337124
 20
0.0150518909
 10
0.0938430967
 20
0.015382339
  0
LINE
  5
1D7
330
1F
100
AcDbEntity
  8
0
  6
Continuous
 62
     7
370
    25
100
AcDbLine
 10
0.0938430967
 20
0.015382339
 30
0.0
 11
0.0907831134
 21
0.015382339
 31
0.0
  0
LWPOLYLINE
  5
1D8
330
1F
100
AcDbEntity
  8
0
  6
Continuous
 62
     7
370
    25
100
AcDbPolyline
 90
        9
 70
   128
 43
0.0
 10
0.0907831134
 20
0.015382339
 10
0.0905923786
 20
0.0150518909
 10
0.0904012861
 20
0.0147209659
 10
0.0902097168
 20
0.0143893256
 10
0.0900181474
 20
0.0140572086
 10
0.0898264589
 20
0.0137253299
 10
0.0896350088
 20
0.0133936897
 10
0.0894437971
 20
0.0130625262
 10
0.0892531814
 20
0.0127323165
  0
LWPOLYLINE
  5
1D9
330
1F
100
AcDbEntity
  8
0
  6
Continuous
 62
     7
370
    25
100
AcDbPolyline
 90
        9
 70
   128
 43
0.0
 10
0.0892531814
 20
0.0127323165
 10
0.0894437971
 20
0.0124021068
 10
0.0896350088
 20
0.0120709434
 10
0.0898264589
 20
0.0117393031
 10
0.0900181474
 20
0.0114071861
 10
0.0902097168
 20
0.0110753074
 10
0.0904012861
 20
0.0107436671
 10
0.0905923786
 20
0.0104125037
 10
0.0907831134
 20
0.010082294
  0
LINE
  5
1DA
330
1F
100
AcDbEntity
  8
0
  6
Continuous
 62
     7
370
    25
100
AcDbLine
 10
0.0907831134
 20
0.010082294
 30
0.0
 11
0.0938430967
 21
0.010082294
 31
0.0
  0
CIRCLE
  5
1DB
330
1F
100
AcDbEntity
  8
0
  6
Continuous
 62
     7
370
    25
100
AcDbCircle
 10
0.0923130777
 20
0.0127322536
 30
0.0
 40
0.0099227988090176
  0
LINE
  5
1DC
330
1F
100
AcDbEntity
  8
0
  6
Continuous
 62
     7
370
    25
100
AcDbLine
 10
0.0938430967
 20
0.010082294
 30
0.0
 11
0.0953730287
 21
0.0127323165
 31
0.0
  0
LINE
  5
1DD
330
1F
100
AcDbEntity
  8
0
  6
Continuous
 62
     7
370
    25
100
AcDbLine
 10
0.0953730287
 20
0.0127323165
 30
0.0
 11
0.0938430967
 21
0.015382339
 31
0.0
  0
CIRCLE
  5
1DE
330
1F
100
AcDbEntity
  8
0
  6
Continuous
 62
     7
370
    25
100
AcDbCircle
 10
0.0923130777
 20
0.0127322536
 30
0.0
 40
0.0100000000000002
  0
ARC
  5
1DF
330
1F
100
AcDbEntity
  8
0
  6
Continuous
 62
     7
370
    25
100
AcDbCircle
 10
0.0923130776
 20
0.0127322536
 30
0.0
 40
0.0100000000000002
100
AcDbArc
 50
90.0
 51
270.0
  0
LWPOLYLINE
  5
1E0
330
1F
100
AcDbEntity
  8
0
  6
Continuous
 62
     7
370
    25
100
AcDbPolyline
 90
        9
 70
   128
 43
0.0
 10
-0.7071999369
 20
1.6097112789
 10
-0.7069042383
 20
1.6099520817
 10
-0.7066077648
 20
1.6101935401
 10
-0.7063108144
 20
1.6104353562
 10
-0.706013566
 20
1.6106774106
 10
-0.7057163177
 20
1.6109194651
 10
-0.7054193673
 20
1.6111612811
 10
-0.7051228938
 20
1.6114027395
 10
-0.7048271952
 20
1.6116435423
  0
LWPOLYLINE
  5
1E1
330
1F
100
AcDbEntity
  8
0
  6
Continuous
 62
     7
370
    25
100
AcDbPolyline
 90
        9
 70
   128
 43
0.0
 10
-0.7048271952
 20
1.6116435423
 10
-0.7048878727
 20
1.6120200052
 10
-0.7049487291
 20
1.6123974815
 10
-0.7050097046
 20
1.6127755537
 10
-0.7050706802
 20
1.6131539836
 10
-0.7051317153
 20
1.6135324135
 10
-0.7051926313
 20
1.6139105454
 10
-0.7052534876
 20
1.6142880216
 10
-0.7053142248
 20
1.6146644845
  0
LWPOLYLINE
  5
1E2
330
1F
100
AcDbEntity
  8
0
  6
Continuous
 62
     7
370
    25
100
AcDbPolyline
 90
        9
 70
   128
 43
0.0
 10
-0.7053142248
 20
1.6146644845
 10
-0.7056706009
 20
1.6148001447
 10
-0.7060279308
 20
1.6149362221
 10
-0.7063858567
 20
1.6150724783
 10
-0.7067440806
 20
1.6152088537
 10
-0.7071023045
 20
1.6153452292
 10
-0.7074602304
 20
1.6154814854
 10
-0.7078175602
 20
1.6156175032
 10
-0.7081739364
 20
1.615753223
  0
LWPOLYLINE
  5
1E3
330
1F
100
AcDbEntity
  8
0
  6
Continuous
 62
     7
370
    25
100
AcDbPolyline
 90
        9
 70
   128
 43
0.0
 10
-0.7081739364
 20
1.615753223
 10
-0.708469635
 20
1.6155124202
 10
-0.7087661085
 20
1.6152709618
 10
-0.7090630589
 20
1.6150291457
 10
-0.7093603072
 20
1.6147870913
 10
-0.709657496
 20
1.6145450368
 10
-0.709954506
 20
1.6143032208
 10
-0.7102509198
 20
1.6140617624
 10
-0.7105466185
 20
1.6138209596
  0
LWPOLYLINE
  5
1E4
330
1F
100
AcDbEntity
  8
0
  6
Continuous
 62
     7
370
    25
100
AcDbPolyline
 90
        9
 70
   128
 43
0.0
 10
-0.7105466185
 20
1.6138209596
 10
-0.710485941
 20
1.6134444967
 10
-0.7104250846
 20
1.6130670204
 10
-0.7103641687
 20
1.6126889482
 10
-0.7103031335
 20
1.6123105183
 10
-0.710242158
 20
1.6119320884
 10
-0.7101811824
 20
1.6115539565
 10
-0.7101203261
 20
1.6111764803
 10
-0.7100596485
 20
1.6108000174
  0
LWPOLYLINE
  5
1E5
330
1F
100
AcDbEntity
  8
0
  6
Continuous
 62
     7
370
    25
100
AcDbPolyline
 90
        9
 70
   128
 43
0.0
 10
-0.7100596485
 20
1.6108000174
 10
-0.7097032724
 20
1.6106643572
 10
-0.7093459425
 20
1.6105282798
 10
-0.7089880166
 20
1.6103920236
 10
-0.7086297927
 20
1.6102556482
 10
-0.7082715688
 20
1.6101192727
 10
-0.7079136429
 20
1.6099830165
 10
-0.7075563131
 20
1.6098469987
 10
-0.7071999369
 20
1.6097112789
  0
CIRCLE
  5
1E6
330
1F
100
AcDbEntity
  8
0
  6
Continuous
 62
     7
370
    25
100
AcDbCircle
 10
-0.707686922
 20
1.6127322536
 30
0.0
 40
0.0099227988090177
  0
CIRCLE
  5
1E7
330
1F
100
AcDbEntity
  8
0
  6
Continuous
 62
     7
370
    25
100
AcDbCircle
 10
-0.707686922
 20
1.6127322536
 30
0.0
 40
0.0100000000000003
  0
LINE
  5
1E8
330
1F
100
AcDbEntity
  8
0
  6
Continuous
 62
     7
370
    25
100
AcDbLine
 10
0.8448630514
 20
0.8057322993
 30
0.0
 11
0.8448630514
 21
0.8197322383
 31
0.0
  0
LINE
  5
1E9
330
1F
100
AcDbEntity
  8
0
  6
Continuous
 62
     7
370
    25
100
AcDbLine
 10
0.8444830122
 20
0.8057322993
 30
0.0
 11
0.8444830122
 21
0.8197322383
 31
0.0
  0
LINE
  5
1EA
330
1F
100
AcDbEntity
  8
0
  6
Continuous
 62
     7
370
    25
100
AcDbLine
 10
0.8404630365
 20
0.8092322841
 30
0.0
 11
0.8404630365
 21
0.8162322536
 31
0.0
  0
LINE
  5
1EB
330
1F
100
AcDbEntity
  8
0
  6
Continuous
 62
     7
370
    25
100
AcDbLine
 10
0.8448630514
 20
0.005732347
 30
0.0
 11
0.8448630514
 21
0.019732286
 31
0.0
  0
LINE
  5
1EC
330
1F
100
AcDbEntity
  8
0
  6
Continuous
 62
     7
370
    25
100
AcDbLine
 10
0.8444832506
 20
0.005732347
 30
0.0
 11
0.8444832506
 21
0.019732286
 31
0.0
  0
LINE
  5
1ED
330
1F
100
AcDbEntity
  8
0
  6
Continuous
 62
     7
370
    25
100
AcDbLine
 10
0.8404630365
 20
0.0092323318
 30
0.0
 11
0.8404630365
 21
0.0162323013
 31
0.0
  0
LINE
  5
1EE
330
1F
100
AcDbEntity
  8
0
  6
Continuous
 62
     7
370
    25
100
AcDbLine
 10
-0.6602367816
 20
0.819712688
 30
0.0
 11
-0.6602367816
 21
0.8057518497
 31
0.0
  0
LINE
  5
1EF
330
1F
100
AcDbEntity
  8
0
  6
Continuous
 62
     7
370
    25
100
AcDbLine
 10
-0.659856802
 20
0.8187944188
 30
0.0
 11
-0.659856802
 21
0.8057322993
 31
0.0
  0
LINE
  5
1F0
330
1F
100
AcDbEntity
  8
0
  6
Continuous
 62
     7
370
    25
100
AcDbLine
 10
-0.659856802
 20
0.8197322383
 30
0.0
 11
-0.659856802
 21
0.8187944188
 31
0.0
  0
LINE
  5
1F1
330
1F
100
AcDbEntity
  8
0
  6
Continuous
 62
     7
370
    25
100
AcDbLine
 10
-0.6602367816
 20
0.8171272769
 30
0.0
 11
-0.6602367816
 21
0.8083372607
 31
0.0
  0
LINE
  5
1F2
330
1F
100
AcDbEntity
  8
0
  6
Continuous
 62
     7
370
    25
100
AcDbLine
 10
-0.6558367668
 20
0.8157632842
 30
0.0
 11
-0.6558367668
 21
0.8092322841
 31
0.0
  0
LINE
  5
1F3
330
1F
100
AcDbEntity
  8
0
  6
Continuous
 62
     7
370
    25
100
AcDbLine
 10
-0.6558367668
 20
0.8162322536
 30
0.0
 11
-0.6558367668
 21
0.8157632842
 31
0.0
  0
LINE
  5
1F4
330
1F
100
AcDbEntity
  8
0
  6
Continuous
 62
     7
370
    25
100
AcDbLine
 10
-0.6598568616
 20
0.0172317519
 30
0.0
 11
-0.6598568616
 21
0.005732347
 31
0.0
  0
LINE
  5
1F5
330
1F
100
AcDbEntity
  8
0
  6
Continuous
 62
     7
370
    25
100
AcDbLine
 10
-0.6598568616
 20
0.019732286
 30
0.0
 11
-0.6598568616
 21
0.0172317519
 31
0.0
  0
LINE
  5
1F6
330
1F
100
AcDbEntity
  8
0
  6
Continuous
 62
     7
370
    25
100
AcDbLine
 10
-0.6602368412
 20
0.0172317519
 30
0.0
 11
-0.6602368412
 21
0.005732347
 31
0.0
  0
LINE
  5
1F7
330
1F
100
AcDbEntity
  8
0
  6
Continuous
 62
     7
370
    25
100
AcDbLine
 10
-0.6602368412
 20
0.019732286
 30
0.0
 11
-0.6602368412
 21
0.0172317519
 31
0.0
  0
LINE
  5
1F8
330
1F
100
AcDbEntity
  8
0
  6
Continuous
 62
     7
370
    25
100
AcDbLine
 10
-0.655836886
 20
0.0149820342
 30
0.0
 11
-0.655836886
 21
0.0092323318
 31
0.0
  0
LINE
  5
1F9
330
1F
100
AcDbEntity
  8
0
  6
Continuous
 62
     7
370
    25
100
AcDbLine
 10
-0.655836886
 20
0.0162323013
 30
0.0
 11
-0.655836886
 21
0.0149820342
 31
0.0
  0
LINE
  5
1FA
330
1F
100
AcDbEntity
  8
0
  6
Continuous
 62
     7
370
    25
100
AcDbLine
 10
0.892313117
 20
0.8601822152
 30
0.0
 11
0.892313117
 21
0.8571821943
 31
0.0
  0
SPLINE
  5
1FB
330
1F
100
AcDbEntity
  8
0
  6
Continuous
 62
     7
370
    25
100
AcDbSpline
210
0.0
220
0.0
230
1.0
 70
     8
 71
     3
 72
    16
 73
    12
 74
     0
 42
0.000000001
 43
0.00000001
 40
0.0
 40
0.0
 40
0.0
 40
0.0
 40
0.1006130043635136
 40
0.249143260379259
 40
0.3977485375578567
 40
0.4983012477872446
 40
0.5991899239416316
 40
0.6995692047306802
 40
0.803493939511832
 40
0.9073484142250747
 40
1.0
 40
1.0
 40
1.0
 40
1.0
 10
0.8589276017839503
 20
0.8450780406192526
 30
0.0
 10
0.8594266165405601
 20
0.8456322773598097
 30
0.0
 10
0.8606623033608255
 20
0.847004707787048
 30
0.0
 10
0.8635521353931198
 20
0.8497269214751841
 30
0.0
 10
0.8671804125103258
 20
0.8524944842725084
 30
0.0
 10
0.8709704570355387
 20
0.8547851080304047
 30
0.0
 10
0.8746266728773008
 20
0.8565785478970911
 30
0.0
 10
0.878698463050224
 20
0.85812898204497
 30
0.0
 10
0.8831604979702933
 20
0.8593055634083313
 30
0.0
 10
0.8877622603003862
 20
0.8600520817311617
 30
0.0
 10
0.8908549363296988
 20
0.8601405179947526
 30
0.0
 10
0.8923131169969626
 20
0.8601822152332055
 30
0.0
  0
LINE
  5
1FC
330
1F
100
AcDbEntity
  8
0
  6
Continuous
 62
     7
370
    25
100
AcDbLine
 10
0.9273129644
 20
0.8431330219
 30
0.0
 11
0.9258073511
 21
0.8419542804
 31
0.0
  0
SPLINE
  5
1FD
330
1F
100
AcDbEntity
  8
0
  6
Continuous
 62
     7
370
    25
100
AcDbSpline
210
0.0
220
0.0
230
1.0
 70
     8
 71
     3
 72
    18
 73
    14
 74
     0
 42
0.000000001
 43
0.00000001
 40
0.0
 40
0.0
 40
0.0
 40
0.0
 40
0.1052008838765231
 40
0.1910768456292679
 40
0.2770172053164943
 40
0.3653785974070398
 40
0.4537944830730669
 40
0.5609308854422274
 40
0.6680705323956816
 40
0.7596615641520396
 40
0.8511039208191189
 40
0.9256045449007356
 40
1.0
 40
1.0
 40
1.0
 40
1.0
 10
0.8923131169969626
 20
0.8601822152332055
 30
0.0
 10
0.8943528684002976
 20
0.8601016999888957
 30
0.0
 10
0.8980576781856852
 20
0.8599554597831023
 30
0.0
 10
0.903185898598149
 20
0.8589083138884732
 30
0.0
 10
0.9076920208513003
 20
0.8575261009875144
 30
0.0
 10
0.9118342540081975
 20
0.8557439956087707
 30
0.0
 10
0.9158310113248761
 20
0.8535448357594944
 30
0.0
 10
0.9195002581127293
 20
0.8509889772643244
 30
0.0
 10
0.922543692639271
 20
0.8483874127759603
 30
0.0
 10
0.9248199643652552
 20
0.8460866359448598
 30
0.0
 10
0.9262875938407552
 20
0.8444125130888176
 30
0.0
 10
0.9271520594352466
 20
0.8433435336221327
 30
0.0
 10
0.9272593546795586
 20
0.8432031593914091
 30
0.0
 10
0.927312964409072
 20
0.8431330218509423
 30
0.0
  0
LINE
  5
1FE
330
1F
100
AcDbEntity
  8
0
  6
Continuous
 62
     7
370
    25
100
AcDbLine
 10
0.9273129644
 20
2.38233148
 30
0.0
 11
0.9258073511
 21
2.3835101917
 31
0.0
  0
LINE
  5
1FF
330
1F
100
AcDbEntity
  8
0
  6
Continuous
 62
     7
370
    25
100
AcDbLine
 10
0.892313117
 20
2.3652822569
 30
0.0
 11
0.892313117
 21
2.368282248
 31
0.0
  0
SPLINE
  5
200
330
1F
100
AcDbEntity
  8
0
  6
Continuous
 62
     7
370
    25
100
AcDbSpline
210
0.0
220
0.0
230
1.0
 70
     8
 71
     3
 72
    19
 73
    15
 74
     0
 42
0.000000001
 43
0.00000001
 40
0.0
 40
0.0
 40
0.0
 40
0.0
 40
0.0528898784957579
 40
0.1058051033469897
 40
0.187455452322281
 40
0.2692456360346229
 40
0.3899272820354699
 40
0.5106693400356758
 40
0.592368039017153
 40
0.6743403479098731
 40
0.7558990175024095
 40
0.8403382562536578
 40
0.9247203607984663
 40
0.9999999999999999
 40
0.9999999999999999
 40
0.9999999999999999
 40
0.9999999999999999
 10
0.927312964409072
 20
2.382331480045675
 30
0.0
 10
0.9272864094749346
 20
2.382296939970089
 30
0.0
 10
0.9272332868807706
 20
2.382227843266315
 30
0.0
 10
0.9267472212805626
 20
2.381617503798518
 30
0.0
 10
0.9257830898389449
 20
2.380459790263835
 30
0.0
 10
0.9239293322619836
 20
2.378429811047309
 30
0.0
 10
0.9210851024339318
 20
2.375747076173063
 30
0.0
 10
0.9174439317860995
 20
2.372968302061823
 30
0.0
 10
0.913656187349429
 20
2.370679840387285
 30
0.0
 10
0.9099994418106677
 20
2.368885919501808
 30
0.0
 10
0.9059278068170996
 20
2.367335556120738
 30
0.0
 10
0.9014657280949342
 20
2.366158921503829
 30
0.0
 10
0.8968639785006901
 20
2.365412365434782
 30
0.0
 10
0.8937712986410739
 20
2.365323946095918
 30
0.0
 10
0.8923131169969626
 20
2.365282256861089
 30
0.0
  0
LINE
  5
201
330
1F
100
AcDbEntity
  8
0
  6
Continuous
 62
     7
370
    25
100
AcDbLine
 10
0.8573130312
 20
2.38233148
 30
0.0
 11
0.8588186445
 21
2.3835101917
 31
0.0
  0
SPLINE
  5
202
330
1F
100
AcDbEntity
  8
0
  6
Continuous
 62
     7
370
    25
100
AcDbSpline
210
0.0
220
0.0
230
1.0
 70
     8
 71
     3
 72
    18
 73
    14
 74
     0
 42
0.000000001
 43
0.00000001
 40
0.0
 40
0.0
 40
0.0
 40
0.0
 40
0.1052047860408375
 40
0.1910767362039388
 40
0.277016694516857
 40
0.3653777131231409
 40
0.453796593355109
 40
0.5609301855239308
 40
0.6680719271239921
 40
0.7596624462303343
 40
0.8511033964404653
 40
0.9256047502557496
 40
1.0
 40
1.0
 40
1.0
 40
1.0
 10
0.892313116996963
 20
2.365282256861089
 30
0.0
 10
0.8902732799149168
 20
2.365362772999383
 30
0.0
 10
0.8865684540539155
 20
2.365509009320903
 30
0.0
 10
0.8814402875943422
 20
2.366556286308222
 30
0.0
 10
0.8769341957523876
 20
2.367938383752511
 30
0.0
 10
0.8727919783922534
 20
2.369720517268106
 30
0.0
 10
0.8687949587455838
 20
2.371919580870145
 30
0.0
 10
0.865126041837832
 20
2.374475601301036
 30
0.0
 10
0.8620822973349763
 20
2.377077099176309
 30
0.0
 10
0.8598059402947388
 20
2.379377831463624
 30
0.0
 10
0.8583387939855937
 20
2.381051975928819
 30
0.0
 10
0.8574738483520795
 20
2.382121013073726
 30
0.0
 10
0.857366611422446
 20
2.382261357725002
 30
0.0
 10
0.8573130311662741
 20
2.382331480045675
 30
0.0
  0
LINE
  5
203
330
1F
100
AcDbEntity
  8
0
  6
Continuous
 62
     7
370
    25
100
AcDbLine
 10
-0.6726869402
 20
2.38233148
 30
0.0
 11
-0.6741925536
 21
2.3835101917
 31
0.0
  0
LINE
  5
204
330
1F
100
AcDbEntity
  8
0
  6
Continuous
 62
     7
370
    25
100
AcDbLine
 10
-0.7076869068
 20
2.3652822569
 30
0.0
 11
-0.7076869068
 21
2.368282248
 31
0.0
  0
SPLINE
  5
205
330
1F
100
AcDbEntity
  8
0
  6
Continuous
 62
     7
370
    25
100
AcDbSpline
210
0.0
220
0.0
230
1.0
 70
     8
 71
     3
 72
    19
 73
    15
 74
     0
 42
0.000000001
 43
0.00000001
 40
0.0
 40
0.0
 40
0.0
 40
0.0
 40
0.0528900209498269
 40
0.1058051207220989
 40
0.1874554804574667
 40
0.2692456749483129
 40
0.3899278016703934
 40
0.5106698755822737
 40
0.5923678791670649
 40
0.6743394083140102
 40
0.7558989588669313
 40
0.8403372665346713
 40
0.9247213744559442
 40
1.0
 40
1.0
 40
1.0
 40
1.0
 10
-0.6726869402234964
 20
2.382331480045675
 30
0.0
 10
-0.6727135766605857
 20
2.382296940265289
 30
0.0
 10
-0.6727668621649443
 20
2.382227844326816
 30
0.0
 10
-0.6732527486155802
 20
2.38161750241252
 30
0.0
 10
-0.6742169532245287
 20
2.380459791015277
 30
0.0
 10
-0.6760706771365363
 20
2.378429805129052
 30
0.0
 10
-0.6789149928161866
 20
2.37574708265366
 30
0.0
 10
-0.6825561528222457
 20
2.372968313398721
 30
0.0
 10
-0.6863438360850213
 20
2.370679843548908
 30
0.0
 10
-0.6900005353581325
 20
2.368885896227342
 30
0.0
 10
-0.6940721980339966
 20
2.367335579542781
 30
0.0
 10
-0.6985342813387299
 20
2.366158896594865
 30
0.0
 10
-0.7031360507864549
 20
2.365412377869604
 30
0.0
 10
-0.7062287464317067
 20
2.365323949523108
 30
0.0
 10
-0.7076869068448953
 20
2.365282256861089
 30
0.0
  0
LINE
  5
206
330
1F
100
AcDbEntity
  8
0
  6
Continuous
 62
     7
370
    25
100
AcDbLine
 10
-0.7426869331
 20
2.38233148
 30
0.0
 11
-0.7411813197
 21
2.3835101917
 31
0.0
  0
SPLINE
  5
207
330
1F
100
AcDbEntity
  8
0
  6
Continuous
 62
     7
370
    25
100
AcDbSpline
210
0.0
220
0.0
230
1.0
 70
     8
 71
     3
 72
    18
 73
    14
 74
     0
 42
0.000000001
 43
0.00000001
 40
0.0
 40
0.0
 40
0.0
 40
0.0
 40
0.1052038641516513
 40
0.1910778531760152
 40
0.2770169758178965
 40
0.3653780774077647
 40
0.4537955474895609
 40
0.5609305266687
 40
0.6680713142187386
 40
0.7596619193416261
 40
0.851103557329892
 40
0.9256046167001495
 40
0.9999999999999999
 40
0.9999999999999999
 40
0.9999999999999999
 40
0.9999999999999999
 10
-0.7076869068448953
 20
2.365282256861089
 30
0.0
 10
-0.7097267211404046
 20
2.365362778775281
 30
0.0
 10
-0.7134315597374149
 20
2.365509027723657
 30
0.0
 10
-0.7185597546628202
 20
2.366556259493243
 30
0.0
 10
-0.7230658303296779
 20
2.367938400775194
 30
0.0
 10
-0.7272080511300208
 20
2.369720489683521
 30
0.0
 10
-0.731204928892057
 20
2.37191963100499
 30
0.0
 10
-0.7348740185574358
 20
2.374475555276067
 30
0.0
 10
-0.7379175998737381
 20
2.377077118206532
 30
0.0
 10
-0.740193919855638
 20
2.379377837697448
 30
0.0
 10
-0.7416613125351814
 20
2.381051966140769
 30
0.0
 10
-0.7425259963395665
 20
2.382121016256438
 30
0.0
 10
-0.7426333128823562
 20
2.382261358650935
 30
0.0
 10
-0.7426869330709389
 20
2.382331480045675
 30
0.0
  0
LINE
  5
208
330
1F
100
AcDbEntity
  8
0
  6
Continuous
 62
     7
370
    25
100
AcDbLine
 10
0.861912364
 20
0.7777323022
 30
0.0
 11
0.8630911054
 21
0.7792379155
 31
0.0
  0
LINE
  5
209
330
1F
100
AcDbEntity
  8
0
  6
Continuous
 62
     7
370
    25
100
AcDbLine
 10
0.8448630514
 20
0.8127322688
 30
0.0
 11
0.8478630724
 21
0.8127322688
 31
0.0
  0
SPLINE
  5
20A
330
1F
100
AcDbEntity
  8
0
  6
Continuous
 62
     7
370
    25
100
AcDbSpline
210
0.0
220
0.0
230
1.0
 70
     8
 71
     3
 72
    19
 73
    15
 74
     0
 42
0.000000001
 43
0.00000001
 40
0.0
 40
0.0
 40
0.0
 40
0.0
 40
0.0528921256571373
 40
0.1058067519134958
 40
0.1874568624872765
 40
0.2692480608993962
 40
0.3899291285558686
 40
0.5106688461594575
 40
0.5923701565963789
 40
0.6743381832446714
 40
0.7558989032116225
 40
0.8403360299780358
 40
0.924720339602365
 40
1.0
 40
1.0
 40
1.0
 40
1.0
 10
0.8619123639757224
 20
0.7777323022083031
 30
0.0
 10
0.8618777317009704
 20
0.7777589052439806
 30
0.0
 10
0.8618084524187074
 20
0.7778121226324124
 30
0.0
 10
0.8611985139150972
 20
0.7782981532510538
 30
0.0
 10
0.8600407371567572
 20
0.7792623130742631
 30
0.0
 10
0.8580104951763029
 20
0.7811160344016774
 30
0.0
 10
0.8553278912660037
 20
0.7839602236224565
 30
0.0
 10
0.8525492832541387
 20
0.787601602033497
 30
0.0
 10
0.8502604914248743
 20
0.7913890374413184
 30
0.0
 10
0.8484668986205418
 20
0.7950459540834358
 30
0.0
 10
0.8469164232334584
 20
0.7991175070413059
 30
0.0
 10
0.8457397828152421
 20
0.8035796172364182
 30
0.0
 10
0.84499335041845
 20
0.8081813648792622
 30
0.0
 10
0.844904801258526
 20
0.8112740871233943
 30
0.0
 10
0.8448630513841696
 20
0.8127322688297021
 30
0.0
  0
SPLINE
  5
20B
330
1F
100
AcDbEntity
  8
0
  6
Continuous
 62
     7
370
    25
100
AcDbSpline
210
0.0
220
0.0
230
1.0
 70
     8
 71
     3
 72
    16
 73
    12
 74
     0
 42
0.000000001
 43
0.00000001
 40
0.0
 40
0.0
 40
0.0
 40
0.0
 40
0.1335941172810196
 40
0.242642189115104
 40
0.3517740716914404
 40
0.4639812790698335
 40
0.5762610425090725
 40
0.7123066851616198
 40
0.8483630473113426
 40
0.9646725160187182
 40
1.0
 40
1.0
 40
1.0
 40
1.0
 10
0.8448630513841696
 20
0.8127322688297021
 30
0.0
 10
0.8449436259719622
 20
0.8147720553097859
 30
0.0
 10
0.8450899706970657
 20
0.8184768461114185
 30
0.0
 10
0.8461369467056189
 20
0.8236051028805838
 30
0.0
 10
0.847519073802642
 20
0.8281110689797924
 30
0.0
 10
0.8493017165750106
 20
0.8322539392181985
 30
0.0
 10
0.8514986992189125
 20
0.8362481857156883
 30
0.0
 10
0.8540639612138202
 20
0.8399288823817075
 30
0.0
 10
0.8566314570617665
 20
0.8429301020420863
 30
0.0
 10
0.8585128318186658
 20
0.8448132911139787
 30
0.0
 10
0.8592529835798471
 20
0.8454636750579541
 30
0.0
 10
0.859425419777114
 20
0.8456151976779687
 30
0.0
  0
SPLINE
  5
20C
330
1F
100
AcDbEntity
  8
0
  6
Continuous
 62
     7
370
    25
100
AcDbSpline
210
0.0
220
0.0
230
1.0
 70
     8
 71
     3
 72
    16
 73
    12
 74
     0
 42
0.000000001
 43
0.00000001
 40
0.0
 40
0.0
 40
0.0
 40
0.0
 40
0.0714220769932808
 40
0.2247749478341099
 40
0.3782017553260161
 40
0.4820168154366213
 40
0.5861800621290539
 40
0.6898177962382349
 40
0.7971159599121639
 40
0.9043437984616952
 40
1.0
 40
1.0
 40
1.0
 40
1.0
 10
-0.6748045144384317
 20
0.845620681305288
 30
0.0
 10
-0.6744209376635153
 20
0.8452732576931701
 30
0.0
 10
-0.6732137696112569
 20
0.8441798685398758
 30
0.0
 10
-0.6706870003397956
 20
0.8414843176968789
 30
0.0
 10
-0.6679253399366171
 20
0.8378663329188614
 30
0.0
 10
-0.6656338322183069
 20
0.834074600094816
 30
0.0
 10
-0.6638406237057334
 20
0.8304187872225679
 30
0.0
 10
-0.6622900632891898
 20
0.8263469019292962
 30
0.0
 10
-0.6611134079506694
 20
0.8218848684749478
 30
0.0
 10
-0.6603669317614872
 20
0.8172830790736734
 30
0.0
 10
-0.6602784834341658
 20
0.8141904080054752
 30
0.0
 10
-0.6602367816274576
 20
0.8127322688297021
 30
0.0
  0
LINE
  5
20D
330
1F
100
AcDbEntity
  8
0
  6
Continuous
 62
     7
370
    25
100
AcDbLine
 10
-0.6602367816
 20
0.8127322688
 30
0.0
 11
-0.6632368026
 21
0.8127322688
 31
0.0
  0
SPLINE
  5
20E
330
1F
100
AcDbEntity
  8
0
  6
Continuous
 62
     7
370
    25
100
AcDbSpline
210
0.0
220
0.0
230
1.0
 70
     8
 71
     3
 72
    18
 73
    14
 74
     0
 42
0.000000001
 43
0.00000001
 40
0.0
 40
0.0
 40
0.0
 40
0.0
 40
0.1052031660812442
 40
0.1910773536800782
 40
0.277016688921903
 40
0.3653777192603835
 40
0.4537966499686958
 40
0.5609304231800125
 40
0.6680726378243437
 40
0.7596636629925865
 40
0.8511035671703495
 40
0.9256045502519781
 40
1.0
 40
1.0
 40
1.0
 40
1.0
 10
-0.6602367816274576
 20
0.8127322688297021
 30
0.0
 10
-0.6603173061505624
 20
0.8106924730556184
 30
0.0
 10
-0.6604635604255459
 20
0.8069876532001135
 30
0.0
 10
-0.6615108421213669
 20
0.8018594986278869
 30
0.0
 10
-0.6628929528612443
 20
0.7973533385881864
 30
0.0
 10
-0.6646750225499877
 20
0.7932110794339817
 30
0.0
 10
-0.6668741500522988
 20
0.7892143241846701
 30
0.0
 10
-0.6694301705238875
 20
0.7855450893286235
 30
0.0
 10
-0.6720316026901615
 20
0.782501595969495
 30
0.0
 10
-0.6743323908769037
 20
0.7802252789239172
 30
0.0
 10
-0.6760065718474392
 20
0.7787578536237092
 30
0.0
 10
-0.6770755175711959
 20
0.777893164952743
 30
0.0
 10
-0.6772158954318507
 20
0.7777858977805301
 30
0.0
 10
-0.6772860346143655
 20
0.7777323022083031
 30
0.0
  0
SPLINE
  5
20F
330
1F
100
AcDbEntity
  8
0
  6
Continuous
 62
     7
370
    25
100
AcDbSpline
210
0.0
220
0.0
230
1.0
 70
     8
 71
     3
 72
     9
 73
     5
 74
     0
 42
0.000000001
 43
0.00000001
 40
0.0
 40
0.0
 40
0.0
 40
0.0
 40
0.8397974347737966
 40
1.0
 40
1.0
 40
1.0
 40
1.0
 10
-0.6604651866262368
 20
0.8082322373584494
 30
0.0
 10
-0.6604622877945467
 20
0.8082497590285191
 30
0.0
 10
-0.6604588359720358
 20
0.8082706231909287
 30
0.0
 10
-0.6604323035022612
 20
0.8085744506763377
 30
0.0
 10
-0.6604280529325418
 20
0.8086231246188866
 30
0.0
  0
SPLINE
  5
210
330
1F
100
AcDbEntity
  8
0
  6
Continuous
 62
     7
370
    25
100
AcDbSpline
210
0.0
220
0.0
230
1.0
 70
     8
 71
     3
 72
    10
 73
     6
 74
     0
 42
0.000000001
 43
0.00000001
 40
0.0
 40
0.0
 40
0.0
 40
0.0
 40
0.0050089200656215
 40
0.7556533975217468
 40
1.0
 40
1.0
 40
1.0
 40
1.0
 10
-0.6604217348401956
 20
0.8167821660236108
 30
0.0
 10
-0.6604218939021819
 20
0.8167841155420039
 30
0.0
 10
-0.6604458902384676
 20
0.8170782228900941
 30
0.0
 10
-0.6604671406055299
 20
0.8172475668670154
 30
0.0
 10
-0.6604610258309914
 20
0.8171904240798968
 30
0.0
 10
-0.6604595241849831
 20
0.817176391144155
 30
0.0
  0
LINE
  5
211
330
1F
100
AcDbEntity
  8
0
  6
Continuous
 62
     7
370
    25
100
AcDbLine
 10
-0.6772860346
 20
0.7777323022
 30
0.0
 11
-0.6784647761
 21
0.7792379155
 31
0.0
  0
SPLINE
  5
212
330
1F
100
AcDbEntity
  8
0
  6
Continuous
 62
     7
370
    25
100
AcDbSpline
210
0.0
220
0.0
230
1.0
 70
     8
 71
     3
 72
    11
 73
     7
 74
     0
 42
0.000000001
 43
0.00000001
 40
0.0
 40
0.0
 40
0.0
 40
0.0
 40
0.2607566182446361
 40
0.5216507551182914
 40
0.8856548185376546
 40
1.0
 40
1.0
 40
1.0
 40
1.0
 10
-0.6742976961439066
 20
0.7802930369571435
 30
0.0
 10
-0.6742659956003543
 20
0.7803217360177426
 30
0.0
 10
-0.6742025777949198
 20
0.7803791492743402
 30
0.0
 10
-0.6736062928814298
 20
0.7809551429197452
 30
0.0
 10
-0.6728651108254985
 20
0.7816668046606852
 30
0.0
 10
-0.6722005720868246
 20
0.7824056084047464
 30
0.0
 10
-0.6720417199438028
 20
0.7825822129443871
 30
0.0
  0
SPLINE
  5
213
330
1F
100
AcDbEntity
  8
0
  6
Continuous
 62
     7
370
    25
100
AcDbSpline
210
0.0
220
0.0
230
1.0
 70
     8
 71
     3
 72
    11
 73
     7
 74
     0
 42
0.000000001
 43
0.00000001
 40
0.0
 40
0.0
 40
0.0
 40
0.0
 40
0.1344538206897616
 40
0.4855258601185959
 40
0.7758879586419914
 40
1.0
 40
1.0
 40
1.0
 40
1.0
 10
-0.672041123897355
 20
0.8428822055057275
 30
0.0
 10
-0.6722248089080695
 20
0.8430850083264687
 30
0.0
 10
-0.6728881133970047
 20
0.8438173490920171
 30
0.0
 10
-0.673651033652045
 20
0.8445536776285938
 30
0.0
 10
-0.6742238697908253
 20
0.8451051893721155
 30
0.0
 10
-0.6742486813212504
 20
0.8451265514907498
 30
0.0
 10
-0.6742594895666055
 20
0.845135857124685
 30
0.0
  0
LINE
  5
214
330
1F
100
AcDbEntity
  8
0
  6
Continuous
 62
     7
370
    25
100
AcDbLine
 10
0.861912364
 20
-0.0222677693
 30
0.0
 11
0.8630911054
 21
-0.020762156
 31
0.0
  0
SPLINE
  5
215
330
1F
100
AcDbEntity
  8
0
  6
Continuous
 62
     7
370
    25
100
AcDbSpline
210
0.0
220
0.0
230
1.0
 70
     8
 71
     3
 72
    19
 73
    15
 74
     0
 42
0.000000001
 43
0.00000001
 40
0.0
 40
0.0
 40
0.0
 40
0.0
 40
0.0528919678164982
 40
0.1058072338002099
 40
0.1874573174074809
 40
0.2692470026778601
 40
0.3899297542044333
 40
0.5106694319314227
 40
0.592369017426341
 40
0.6743401390431865
 40
0.7558990916563992
 40
0.8403380749556916
 40
0.9247203644649117
 40
0.9999999999999999
 40
0.9999999999999999
 40
0.9999999999999999
 40
0.9999999999999999
 10
0.8619123639757224
 20
-0.0222677693172706
 30
0.0
 10
0.8618778557724848
 20
-0.0222411154417151
 30
0.0
 10
0.8618088241656322
 20
-0.0221877959499471
 30
0.0
 10
0.8611983698213935
 20
-0.0217018157297866
 30
0.0
 10
0.8600407141295451
 20
-0.0207376542678617
 30
0.0
 10
0.8580108445626401
 20
-0.0188838711742819
 30
0.0
 10
0.8553278413128261
 20
-0.0160397555088641
 30
0.0
 10
0.8525491817068588
 20
-0.0123984072203772
 30
0.0
 10
0.8502608151236505
 20
-0.0086108206882965
 30
0.0
 10
0.848466866677447
 20
-0.0049539547772799
 30
0.0
 10
0.8469164021242112
 20
-0.0008823999948034
 30
0.0
 10
0.8457398114338789
 20
0.0035797254446623
 30
0.0
 10
0.844993341072244
 20
0.0081814464547162
 30
0.0
 10
0.8449047986178565
 20
0.0112741333016366
 30
0.0
 10
0.8448630513841696
 20
0.0127323165134178
 30
0.0
  0
LINE
  5
216
330
1F
100
AcDbEntity
  8
0
  6
Continuous
 62
     7
370
    25
100
AcDbLine
 10
0.861912364
 20
0.0477321639
 30
0.0
 11
0.8630911054
 21
0.0462265506
 31
0.0
  0
SPLINE
  5
217
330
1F
100
AcDbEntity
  8
0
  6
Continuous
 62
     7
370
    25
100
AcDbSpline
210
0.0
220
0.0
230
1.0
 70
     8
 71
     3
 72
    18
 73
    14
 74
     0
 42
0.000000001
 43
0.00000001
 40
0.0
 40
0.0
 40
0.0
 40
0.0
 40
0.1052010870125178
 40
0.1910773351708619
 40
0.2770157386831766
 40
0.3653770339585293
 40
0.4537939727658994
 40
0.56092892273653
 40
0.6680717549184259
 40
0.7596618604419761
 40
0.8511015976064585
 40
0.9256025828446414
 40
0.9999999999999999
 40
0.9999999999999999
 40
0.9999999999999999
 40
0.9999999999999999
 10
0.8448630513841696
 20
0.0127323165134178
 30
0.0
 10
0.8449435918904277
 20
0.0147720729933662
 30
0.0
 10
0.8450898780719319
 20
0.0184768943374611
 30
0.0
 10
0.8461372911287858
 20
0.0236050180717199
 30
0.0
 10
0.8475190871871005
 20
0.0281112829551863
 30
0.0
 10
0.8493013114713445
 20
0.0322534831120173
 30
0.0
 10
0.8515003955955628
 20
0.036250137506995
 30
0.0
 10
0.85405627967794
 20
0.0399195714003064
 30
0.0
 10
0.8566581326280015
 20
0.042962816892214
 30
0.0
 10
0.8589587314118506
 20
0.0452391511335763
 30
0.0
 10
0.860632706623052
 20
0.0467068167870623
 30
0.0
 10
0.8617019007304859
 20
0.0475712621671084
 30
0.0
 10
0.8618422420993551
 20
0.0476785548823026
 30
0.0
 10
0.8619123639757224
 20
0.0477321639255272
 30
0.0
  0
LINE
  5
218
330
1F
100
AcDbEntity
  8
0
  6
Continuous
 62
     7
370
    25
100
AcDbLine
 10
-0.6772860942
 20
0.0477321639
 30
0.0
 11
-0.6784648357
 21
0.0462265506
 31
0.0
  0
LINE
  5
219
330
1F
100
AcDbEntity
  8
0
  6
Continuous
 62
     7
370
    25
100
AcDbLine
 10
-0.6602368412
 20
0.0127323165
 30
0.0
 11
-0.6632368622
 21
0.0127323165
 31
0.0
  0
SPLINE
  5
21A
330
1F
100
AcDbEntity
  8
0
  6
Continuous
 62
     7
370
    25
100
AcDbSpline
210
0.0
220
0.0
230
1.0
 70
     8
 71
     3
 72
    19
 73
    15
 74
     0
 42
0.000000001
 43
0.00000001
 40
0.0
 40
0.0
 40
0.0
 40
0.0
 40
0.0528901417949687
 40
0.1058048801260566
 40
0.1874554953005439
 40
0.2692458067686629
 40
0.3899295005879349
 40
0.5106704500141187
 40
0.5923674653289748
 40
0.6743399022619506
 40
0.755898781165046
 40
0.8403380273950977
 40
0.9247243249592771
 40
1.0
 40
1.0
 40
1.0
 40
1.0
 10
-0.6772860942190103
 20
0.0477321639255272
 30
0.0
 10
-0.6772515530385987
 20
0.0477054837157884
 30
0.0
 10
-0.6771824546144157
 20
0.0476521108886922
 30
0.0
 10
-0.6765721410877408
 20
0.0471665806104262
 30
0.0
 10
-0.675414381229473
 20
0.0462022322352781
 30
0.0
 10
-0.6733843879863433
 20
0.0443485769055849
 30
0.0
 10
-0.6707017341537029
 20
0.041504060762731
 30
0.0
 10
-0.6679228851833958
 20
0.0378628089664689
 30
0.0
 10
-0.6656344373853831
 20
0.0340754182819624
 30
0.0
 10
-0.66384054109225
 20
0.0304186226894289
 30
0.0
 10
-0.6622901416852238
 20
0.026347017392815
 30
0.0
 10
-0.6611135417348033
 20
0.0218848512996649
 30
0.0
 10
-0.6603669861979927
 20
0.0172830924264362
 30
0.0
 10
-0.660278540594715
 20
0.0141904171296638
 30
0.0
 10
-0.6602368412321024
 20
0.0127323165134178
 30
0.0
  0
LINE
  5
21B
330
1F
100
AcDbEntity
  8
0
  6
Continuous
 62
     7
370
    25
100
AcDbLine
 10
-0.6772860942
 20
-0.0222677693
 30
0.0
 11
-0.6784648357
 21
-0.020762156
 31
0.0
  0
LINE
  5
21C
330
1F
100
AcDbEntity
  8
0
  6
Continuous
 62
     7
370
    25
100
AcDbLine
 10
-0.6632368622
 20
0.0127323165
 30
0.0
 11
-0.6632705388
 21
0.0118158355
 31
0.0
  0
SPLINE
  5
21D
330
1F
100
AcDbEntity
  8
0
  6
Continuous
 62
     7
370
    25
100
AcDbSpline
210
0.0
220
0.0
230
1.0
 70
     8
 71
     3
 72
    18
 73
    14
 74
     0
 42
0.000000001
 43
0.00000001
 40
0.0
 40
0.0
 40
0.0
 40
0.0
 40
0.1052050909925299
 40
0.1910772253088009
 40
0.2770164654092293
 40
0.3653773979253125
 40
0.4537977239125022
 40
0.5609300921057959
 40
0.668073242794234
 40
0.7596641665642289
 40
0.8511033675967936
 40
0.9256046326134131
 40
1.0
 40
1.0
 40
1.0
 40
1.0
 10
-0.6602368412321022
 20
0.0127323165134174
 30
0.0
 10
-0.6603173594241769
 20
0.0106924783132451
 30
0.0
 10
-0.660463599426285
 20
0.0069876516770941
 30
0.0
 10
-0.6615109194333497
 20
0.0018595173387918
 30
0.0
 10
-0.6628930066829322
 20
-0.0026466218086419
 30
0.0
 10
-0.6646751083845385
 20
-0.0067888683067885
 30
0.0
 10
-0.6668741599716594
 20
-0.0107857639975948
 30
0.0
 10
-0.6694302760225331
 20
-0.0144548263999674
 30
0.0
 10
-0.672031643293701
 20
-0.0174984834498484
 30
0.0
 10
-0.6743324442415033
 20
-0.0197748355427532
 30
0.0
 10
-0.6760066412356054
 20
-0.0212420213567617
 30
0.0
 10
-0.6770755742942588
 20
-0.0221069508688104
 30
0.0
 10
-0.677215954190891
 20
-0.0222141885908363
 30
0.0
 10
-0.6772860942190103
 20
-0.0222677693172706
 30
0.0
  0
LINE
  5
21E
330
1F
100
AcDbEntity
  8
0
  6
Continuous
 62
     7
370
    25
100
AcDbLine
 10
-0.7426869331
 20
0.8431330219
 30
0.0
 11
-0.7411813197
 21
0.8419542804
 31
0.0
  0
LINE
  5
21F
330
1F
100
AcDbEntity
  8
0
  6
Continuous
 62
     7
370
    25
100
AcDbLine
 10
-0.7076869068
 20
0.8601822152
 30
0.0
 11
-0.7076869068
 21
0.8571821943
 31
0.0
  0
SPLINE
  5
220
330
1F
100
AcDbEntity
  8
0
  6
Continuous
 62
     7
370
    25
100
AcDbSpline
210
0.0
220
0.0
230
1.0
 70
     8
 71
     3
 72
    19
 73
    15
 74
     0
 42
0.000000001
 43
0.00000001
 40
0.0
 40
0.0
 40
0.0
 40
0.0
 40
0.0528901173096948
 40
0.1058050051655049
 40
0.1874549814270934
 40
0.2692458815450227
 40
0.3899275624670384
 40
0.5106697334582441
 40
0.5923683637082129
 40
0.67433988274813
 40
0.7558991775029612
 40
0.8403373503435437
 40
0.9247213711680744
 40
1.0
 40
1.0
 40
1.0
 40
1.0
 10
-0.742686933070939
 20
0.8431330218509423
 30
0.0
 10
-0.7426602727986145
 20
0.8431675937985359
 30
0.0
 10
-0.7426069397678996
 20
0.843236753885142
 30
0.0
 10
-0.7421210565391622
 20
0.8438469440446115
 30
0.0
 10
-0.7411569486620828
 20
0.8450046607931241
 30
0.0
 10
-0.7393031140285966
 20
0.8470347359629549
 30
0.0
 10
-0.7364588245787098
 20
0.8497173606115818
 30
0.0
 10
-0.732817640656508
 20
0.8524961307080317
 30
0.0
 10
-0.7290299946199186
 20
0.8547847338862615
 30
0.0
 10
-0.7253732837300015
 20
0.8565786700411071
 30
0.0
 10
-0.7213016114373294
 20
0.8581289311477234
 30
0.0
 10
-0.7168395316885854
 20
0.8593055957734337
 30
0.0
 10
-0.712237759975397
 20
0.8600520676654582
 30
0.0
 10
-0.7091450668833689
 20
0.860140514045109
 30
0.0
 10
-0.7076869068448953
 20
0.8601822152332055
 30
0.0
  0
SPLINE
  5
221
330
1F
100
AcDbEntity
  8
0
  6
Continuous
 62
     7
370
    25
100
AcDbSpline
210
0.0
220
0.0
230
1.0
 70
     8
 71
     3
 72
    16
 73
    12
 74
     0
 42
0.000000001
 43
0.00000001
 40
0.0
 40
0.0
 40
0.0
 40
0.0
 40
0.1294674231160712
 40
0.2351478110115203
 40
0.340908732024697
 40
0.4496502114880304
 40
0.5584615095363632
 40
0.6903067728908819
 40
0.8221589101989683
 40
0.9348749286219646
 40
1.0
 40
1.0
 40
1.0
 40
1.0
 10
-0.7076869068448953
 20
0.8601822152332055
 30
0.0
 10
-0.7056471158857105
 20
0.8601017077613236
 30
0.0
 10
-0.7019423045329473
 20
0.8599554844463961
 30
0.0
 10
-0.6968140876990563
 20
0.8589082868120994
 30
0.0
 10
-0.6923081237253141
 20
0.8575261662963336
 30
0.0
 10
-0.6881655146493743
 20
0.8557436929376225
 30
0.0
 10
-0.6841701623402624
 20
0.8535459817651081
 30
0.0
 10
-0.6804938516494855
 20
0.8509839248968414
 30
0.0
 10
-0.67747692836992
 20
0.8484048516104603
 30
0.0
 10
-0.6754285643121366
 20
0.8463470968677835
 30
0.0
 10
-0.674658885027301
 20
0.8454642719445371
 30
0.0
 10
-0.6743770299261026
 20
0.8451409831241357
 30
0.0
  0
LINE
  5
222
330
1F
100
AcDbEntity
  8
0
  6
Continuous
 62
     7
370
    25
100
AcDbLine
 10
-1.5441869257
 20
0.7817322507
 30
0.0
 11
-1.5441869257
 21
0.0437322154
 31
0.0
  0
LINE
  5
223
330
1F
100
AcDbEntity
  8
0
  6
Continuous
 62
     7
370
    25
100
AcDbLine
 10
-1.5401869176
 20
0.7817322507
 30
0.0
 11
-1.5441869257
 21
0.7817322507
 31
0.0
  0
LINE
  5
224
330
1F
100
AcDbEntity
  8
0
  6
Continuous
 62
     7
370
    25
100
AcDbLine
 10
-1.525186917
 20
0.766732265
 30
0.0
 11
-1.5401869176
 21
0.7817322507
 31
0.0
  0
LINE
  5
225
330
1F
100
AcDbEntity
  8
0
  6
Continuous
 62
     7
370
    25
100
AcDbLine
 10
-1.525186917
 20
0.766732265
 30
0.0
 11
-1.525186917
 21
0.0587323203
 31
0.0
  0
LINE
  5
226
330
1F
100
AcDbEntity
  8
0
  6
Continuous
 62
     7
370
    25
100
AcDbLine
 10
-1.5401869176
 20
0.0437322154
 30
0.0
 11
-1.525186917
 21
0.0587323203
 31
0.0
  0
LINE
  5
227
330
1F
100
AcDbEntity
  8
0
  6
Continuous
 62
     7
370
    25
100
AcDbLine
 10
-1.5401869176
 20
0.0437322154
 30
0.0
 11
-1.5441869257
 21
0.0437322154
 31
0.0
  0
LINE
  5
228
330
1F
100
AcDbEntity
  8
0
  6
Continuous
 62
     7
370
    25
100
AcDbLine
 10
-1.5631869195
 20
0.1827321544
 30
0.0
 11
-1.5631869195
 21
0.6427323117
 31
0.0
  0
LINE
  5
229
330
1F
100
AcDbEntity
  8
0
  6
Continuous
 62
     7
370
    25
100
AcDbLine
 10
-1.4766869155
 20
0.8452322974
 30
0.0
 11
-1.461686915
 21
0.8302323117
 31
0.0
  0
LINE
  5
22A
330
1F
100
AcDbEntity
  8
0
  6
Continuous
 62
     7
370
    25
100
AcDbLine
 10
-1.4766869155
 20
0.8492322459
 30
0.0
 11
-1.4766869155
 21
0.8452322974
 31
0.0
  0
LINE
  5
22B
330
1F
100
AcDbEntity
  8
0
  6
Continuous
 62
     7
370
    25
100
AcDbLine
 10
-0.738686925
 20
0.8492322459
 30
0.0
 11
-1.4766869155
 21
0.8492322459
 31
0.0
  0
LINE
  5
22C
330
1F
100
AcDbEntity
  8
0
  6
Continuous
 62
     7
370
    25
100
AcDbLine
 10
-0.738686925
 20
0.8492322459
 30
0.0
 11
-0.738686925
 21
0.8475318446
 31
0.0
  0
LINE
  5
22D
330
1F
100
AcDbEntity
  8
0
  6
Continuous
 62
     7
370
    25
100
AcDbLine
 10
-0.7536869107
 20
0.8302323117
 30
0.0
 11
-0.7416207848
 21
0.8422984376
 31
0.0
  0
LINE
  5
22E
330
1F
100
AcDbEntity
  8
0
  6
Continuous
 62
     7
370
    25
100
AcDbLine
 10
-0.7536869107
 20
0.8302323117
 30
0.0
 11
-1.461686915
 21
0.8302323117
 31
0.0
  0
LINE
  5
22F
330
1F
100
AcDbEntity
  8
0
  6
Continuous
 62
     7
370
    25
100
AcDbLine
 10
1.7288130464
 20
-0.7562677369
 30
0.0
 11
1.7248130979
 21
-0.7562677369
 31
0.0
  0
LINE
  5
230
330
1F
100
AcDbEntity
  8
0
  6
Continuous
 62
     7
370
    25
100
AcDbLine
 10
1.709812993
 20
-0.741267632
 30
0.0
 11
1.7248130979
 21
-0.7562677369
 31
0.0
  0
LINE
  5
231
330
1F
100
AcDbEntity
  8
0
  6
Continuous
 62
     7
370
    25
100
AcDbLine
 10
1.709812993
 20
-0.741267632
 30
0.0
 11
1.709812993
 21
-0.0332676873
 31
0.0
  0
LINE
  5
232
330
1F
100
AcDbEntity
  8
0
  6
Continuous
 62
     7
370
    25
100
AcDbLine
 10
1.7288130464
 20
-0.0182678208
 30
0.0
 11
1.7248130979
 21
-0.0182678208
 31
0.0
  0
LINE
  5
233
330
1F
100
AcDbEntity
  8
0
  6
Continuous
 62
     7
370
    25
100
AcDbLine
 10
1.7288130464
 20
-0.7562677369
 30
0.0
 11
1.7288130464
 21
-0.0182678208
 31
0.0
  0
LINE
  5
234
330
1F
100
AcDbEntity
  8
0
  6
Continuous
 62
     7
370
    25
100
AcDbLine
 10
1.7248130979
 20
-0.0182678208
 30
0.0
 11
1.709812993
 21
-0.0332676873
 31
0.0
  0
LINE
  5
235
330
1F
100
AcDbEntity
  8
0
  6
Continuous
 62
     7
370
    25
100
AcDbLine
 10
0.9262469949
 20
0.8422984376
 30
0.0
 11
0.9383131208
 21
0.8302323117
 31
0.0
  0
LINE
  5
236
330
1F
100
AcDbEntity
  8
0
  6
Continuous
 62
     7
370
    25
100
AcDbLine
 10
1.6613131704
 20
0.8492322459
 30
0.0
 11
1.6613131704
 21
0.8452322974
 31
0.0
  0
LINE
  5
237
330
1F
100
AcDbEntity
  8
0
  6
Continuous
 62
     7
370
    25
100
AcDbLine
 10
1.6463130655
 20
0.8302323117
 30
0.0
 11
1.6613131704
 21
0.8452322974
 31
0.0
  0
LINE
  5
238
330
1F
100
AcDbEntity
  8
0
  6
Continuous
 62
     7
370
    25
100
AcDbLine
 10
1.6463130655
 20
0.8302323117
 30
0.0
 11
0.9383131208
 21
0.8302323117
 31
0.0
  0
LINE
  5
239
330
1F
100
AcDbEntity
  8
0
  6
Continuous
 62
     7
370
    25
100
AcDbLine
 10
1.6613131704
 20
0.8492322459
 30
0.0
 11
0.9233130159
 21
0.8492322459
 31
0.0
  0
LINE
  5
23A
330
1F
100
AcDbEntity
  8
0
  6
Continuous
 62
     7
370
    25
100
AcDbLine
 10
0.9233130159
 20
0.8492322459
 30
0.0
 11
0.9233130159
 21
0.8475550904
 31
0.0
  0
LINE
  5
23B
330
1F
100
AcDbEntity
  8
0
  6
Continuous
 62
     7
370
    25
100
AcDbLine
 10
0.8598130884
 20
-0.7562677369
 30
0.0
 11
0.8748131933
 21
-0.741267632
 31
0.0
  0
LINE
  5
23C
330
1F
100
AcDbEntity
  8
0
  6
Continuous
 62
     7
370
    25
100
AcDbLine
 10
0.8558131399
 20
-0.7562677369
 30
0.0
 11
0.8598130884
 21
-0.7562677369
 31
0.0
  0
LINE
  5
23D
330
1F
100
AcDbEntity
  8
0
  6
Continuous
 62
     7
370
    25
100
AcDbLine
 10
0.8748131933
 20
-0.0332676873
 30
0.0
 11
0.8748131933
 21
-0.741267632
 31
0.0
  0
LINE
  5
23E
330
1F
100
AcDbEntity
  8
0
  6
Continuous
 62
     7
370
    25
100
AcDbLine
 10
0.8748131933
 20
-0.0332676873
 30
0.0
 11
0.8627470674
 21
-0.0212015614
 31
0.0
  0
LINE
  5
23F
330
1F
100
AcDbEntity
  8
0
  6
Continuous
 62
     7
370
    25
100
AcDbLine
 10
0.8558131399
 20
-0.0182678208
 30
0.0
 11
0.8558131399
 21
-0.7562677369
 31
0.0
  0
LINE
  5
240
330
1F
100
AcDbEntity
  8
0
  6
Continuous
 62
     7
370
    25
100
AcDbLine
 10
0.8558131399
 20
-0.0182678208
 30
0.0
 11
0.8575135412
 21
-0.0182678208
 31
0.0
  0
LINE
  5
241
330
1F
100
AcDbEntity
  8
0
  6
Continuous
 62
     7
370
    25
100
AcDbLine
 10
0.8368130865
 20
-0.2781116471
 30
0.0
 11
0.8368130865
 21
-0.2381114468
 31
0.0
  0
LINE
  5
242
330
1F
100
AcDbEntity
  8
0
  6
Continuous
 62
     7
370
    25
100
AcDbLine
 10
0.8368130865
 20
-0.6586675153
 30
0.0
 11
0.8368130865
 21
-0.6186675534
 31
0.0
  0
LINE
  5
243
330
1F
100
AcDbEntity
  8
0
  6
Continuous
 62
     7
370
    25
100
AcDbLine
 10
1.7288130464
 20
0.7817322507
 30
0.0
 11
1.7248130979
 21
0.7817322507
 31
0.0
  0
LINE
  5
244
330
1F
100
AcDbEntity
  8
0
  6
Continuous
 62
     7
370
    25
100
AcDbLine
 10
1.7288130464
 20
0.0437322154
 30
0.0
 11
1.7288130464
 21
0.7817322507
 31
0.0
  0
LINE
  5
245
330
1F
100
AcDbEntity
  8
0
  6
Continuous
 62
     7
370
    25
100
AcDbLine
 10
1.7288130464
 20
0.0437322154
 30
0.0
 11
1.7248130979
 21
0.0437322154
 31
0.0
  0
LINE
  5
246
330
1F
100
AcDbEntity
  8
0
  6
Continuous
 62
     7
370
    25
100
AcDbLine
 10
1.709812993
 20
0.0587323203
 30
0.0
 11
1.7248130979
 21
0.0437322154
 31
0.0
  0
LINE
  5
247
330
1F
100
AcDbEntity
  8
0
  6
Continuous
 62
     7
370
    25
100
AcDbLine
 10
1.709812993
 20
0.0587323203
 30
0.0
 11
1.709812993
 21
0.766732265
 31
0.0
  0
LINE
  5
248
330
1F
100
AcDbEntity
  8
0
  6
Continuous
 62
     7
370
    25
100
AcDbLine
 10
1.7248130979
 20
0.7817322507
 30
0.0
 11
1.709812993
 21
0.766732265
 31
0.0
  0
LINE
  5
249
330
1F
100
AcDbEntity
  8
0
  6
Continuous
 62
     7
370
    25
100
AcDbLine
 10
1.7378131094
 20
0.5320483937
 30
0.0
 11
1.7288130464
 21
0.5320483937
 31
0.0
  0
LINE
  5
24A
330
1F
100
AcDbEntity
  8
0
  6
Continuous
 62
     7
370
    25
100
AcDbLine
 10
1.7378131094
 20
0.5443860784
 30
0.0
 11
1.7378131094
 21
0.5320483937
 31
0.0
  0
LINE
  5
24B
330
1F
100
AcDbEntity
  8
0
  6
Continuous
 62
     7
370
    25
100
AcDbLine
 10
1.7378131094
 20
0.4692854181
 30
0.0
 11
1.7288130464
 21
0.4692854181
 31
0.0
  0
LINE
  5
24C
330
1F
100
AcDbEntity
  8
0
  6
Continuous
 62
     7
370
    25
100
AcDbLine
 10
1.7378131094
 20
0.5320483937
 30
0.0
 11
1.7378131094
 21
0.4692854181
 31
0.0
  0
LINE
  5
24D
330
1F
100
AcDbEntity
  8
0
  6
Continuous
 62
     7
370
    25
100
AcDbLine
 10
1.7378131094
 20
0.4692854181
 30
0.0
 11
1.7378131094
 21
0.4623519674
 31
0.0
  0
LINE
  5
24E
330
1F
100
AcDbEntity
  8
0
  6
Continuous
 62
     7
370
    25
100
AcDbLine
 10
1.7378131094
 20
0.4219080701
 30
0.0
 11
1.7288130464
 21
0.4219080701
 31
0.0
  0
LINE
  5
24F
330
1F
100
AcDbEntity
  8
0
  6
Continuous
 62
     7
370
    25
100
AcDbLine
 10
1.7378131094
 20
0.4623519674
 30
0.0
 11
1.7378131094
 21
0.4219080701
 31
0.0
  0
LINE
  5
250
330
1F
100
AcDbEntity
  8
0
  6
Continuous
 62
     7
370
    25
100
AcDbLine
 10
1.7378131094
 20
0.4219080701
 30
0.0
 11
1.7378131094
 21
0.4035565152
 31
0.0
  0
LINE
  5
251
330
1F
100
AcDbEntity
  8
0
  6
Continuous
 62
     7
370
    25
100
AcDbLine
 10
1.7498131933
 20
0.250830461
 30
0.0
 11
1.7378131094
 21
0.250830461
 31
0.0
  0
LINE
  5
252
330
1F
100
AcDbEntity
  8
0
  6
Continuous
 62
     7
370
    25
100
AcDbLine
 10
1.7498131933
 20
0.250830461
 30
0.0
 11
1.7498131933
 21
0.2384886041
 31
0.0
  0
LINE
  5
253
330
1F
100
AcDbEntity
  8
0
  6
Continuous
 62
     7
370
    25
100
AcDbLine
 10
1.7378131094
 20
0.250830461
 30
0.0
 11
1.7378131094
 21
0.2384886041
 31
0.0
  0
LINE
  5
254
330
1F
100
AcDbEntity
  8
0
  6
Continuous
 62
     7
370
    25
100
AcDbLine
 10
1.7498131933
 20
0.3135934367
 30
0.0
 11
1.7378131094
 21
0.3135934367
 31
0.0
  0
LINE
  5
255
330
1F
100
AcDbEntity
  8
0
  6
Continuous
 62
     7
370
    25
100
AcDbLine
 10
1.7498131933
 20
0.3135934367
 30
0.0
 11
1.7498131933
 21
0.250830461
 31
0.0
  0
LINE
  5
256
330
1F
100
AcDbEntity
  8
0
  6
Continuous
 62
     7
370
    25
100
AcDbLine
 10
1.7378131094
 20
0.3135934367
 30
0.0
 11
1.7378131094
 21
0.250830461
 31
0.0
  0
LINE
  5
257
330
1F
100
AcDbEntity
  8
0
  6
Continuous
 62
     7
370
    25
100
AcDbLine
 10
1.7498131933
 20
0.3221683994
 30
0.0
 11
1.7498131933
 21
0.3135934367
 31
0.0
  0
LINE
  5
258
330
1F
100
AcDbEntity
  8
0
  6
Continuous
 62
     7
370
    25
100
AcDbLine
 10
1.7378131094
 20
0.3221683994
 30
0.0
 11
1.7378131094
 21
0.3135934367
 31
0.0
  0
LINE
  5
259
330
1F
100
AcDbEntity
  8
0
  6
Continuous
 62
     7
370
    25
100
AcDbLine
 10
1.7498131933
 20
0.4035565152
 30
0.0
 11
1.7378131094
 21
0.4035565152
 31
0.0
  0
LINE
  5
25A
330
1F
100
AcDbEntity
  8
0
  6
Continuous
 62
     7
370
    25
100
AcDbLine
 10
1.7498131933
 20
0.4035565152
 30
0.0
 11
1.7498131933
 21
0.3221683994
 31
0.0
  0
LINE
  5
25B
330
1F
100
AcDbEntity
  8
0
  6
Continuous
 62
     7
370
    25
100
AcDbLine
 10
1.7378131094
 20
0.4035565152
 30
0.0
 11
1.7378131094
 21
0.3221683994
 31
0.0
  0
LINE
  5
25C
330
1F
100
AcDbEntity
  8
0
  6
Continuous
 62
     7
370
    25
100
AcDbLine
 10
1.7498131933
 20
0.4319139018
 30
0.0
 11
1.7498131933
 21
0.4035565152
 31
0.0
  0
LINE
  5
25D
330
1F
100
AcDbEntity
  8
0
  6
Continuous
 62
     7
370
    25
100
AcDbLine
 10
0.9343315305
 20
0.7982322469
 30
0.0
 11
1.6502946558
 21
0.7982322469
 31
0.0
  0
LINE
  5
25E
330
1F
100
AcDbEntity
  8
0
  6
Continuous
 62
     7
370
    25
100
AcDbLine
 10
0.9343315305
 20
0.8272322908
 30
0.0
 11
1.6502946558
 21
0.8272322908
 31
0.0
  0
LINE
  5
25F
330
1F
100
AcDbEntity
  8
0
  6
Continuous
 62
     7
370
    25
100
AcDbLine
 10
0.9331732931
 20
0.7952322259
 30
0.0
 11
1.6514528932
 21
0.7952322259
 31
0.0
  0
LINE
  5
260
330
1F
100
AcDbEntity
  8
0
  6
Continuous
 62
     7
370
    25
100
AcDbLine
 10
0.9331732931
 20
0.8302323117
 30
0.0
 11
0.9383131208
 21
0.8302323117
 31
0.0
  0
LINE
  5
261
330
1F
100
AcDbEntity
  8
0
  6
Continuous
 62
     7
370
    25
100
AcDbLine
 10
1.6463130655
 20
0.8302323117
 30
0.0
 11
1.6514528932
 21
0.8302323117
 31
0.0
  0
LINE
  5
262
330
1F
100
AcDbEntity
  8
0
  6
Continuous
 62
     7
370
    25
100
AcDbLine
 10
-1.4931869266
 20
0.7707137361
 30
0.0
 11
-1.4931869266
 21
0.0547507301
 31
0.0
  0
LINE
  5
263
330
1F
100
AcDbEntity
  8
0
  6
Continuous
 62
     7
370
    25
100
AcDbLine
 10
-1.4901869206
 20
0.7718720927
 30
0.0
 11
-1.4901869206
 21
0.0535924926
 31
0.0
  0
LINE
  5
264
330
1F
100
AcDbEntity
  8
0
  6
Continuous
 62
     7
370
    25
100
AcDbLine
 10
-1.525186917
 20
0.7718720927
 30
0.0
 11
-1.525186917
 21
0.766732265
 31
0.0
  0
LINE
  5
265
330
1F
100
AcDbEntity
  8
0
  6
Continuous
 62
     7
370
    25
100
AcDbLine
 10
-1.525186917
 20
0.0587323203
 30
0.0
 11
-1.525186917
 21
0.0535924926
 31
0.0
  0
LINE
  5
266
330
1F
100
AcDbEntity
  8
0
  6
Continuous
 62
     7
370
    25
100
AcDbLine
 10
-1.5221869258
 20
0.7707137361
 30
0.0
 11
-1.5221869258
 21
0.0547507301
 31
0.0
  0
LINE
  5
267
330
1F
100
AcDbEntity
  8
0
  6
Continuous
 62
     7
370
    25
100
AcDbLine
 10
1.6748131456
 20
0.7718720927
 30
0.0
 11
1.6748131456
 21
0.0535924926
 31
0.0
  0
LINE
  5
268
330
1F
100
AcDbEntity
  8
0
  6
Continuous
 62
     7
370
    25
100
AcDbLine
 10
1.6778131666
 20
0.7707137361
 30
0.0
 11
1.6778131666
 21
0.0547507301
 31
0.0
  0
LINE
  5
269
330
1F
100
AcDbEntity
  8
0
  6
Continuous
 62
     7
370
    25
100
AcDbLine
 10
1.706812972
 20
0.7707137361
 30
0.0
 11
1.706812972
 21
0.0547507301
 31
0.0
  0
LINE
  5
26A
330
1F
100
AcDbEntity
  8
0
  6
Continuous
 62
     7
370
    25
100
AcDbLine
 10
1.709812993
 20
0.7718720927
 30
0.0
 11
1.709812993
 21
0.766732265
 31
0.0
  0
LINE
  5
26B
330
1F
100
AcDbEntity
  8
0
  6
Continuous
 62
     7
370
    25
100
AcDbLine
 10
1.709812993
 20
0.0587323203
 30
0.0
 11
1.709812993
 21
0.0535924926
 31
0.0
  0
LINE
  5
26C
330
1F
100
AcDbEntity
  8
0
  6
Continuous
 62
     7
370
    25
100
AcDbLine
 10
-0.74970538
 20
0.7982322469
 30
0.0
 11
-1.4656684456
 21
0.7982322469
 31
0.0
  0
LINE
  5
26D
330
1F
100
AcDbEntity
  8
0
  6
Continuous
 62
     7
370
    25
100
AcDbLine
 10
-0.7485470829
 20
0.7952322259
 30
0.0
 11
-1.4668267576
 21
0.7952322259
 31
0.0
  0
LINE
  5
26E
330
1F
100
AcDbEntity
  8
0
  6
Continuous
 62
     7
370
    25
100
AcDbLine
 10
-0.74970538
 20
0.8272322908
 30
0.0
 11
-1.4656684456
 21
0.8272322908
 31
0.0
  0
LINE
  5
26F
330
1F
100
AcDbEntity
  8
0
  6
Continuous
 62
     7
370
    25
100
AcDbLine
 10
-0.7485470829
 20
0.8302323117
 30
0.0
 11
-0.7536869107
 21
0.8302323117
 31
0.0
  0
LINE
  5
270
330
1F
100
AcDbEntity
  8
0
  6
Continuous
 62
     7
370
    25
100
AcDbLine
 10
-1.461686915
 20
0.8302323117
 30
0.0
 11
-1.4668267576
 21
0.8302323117
 31
0.0
  0
LINE
  5
271
330
1F
100
AcDbEntity
  8
0
  6
Continuous
 62
     7
370
    25
100
AcDbLine
 10
1.6748131456
 20
-0.0281278596
 30
0.0
 11
1.6748131456
 21
-0.7464076981
 31
0.0
  0
LINE
  5
272
330
1F
100
AcDbEntity
  8
0
  6
Continuous
 62
     7
370
    25
100
AcDbLine
 10
1.6778131666
 20
-0.0292863354
 30
0.0
 11
1.6778131666
 21
-0.7452492223
 31
0.0
  0
LINE
  5
273
330
1F
100
AcDbEntity
  8
0
  6
Continuous
 62
     7
370
    25
100
AcDbLine
 10
1.706812972
 20
-0.0292863354
 30
0.0
 11
1.706812972
 21
-0.7452492223
 31
0.0
  0
LINE
  5
274
330
1F
100
AcDbEntity
  8
0
  6
Continuous
 62
     7
370
    25
100
AcDbLine
 10
1.709812993
 20
-0.0281278596
 30
0.0
 11
1.709812993
 21
-0.0332676873
 31
0.0
  0
LINE
  5
275
330
1F
100
AcDbEntity
  8
0
  6
Continuous
 62
     7
370
    25
100
AcDbLine
 10
1.709812993
 20
-0.741267632
 30
0.0
 11
1.709812993
 21
-0.7464076981
 31
0.0
  0
LINE
  5
276
330
1F
100
AcDbEntity
  8
0
  6
Continuous
 62
     7
370
    25
100
AcDbLine
 10
0.8748131933
 20
-0.0281278596
 30
0.0
 11
0.8748131933
 21
-0.0332676873
 31
0.0
  0
LINE
  5
277
330
1F
100
AcDbEntity
  8
0
  6
Continuous
 62
     7
370
    25
100
AcDbLine
 10
0.8748131933
 20
-0.741267632
 30
0.0
 11
0.8748131933
 21
-0.7464076981
 31
0.0
  0
LINE
  5
278
330
1F
100
AcDbEntity
  8
0
  6
Continuous
 62
     7
370
    25
100
AcDbLine
 10
0.8778129759
 20
-0.0292863354
 30
0.0
 11
0.8778129759
 21
-0.7452492223
 31
0.0
  0
LINE
  5
279
330
1F
100
AcDbEntity
  8
0
  6
Continuous
 62
     7
370
    25
100
AcDbLine
 10
0.9068130197
 20
-0.0292863354
 30
0.0
 11
0.9068130197
 21
-0.7452492223
 31
0.0
  0
LINE
  5
27A
330
1F
100
AcDbEntity
  8
0
  6
Continuous
 62
     7
370
    25
100
AcDbLine
 10
0.9098130407
 20
-0.0281278596
 30
0.0
 11
0.9098130407
 21
-0.7464076981
 31
0.0
  0
CIRCLE
  5
27B
330
1F
100
AcDbEntity
  8
0
  6
Continuous
 62
     7
370
    25
100
AcDbCircle
 10
0.892313078
 20
2.4127322536
 30
0.0
 40
0.0444500000000003
  0
CIRCLE
  5
27C
330
1F
100
AcDbEntity
  8
0
  6
Continuous
 62
     7
370
    25
100
AcDbCircle
 10
-0.707686922
 20
2.4127322536
 30
0.0
 40
0.0444500000000001
  0
SPLINE
  5
27D
330
1F
100
AcDbEntity
  8
0
  6
Continuous
 62
     7
370
    25
100
AcDbSpline
210
0.0
220
0.0
230
1.0
 70
    11
 71
     3
 72
    23
 73
    19
 74
     0
 42
0.000000001
 43
0.00000001
 40
0.0
 40
0.0
 40
0.0
 40
0.0
 40
0.0625872279892798
 40
0.1249274178415332
 40
0.1872554383814119
 40
0.2499949238963259
 40
0.3122474461275344
 40
0.3749402772545463
 40
0.4372163131232099
 40
0.4999526353994786
 40
0.5622016047113839
 40
0.6249575288228578
 40
0.687159459768368
 40
0.749898945283282
 40
0.8121532460875347
 40
0.8749669466285779
 40
0.9375730727550069
 40
1.0
 40
1.0
 40
1.0
 40
1.0
 10
0.892063015907485
 20
2.412732247968076
 30
0.0
 10
0.8920665075812729
 20
2.412699326146472
 30
0.0
 10
0.8920734771468576
 20
2.412633612449032
 30
0.0
 10
0.8921324263949414
 20
2.412551312839504
 30
0.0
 10
0.892214149417582
 20
2.412494003642707
 30
0.0
 10
0.8923128761505393
 20
2.412476428412658
 30
0.0
 10
0.8924117009512972
 20
2.412493793647837
 30
0.0
 10
0.8924937048181515
 20
2.412551243828965
 30
0.0
 10
0.8925514378253064
 20
2.412633334514203
 30
0.0
 10
0.8925687442026079
 20
2.412732003984682
 30
0.0
 10
0.8925514591648441
 20
2.412830849960387
 30
0.0
 10
0.8924940864466532
 20
2.412912932026138
 30
0.0
 10
0.8924119585819038
 20
2.412970576212699
 30
0.0
 10
0.8923133921329663
 20
2.412988084804121
 30
0.0
 10
0.8922143862797852
 20
2.412970640222704
 30
0.0
 10
0.892132590055018
 20
2.412913253912999
 30
0.0
 10
0.8920728766509548
 20
2.412831003929761
 30
0.0
 10
0.8920662996799101
 20
2.412765135153996
 30
0.0
 10
0.892063015907485
 20
2.412732247968076
 30
0.0
  0
SPLINE
  5
27E
330
1F
100
AcDbEntity
  8
0
  6
Continuous
 62
     7
370
    25
100
AcDbSpline
210
0.0
220
0.0
230
1.0
 70
    11
 71
     3
 72
    55
 73
    51
 74
     0
 42
0.000000001
 43
0.00000001
 40
0.0
 40
0.0
 40
0.0
 40
0.0
 40
0.0208252164591349
 40
0.0416753370783613
 40
0.0625000367629211
 40
0.0833269070231388
 40
0.1041753100249101
 40
0.1249997688442208
 40
0.1458269219814389
 40
0.1666754431603645
 40
0.1875002496221231
 40
0.2083269155344853
 40
0.2291750482859677
 40
0.2500000436644166
 40
0.2708267656549356
 40
0.2916749925770956
 40
0.3124998091779341
 40
0.3333266530370075
 40
0.3541754125885451
 40
0.3749996047203115
 40
0.3958271320361742
 40
0.4166753258542994
 40
0.4374998924644789
 40
0.458326775922045
 40
0.479175213254654
 40
0.4999998410073508
 40
0.5208268771050181
 40
0.5416752092323921
 40
0.5624999597020708
 40
0.5833268299622885
 40
0.6041752329640597
 40
0.6250002173342025
 40
0.6458267253502011
 40
0.6666752763253694
 40
0.6875000827871279
 40
0.7083267486994902
 40
0.7291757335595298
 40
0.7499998656321312
 40
0.770827443923027
 40
0.7916756708451871
 40
0.8124996576366295
 40
0.8333272948842243
 40
0.8541753111311051
 40
0.8750001837514715
 40
0.8958271451942466
 40
0.9166752944172237
 40
0.9374998610274032
 40
0.9583270711822985
 40
0.9791735526089911
 40
0.9999999999999999
 40
0.9999999999999999
 40
0.9999999999999999
 40
0.9999999999999999
 10
0.8480631055528708
 20
2.412732247968076
 30
0.0
 10
0.8481359790358828
 20
2.410802219767803
 30
0.0
 10
0.8482818131487982
 20
2.406939855312915
 30
0.0
 10
0.849457101593306
 20
2.401246492407583
 30
0.0
 10
0.8513126168747612
 20
2.395750062994592
 30
0.0
 10
0.8538819987176273
 20
2.39054344907463
 30
0.0
 10
0.8571063769297204
 20
2.385717031921819
 30
0.0
 10
0.8609345051901133
 20
2.381353348004202
 30
0.0
 10
0.8652981006436585
 20
2.377525351848892
 30
0.0
 10
0.8701247954019938
 20
2.374300427802854
 30
0.0
 10
0.8753313101502594
 20
2.371733952790699
 30
0.0
 10
0.8808276152622306
 20
2.369867138453999
 30
0.0
 10
0.8865209449062138
 20
2.368734761538811
 30
0.0
 10
0.892313274774554
 20
2.368356064076953
 30
0.0
 10
0.8981056268193172
 20
2.368734761198039
 30
0.0
 10
0.9037989062591222
 20
2.369867345221302
 30
0.0
 10
0.9092952723031168
 20
2.371734048365776
 30
0.0
 10
0.9145017659494582
 20
2.374300671835552
 30
0.0
 10
0.919328402296412
 20
2.377525568957772
 30
0.0
 10
0.9236918224532983
 20
2.381353840776976
 30
0.0
 10
0.9275201249634982
 20
2.385717184631834
 30
0.0
 10
0.9307448982683032
 20
2.390543957563068
 30
0.0
 10
0.9333114668665449
 20
2.395750396406572
 30
0.0
 10
0.9351779874013914
 20
2.401246825422278
 30
0.0
 10
0.9363106270442404
 20
2.406940105656812
 30
0.0
 10
0.9366893047283834
 20
2.412732472078375
 30
0.0
 10
0.9363106514150085
 20
2.418524823284787
 30
0.0
 10
0.935178110276839
 20
2.424218158582643
 30
0.0
 10
0.9333112050520832
 20
2.429714449452743
 30
0.0
 10
0.9307448680191445
 20
2.434921046464406
 30
0.0
 10
0.9275197162924141
 20
2.439747574885015
 30
0.0
 10
0.923691524094776
 20
2.444110983260299
 30
0.0
 10
0.9193281202653979
 20
2.447939233096545
 30
0.0
 10
0.9145014325326227
 20
2.45116407038533
 30
0.0
 10
0.9092949258116839
 20
2.453730559733451
 30
0.0
 10
0.903798544461934
 20
2.45559740251114
 30
0.0
 10
0.8981052065061507
 20
2.456729739122159
 30
0.0
 10
0.8923127996784236
 20
2.457108427539904
 30
0.0
 10
0.8865204506782748
 20
2.456729742097906
 30
0.0
 10
0.8808271497300965
 20
2.455597202716429
 30
0.0
 10
0.8753308548535569
 20
2.45373033879702
 30
0.0
 10
0.8701243014269321
 20
2.45116398166261
 30
0.0
 10
0.8652977927250737
 20
2.447938763806369
 30
0.0
 10
0.8609342070949816
 20
2.444110832829548
 30
0.0
 10
0.8571059757823406
 20
2.439747211732151
 30
0.0
 10
0.8538819419731861
 20
2.434920574031724
 30
0.0
 10
0.8513124236733317
 20
2.429714053333346
 30
0.0
 10
0.8494570051120581
 20
2.424217910339806
 30
0.0
 10
0.8482817711427472
 20
2.418524534942856
 30
0.0
 10
0.8481359707185742
 20
2.414662391391445
 30
0.0
 10
0.8480631055528708
 20
2.412732247968076
 30
0.0
  0
SPLINE
  5
27F
330
1F
100
AcDbEntity
  8
0
  6
Continuous
 62
     7
370
    25
100
AcDbSpline
210
0.0
220
0.0
230
1.0
 70
    11
 71
     3
 72
    23
 73
    19
 74
     0
 42
0.000000001
 43
0.00000001
 40
0.0
 40
0.0
 40
0.0
 40
0.0
 40
0.0625931997503313
 40
0.1249321077324269
 40
0.1871642703087593
 40
0.2499399134769981
 40
0.3121911556407142
 40
0.3749457893334946
 40
0.4371776212008872
 40
0.4999269733698173
 40
0.5621817740152163
 40
0.6249150095396044
 40
0.6871786901763763
 40
0.7499168856106154
 40
0.8121699063108038
 40
0.8749191889735093
 40
0.9375884710597813
 40
1.0
 40
1.0
 40
1.0
 40
1.0
 10
-0.7079369483297281
 20
2.412732247968076
 30
0.0
 10
-0.7079334335894875
 20
2.41269932483955
 30
0.0
 10
-0.7079264183880255
 20
2.412633612336334
 30
0.0
 10
-0.7078674945572364
 20
2.412551379198685
 30
0.0
 10
-0.7077858924151041
 20
2.41249394760974
 30
0.0
 10
-0.7076871529187543
 20
2.412476432696494
 30
0.0
 10
-0.7075883192598706
 20
2.412493825573117
 30
0.0
 10
-0.707506180874389
 20
2.412551163224898
 30
0.0
 10
-0.7074486575896608
 20
2.41263339307287
 30
0.0
 10
-0.7074310841133946
 20
2.412731993773215
 30
0.0
 10
-0.7074485525427959
 20
2.4128308213163
 30
0.0
 10
-0.7075058096624203
 20
2.412912994047245
 30
0.0
 10
-0.7075880569266247
 20
2.4129705453235
 30
0.0
 10
-0.7076866174995632
 20
2.412988083195356
 30
0.0
 10
-0.707785636224535
 20
2.412970677153212
 30
0.0
 10
-0.7078672951951512
 20
2.412913155735467
 30
0.0
 10
-0.7079272707205873
 20
2.41283108067787
 30
0.0
 10
-0.7079337268947453
 20
2.412765146914927
 30
0.0
 10
-0.7079369483297281
 20
2.412732247968076
 30
0.0
  0
SPLINE
  5
280
330
1F
100
AcDbEntity
  8
0
  6
Continuous
 62
     7
370
    25
100
AcDbSpline
210
0.0
220
0.0
230
1.0
 70
    11
 71
     3
 72
    55
 73
    51
 74
     0
 42
0.000000001
 43
0.00000001
 40
0.0
 40
0.0
 40
0.0
 40
0.0
 40
0.0208252043209936
 40
0.0416753686681307
 40
0.0625000012446754
 40
0.0833270631107328
 40
0.1041753487961991
 40
0.1249999509535573
 40
0.1458271059633337
 40
0.1666754506369794
 40
0.1875000665529716
 40
0.2083269374791385
 40
0.2291752825164837
 40
0.2500000656921386
 40
0.2708270036302763
 40
0.2916754428373574
 40
0.3125000581691235
 40
0.3333270963181287
 40
0.354175322613052
 40
0.375000000457392
 40
0.3958269637727082
 40
0.4166753978361409
 40
0.4374999663186462
 40
0.4583269896009305
 40
0.4791753451010489
 40
0.4999999747260769
 40
0.5208270267077938
 40
0.5416753607096303
 40
0.5625000440714667
 40
0.5833270110699817
 40
0.6041754159462219
 40
0.6249999777832178
 40
0.6458269715112334
 40
0.6666753459813795
 40
0.6874999618973716
 40
0.708327035965057
 40
0.7291753914651753
 40
0.7499999535604773
 40
0.7708271055737239
 40
0.791675334370337
 40
0.8124999324574483
 40
0.8333269943235058
 40
0.8541753691973631
 40
0.8750000824083408
 40
0.895827045723657
 40
0.9166753160060008
 40
0.9374999793559243
 40
0.9583270534236097
 40
0.9791735367245984
 40
1.0
 40
1.0
 40
1.0
 40
1.0
 10
-0.7519369182889871
 20
2.412732247968076
 30
0.0
 10
-0.751864078816275
 20
2.410802217148241
 30
0.0
 10
-0.7517183125691796
 20
2.406939842272215
 30
0.0
 10
-0.7505428700861326
 20
2.40124651875372
 30
0.0
 10
-0.7486875237404633
 20
2.395750012310972
 30
0.0
 10
-0.7461179195517108
 20
2.390543505949854
 30
0.0
 10
-0.7428936707844812
 20
2.385716987058811
 30
0.0
 10
-0.739065450367145
 20
2.381353370167361
 30
0.0
 10
-0.7347018762508191
 20
2.377525365659884
 30
0.0
 10
-0.7298752296875888
 20
2.37430043020268
 30
0.0
 10
-0.7246687443203705
 20
2.371733926969651
 30
0.0
 10
-0.7191724058822193
 20
2.369867141519093
 30
0.0
 10
-0.7134790584059354
 20
2.368734769805376
 30
0.0
 10
-0.7076867089436595
 20
2.368356061135437
 30
0.0
 10
-0.701894339968459
 20
2.368734767252758
 30
0.0
 10
-0.6962010286370771
 20
2.369867318713434
 30
0.0
 10
-0.6907046737800961
 20
2.371734090576648
 30
0.0
 10
-0.6854981601005086
 20
2.374300585408035
 30
0.0
 10
-0.6806716724049188
 20
2.377525705372491
 30
0.0
 10
-0.6763080585961057
 20
2.381353682313515
 30
0.0
 10
-0.6724800652831697
 20
2.38571731929675
 30
0.0
 10
-0.6692550771390919
 20
2.390543899777883
 30
0.0
 10
-0.6666886145228614
 20
2.395750432635485
 30
0.0
 10
-0.6648218366936913
 20
2.401246781568662
 30
0.0
 10
-0.663689454471989
 20
2.406940125646672
 30
0.0
 10
-0.6633106848762056
 20
2.412732470880674
 30
0.0
 10
-0.66368945118574
 20
2.418524823638533
 30
0.0
 10
-0.6648219881804439
 20
2.42421814436062
 30
0.0
 10
-0.6666887923836411
 20
2.429714475855578
 30
0.0
 10
-0.6692552216208107
 20
2.434921039282767
 30
0.0
 10
-0.6724803825872314
 20
2.439747504707118
 30
0.0
 10
-0.6763083747579828
 20
2.444111108616612
 30
0.0
 10
-0.6806719577889119
 20
2.44793914815637
 30
0.0
 10
-0.6854985787706502
 20
2.451164077948236
 30
0.0
 10
-0.6907050848962862
 20
2.453730600159228
 30
0.0
 10
-0.696201453264694
 20
2.455597350270791
 30
0.0
 10
-0.701894791599699
 20
2.456729770426113
 30
0.0
 10
-0.7076871455050315
 20
2.457108420164812
 30
0.0
 10
-0.7134794958745756
 20
2.456729744129498
 30
0.0
 10
-0.7191727982005989
 20
2.455597159862331
 30
0.0
 10
-0.7246691511272823
 20
2.453730433357299
 30
0.0
 10
-0.7298756474924376
 20
2.45116388420584
 30
0.0
 10
-0.7347022192971052
 20
2.447938831524762
 30
0.0
 10
-0.7390657557290369
 20
2.444110805919758
 30
0.0
 10
-0.7428939914612137
 20
2.439747201102697
 30
0.0
 10
-0.7461180673813608
 20
2.434920572776575
 30
0.0
 10
-0.7486877032256465
 20
2.429714092752177
 30
0.0
 10
-0.7505429239021156
 20
2.424217883317055
 30
0.0
 10
-0.751718187896268
 20
2.418524536299794
 30
0.0
 10
-0.7518640315129043
 20
2.414662392276753
 30
0.0
 10
-0.7519369182889871
 20
2.412732247968076
 30
0.0
  0
LINE
  5
281
330
1F
100
AcDbEntity
  8
0
  6
Continuous
 62
     7
370
    25
100
AcDbLine
 10
-1.3686469218
 20
-1.4949388013
 30
0.0
 11
-1.3686469218
 21
-1.4796988473
 31
0.0
  0
LINE
  5
282
330
1F
100
AcDbEntity
  8
0
  6
Continuous
 62
     7
370
    25
100
AcDbLine
 10
-1.3686469218
 20
-1.2098123536
 30
0.0
 11
-1.3686469218
 21
-1.1945721612
 31
0.0
  0
LINE
  5
283
330
1F
100
AcDbEntity
  8
0
  6
Continuous
 62
     7
370
    25
100
AcDbLine
 10
-1.3686469218
 20
-0.7161139951
 30
0.0
 11
-1.3686469218
 21
-0.7008740411
 31
0.0
  0
LINE
  5
284
330
1F
100
AcDbEntity
  8
0
  6
Continuous
 62
     7
370
    25
100
AcDbLine
 10
-1.3686469218
 20
-0.4454791055
 30
0.0
 11
-1.3686469218
 21
-0.4302391515
 31
0.0
  0
LINE
  5
285
330
1F
100
AcDbEntity
  8
0
  6
Continuous
 62
     7
370
    25
100
AcDbLine
 10
-0.8467269299
 20
-0.7008740411
 30
0.0
 11
-0.8467269299
 21
-0.7161139951
 31
0.0
  0
LINE
  5
286
330
1F
100
AcDbEntity
  8
0
  6
Continuous
 62
     7
370
    25
100
AcDbLine
 10
-0.8467269299
 20
-1.1945721612
 30
0.0
 11
-0.8467269299
 21
-1.2098123536
 31
0.0
  0
LINE
  5
287
330
1F
100
AcDbEntity
  8
0
  6
Continuous
 62
     7
370
    25
100
AcDbLine
 10
-0.8467269299
 20
-0.2529265389
 30
0.0
 11
-0.8467269299
 21
-0.2681664929
 31
0.0
  0
LINE
  5
288
330
1F
100
AcDbEntity
  8
0
  6
Continuous
 62
     7
370
    25
100
AcDbLine
 10
-0.8467269299
 20
-0.4302391515
 30
0.0
 11
-0.8467269299
 21
-0.4454791055
 31
0.0
  0
LINE
  5
289
330
1F
100
AcDbEntity
  8
0
  6
Continuous
 62
     7
370
    25
100
AcDbLine
 10
-1.3686469218
 20
-0.2681664929
 30
0.0
 11
-1.3686469218
 21
-0.2529265389
 31
0.0
  0
LINE
  5
28A
330
1F
100
AcDbEntity
  8
0
  6
Continuous
 62
     7
370
    25
100
AcDbLine
 10
-0.8467269299
 20
-1.4796988473
 30
0.0
 11
-0.8467269299
 21
-1.4949388013
 31
0.0
  0
LINE
  5
28B
330
1F
100
AcDbEntity
  8
0
  6
Continuous
 62
     7
370
    25
100
AcDbLine
 10
-1.3486869206
 20
-0.2918481335
 30
0.0
 11
-1.3676869219
 21
-0.2918481335
 31
0.0
  0
LINE
  5
28C
330
1F
100
AcDbEntity
  8
0
  6
Continuous
 62
     7
370
    25
100
AcDbLine
 10
-1.3676869219
 20
-0.2918481335
 30
0.0
 11
-1.3676869219
 21
-0.0041176781
 31
0.0
  0
LINE
  5
28D
330
1F
100
AcDbEntity
  8
0
  6
Continuous
 62
     7
370
    25
100
AcDbLine
 10
-1.3486869206
 20
-0.2918481335
 30
0.0
 11
-1.3486869206
 21
-0.0041176781
 31
0.0
  0
LINE
  5
28E
330
1F
100
AcDbEntity
  8
0
  6
Continuous
 62
     7
370
    25
100
AcDbLine
 10
-1.3486869206
 20
0.0302322402
 30
0.0
 11
-1.3676869219
 21
0.0302322402
 31
0.0
  0
LINE
  5
28F
330
1F
100
AcDbEntity
  8
0
  6
Continuous
 62
     7
370
    25
100
AcDbLine
 10
-1.3676869219
 20
0.0302322402
 30
0.0
 11
-1.3676869219
 21
0.0295823112
 31
0.0
  0
LINE
  5
290
330
1F
100
AcDbEntity
  8
0
  6
Continuous
 62
     7
370
    25
100
AcDbLine
 10
-1.3486869206
 20
0.0302322402
 30
0.0
 11
-1.3486869206
 21
0.0295823112
 31
0.0
  0
LINE
  5
291
330
1F
100
AcDbEntity
  8
0
  6
Continuous
 62
     7
370
    25
100
AcDbLine
 10
-1.3486869206
 20
-0.8875722394
 30
0.0
 11
-1.3676869219
 21
-0.8875722394
 31
0.0
  0
LINE
  5
292
330
1F
100
AcDbEntity
  8
0
  6
Continuous
 62
     7
370
    25
100
AcDbLine
 10
-1.3676869219
 20
-0.8875722394
 30
0.0
 11
-1.3676869219
 21
-0.2918481335
 31
0.0
  0
LINE
  5
293
330
1F
100
AcDbEntity
  8
0
  6
Continuous
 62
     7
370
    25
100
AcDbLine
 10
-1.3486869206
 20
-0.8875722394
 30
0.0
 11
-1.3486869206
 21
-0.2918481335
 31
0.0
  0
LINE
  5
294
330
1F
100
AcDbEntity
  8
0
  6
Continuous
 62
     7
370
    25
100
AcDbLine
 10
-1.3486869206
 20
-1.5640871033
 30
0.0
 11
-1.3676869219
 21
-1.5640871033
 31
0.0
  0
LINE
  5
295
330
1F
100
AcDbEntity
  8
0
  6
Continuous
 62
     7
370
    25
100
AcDbLine
 10
-1.3676869219
 20
-0.8875722394
 30
0.0
 11
-1.3676869219
 21
-1.5640871033
 31
0.0
  0
LINE
  5
296
330
1F
100
AcDbEntity
  8
0
  6
Continuous
 62
     7
370
    25
100
AcDbLine
 10
-1.3486869206
 20
-0.8875722394
 30
0.0
 11
-1.3486869206
 21
-1.5640871033
 31
0.0
  0
LINE
  5
297
330
1F
100
AcDbEntity
  8
0
  6
Continuous
 62
     7
370
    25
100
AcDbLine
 10
-1.3676869219
 20
-1.5640871033
 30
0.0
 11
-1.3676869219
 21
-1.6449045644
 31
0.0
  0
LINE
  5
298
330
1F
100
AcDbEntity
  8
0
  6
Continuous
 62
     7
370
    25
100
AcDbLine
 10
-1.3486869206
 20
-1.5640871033
 30
0.0
 11
-1.3486869206
 21
-1.6449045644
 31
0.0
  0
LINE
  5
299
330
1F
100
AcDbEntity
  8
0
  6
Continuous
 62
     7
370
    25
100
AcDbLine
 10
-0.8476869223
 20
0.0302322402
 30
0.0
 11
-0.8666869161
 21
0.0302322402
 31
0.0
  0
LINE
  5
29A
330
1F
100
AcDbEntity
  8
0
  6
Continuous
 62
     7
370
    25
100
AcDbLine
 10
-0.8476869223
 20
-0.2918481335
 30
0.0
 11
-0.8666869161
 21
-0.2918481335
 31
0.0
  0
LINE
  5
29B
330
1F
100
AcDbEntity
  8
0
  6
Continuous
 62
     7
370
    25
100
AcDbLine
 10
-0.8666869161
 20
-0.2918481335
 30
0.0
 11
-0.8666869161
 21
-0.0041176781
 31
0.0
  0
LINE
  5
29C
330
1F
100
AcDbEntity
  8
0
  6
Continuous
 62
     7
370
    25
100
AcDbLine
 10
-0.8666869161
 20
0.0295823112
 30
0.0
 11
-0.8666869161
 21
0.0302322402
 31
0.0
  0
LINE
  5
29D
330
1F
100
AcDbEntity
  8
0
  6
Continuous
 62
     7
370
    25
100
AcDbLine
 10
-0.8476869223
 20
-0.2918481335
 30
0.0
 11
-0.8476869223
 21
-0.0041176781
 31
0.0
  0
LINE
  5
29E
330
1F
100
AcDbEntity
  8
0
  6
Continuous
 62
     7
370
    25
100
AcDbLine
 10
-0.8476869223
 20
0.0295823112
 30
0.0
 11
-0.8476869223
 21
0.0302322402
 31
0.0
  0
LINE
  5
29F
330
1F
100
AcDbEntity
  8
0
  6
Continuous
 62
     7
370
    25
100
AcDbLine
 10
-0.8476869223
 20
-0.8875722394
 30
0.0
 11
-0.8666869161
 21
-0.8875722394
 31
0.0
  0
LINE
  5
2A0
330
1F
100
AcDbEntity
  8
0
  6
Continuous
 62
     7
370
    25
100
AcDbLine
 10
-0.8666869161
 20
-0.8875722394
 30
0.0
 11
-0.8666869161
 21
-0.2918481335
 31
0.0
  0
LINE
  5
2A1
330
1F
100
AcDbEntity
  8
0
  6
Continuous
 62
     7
370
    25
100
AcDbLine
 10
-0.8476869223
 20
-0.8875722394
 30
0.0
 11
-0.8476869223
 21
-0.2918481335
 31
0.0
  0
LINE
  5
2A2
330
1F
100
AcDbEntity
  8
0
  6
Continuous
 62
     7
370
    25
100
AcDbLine
 10
-0.8476869223
 20
-1.5640871033
 30
0.0
 11
-0.8666869161
 21
-1.5640871033
 31
0.0
  0
LINE
  5
2A3
330
1F
100
AcDbEntity
  8
0
  6
Continuous
 62
     7
370
    25
100
AcDbLine
 10
-0.8666869161
 20
-0.8875722394
 30
0.0
 11
-0.8666869161
 21
-1.5640871033
 31
0.0
  0
LINE
  5
2A4
330
1F
100
AcDbEntity
  8
0
  6
Continuous
 62
     7
370
    25
100
AcDbLine
 10
-0.8476869223
 20
-0.8875722394
 30
0.0
 11
-0.8476869223
 21
-1.5640871033
 31
0.0
  0
LINE
  5
2A5
330
1F
100
AcDbEntity
  8
0
  6
Continuous
 62
     7
370
    25
100
AcDbLine
 10
-0.8666869161
 20
-1.5640871033
 30
0.0
 11
-0.8666869161
 21
-1.6449045644
 31
0.0
  0
LINE
  5
2A6
330
1F
100
AcDbEntity
  8
0
  6
Continuous
 62
     7
370
    25
100
AcDbLine
 10
-0.8476869223
 20
-1.5640871033
 30
0.0
 11
-0.8476869223
 21
-1.6449045644
 31
0.0
  0
ARC
  5
2A7
330
1F
100
AcDbEntity
  8
0
  6
Continuous
 62
     7
370
    25
100
AcDbCircle
 10
-0.815686922
 20
-0.0017677464
 30
0.0
 40
0.0030000000000001
100
AcDbArc
 50
270.0
 51
308.4332063409
  0
LINE
  5
2A8
330
1F
100
AcDbEntity
  8
0
  6
Continuous
 62
     7
370
    25
100
AcDbLine
 10
-0.8156869171
 20
-0.0047678456
 30
0.0
 11
-0.8446869312
 21
-0.0047678456
 31
0.0
  0
ARC
  5
2A9
330
1F
100
AcDbEntity
  8
0
  6
Continuous
 62
     7
370
    25
100
AcDbCircle
 10
-0.844686922
 20
-0.0017677464
 30
0.0
 40
0.0030000000000001
100
AcDbArc
 50
231.5667936591
 51
270.0
  0
LINE
  5
2AA
330
1F
100
AcDbEntity
  8
0
  6
Continuous
 62
     7
370
    25
100
AcDbLine
 10
-0.8465517221
 20
-0.0041176781
 30
0.0
 11
-0.8138221262
 21
-0.0041176781
 31
0.0
  0
ARC
  5
2AB
330
1F
100
AcDbEntity
  8
0
  6
Continuous
 62
     7
370
    25
100
AcDbCircle
 10
-0.844686922
 20
0.0272322536
 30
0.0
 40
0.0030000000000001
100
AcDbArc
 50
90.0
 51
128.4332063409
  0
LINE
  5
2AC
330
1F
100
AcDbEntity
  8
0
  6
Continuous
 62
     7
370
    25
100
AcDbLine
 10
-0.8446869312
 20
0.0302322402
 30
0.0
 11
-0.8156869171
 21
0.0302322402
 31
0.0
  0
ARC
  5
2AD
330
1F
100
AcDbEntity
  8
0
  6
Continuous
 62
     7
370
    25
100
AcDbCircle
 10
-0.815686922
 20
0.0272322536
 30
0.0
 40
0.0030000000000001
100
AcDbArc
 50
51.5667936591
 51
90.0
  0
LINE
  5
2AE
330
1F
100
AcDbEntity
  8
0
  6
Continuous
 62
     7
370
    25
100
AcDbLine
 10
-0.8138221262
 20
0.0295823112
 30
0.0
 11
-0.8465517221
 21
0.0295823112
 31
0.0
  0
LINE
  5
2AF
330
1F
100
AcDbEntity
  8
0
  6
Continuous
 62
     7
370
    25
100
AcDbLine
 10
-1.4015517292
 20
-0.0041176781
 30
0.0
 11
-1.3688221147
 21
-0.0041176781
 31
0.0
  0
LINE
  5
2B0
330
1F
100
AcDbEntity
  8
0
  6
Continuous
 62
     7
370
    25
100
AcDbLine
 10
-1.3688221147
 20
0.0295823112
 30
0.0
 11
-1.4015517292
 21
0.0295823112
 31
0.0
  0
ARC
  5
2B1
330
1F
100
AcDbEntity
  8
0
  6
Continuous
 62
     7
370
    25
100
AcDbCircle
 10
-1.399686922
 20
0.0272322536
 30
0.0
 40
0.0030000000000001
100
AcDbArc
 50
90.0
 51
128.4332063409
  0
LINE
  5
2B2
330
1F
100
AcDbEntity
  8
0
  6
Continuous
 62
     7
370
    25
100
AcDbLine
 10
-1.3996869234
 20
0.0302322402
 30
0.0
 11
-1.3706869242
 21
0.0302322402
 31
0.0
  0
ARC
  5
2B3
330
1F
100
AcDbEntity
  8
0
  6
Continuous
 62
     7
370
    25
100
AcDbCircle
 10
-1.370686922
 20
0.0272322536
 30
0.0
 40
0.0030000000000001
100
AcDbArc
 50
51.5667936591
 51
90.0
  0
ARC
  5
2B4
330
1F
100
AcDbEntity
  8
0
  6
Continuous
 62
     7
370
    25
100
AcDbCircle
 10
-1.370686922
 20
-0.0017677464
 30
0.0
 40
0.0030000000000001
100
AcDbArc
 50
270.0
 51
308.4332063409
  0
ARC
  5
2B5
330
1F
100
AcDbEntity
  8
0
  6
Continuous
 62
     7
370
    25
100
AcDbCircle
 10
-1.399686922
 20
-0.0017677464
 30
0.0
 40
0.0030000000000001
100
AcDbArc
 50
231.5667936591
 51
270.0
  0
LINE
  5
2B6
330
1F
100
AcDbEntity
  8
0
  6
Continuous
 62
     7
370
    25
100
AcDbLine
 10
-1.3706869242
 20
-0.0047678456
 30
0.0
 11
-1.3996869234
 21
-0.0047678456
 31
0.0
  0
CIRCLE
  5
2B7
330
1F
100
AcDbEntity
  8
0
  6
Continuous
 62
     7
370
    25
100
AcDbCircle
 10
0.892313078
 20
-0.7872677464
 30
0.0
 40
0.0444500000000003
  0
CIRCLE
  5
2B8
330
1F
100
AcDbEntity
  8
0
  6
Continuous
 62
     7
370
    25
100
AcDbCircle
 10
1.692313078
 20
-0.7872677464
 30
0.0
 40
0.0444499999999999
  0
LINE
  5
2B9
330
1F
100
AcDbEntity
  8
0
  6
Continuous
 62
     7
370
    25
100
AcDbLine
 10
0.9331732931
 20
-0.8047677979
 30
0.0
 11
0.9517630281
 21
-0.8047677979
 31
0.0
  0
LINE
  5
2BA
330
1F
100
AcDbEntity
  8
0
  6
Continuous
 62
     7
370
    25
100
AcDbLine
 10
1.6328631582
 20
-0.8047677979
 30
0.0
 11
1.6514528932
 21
-0.8047677979
 31
0.0
  0
LINE
  5
2BB
330
1F
100
AcDbEntity
  8
0
  6
Continuous
 62
     7
370
    25
100
AcDbLine
 10
0.9331732931
 20
-0.7697677121
 30
0.0
 11
0.9385629835
 21
-0.7697677121
 31
0.0
  0
LINE
  5
2BC
330
1F
100
AcDbEntity
  8
0
  6
Continuous
 62
     7
370
    25
100
AcDbLine
 10
1.6460632028
 20
-0.7697677121
 30
0.0
 11
1.6514528932
 21
-0.7697677121
 31
0.0
  0
LINE
  5
2BD
330
1F
100
AcDbEntity
  8
0
  6
Continuous
 62
     7
370
    25
100
AcDbLine
 10
1.6514528932
 20
0.0302322402
 30
0.0
 11
1.6460632028
 21
0.0302322402
 31
0.0
  0
LINE
  5
2BE
330
1F
100
AcDbEntity
  8
0
  6
Continuous
 62
     7
370
    25
100
AcDbLine
 10
0.9385629835
 20
0.0302322402
 30
0.0
 11
0.9331732931
 21
0.0302322402
 31
0.0
  0
LINE
  5
2BF
330
1F
100
AcDbEntity
  8
0
  6
Continuous
 62
     7
370
    25
100
AcDbLine
 10
1.6514528932
 20
-0.0047678456
 30
0.0
 11
1.6460632028
 21
-0.0047678456
 31
0.0
  0
LINE
  5
2C0
330
1F
100
AcDbEntity
  8
0
  6
Continuous
 62
     7
370
    25
100
AcDbLine
 10
0.9385629835
 20
-0.0047678456
 30
0.0
 11
0.9331732931
 21
-0.0047678456
 31
0.0
  0
SPLINE
  5
2C1
330
1F
100
AcDbEntity
  8
0
  6
Continuous
 62
     7
370
    25
100
AcDbSpline
210
0.0
220
0.0
230
1.0
 70
    11
 71
     3
 72
    23
 73
    19
 74
     0
 42
0.000000001
 43
0.00000001
 40
0.0
 40
0.0
 40
0.0
 40
0.0
 40
0.0626020832951841
 40
0.1249937062985582
 40
0.1873446814670818
 40
0.2500677702301904
 40
0.3123128994343269
 40
0.3750018630719567
 40
0.4372268107266163
 40
0.5000997190205989
 40
0.5623448482247354
 40
0.6250338118623651
 40
0.6872587595170248
 40
0.7499818482801334
 40
0.8122269774842699
 40
0.8750421485124665
 40
0.9376050219368771
 40
0.9999999999999999
 40
0.9999999999999999
 40
0.9999999999999999
 40
0.9999999999999999
 10
0.892063015907485
 20
-0.7872676358028663
 30
0.0
 10
0.8920665113785003
 20
-0.787300566361214
 30
0.0
 10
0.8920734905691982
 20
-0.7873663167695342
 30
0.0
 10
0.8921324114365806
 20
-0.7874486789215531
 30
0.0
 10
0.8922141153898157
 20
-0.7875061372569037
 30
0.0
 10
0.892312886829474
 20
-0.7875235075543014
 30
0.0
 10
0.8924117062086833
 20
-0.7875062468129088
 30
0.0
 10
0.8924936690457611
 20
-0.787448774733531
 30
0.0
 10
0.8925515114141659
 20
-0.7873666979643708
 30
0.0
 10
0.892568721295636
 20
-0.7872679529545277
 30
0.0
 10
0.8925515007311394
 20
-0.7871690450401996
 30
0.0
 10
0.8924940159456228
 20
-0.7870870818180591
 30
0.0
 10
0.8924120014324745
 20
-0.7870292967635355
 30
0.0
 10
0.8923133812308631
 20
-0.7870120077465987
 30
0.0
 10
0.8922143759504141
 20
-0.787029317375652
 30
0.0
 10
0.892132622164565
 20
-0.7870867529574999
 30
0.0
 10
0.8920728685857543
 20
-0.7871689208116708
 30
0.0
 10
0.8920662971904313
 20
-0.7872347602934604
 30
0.0
 10
0.892063015907485
 20
-0.7872676358028663
 30
0.0
  0
SPLINE
  5
2C2
330
1F
100
AcDbEntity
  8
0
  6
Continuous
 62
     7
370
    25
100
AcDbSpline
210
0.0
220
0.0
230
1.0
 70
    11
 71
     3
 72
    55
 73
    51
 74
     0
 42
0.000000001
 43
0.00000001
 40
0.0
 40
0.0
 40
0.0
 40
0.0
 40
0.0208258626400289
 40
0.0416757768083097
 40
0.0625006835888566
 40
0.0833273653859194
 40
0.1041755047849316
 40
0.1250001691636857
 40
0.1458272555241113
 40
0.1666761084269264
 40
0.187500871411039
 40
0.2083274033246093
 40
0.2291756342066252
 40
0.2500005845166482
 40
0.2708273034573538
 40
0.2916755343393698
 40
0.312500165213059
 40
0.3333272264873903
 40
0.3541760793902053
 40
0.3750000986411192
 40
0.3958277508714533
 40
0.4166761270304801
 40
0.437500120342901
 40
0.4583274648284657
 40
0.4791756957104817
 40
0.5000007020499847
 40
0.5208274209906905
 40
0.5416756518727065
 40
0.5625005586532533
 40
0.5833272404503163
 40
0.6041753798493285
 40
0.6250006100930808
 40
0.6458270513299734
 40
0.6666759042327886
 40
0.6875006672169012
 40
0.7083271991304714
 40
0.7291762716549477
 40
0.7500003656622916
 40
0.7708279409038248
 40
0.7916761717858408
 40
0.8124999900877358
 40
0.8333278210264538
 40
0.854175960425466
 40
0.87500062480422
 40
0.8958277111646455
 40
0.916675373803553
 40
0.9375001367876656
 40
0.9583277571794968
 40
0.979174137359971
 40
1.0
 40
1.0
 40
1.0
 40
1.0
 10
0.8480631055528708
 20
-0.7872676358028663
 30
0.0
 10
0.8481359733185877
 20
-0.7891977244365842
 30
0.0
 10
0.8482817930040928
 20
-0.7930601307392404
 30
0.0
 10
0.849457123408116
 20
-0.7987535443735729
 30
0.0
 10
0.8513125922058192
 20
-0.8042499683823428
 30
0.0
 10
0.8538819867735833
 20
-0.8094565571647774
 30
0.0
 10
0.8571064330343653
 20
-0.8142828906255501
 30
0.0
 10
0.8609344575019425
 20
-0.8186466535874364
 30
0.0
 10
0.8652981669825334
 20
-0.8224745798762894
 30
0.0
 10
0.87012473481271
 20
-0.8256997147659715
 30
0.0
 10
0.8753312986849285
 20
-0.82826617334397
 30
0.0
 10
0.8808276566323584
 20
-0.8301327377107692
 30
0.0
 10
0.8865209153631645
 20
-0.8312654804297113
 30
0.0
 10
0.8923132845270626
 20
-0.831643728182919
 30
0.0
 10
0.8981056319802426
 20
-0.8312652191227912
 30
0.0
 10
0.9037988669631442
 20
-0.8301325148011149
 30
0.0
 10
0.9092953414486452
 20
-0.8282661214881011
 30
0.0
 10
0.9145017431991153
 20
-0.8256992535331928
 30
0.0
 10
0.9193283673204716
 20
-0.8224743464869206
 30
0.0
 10
0.9236918592383471
 20
-0.818646146739229
 30
0.0
 10
0.927520134307367
 20
-0.8142827539887363
 30
0.0
 10
0.9307448259474175
 20
-0.8094559686310925
 30
0.0
 10
0.9333115470666901
 20
-0.8042495967338485
 30
0.0
 10
0.935177944645687
 20
-0.7987531530061114
 30
0.0
 10
0.9363106471436567
 20
-0.7930598322981592
 30
0.0
 10
0.9366893002573305
 20
-0.7872674751235125
 30
0.0
 10
0.9363106514425864
 20
-0.7814751297097002
 30
0.0
 10
0.9351780959070753
 20
-0.7757818234557199
 30
0.0
 10
0.9333112256019943
 20
-0.7702855365490935
 30
0.0
 10
0.9307448811577436
 20
-0.7650789674084146
 30
0.0
 10
0.9275196553283386
 20
-0.7602525225665695
 30
0.0
 10
0.923691576538329
 20
-0.7558890222926298
 30
0.0
 10
0.9193280578639867
 20
-0.752060839870536
 30
0.0
 10
0.9145014884602843
 20
-0.7488358095977246
 30
0.0
 10
0.9092949375547198
 20
-0.7462693362597759
 30
0.0
 10
0.9037985050796041
 20
-0.7444027345191562
 30
0.0
 10
0.8981052327817999
 20
-0.7432700706382507
 30
0.0
 10
0.8923127913709435
 20
-0.7428917734580285
 30
0.0
 10
0.8865204459251973
 20
-0.7432702885147231
 30
0.0
 10
0.8808271850244355
 20
-0.7444029363106739
 30
0.0
 10
0.8753307940955853
 20
-0.7462695216228501
 30
0.0
 10
0.870124313190512
 20
-0.7488360905036289
 30
0.0
 10
0.8652978416182081
 20
-0.7520613483787151
 30
0.0
 10
0.8609341525747128
 20
-0.7558891759623294
 30
0.0
 10
0.8571060527972311
 20
-0.7602528381047504
 30
0.0
 10
0.8538818742997335
 20
-0.7650793546460326
 30
0.0
 10
0.8513124185995512
 20
-0.7702859285255368
 30
0.0
 10
0.8494570271971257
 20
-0.7757821232954014
 30
0.0
 10
0.848281777466157
 20
-0.7814754678367173
 30
0.0
 10
0.8481359722613219
 20
-0.7853375469855792
 30
0.0
 10
0.8480631055528708
 20
-0.7872676358028663
 30
0.0
  0
SPLINE
  5
2C3
330
1F
100
AcDbEntity
  8
0
  6
Continuous
 62
     7
370
    25
100
AcDbSpline
210
0.0
220
0.0
230
1.0
 70
    11
 71
     3
 72
    23
 73
    19
 74
     0
 42
0.000000001
 43
0.00000001
 40
0.0
 40
0.0
 40
0.0
 40
0.0
 40
0.0626362424818213
 40
0.1250328463530103
 40
0.1872627615694056
 40
0.2499908576620088
 40
0.3122409560390208
 40
0.3749349242818573
 40
0.4371648394982526
 40
0.5000714332437616
 40
0.5623501132348622
 40
0.6250440814776987
 40
0.6872739966940941
 40
0.7500020927866972
 40
0.8122521911637092
 40
0.8749461594065457
 40
0.9376000408012202
 40
1.0
 40
1.0
 40
1.0
 40
1.0
 10
1.692062968223769
 20
-0.7872676358028663
 30
0.0
 10
1.692066559943574
 20
-0.7873005658618619
 30
0.0
 10
1.692073729641702
 20
-0.787366299993471
 30
0.0
 10
1.692132568775925
 20
-0.7874485924392776
 30
0.0
 10
1.692214106391559
 20
-0.7875061967320978
 30
0.0
 10
1.692312848474173
 20
-0.7875234950395185
 30
0.0
 10
1.692411648871174
 20
-0.7875062493621705
 30
0.0
 10
1.692493650766631
 20
-0.7874487771369405
 30
0.0
 10
1.692551365041812
 20
-0.7873666733474534
 30
0.0
 10
1.692569082427371
 20
-0.7872679527345046
 30
0.0
 10
1.692551352966504
 20
-0.7871690698259015
 30
0.0
 10
1.692493998121944
 20
-0.7870870796173297
 30
0.0
 10
1.692411942520733
 20
-0.7870292933968628
 30
0.0
 10
1.692313348494932
 20
-0.7870120235352496
 30
0.0
 10
1.692214346495418
 20
-0.7870292463277826
 30
0.0
 10
1.692132820990592
 20
-0.7870869122342552
 30
0.0
 10
1.692072770586148
 20
-0.7871688318487391
 30
0.0
 10
1.69206623125185
 20
-0.7872347457642914
 30
0.0
 10
1.69206296822377
 20
-0.7872676358028667
 30
0.0
  0
SPLINE
  5
2C4
330
1F
100
AcDbEntity
  8
0
  6
Continuous
 62
     7
370
    25
100
AcDbSpline
210
0.0
220
0.0
230
1.0
 70
    11
 71
     3
 72
    55
 73
    51
 74
     0
 42
0.000000001
 43
0.00000001
 40
0.0
 40
0.0
 40
0.0
 40
0.0
 40
0.0208258570791617
 40
0.0416757656801532
 40
0.0625006669000881
 40
0.083327343136065
 40
0.1041754769682618
 40
0.1250001357864686
 40
0.1458272165857002
 40
0.1666760639215094
 40
0.1875008213450484
 40
0.2083273476975728
 40
0.2291755730127489
 40
0.2500005177621482
 40
0.2708272311417581
 40
0.2916762980991696
 40
0.3125001108407433
 40
0.3333279362180684
 40
0.3541760700502652
 40
0.375000728868472
 40
0.3958278096677036
 40
0.4166761802598517
 40
0.4375001680119046
 40
0.4583277828423993
 40
0.4791758407504827
 40
0.5000008415293472
 40
0.520827554908957
 40
0.5416757802241332
 40
0.5625006814440681
 40
0.5833273576800451
 40
0.6041754915122418
 40
0.6250001503304486
 40
0.6458272311296803
 40
0.6666760784654894
 40
0.6875008358890284
 40
0.7083273622415528
 40
0.729175587556729
 40
0.7500005323061283
 40
0.7708272456857381
 40
0.7916754710009143
 40
0.8125000963140651
 40
0.8333271520272092
 40
0.8541759993630182
 40
0.8750006581812252
 40
0.8958277389804568
 40
0.916675396052676
 40
0.9375001534762151
 40
0.9583277683067097
 40
0.9791741429208383
 40
1.0
 40
1.0
 40
1.0
 40
1.0
 10
1.648063057869155
 20
-0.7872676358028663
 30
0.0
 10
1.648135925634872
 20
-0.7891977244365838
 30
0.0
 10
1.648281745320377
 20
-0.7930601307392373
 30
0.0
 10
1.649457075724403
 20
-0.7987535443735876
 30
0.0
 10
1.651312544522088
 20
-0.8042499683822841
 30
0.0
 10
1.653881939089928
 20
-0.8094565571650012
 30
0.0
 10
1.65710638535042
 20
-0.8142828906247095
 30
0.0
 10
1.660934409819082
 20
-0.8186466535905694
 30
0.0
 10
1.665298119295626
 20
-0.8224745798645925
 30
0.0
 10
1.670124687140911
 20
-0.8256997148096503
 30
0.0
 10
1.675331250956798
 20
-0.8282661731811678
 30
0.0
 10
1.680827609114494
 20
-0.8301327383187016
 30
0.0
 10
1.68652086706006
 20
-0.8312654781593194
 30
0.0
 10
1.692313239152063
 20
-0.8316437366456162
 30
0.0
 10
1.698105653676751
 20
-0.8312651824240431
 30
0.0
 10
1.703798930124973
 20
-0.8301326119651389
 30
0.0
 10
1.709295390836457
 20
-0.82826598502887
 30
0.0
 10
1.714501875780064
 20
-0.8256994199005736
 30
0.0
 10
1.719328335424475
 20
-0.8224741635042618
 30
0.0
 10
1.723692068101351
 20
-0.818646326258301
 30
0.0
 10
1.727520048932377
 20
-0.8142826514782047
 30
0.0
 10
1.730744821533273
 20
-0.8094559922062206
 30
0.0
 10
1.733311404605387
 20
-0.8042495382517814
 30
0.0
 10
1.735178288344423
 20
-0.7987532370703891
 30
0.0
 10
1.736310496226112
 20
-0.7930597928938865
 30
0.0
 10
1.736689280568907
 20
-0.7872674814541196
 30
0.0
 10
1.736310595973908
 20
-0.7814751282649532
 30
0.0
 10
1.735178051332877
 20
-0.7757818228952562
 30
0.0
 10
1.733311173264623
 20
-0.7702855402294269
 30
0.0
 10
1.730744848990192
 20
-0.765078953238485
 30
0.0
 10
1.727519579398845
 20
-0.7602526192973138
 30
0.0
 10
1.723691775380797
 20
-0.7558888564640189
 30
0.0
 10
1.719328006833072
 20
-0.7520609301408459
 30
0.0
 10
1.714501454842277
 20
-0.7488357952598683
 30
0.0
 10
1.709294886730529
 20
-0.7462693366813995
 30
0.0
 10
1.7037985299138
 20
-0.744402772307784
 30
0.0
 10
1.69810527089917
 20
-0.7432700296165917
 30
0.0
 10
1.692312901738966
 20
-0.7428917817592922
 30
0.0
 10
1.686520554554682
 20
-0.7432702912081304
 30
0.0
 10
1.680827318491824
 20
-0.7444029940781425
 30
0.0
 10
1.675330848053673
 20
-0.7462693928042925
 30
0.0
 10
1.670124431189592
 20
-0.7488362405527407
 30
0.0
 10
1.665297813690932
 20
-0.7520612563479072
 30
0.0
 10
1.660934112942338
 20
-0.755889188907783
 30
0.0
 10
1.657106002953611
 20
-0.7602528346319195
 30
0.0
 10
1.653881827194277
 20
-0.7650793555757947
 30
0.0
 10
1.651312370760997
 20
-0.7702859282765782
 30
0.0
 10
1.649456979554745
 20
-0.7757821233618625
 30
0.0
 10
1.648281729772116
 20
-0.7814754678201155
 30
0.0
 10
1.648135924574165
 20
-0.7853375469800468
 30
0.0
 10
1.648063057869155
 20
-0.7872676358028663
 30
0.0
  0
ARC
  5
2C5
330
1F
100
AcDbEntity
  8
0
  6
Continuous
 62
     7
370
    25
100
AcDbCircle
 10
0.951763078
 20
0.0052322536
 30
0.0
 40
0.0100000000000002
100
AcDbArc
 50
180.0
 51
270.0
  0
LINE
  5
2C6
330
1F
100
AcDbEntity
  8
0
  6
Continuous
 62
     7
370
    25
100
AcDbLine
 10
0.9417630377
 20
0.0127323165
 30
0.0
 11
0.9417630377
 21
0.0052321449
 31
0.0
  0
ARC
  5
2C7
330
1F
100
AcDbEntity
  8
0
  6
Continuous
 62
     7
370
    25
100
AcDbCircle
 10
0.892313078
 20
0.0127322536
 30
0.0
 40
0.0494500000000002
100
AcDbArc
 50
0.0
 51
90.0
  0
LINE
  5
2C8
330
1F
100
AcDbEntity
  8
0
  6
Continuous
 62
     7
370
    25
100
AcDbLine
 10
0.892313117
 20
0.0621822372
 30
0.0
 11
0.8628631773
 21
0.0621822372
 31
0.0
  0
ARC
  5
2C9
330
1F
100
AcDbEntity
  8
0
  6
Continuous
 62
     7
370
    25
100
AcDbCircle
 10
0.862863078
 20
0.0771822536
 30
0.0
 40
0.0150000000000001
100
AcDbArc
 50
180.0
 51
270.0
  0
LINE
  5
2CA
330
1F
100
AcDbEntity
  8
0
  6
Continuous
 62
     7
370
    25
100
AcDbLine
 10
0.8478630724
 20
0.7482822433
 30
0.0
 11
0.8478630724
 21
0.0771823421
 31
0.0
  0
ARC
  5
2CB
330
1F
100
AcDbEntity
  8
0
  6
Continuous
 62
     7
370
    25
100
AcDbCircle
 10
0.862863078
 20
0.7482822536
 30
0.0
 40
0.0150000000000001
100
AcDbArc
 50
90.0
 51
180.0
  0
LINE
  5
2CC
330
1F
100
AcDbEntity
  8
0
  6
Continuous
 62
     7
370
    25
100
AcDbLine
 10
0.892313117
 20
0.763282229
 30
0.0
 11
0.8628631773
 21
0.763282229
 31
0.0
  0
ARC
  5
2CD
330
1F
100
AcDbEntity
  8
0
  6
Continuous
 62
     7
370
    25
100
AcDbCircle
 10
0.892313078
 20
0.8127322536
 30
0.0
 40
0.0494500000000002
100
AcDbArc
 50
270.0
 51
339.2743968057
  0
ARC
  5
2CE
330
1F
100
AcDbEntity
  8
0
  6
Continuous
 62
     7
370
    25
100
AcDbCircle
 10
0.956763078
 20
0.8421822536
 30
0.0
 40
0.0150000000000001
100
AcDbArc
 50
90.0
 51
151.9657034652
  0
LINE
  5
2CF
330
1F
100
AcDbEntity
  8
0
  6
Continuous
 62
     7
370
    25
100
AcDbLine
 10
0.9567631426
 20
0.8571821943
 30
0.0
 11
1.6278630438
 21
0.8571821943
 31
0.0
  0
ARC
  5
2D0
330
1F
100
AcDbEntity
  8
0
  6
Continuous
 62
     7
370
    25
100
AcDbCircle
 10
1.627863078
 20
0.8421822536
 30
0.0
 40
0.0150000000000001
100
AcDbArc
 50
28.0342965348
 51
90.0
  0
ARC
  5
2D1
330
1F
100
AcDbEntity
  8
0
  6
Continuous
 62
     7
370
    25
100
AcDbCircle
 10
1.692313078
 20
0.8127322536
 30
0.0
 40
0.04945
100
AcDbArc
 50
200.7256031943
 51
249.2743968056
  0
ARC
  5
2D2
330
1F
100
AcDbEntity
  8
0
  6
Continuous
 62
     7
370
    25
100
AcDbCircle
 10
1.721763078
 20
0.7482822536
 30
0.0
 40
0.0150000000000001
100
AcDbArc
 50
360.0
 51
61.9657034652
  0
LINE
  5
2D3
330
1F
100
AcDbEntity
  8
0
  6
Continuous
 62
     7
370
    25
100
AcDbLine
 10
1.7367631139
 20
0.7482822433
 30
0.0
 11
1.7367631139
 21
0.5443860784
 31
0.0
  0
LINE
  5
2D4
330
1F
100
AcDbEntity
  8
0
  6
Continuous
 62
     7
370
    25
100
AcDbLine
 10
1.7367631139
 20
0.3935505643
 30
0.0
 11
1.7367631139
 21
0.0771823421
 31
0.0
  0
ARC
  5
2D5
330
1F
100
AcDbEntity
  8
0
  6
Continuous
 62
     7
370
    25
100
AcDbCircle
 10
1.721763078
 20
0.0771822536
 30
0.0
 40
0.0150000000000003
100
AcDbArc
 50
298.0342965348
 51
0.0
  0
ARC
  5
2D6
330
1F
100
AcDbEntity
  8
0
  6
Continuous
 62
     7
370
    25
100
AcDbCircle
 10
1.692313078
 20
0.0127322536
 30
0.0
 40
0.0494500000000002
100
AcDbArc
 50
110.7256031944
 51
180.0
  0
LINE
  5
2D7
330
1F
100
AcDbEntity
  8
0
  6
Continuous
 62
     7
370
    25
100
AcDbLine
 10
1.6428631487
 20
0.0127323165
 30
0.0
 11
1.6428631487
 21
0.0052321449
 31
0.0
  0
ARC
  5
2D8
330
1F
100
AcDbEntity
  8
0
  6
Continuous
 62
     7
370
    25
100
AcDbCircle
 10
1.632863078
 20
0.0052322536
 30
0.0
 40
0.0099999999999998
100
AcDbArc
 50
270.0
 51
0.0
  0
LINE
  5
2D9
330
1F
100
AcDbEntity
  8
0
  6
Continuous
 62
     7
370
    25
100
AcDbLine
 10
0.9517630281
 20
-0.0047678456
 30
0.0
 11
1.6328631582
 21
-0.0047678456
 31
0.0
  0
CIRCLE
  5
2DA
330
1F
100
AcDbEntity
  8
0
  6
Continuous
 62
     7
370
    25
100
AcDbCircle
 10
1.022313078
 20
0.0127322536
 30
0.0
 40
0.0024999999999999
  0
CIRCLE
  5
2DB
330
1F
100
AcDbEntity
  8
0
  6
Continuous
 62
     7
370
    25
100
AcDbCircle
 10
1.562313078
 20
0.0127322536
 30
0.0
 40
0.0024999999999999
  0
CIRCLE
  5
2DC
330
1F
100
AcDbEntity
  8
0
  6
Continuous
 62
     7
370
    25
100
AcDbCircle
 10
1.292313078
 20
0.0127322536
 30
0.0
 40
0.0024999999999999
  0
CIRCLE
  5
2DD
330
1F
100
AcDbEntity
  8
0
  6
Continuous
 62
     7
370
    25
100
AcDbCircle
 10
0.892313078
 20
0.6827322536
 30
0.0
 40
0.0025000000000004
  0
CIRCLE
  5
2DE
330
1F
100
AcDbEntity
  8
0
  6
Continuous
 62
     7
370
    25
100
AcDbCircle
 10
0.892313078
 20
0.1427322536
 30
0.0
 40
0.0025000000000004
  0
CIRCLE
  5
2DF
330
1F
100
AcDbEntity
  8
0
  6
Continuous
 62
     7
370
    25
100
AcDbCircle
 10
0.892313078
 20
0.4127322536
 30
0.0
 40
0.0024999999999999
  0
LWPOLYLINE
  5
2E0
330
1F
100
AcDbEntity
  8
0
  6
Continuous
 62
     7
370
    25
100
AcDbPolyline
 90
        3
 70
   128
 43
0.0
 10
-1.4517833946
 20
-0.0041176781
 10
-1.450187823
 20
-0.0045756802
 10
-1.4482369182
 20
-0.0047678456
  0
ARC
  5
2E1
330
1F
100
AcDbEntity
  8
0
  6
Continuous
 62
     7
370
    25
100
AcDbCircle
 10
-1.507686922
 20
0.0127322536
 30
0.0
 40
0.0494499999999998
100
AcDbArc
 50
19.9224668649
 51
69.2743968056
  0
ARC
  5
2E2
330
1F
100
AcDbEntity
  8
0
  6
Continuous
 62
     7
370
    25
100
AcDbCircle
 10
-1.537136922
 20
0.0771822536
 30
0.0
 40
0.0150000000000002
100
AcDbArc
 50
180.0
 51
241.9657034653
  0
ARC
  5
2E3
330
1F
100
AcDbEntity
  8
0
  6
Continuous
 62
     7
370
    25
100
AcDbCircle
 10
-1.537136922
 20
0.7482822536
 30
0.0
 40
0.0150000000000001
100
AcDbArc
 50
118.0342965347
 51
180.0
  0
ARC
  5
2E4
330
1F
100
AcDbEntity
  8
0
  6
Continuous
 62
     7
370
    25
100
AcDbCircle
 10
-1.507686922
 20
0.8127322536
 30
0.0
 40
0.0494500000000002
100
AcDbArc
 50
290.7256031944
 51
339.2743968056
  0
ARC
  5
2E5
330
1F
100
AcDbEntity
  8
0
  6
Continuous
 62
     7
370
    25
100
AcDbCircle
 10
-1.443236922
 20
0.8421822536
 30
0.0
 40
0.0150000000000002
100
AcDbArc
 50
90.0
 51
151.9657034651
  0
LINE
  5
2E6
330
1F
100
AcDbEntity
  8
0
  6
Continuous
 62
     7
370
    25
100
AcDbLine
 10
-1.443236923
 20
0.8571821943
 30
0.0
 11
-0.7721369324
 21
0.8571821943
 31
0.0
  0
ARC
  5
2E7
330
1F
100
AcDbEntity
  8
0
  6
Continuous
 62
     7
370
    25
100
AcDbCircle
 10
-0.772136922
 20
0.8421822536
 30
0.0
 40
0.0150000000000001
100
AcDbArc
 50
28.0342965349
 51
90.0
  0
ARC
  5
2E8
330
1F
100
AcDbEntity
  8
0
  6
Continuous
 62
     7
370
    25
100
AcDbCircle
 10
-0.707686922
 20
0.8127322536
 30
0.0
 40
0.04945
100
AcDbArc
 50
200.7256031944
 51
270.0
  0
LINE
  5
2E9
330
1F
100
AcDbEntity
  8
0
  6
Continuous
 62
     7
370
    25
100
AcDbLine
 10
-0.7076869068
 20
0.763282229
 30
0.0
 11
-0.6782369075
 21
0.763282229
 31
0.0
  0
ARC
  5
2EA
330
1F
100
AcDbEntity
  8
0
  6
Continuous
 62
     7
370
    25
100
AcDbCircle
 10
-0.678236922
 20
0.7482822536
 30
0.0
 40
0.0150000000000001
100
AcDbArc
 50
0.0
 51
90.0
  0
LINE
  5
2EB
330
1F
100
AcDbEntity
  8
0
  6
Continuous
 62
     7
370
    25
100
AcDbLine
 10
-0.6632369218
 20
0.7482822433
 30
0.0
 11
-0.6632369218
 21
0.0771823421
 31
0.0
  0
ARC
  5
2EC
330
1F
100
AcDbEntity
  8
0
  6
Continuous
 62
     7
370
    25
100
AcDbCircle
 10
-0.678236922
 20
0.0771822536
 30
0.0
 40
0.0150000000000001
100
AcDbArc
 50
270.0
 51
0.0
  0
LINE
  5
2ED
330
1F
100
AcDbEntity
  8
0
  6
Continuous
 62
     7
370
    25
100
AcDbLine
 10
-0.7076869068
 20
0.0621822372
 30
0.0
 11
-0.6782369075
 21
0.0621822372
 31
0.0
  0
ARC
  5
2EE
330
1F
100
AcDbEntity
  8
0
  6
Continuous
 62
     7
370
    25
100
AcDbCircle
 10
-0.707686922
 20
0.0127322536
 30
0.0
 40
0.0494500000000002
100
AcDbArc
 50
90.0
 51
160.0775331351
  0
LWPOLYLINE
  5
2EF
330
1F
100
AcDbEntity
  8
0
  6
Continuous
 62
     7
370
    25
100
AcDbPolyline
 90
        3
 70
   128
 43
0.0
 10
-0.7671369372
 20
-0.0047678456
 10
-0.7651860175
 20
-0.0045756802
 10
-0.7635904608
 20
-0.0041176781
  0
CIRCLE
  5
2F0
330
1F
100
AcDbEntity
  8
0
  6
Continuous
 62
     7
370
    25
100
AcDbCircle
 10
-0.707686922
 20
0.6827322536
 30
0.0
 40
0.0024999999999999
  0
CIRCLE
  5
2F1
330
1F
100
AcDbEntity
  8
0
  6
Continuous
 62
     7
370
    25
100
AcDbCircle
 10
-0.707686922
 20
0.1427322536
 30
0.0
 40
0.0024999999999999
  0
CIRCLE
  5
2F2
330
1F
100
AcDbEntity
  8
0
  6
Continuous
 62
     7
370
    25
100
AcDbCircle
 10
-0.707686922
 20
0.4127322536
 30
0.0
 40
0.0024999999999999
  0
LINE
  5
2F3
330
1F
100
AcDbEntity
  8
0
  6
Continuous
 62
     7
370
    25
100
AcDbLine
 10
-1.5521369187
 20
0.7482822433
 30
0.0
 11
-1.5521369187
 21
0.6427323117
 31
0.0
  0
LINE
  5
2F4
330
1F
100
AcDbEntity
  8
0
  6
Continuous
 62
     7
370
    25
100
AcDbLine
 10
-1.5521369187
 20
0.1827321544
 30
0.0
 11
-1.5521369187
 21
0.0771823421
 31
0.0
  0
LINE
  5
2F5
330
1F
100
AcDbEntity
  8
0
  6
Continuous
 62
     7
370
    25
100
AcDbLine
 10
-1.4482369182
 20
-0.0047678456
 30
0.0
 11
-1.3996869234
 21
-0.0047678456
 31
0.0
  0
LINE
  5
2F6
330
1F
100
AcDbEntity
  8
0
  6
Continuous
 62
     7
370
    25
100
AcDbLine
 10
-1.3706869242
 20
-0.0047678456
 30
0.0
 11
-1.3676869219
 21
-0.0047678456
 31
0.0
  0
LINE
  5
2F7
330
1F
100
AcDbEntity
  8
0
  6
Continuous
 62
     7
370
    25
100
AcDbLine
 10
-1.3486869206
 20
-0.0047678456
 30
0.0
 11
-0.8666869161
 21
-0.0047678456
 31
0.0
  0
LINE
  5
2F8
330
1F
100
AcDbEntity
  8
0
  6
Continuous
 62
     7
370
    25
100
AcDbLine
 10
-0.8476869223
 20
-0.0047678456
 30
0.0
 11
-0.8446869312
 21
-0.0047678456
 31
0.0
  0
LINE
  5
2F9
330
1F
100
AcDbEntity
  8
0
  6
Continuous
 62
     7
370
    25
100
AcDbLine
 10
-0.8156869171
 20
-0.0047678456
 30
0.0
 11
-0.7671369372
 21
-0.0047678456
 31
0.0
  0
LWPOLYLINE
  5
2FA
330
1F
100
AcDbEntity
  8
0
  6
Continuous
 62
     7
370
    25
100
AcDbPolyline
 90
        3
 70
   128
 43
0.0
 10
0.9482165518
 20
-0.8041176305
 10
0.9498122873
 20
-0.8045756326
 10
0.9517630281
 20
-0.8047677979
  0
ARC
  5
2FB
330
1F
100
AcDbEntity
  8
0
  6
Continuous
 62
     7
370
    25
100
AcDbCircle
 10
0.892313078
 20
-0.7872677464
 30
0.0
 40
0.0494500000000001
100
AcDbArc
 50
19.9224668771
 51
69.2743968071
  0
ARC
  5
2FC
330
1F
100
AcDbEntity
  8
0
  6
Continuous
 62
     7
370
    25
100
AcDbCircle
 10
0.862863078
 20
-0.7228177464
 30
0.0
 40
0.0150000000000001
100
AcDbArc
 50
180.0
 51
241.9657034602
  0
LINE
  5
2FD
330
1F
100
AcDbEntity
  8
0
  6
Continuous
 62
     7
370
    25
100
AcDbLine
 10
0.8478630724
 20
-0.051717709
 30
0.0
 11
0.8478630724
 21
-0.2281114564
 31
0.0
  0
LINE
  5
2FE
330
1F
100
AcDbEntity
  8
0
  6
Continuous
 62
     7
370
    25
100
AcDbLine
 10
0.8478630724
 20
-0.2881116376
 30
0.0
 11
0.8478630724
 21
-0.6086675629
 31
0.0
  0
LINE
  5
2FF
330
1F
100
AcDbEntity
  8
0
  6
Continuous
 62
     7
370
    25
100
AcDbLine
 10
0.8478630724
 20
-0.6686675057
 30
0.0
 11
0.8478630724
 21
-0.7228178487
 31
0.0
  0
ARC
  5
300
330
1F
100
AcDbEntity
  8
0
  6
Continuous
 62
     7
370
    25
100
AcDbCircle
 10
0.862863078
 20
-0.0517177464
 30
0.0
 40
0.0150000000000001
100
AcDbArc
 50
118.0342965398
 51
180.0
  0
ARC
  5
301
330
1F
100
AcDbEntity
  8
0
  6
Continuous
 62
     7
370
    25
100
AcDbCircle
 10
0.892313078
 20
0.0127322536
 30
0.0
 40
0.0494500000000002
100
AcDbArc
 50
290.7256031929
 51
0.0
  0
LINE
  5
302
330
1F
100
AcDbEntity
  8
0
  6
Continuous
 62
     7
370
    25
100
AcDbLine
 10
0.9417630377
 20
0.0127323165
 30
0.0
 11
0.9417630377
 21
0.0421822562
 31
0.0
  0
ARC
  5
303
330
1F
100
AcDbEntity
  8
0
  6
Continuous
 62
     7
370
    25
100
AcDbCircle
 10
0.956763078
 20
0.0421822536
 30
0.0
 40
0.0149999999999997
100
AcDbArc
 50
90.0
 51
180.0
  0
LINE
  5
304
330
1F
100
AcDbEntity
  8
0
  6
Continuous
 62
     7
370
    25
100
AcDbLine
 10
0.9567631426
 20
0.0571823611
 30
0.0
 11
1.6278630438
 21
0.0571823611
 31
0.0
  0
ARC
  5
305
330
1F
100
AcDbEntity
  8
0
  6
Continuous
 62
     7
370
    25
100
AcDbCircle
 10
1.627863078
 20
0.0421822536
 30
0.0
 40
0.0149999999999997
100
AcDbArc
 50
359.9999999994
 51
90.0
  0
LINE
  5
306
330
1F
100
AcDbEntity
  8
0
  6
Continuous
 62
     7
370
    25
100
AcDbLine
 10
1.6428631487
 20
0.0127323165
 30
0.0
 11
1.6428631487
 21
0.0421822562
 31
0.0
  0
ARC
  5
307
330
1F
100
AcDbEntity
  8
0
  6
Continuous
 62
     7
370
    25
100
AcDbCircle
 10
1.692313078
 20
0.0127322536
 30
0.0
 40
0.0494500000000002
100
AcDbArc
 50
180.0
 51
249.274396804
  0
ARC
  5
308
330
1F
100
AcDbEntity
  8
0
  6
Continuous
 62
     7
370
    25
100
AcDbCircle
 10
1.721763078
 20
-0.0517177464
 30
0.0
 40
0.0150000000000001
100
AcDbArc
 50
360.0
 51
61.9657034709
  0
LINE
  5
309
330
1F
100
AcDbEntity
  8
0
  6
Continuous
 62
     7
370
    25
100
AcDbLine
 10
1.7367631139
 20
-0.051717709
 30
0.0
 11
1.7367631139
 21
-0.7228178487
 31
0.0
  0
ARC
  5
30A
330
1F
100
AcDbEntity
  8
0
  6
Continuous
 62
     7
370
    25
100
AcDbCircle
 10
1.721763078
 20
-0.7228177464
 30
0.0
 40
0.0150000000000001
100
AcDbArc
 50
298.0342965291
 51
0.0
  0
ARC
  5
30B
330
1F
100
AcDbEntity
  8
0
  6
Continuous
 62
     7
370
    25
100
AcDbCircle
 10
1.692313078
 20
-0.7872677464
 30
0.0
 40
0.0494500000000003
100
AcDbArc
 50
110.725603196
 51
160.0775331229
  0
LWPOLYLINE
  5
30C
330
1F
100
AcDbEntity
  8
0
  6
Continuous
 62
     7
370
    25
100
AcDbPolyline
 90
        3
 70
   128
 43
0.0
 10
1.6328631582
 20
-0.8047677979
 10
1.634813899
 20
-0.8045756326
 10
1.6364096346
 20
-0.8041176305
  0
LINE
  5
30D
330
1F
100
AcDbEntity
  8
0
  6
Continuous
 62
     7
370
    25
100
AcDbLine
 10
0.9517630281
 20
-0.8047677979
 30
0.0
 11
1.6328631582
 21
-0.8047677979
 31
0.0
  0
CIRCLE
  5
30E
330
1F
100
AcDbEntity
  8
0
  6
Continuous
 62
     7
370
    25
100
AcDbCircle
 10
-1.507686922
 20
0.8127322536
 30
0.0
 40
0.0444500000000001
  0
CIRCLE
  5
30F
330
1F
100
AcDbEntity
  8
0
  6
Continuous
 62
     7
370
    25
100
AcDbCircle
 10
0.892313078
 20
0.8127322536
 30
0.0
 40
0.0444500000000001
  0
CIRCLE
  5
310
330
1F
100
AcDbEntity
  8
0
  6
Continuous
 62
     7
370
    25
100
AcDbCircle
 10
0.892313078
 20
0.0127322536
 30
0.0
 40
0.0444499999999999
  0
CIRCLE
  5
311
330
1F
100
AcDbEntity
  8
0
  6
Continuous
 62
     7
370
    25
100
AcDbCircle
 10
-1.507686922
 20
0.0127322536
 30
0.0
 40
0.0444499999999999
  0
CIRCLE
  5
312
330
1F
100
AcDbEntity
  8
0
  6
Continuous
 62
     7
370
    25
100
AcDbCircle
 10
1.692313078
 20
0.8127322536
 30
0.0
 40
0.0444500000000001
  0
CIRCLE
  5
313
330
1F
100
AcDbEntity
  8
0
  6
Continuous
 62
     7
370
    25
100
AcDbCircle
 10
-0.707686922
 20
0.8127322536
 30
0.0
 40
0.0444500000000001
  0
CIRCLE
  5
314
330
1F
100
AcDbEntity
  8
0
  6
Continuous
 62
     7
370
    25
100
AcDbCircle
 10
-0.707686922
 20
0.0127322536
 30
0.0
 40
0.0444499999999999
  0
CIRCLE
  5
315
330
1F
100
AcDbEntity
  8
0
  6
Continuous
 62
     7
370
    25
100
AcDbCircle
 10
1.692313078
 20
0.0127322536
 30
0.0
 40
0.0444499999999999
  0
LINE
  5
316
330
1F
100
AcDbEntity
  8
0
  6
Continuous
 62
     7
370
    25
100
AcDbLine
 10
0.8748131933
 20
0.7718720927
 30
0.0
 11
0.8748131933
 21
0.763282229
 31
0.0
  0
LINE
  5
317
330
1F
100
AcDbEntity
  8
0
  6
Continuous
 62
     7
370
    25
100
AcDbLine
 10
0.8748131933
 20
0.0621822372
 30
0.0
 11
0.8748131933
 21
0.0535924926
 31
0.0
  0
LINE
  5
318
330
1F
100
AcDbEntity
  8
0
  6
Continuous
 62
     7
370
    25
100
AcDbLine
 10
0.9098130407
 20
0.7718720927
 30
0.0
 11
0.9098130407
 21
0.7664824023
 31
0.0
  0
LINE
  5
319
330
1F
100
AcDbEntity
  8
0
  6
Continuous
 62
     7
370
    25
100
AcDbLine
 10
0.9098130407
 20
0.058982183
 30
0.0
 11
0.9098130407
 21
0.0535924926
 31
0.0
  0
LINE
  5
31A
330
1F
100
AcDbEntity
  8
0
  6
Continuous
 62
     7
370
    25
100
AcDbLine
 10
-1.4668267576
 20
-0.0047678456
 30
0.0
 11
-1.4482369182
 21
-0.0047678456
 31
0.0
  0
LINE
  5
31B
330
1F
100
AcDbEntity
  8
0
  6
Continuous
 62
     7
370
    25
100
AcDbLine
 10
-0.7671369372
 20
-0.0047678456
 30
0.0
 11
-0.7485470829
 21
-0.0047678456
 31
0.0
  0
LINE
  5
31C
330
1F
100
AcDbEntity
  8
0
  6
Continuous
 62
     7
370
    25
100
AcDbLine
 10
-1.4668267576
 20
0.0302322402
 30
0.0
 11
-1.4614370374
 21
0.0302322402
 31
0.0
  0
LINE
  5
31D
330
1F
100
AcDbEntity
  8
0
  6
Continuous
 62
     7
370
    25
100
AcDbLine
 10
-0.7539368329
 20
0.0302322402
 30
0.0
 11
-0.7485470829
 21
0.0302322402
 31
0.0
  0
LINE
  5
31E
330
1F
100
AcDbEntity
  8
0
  6
Continuous
 62
     7
370
    25
100
AcDbLine
 10
-0.6901869235
 20
0.0535924926
 30
0.0
 11
-0.6901869235
 21
0.0621822372
 31
0.0
  0
LINE
  5
31F
330
1F
100
AcDbEntity
  8
0
  6
Continuous
 62
     7
370
    25
100
AcDbLine
 10
-0.6901869235
 20
0.763282229
 30
0.0
 11
-0.6901869235
 21
0.7718720927
 31
0.0
  0
LINE
  5
320
330
1F
100
AcDbEntity
  8
0
  6
Continuous
 62
     7
370
    25
100
AcDbLine
 10
-0.7251869498
 20
0.0535924926
 30
0.0
 11
-0.7251869498
 21
0.058982183
 31
0.0
  0
LINE
  5
321
330
1F
100
AcDbEntity
  8
0
  6
Continuous
 62
     7
370
    25
100
AcDbLine
 10
-0.7251869498
 20
0.7664824023
 30
0.0
 11
-0.7251869498
 21
0.7718720927
 31
0.0
  0
SPLINE
  5
322
330
1F
100
AcDbEntity
  8
0
  6
Continuous
 62
     7
370
    25
100
AcDbSpline
210
0.0
220
0.0
230
1.0
 70
    11
 71
     3
 72
    23
 73
    19
 74
     0
 42
0.000000001
 43
0.00000001
 40
0.0
 40
0.0
 40
0.0
 40
0.0
 40
0.0626071276178847
 40
0.1250037779855839
 40
0.1872109789292585
 40
0.2499678563886925
 40
0.3122180011530422
 40
0.37497511028983
 40
0.4372882386776045
 40
0.5000307041241802
 40
0.5622808488885298
 40
0.6249748638494657
 40
0.6872678294685383
 40
0.7499959723046721
 40
0.8122461170690217
 40
0.8750032262058096
 40
0.9376141158679475
 40
1.0
 40
1.0
 40
1.0
 40
1.0
 10
0.8923131169969626
 20
0.81298225070989
 30
0.0
 10
0.8922801922873985
 20
0.812978752236253
 30
0.0
 10
0.892214453556981
 20
0.8129717670504055
 30
0.0
 10
0.892132069545507
 20
0.8129129377794879
 30
0.0
 10
0.8920749496551773
 20
0.8128311431306223
 30
0.0
 10
0.892057142857862
 20
0.8127325259656504
 30
0.0
 10
0.8920745726128981
 20
0.8126336774825229
 30
0.0
 10
0.8921319052124931
 20
0.8125514906491349
 30
0.0
 10
0.8922142551496078
 20
0.8124940516205754
 30
0.0
 10
0.8923128453591948
 20
0.8124764701152245
 30
0.0
 10
0.8924117105430215
 20
0.8124937924484528
 30
0.0
 10
0.8924937135202283
 20
0.8125512517752309
 30
0.0
 10
0.892551428480255
 20
0.8126333706906776
 30
0.0
 10
0.892568743293623
 20
0.812731992859359
 30
0.0
 10
0.8925514696984039
 20
0.8128310040195765
 30
0.0
 10
0.8924939190033531
 20
0.8129126314982633
 30
0.0
 10
0.8924118886784626
 20
0.8129725699563659
 30
0.0
 10
0.8923460013564101
 20
0.8129790276668702
 30
0.0
 10
0.8923131169969626
 20
0.81298225070989
 30
0.0
  0
SPLINE
  5
323
330
1F
100
AcDbEntity
  8
0
  6
Continuous
 62
     7
370
    25
100
AcDbSpline
210
0.0
220
0.0
230
1.0
 70
    11
 71
     3
 72
    55
 73
    51
 74
     0
 42
0.000000001
 43
0.00000001
 40
0.0
 40
0.0
 40
0.0
 40
0.0
 40
0.020825004207646
 40
0.0416757578865827
 40
0.0624998499743379
 40
0.0833274890457512
 40
0.1041753879274579
 40
0.1250003331043621
 40
0.1458274173327177
 40
0.1666754345961093
 40
0.1875001954483898
 40
0.2083274074270663
 40
0.2291754687677275
 40
0.250000044825211
 40
0.2708271897842355
 40
0.291675418532017
 40
0.312500323180717
 40
0.3333270028457514
 40
0.3541754968610406
 40
0.3749998365421636
 40
0.3958272037029468
 40
0.4166755777277241
 40
0.4375003385800048
 40
0.4583270063161005
 40
0.4791751513560747
 40
0.5000001555637208
 40
0.5208268723723942
 40
0.5416751011201757
 40
0.5625000057688758
 40
0.5833266854339102
 40
0.6041755362024271
 40
0.6249998362603222
 40
0.6458271638036371
 40
0.6666755378284146
 40
0.6874999138440243
 40
0.7083268499110801
 40
0.7291754994798806
 40
0.750000075537364
 40
0.7708272204963885
 40
0.7916754492441701
 40
0.8124999476119408
 40
0.8333270121152765
 40
0.8541755061305657
 40
0.8750004116853941
 40
0.8958268507902828
 40
0.9166754631838776
 40
0.9375002240361582
 40
0.9583268917722538
 40
0.9791741114651271
 40
0.9999999999999999
 40
0.9999999999999999
 40
0.9999999999999999
 40
0.9999999999999999
 10
0.8923131169969626
 20
0.8569822802737939
 30
0.0
 10
0.8903831101371088
 20
0.8569093992947105
 30
0.0
 10
0.8865207100238256
 20
0.8567635472214763
 30
0.0
 10
0.8808273456347765
 20
0.8555883434712293
 30
0.0
 10
0.8753308736414122
 20
0.8537327113375217
 30
0.0
 10
0.8701243152475199
 20
0.8511633064338571
 30
0.0
 10
0.8652977795455726
 20
0.8479389792818595
 30
0.0
 10
0.8609341540223069
 20
0.844110788255459
 30
0.0
 10
0.8571061806815897
 20
0.8397471935052336
 30
0.0
 10
0.8538812557657153
 20
0.8349205615134168
 30
0.0
 10
0.8513148757128054
 20
0.8297140098291726
 30
0.0
 10
0.849447864411503
 20
0.8242177243970694
 30
0.0
 10
0.8483157048190969
 20
0.8185243427952515
 30
0.0
 10
0.8479369040137651
 20
0.8127320364518118
 30
0.0
 10
0.8483155825065875
 20
0.8069396803724354
 30
0.0
 10
0.8494481369802088
 20
0.8012463383977793
 30
0.0
 10
0.8513150051160757
 20
0.795750048026201
 30
0.0
 10
0.8538813817034617
 20
0.7905434597496288
 30
0.0
 10
0.8571065178849279
 20
0.7857170203264616
 30
0.0
 10
0.8609345097378506
 20
0.7813533931583161
 30
0.0
 10
0.8652980562510707
 20
0.7775252812901019
 30
0.0
 10
0.8701248136428875
 20
0.774300459967727
 30
0.0
 10
0.8753313146299645
 20
0.7717340035011313
 30
0.0
 10
0.8808276169108288
 20
0.7698671911702242
 30
0.0
 10
0.8865209442420016
 20
0.7687348008257273
 30
0.0
 10
0.89231327321974
 20
0.7683560690335574
 30
0.0
 10
0.8981056249423399
 20
0.7687347379078764
 30
0.0
 10
0.903798926395624
 20
0.769867292384014
 30
0.0
 10
0.9092952261806216
 20
0.7717341468644154
 30
0.0
 10
0.9145018080343764
 20
0.7743005849767508
 30
0.0
 10
0.9193284039370929
 20
0.7775255692009224
 30
0.0
 10
0.923691780748861
 20
0.7813538738201582
 30
0.0
 10
0.9275201734818267
 20
0.7857171531509808
 30
0.0
 10
0.9307448580488279
 20
0.7905439633735545
 30
0.0
 10
0.9333114885690615
 20
0.7957503710689695
 30
0.0
 10
0.9351779907031378
 20
0.8012468174340222
 30
0.0
 10
0.9363106213910136
 20
0.8069401172811943
 30
0.0
 10
0.9366893055795497
 20
0.8127325078072443
 30
0.0
 10
0.9363106533500792
 20
0.818524853944026
 30
0.0
 10
0.935178121369702
 20
0.8242181690203167
 30
0.0
 10
0.9333111742981176
 20
0.8297144289587317
 30
0.0
 10
0.9307448778452413
 20
0.8349210419922828
 30
0.0
 10
0.9275197317214371
 20
0.8397476151376408
 30
0.0
 10
0.923691524364021
 20
0.8441109466867665
 30
0.0
 10
0.9193281005133428
 20
0.8479393756731468
 30
0.0
 10
0.914501451770633
 20
0.8511634397353822
 30
0.0
 10
0.9092949147345252
 20
0.8537329463006005
 30
0.0
 10
0.9037987054242432
 20
0.8555882926301268
 30
0.0
 10
0.8981053559986992
 20
0.8567634385706557
 30
0.0
 10
0.8942432043594152
 20
0.8569093579365978
 30
0.0
 10
0.8923131169969626
 20
0.8569822802737939
 30
0.0
  0
SPLINE
  5
324
330
1F
100
AcDbEntity
  8
0
  6
Continuous
 62
     7
370
    25
100
AcDbSpline
210
0.0
220
0.0
230
1.0
 70
    11
 71
     3
 72
    23
 73
    19
 74
     0
 42
0.000000001
 43
0.00000001
 40
0.0
 40
0.0
 40
0.0
 40
0.0
 40
0.0625968009055463
 40
0.1249372041051378
 40
0.1872023781550549
 40
0.2499402845918269
 40
0.3121930198703479
 40
0.3749438075935097
 40
0.4371771321101453
 40
0.4999373512058649
 40
0.5621771678186613
 40
0.6249333067002442
 40
0.6871984807501613
 40
0.7499381809789262
 40
0.8121909162574471
 40
0.8749470551390298
 40
0.9375963429111682
 40
1.0
 40
1.0
 40
1.0
 40
1.0
 10
-1.507686918765824
 20
0.81298225070989
 30
0.0
 10
-1.507719847307462
 20
0.8129787609074355
 30
0.0
 10
-1.507785569514794
 20
0.8129717955968248
 30
0.0
 10
-1.507867823136246
 20
0.8129128477686631
 30
0.0
 10
-1.507925210608382
 20
0.812831222972763
 30
0.0
 10
-1.507942735685755
 20
0.8127324955481765
 30
0.0
 10
-1.507925336989796
 20
0.8126336854596141
 30
0.0
 10
-1.507868020790101
 20
0.8125515403741992
 30
0.0
 10
-1.507785781618723
 20
0.8124940109298899
 30
0.0
 10
-1.50768719292738
 20
0.81247647100422
 30
0.0
 10
-1.50758832810562
 20
0.8124938267755453
 30
0.0
 10
-1.507506206540811
 20
0.8125511838543789
 30
0.0
 10
-1.507448631656024
 20
0.8126334132224289
 30
0.0
 10
-1.50743110479653
 20
0.8127319795943253
 30
0.0
 10
-1.507448484473208
 20
0.8128310006124702
 30
0.0
 10
-1.507506011637297
 20
0.8129126589297511
 30
0.0
 10
-1.507588115506144
 20
0.8129725596183033
 30
0.0
 10
-1.507654027501008
 20
0.8129790245788819
 30
0.0
 10
-1.507686918765824
 20
0.81298225070989
 30
0.0
  0
SPLINE
  5
325
330
1F
100
AcDbEntity
  8
0
  6
Continuous
 62
     7
370
    25
100
AcDbSpline
210
0.0
220
0.0
230
1.0
 70
    11
 71
     3
 72
    55
 73
    51
 74
     0
 42
0.000000001
 43
0.00000001
 40
0.0
 40
0.0
 40
0.0
 40
0.0
 40
0.0208252729021402
 40
0.041675343846295
 40
0.0625000464550094
 40
0.0833271093730028
 40
0.1041753215166549
 40
0.125000025872722
 40
0.1458271819344391
 40
0.1666753790787656
 40
0.1875001884646937
 40
0.2083272635843157
 40
0.229175399263243
 40
0.249999965912888
 40
0.2708271154752863
 40
0.2916753453249044
 40
0.3125001648499139
 40
0.3333270116334429
 40
0.3541754173577372
 40
0.3749999703397431
 40
0.3958272176410761
 40
0.4166753697915005
 40
0.4374999874304157
 40
0.4583270117646341
 40
0.479175368317764
 40
0.4999999989946052
 40
0.5208270380167551
 40
0.5416753730716021
 40
0.5625000756803165
 40
0.5833269488649935
 40
0.6041753993881692
 40
0.6250001037442364
 40
0.6458269372433766
 40
0.6666754911460485
 40
0.6874998919791426
 40
0.7083269670987646
 40
0.7291755236006339
 40
0.7500000937529496
 40
0.7708272468181369
 40
0.7916754766677551
 40
0.8124998899101313
 40
0.8333271215289145
 40
0.8541755272532088
 40
0.8750000448683013
 40
0.8958270092355486
 40
0.9166754443519968
 40
0.9375000138863121
 40
0.9583270382205303
 40
0.9791735751773125
 40
1.0
 40
1.0
 40
1.0
 40
1.0
 10
-1.507686918765824
 20
0.8569822802737939
 30
0.0
 10
-1.50961695257355
 20
0.8569094084695588
 30
0.0
 10
-1.513479318409037
 20
0.8567635780877692
 30
0.0
 10
-1.519172672309029
 20
0.8555882698742729
 30
0.0
 10
-1.524669144766731
 20
0.8537328083525444
 30
0.0
 10
-1.529875641899247
 20
0.8511632109391349
 30
0.0
 10
-1.534702230828134
 20
0.8479390529575435
 30
0.0
 10
-1.539065777891686
 20
0.8441107428522947
 30
0.0
 10
-1.542893781408655
 20
0.8397471844541473
 30
0.0
 10
-1.546118786637477
 20
0.8349205759125391
 30
0.0
 10
-1.548685251768382
 20
0.8297140421058975
 30
0.0
 10
-1.550552020813643
 20
0.8242176843362732
 30
0.0
 10
-1.551684422662307
 20
0.8185243623072371
 30
0.0
 10
-1.55206309098307
 20
0.812732031763632
 30
0.0
 10
-1.551684434749805
 20
0.8069396786147465
 30
0.0
 10
-1.550551836524788
 20
0.801246358940223
 30
0.0
 10
-1.548685126223087
 20
0.7957499998446411
 30
0.0
 10
-1.54611855254164
 20
0.7905435096694298
 30
0.0
 10
-1.542893527515064
 20
0.7857169680855529
 30
0.0
 10
-1.539065414077139
 20
0.7813534399277768
 30
0.0
 10
-1.534701933351464
 20
0.7775252844304759
 30
0.0
 10
-1.529875230850304
 20
0.7743004571905623
 30
0.0
 10
-1.524668743788913
 20
0.7717339707690911
 30
0.0
 10
-1.519172383751683
 20
0.7698672019269246
 30
0.0
 10
-1.513479041274177
 20
0.768734810643952
 30
0.0
 10
-1.507686697815343
 20
0.768356066924536
 30
0.0
 10
-1.501894342849477
 20
0.7687347387630381
 30
0.0
 10
-1.496201012011399
 20
0.7698672714144374
 30
0.0
 10
-1.490704729791554
 20
0.7717341859438767
 30
0.0
 10
-1.485498126082758
 20
0.7743005141809787
 30
0.0
 10
-1.480671641511532
 20
0.7775256785271407
 30
0.0
 10
-1.476308101986421
 20
0.7813537395513153
 30
0.0
 10
-1.472479974876229
 20
0.785717265303775
 30
0.0
 10
-1.469255124421535
 20
0.7905439213542502
 30
0.0
 10
-1.466688569248954
 20
0.7957504015067058
 30
0.0
 10
-1.464821816113209
 20
0.8012467727895771
 30
0.0
 10
-1.463689447936031
 20
0.8069401379055938
 30
0.0
 10
-1.463310731991338
 20
0.8127325061271085
 30
0.0
 10
-1.463689430482429
 20
0.818524856563984
 30
0.0
 10
-1.464821986533612
 20
0.824218149151692
 30
0.0
 10
-1.466688786144055
 20
0.8297144732685471
 30
0.0
 10
-1.469255257924559
 20
0.8349210068938064
 30
0.0
 10
-1.472480338610772
 20
0.8397475655009068
 30
0.0
 10
-1.476308376594521
 20
0.8441110699274952
 30
0.0
 10
-1.480671986879856
 20
0.8479392871742009
 30
0.0
 10
-1.485498571195252
 20
0.8511634480452968
 30
0.0
 10
-1.49070510416544
 20
0.8537329831643159
 30
0.0
 10
-1.496201288797698
 20
0.8555882411655837
 30
0.0
 10
-1.501894638984608
 20
0.8567634703279323
 30
0.0
 10
-1.505756780152091
 20
0.8569093670959902
 30
0.0
 10
-1.507686918765824
 20
0.8569822802737939
 30
0.0
  0
SPLINE
  5
326
330
1F
100
AcDbEntity
  8
0
  6
Continuous
 62
     7
370
    25
100
AcDbSpline
210
0.0
220
0.0
230
1.0
 70
    11
 71
     3
 72
    23
 73
    19
 74
     0
 42
0.000000001
 43
0.00000001
 40
0.0
 40
0.0
 40
0.0
 40
0.0
 40
0.0625967636798868
 40
0.1249371298062958
 40
0.1871392366350183
 40
0.2498771057622169
 40
0.3121298040196905
 40
0.3749436821737959
 40
0.4371341091119767
 40
0.4999086983677481
 40
0.5621484779671798
 40
0.6249045795283464
 40
0.6872327763079705
 40
0.749972439226095
 40
0.8122251374835686
 40
0.8749181458818704
 40
0.9376104071024208
 40
1.0
 40
1.0
 40
1.0
 40
1.0
 10
-1.507686918765824
 20
0.0129821791843163
 30
0.0
 10
-1.507719848704396
 20
0.0129786903891866
 30
0.0
 10
-1.507785573699874
 20
0.0129717270891007
 30
0.0
 10
-1.507867778796842
 20
0.0129127840879319
 30
0.0
 10
-1.507925238710721
 20
0.0128312552690559
 30
0.0
 10
-1.50794273739441
 20
0.0127325316692163
 30
0.0
 10
-1.50792530241314
 20
0.0126337282650497
 30
0.0
 10
-1.507868102526583
 20
0.0125514517823606
 30
0.0
 10
-1.507785721108594
 20
0.0124941235711308
 30
0.0
 10
-1.507687213538541
 20
0.0124763482953578
 30
0.0
 10
-1.50758832875673
 20
0.0124937716336437
 30
0.0
 10
-1.507506163052194
 20
0.0125511161764517
 30
0.0
 10
-1.50744865948066
 20
0.0126334464005366
 30
0.0
 10
-1.507431106515948
 20
0.0127320157471757
 30
0.0
 10
-1.507448450175511
 20
0.0128310424018884
 30
0.0
 10
-1.507506092475549
 20
0.0129125745247033
 30
0.0
 10
-1.507588058864944
 20
0.012972660082164
 30
0.0
 10
-1.507654018667873
 20
0.0129790112730563
 30
0.0
 10
-1.507686918765824
 20
0.0129821791843163
 30
0.0
  0
SPLINE
  5
327
330
1F
100
AcDbEntity
  8
0
  6
Continuous
 62
     7
370
    25
100
AcDbSpline
210
0.0
220
0.0
230
1.0
 70
    11
 71
     3
 72
    55
 73
    51
 74
     0
 42
0.000000001
 43
0.00000001
 40
0.0
 40
0.0
 40
0.0
 40
0.0
 40
0.0208252755176007
 40
0.0416753490803305
 40
0.0625000543044338
 40
0.0833273095785637
 40
0.1041752859671084
 40
0.1250002758768703
 40
0.1458274345542845
 40
0.1666752775612859
 40
0.1875000895626162
 40
0.208326761015045
 40
0.2291757409586299
 40
0.2499998820732295
 40
0.2708274624017172
 40
0.2916756948696791
 40
0.3125005170100921
 40
0.3333273664092793
 40
0.354175417999844
 40
0.3750002961597999
 40
0.3958272631427201
 40
0.4166754179114785
 40
0.4375000381657719
 40
0.4583272030758049
 40
0.4791754785488113
 40
0.5000001118410323
 40
0.5208271534788645
 40
0.5416754911520685
 40
0.5625001963761718
 40
0.5833270721765104
 40
0.6041755253180575
 40
0.6249999493562044
 40
0.6458271080336185
 40
0.6666756645546749
 40
0.6874996831685475
 40
0.7083271671876502
 40
0.7291753054849093
 40
0.7500003064029804
 40
0.7708270339335808
 40
0.7916752664015427
 40
0.8125000885419558
 40
0.8333269379411429
 40
0.8541757030386241
 40
0.8749999007097988
 40
0.895826867692719
 40
0.916675543804541
 40
0.9375001159542286
 40
0.9583270049519189
 40
0.9791735445268321
 40
1.0
 40
1.0
 40
1.0
 40
1.0
 10
-1.507686918765824
 20
0.0569823279575096
 30
0.0
 10
-1.509616953099348
 20
0.0569094571289974
 30
0.0
 10
-1.513479319987058
 20
0.0567636286998145
 30
0.0
 10
-1.51917266599138
 20
0.055588305834346
 30
0.0
 10
-1.524669185111974
 20
0.0537328943079882
 30
0.0
 10
-1.529875564833154
 20
0.0511630877287236
 30
0.0
 10
-1.534702314247578
 20
0.0479391348100435
 30
0.0
 10
-1.539065736774047
 20
0.0441106582740871
 30
0.0
 10
-1.542893747250439
 20
0.0397471345863191
 30
0.0
 10
-1.5461188246402
 20
0.034920606688777
 30
0.0
 10
-1.548685214489665
 20
0.0297141158933782
 30
0.0
 10
-1.550552083035579
 20
0.0242177485767545
 30
0.0
 10
-1.551684385554728
 20
0.0185244023569386
 30
0.0
 10
-1.552063097617526
 20
0.0127320018811296
 30
0.0
 10
-1.551684440214515
 20
0.0069396460364958
 30
0.0
 10
-1.550551839072589
 20
0.0012462860039614
 30
0.0
 10
-1.548685118334506
 20
-0.0042500659918319
 30
0.0
 10
-1.54611859621767
 20
-0.0094565534971785
 30
0.0
 10
-1.542893441283646
 20
-0.0142829945334891
 30
0.0
 10
-1.539065502427984
 20
-0.0186466400175838
 30
0.0
 10
-1.53470188247471
 20
-0.0224746492137454
 30
0.0
 10
-1.529875242537175
 20
-0.0256995167146541
 30
0.0
 10
-1.524668714573061
 20
-0.0282659341689829
 30
0.0
 10
-1.51917242577694
 20
-0.0301329460767633
 30
0.0
 10
-1.513479021574871
 20
-0.0312650900573695
 30
0.0
 10
-1.507686700980577
 20
-0.0316438993890347
 30
0.0
 10
-1.501894342125359
 20
-0.0312652096616653
 30
0.0
 10
-1.496201011738218
 20
-0.0301326824532891
 30
0.0
 10
-1.490704731605261
 20
-0.028265764057855
 30
0.0
 10
-1.485498119096465
 20
-0.0256994458477462
 30
0.0
 10
-1.480671689508504
 20
-0.022474259836625
 30
0.0
 10
-1.476308020448613
 20
-0.0186463353896925
 30
0.0
 10
-1.472480014869751
 20
-0.0142826877228633
 30
0.0
 10
-1.46925515630657
 20
-0.00945605881526
 30
0.0
 10
-1.466688510803449
 20
-0.0042496138477937
 30
0.0
 10
-1.464821862174695
 20
0.0012467546158219
 30
0.0
 10
-1.463689422114251
 20
0.0069401407108795
 30
0.0
 10
-1.463310737593445
 20
0.0127324752924216
 30
0.0
 10
-1.463689431338088
 20
0.0185248260400516
 30
0.0
 10
-1.464822015927409
 20
0.0242181059558474
 30
0.0
 10
-1.466688720185818
 20
0.0297144713945267
 30
0.0
 10
-1.469255338633143
 20
0.0349209669868848
 30
0.0
 10
-1.472480254743358
 20
0.0397475961504909
 30
0.0
 10
-1.476308421037655
 20
0.0441110035640361
 30
0.0
 10
-1.480672015943833
 20
0.0479392079890774
 30
0.0
 10
-1.485498537206574
 20
0.0511635036946662
 30
0.0
 10
-1.490705084111521
 20
0.0537330550047254
 30
0.0
 10
-1.496201312616275
 20
0.0555881442918475
 30
0.0
 10
-1.501894640684009
 20
0.0567633764917889
 30
0.0
 10
-1.505756779851753
 20
0.0569093675888412
 30
0.0
 10
-1.507686918765824
 20
0.0569823279575096
 30
0.0
  0
SPLINE
  5
328
330
1F
100
AcDbEntity
  8
0
  6
Continuous
 62
     7
370
    25
100
AcDbSpline
210
0.0
220
0.0
230
1.0
 70
    11
 71
     3
 72
    23
 73
    19
 74
     0
 42
0.000000001
 43
0.00000001
 40
0.0
 40
0.0
 40
0.0
 40
0.0
 40
0.0626070910685317
 40
0.1250037050097523
 40
0.1871477786926138
 40
0.2499046195152726
 40
0.312154727938672
 40
0.3749749237858962
 40
0.4372452088313644
 40
0.5000020496540231
 40
0.5622521580774225
 40
0.6249461364382815
 40
0.6873020992930803
 40
0.7500302055092137
 40
0.8122803139326131
 40
0.874974292293472
 40
0.9376281837996995
 40
1.0
 40
1.0
 40
1.0
 40
1.0
 10
0.8923131169969626
 20
0.0129821791843163
 30
0.0
 10
0.8922801908920249
 20
0.0129786817131374
 30
0.0
 10
0.8922144493755516
 20
0.0129716985288359
 30
0.0
 10
0.8921321139413575
 20
0.0129128741309316
 30
0.0
 10
0.8920749214784341
 20
0.0128311753702199
 30
0.0
 10
0.8920571411440085
 20
0.0127325620972871
 30
0.0
 10
0.8920746071817899
 20
0.0126337202787025
 30
0.0
 10
0.892131823483081
 20
0.0125514019711294
 30
0.0
 10
0.8922143156078183
 20
0.012494164335338
 30
0.0
 10
0.8923128247500897
 20
0.0124763473942022
 30
0.0
 10
0.8924117098831609
 20
0.0124937373026097
 30
0.0
 10
0.8924937569594672
 20
0.0125511841036667
 30
0.0
 10
0.8925514007103256
 20
0.0126334038917019
 30
0.0
 10
0.8925687415765476
 20
0.0127320290069312
 30
0.0
 10
0.8925515039756543
 20
0.0128310458137343
 30
0.0
 10
0.8924938381548136
 20
0.0129125471210635
 30
0.0
 10
0.8924119453419596
 20
0.0129726703900399
 30
0.0
 10
0.8923460101923532
 20
0.0129790143571799
 30
0.0
 10
0.8923131169969626
 20
0.0129821791843163
 30
0.0
  0
SPLINE
  5
329
330
1F
100
AcDbEntity
  8
0
  6
Continuous
 62
     7
370
    25
100
AcDbSpline
210
0.0
220
0.0
230
1.0
 70
    11
 71
     3
 72
    55
 73
    51
 74
     0
 42
0.000000001
 43
0.00000001
 40
0.0
 40
0.0
 40
0.0
 40
0.0
 40
0.0208250068233742
 40
0.0416757631212732
 40
0.0624998578246419
 40
0.0833276892472967
 40
0.1041753523706017
 40
0.1250005830982305
 40
0.1458276699425755
 40
0.1666753330658805
 40
0.1875000965338587
 40
0.2083269048483732
 40
0.2291758104568964
 40
0.2499999609798756
 40
0.2708275367053397
 40
0.2916757680717664
 40
0.3125006753361821
 40
0.333327357617155
 40
0.3541754975005759
 40
0.3750001623631932
 40
0.3958272492075383
 40
0.4166756258509792
 40
0.4375003893189574
 40
0.4583271976334719
 40
0.4791752615927574
 40
0.5000002684161315
 40
0.5208269878407482
 40
0.541675219207175
 40
0.5625001264715908
 40
0.5833268087525637
 40
0.604175662139804
 40
0.6249996818745661
 40
0.6458273345888329
 40
0.6666757112322739
 40
0.6874997050285424
 40
0.7083270499980326
 40
0.7291752813644594
 40
0.7500002881878336
 40
0.7708270076124503
 40
0.791675238978877
 40
0.8125001462432927
 40
0.8333268285242657
 40
0.8541756819115061
 40
0.8750002675288097
 40
0.8958267092496067
 40
0.9166755626368472
 40
0.9375003261048253
 40
0.958326858502302
 40
0.9791740808136938
 40
1.0
 40
1.0
 40
1.0
 40
1.0
 10
0.8923131169969626
 20
0.0569823279575096
 30
0.0
 10
0.8903831096113378
 20
0.0569094479541183
 30
0.0
 10
0.8865207084458634
 20
0.0567635978334739
 30
0.0
 10
0.8808273519523674
 20
0.0555883794311671
 30
0.0
 10
0.8753308332981283
 20
0.053732797291123
 30
0.0
 10
0.8701243923135907
 20
0.0511631832229544
 30
0.0
 10
0.8652976961263265
 20
0.0479390611342314
 30
0.0
 10
0.8609341951393371
 20
0.0441107036769725
 30
0.0
 10
0.8571062148397873
 20
0.0397471436382064
 30
0.0
 10
0.8538812177633252
 20
0.0349205922888868
 30
0.0
 10
0.8513149129911973
 20
0.0297140836163207
 30
0.0
 10
0.8494478021890163
 20
0.0242177886379049
 30
0.0
 10
0.8483157419258199
 20
0.0185243828457228
 30
0.0
 10
0.8479368973787437
 20
0.0127320065692781
 30
0.0
 10
0.8483155770422407
 20
0.0069396477943075
 30
0.0
 10
0.8494481344323629
 20
0.0012462654614933
 30
0.0
 10
0.8513150130047663
 20
-0.0042500178101897
 30
0.0
 10
0.8538813380284648
 20
-0.0094566034166741
 30
0.0
 10
0.857106604116428
 20
-0.0142829422929741
 30
0.0
 10
0.8609344213871998
 20
-0.0186466867864482
 30
0.0
 10
0.8652981071280866
 20
-0.0224746523533997
 30
0.0
 10
0.8701248019557443
 20
-0.0256995139380263
 30
0.0
 10
0.8753313438465679
 20
-0.0282659014360936
 30
0.0
 10
0.8808275748850948
 20
-0.0301329568327429
 30
0.0
 10
0.8865209639419201
 20
-0.0312650998739357
 30
0.0
 10
0.8923132700544457
 20
-0.0316438972800959
 30
0.0
 10
0.8981056256664744
 20
-0.0312652105168204
 30
0.0
 10
0.9037989266688015
 20
-0.0301326614837328
 30
0.0
 10
0.9092952243668765
 20
-0.0282658031373129
 30
0.0
 10
0.9145018150207448
 20
-0.0256993750519064
 30
0.0
 10
0.9193283559384248
 20
-0.0224743691621617
 30
0.0
 10
0.9236918622870239
 20
-0.0186462011217419
 30
0.0
 10
0.927520133489841
 20
-0.0142827998750455
 30
0.0
 10
0.9307448261649275
 20
-0.0094560167970368
 30
0.0
 10
0.933311547013462
 20
-0.0042496442845091
 30
0.0
 10
0.9351779446411689
 20
0.0012467992599596
 30
0.0
 10
0.9363106472150783
 20
0.0069401200857903
 30
0.0
 10
0.9366892999765378
 20
0.0127324769725736
 30
0.0
 10
0.9363106524950197
 20
0.0185248234202455
 30
0.0
 10
0.935178091975638
 20
0.0242181258241882
 30
0.0
 10
0.9333112402563516
 20
0.029714427084392
 30
0.0
 10
0.930744797137487
 20
0.034921002085944
 30
0.0
 10
0.9275198155898582
 20
0.0397476457897587
 30
0.0
 10
0.923691479922924
 20
0.0441108803237244
 30
0.0
 10
0.9193280714508495
 20
0.0479392964895453
 30
0.0
 10
0.9145014857589825
 20
0.0511634953849751
 30
0.0
 10
0.9092949347892755
 20
0.0537330181417279
 30
0.0
 10
0.9037986816045979
 20
0.0555881957548094
 30
0.0
 10
0.898105354299105
 20
0.0567633447323823
 30
0.0
 10
0.8942432046597554
 20
0.0569093584296518
 30
0.0
 10
0.8923131169969626
 20
0.0569823279575096
 30
0.0
  0
SPLINE
  5
32A
330
1F
100
AcDbEntity
  8
0
  6
Continuous
 62
     7
370
    25
100
AcDbSpline
210
0.0
220
0.0
230
1.0
 70
    11
 71
     3
 72
    23
 73
    19
 74
     0
 42
0.000000001
 43
0.00000001
 40
0.0
 40
0.0
 40
0.0
 40
0.0
 40
0.0626121495565488
 40
0.1248874658769947
 40
0.1871224191505335
 40
0.2498843305605949
 40
0.3121680525567749
 40
0.3749933241103209
 40
0.4371424188706147
 40
0.4999043302806761
 40
0.5621594683488353
 40
0.6248585122179757
 40
0.6872195132702935
 40
0.749981424680355
 40
0.812265146676535
 40
0.8749641905456754
 40
0.9376231443212719
 40
1.0
 40
1.0
 40
1.0
 40
1.0
 10
1.692313069313247
 20
0.0129821791843163
 30
0.0
 10
1.692280128630336
 20
0.0129787009260273
 30
0.0
 10
1.692214424474797
 20
0.012971763121361
 30
0.0
 10
1.69213230772805
 20
0.0129127141469886
 30
0.0
 10
1.69207484294934
 20
0.012831271517002
 30
0.0
 10
1.692057025475359
 20
0.0127325209129316
 30
0.0
 10
1.692074865560775
 20
0.0126337437828021
 30
0.0
 10
1.692131976702175
 20
0.0125514869113545
 30
0.0
 10
1.692214308027357
 20
0.0124941051542797
 30
0.0
 10
1.692312786006917
 20
0.0124763597471266
 30
0.0
 10
1.692411652635565
 20
0.0124937348018749
 30
0.0
 10
1.69249373874008
 20
0.0125511816710988
 30
0.0
 10
1.692551253973317
 20
0.0126334286431437
 30
0.0
 10
1.692569102561564
 20
0.0127320291256229
 30
0.0
 10
1.692551356442162
 20
0.0128310208143722
 30
0.0
 10
1.692493819505448
 20
0.0129125504838243
 30
0.0
 10
1.692411890439694
 20
0.0129726695539877
 30
0.0
 10
1.692345960106076
 20
0.0129790140789154
 30
0.0
 10
1.692313069313247
 20
0.0129821791843163
 30
0.0
  0
SPLINE
  5
32B
330
1F
100
AcDbEntity
  8
0
  6
Continuous
 62
     7
370
    25
100
AcDbSpline
210
0.0
220
0.0
230
1.0
 70
    11
 71
     3
 72
    55
 73
    51
 74
     0
 42
0.000000001
 43
0.00000001
 40
0.0
 40
0.0
 40
0.0
 40
0.0
 40
0.0208250009574386
 40
0.0416749097372178
 40
0.062499811135726
 40
0.0833268670274618
 40
0.1041752377983844
 40
0.1250004626600145
 40
0.1458275436378381
 40
0.1666752008888258
 40
0.187499958490937
 40
0.2083267609390085
 40
0.2291756606748644
 40
0.2499998053321493
 40
0.2708273751909542
 40
0.2916756006849036
 40
0.3125005020834117
 40
0.3333271784979772
 40
0.3541753125089464
 40
0.3749999715057244
 40
0.3958270524835481
 40
0.4166754232544707
 40
0.4375001808565818
 40
0.4583269833046534
 40
0.4791750413915086
 40
0.5000000423489472
 40
0.520826755907146
 40
0.5416758230433381
 40
0.5624999118810282
 40
0.5833273579738047
 40
0.6041754919847739
 40
0.625000150981552
 40
0.6458272319593756
 40
0.6666756027302982
 40
0.6874995906609166
 40
0.708327205670008
 40
0.7291752637568631
 40
0.7500002647143018
 40
0.7708269782725005
 40
0.79167520376645
 40
0.8125001051649582
 40
0.8333267815795236
 40
0.8541756290941114
 40
0.874999642963216
 40
0.8958267239410395
 40
0.9166755714556274
 40
0.9375003290577385
 40
0.95832685558885
 40
0.9791732303817359
 40
1.0
 40
1.0
 40
1.0
 40
1.0
 10
1.692313069313247
 20
0.0569823279575096
 30
0.0
 10
1.690383059347368
 20
0.0569094578171691
 30
0.0
 10
1.686520731019782
 20
0.0567636303798755
 30
0.0
 10
1.680827413923974
 20
0.055588283730148
 30
0.0
 10
1.675330886578625
 20
0.0537329294117756
 30
0.0
 10
1.67012451048785
 20
0.0511630322615088
 30
0.0
 10
1.665297668151592
 20
0.0479391534132327
 30
0.0
 10
1.660934155519312
 20
0.0441106906670305
 30
0.0
 10
1.657106164992876
 20
0.0397471471283017
 30
0.0
 10
1.653881170658766
 20
0.0349205913544769
 30
0.0
 10
1.651314865152357
 20
0.0297140838665983
 30
0.0
 10
1.649447754546918
 20
0.0242177885707586
 30
0.0
 10
1.648315694230963
 20
0.0185243828636991
 30
0.0
 10
1.647936849698012
 20
0.0127320065644624
 30
0.0
 10
1.648315529357723
 20
0.0069396477956038
 30
0.0
 10
1.649448086748866
 20
0.0012462654611309
 30
0.0
 10
1.651314965320977
 20
-0.0042500178100365
 30
0.0
 10
1.653881290344825
 20
-0.0094566034169237
 30
0.0
 10
1.65710655643248
 20
-0.0142829422921281
 30
0.0
 10
1.66093437370434
 20
-0.0186466867895816
 30
0.0
 10
1.665298059441179
 20
-0.0224746523417041
 30
0.0
 10
1.670124754283944
 20
-0.0256995139817034
 30
0.0
 10
1.675331296118435
 20
-0.0282659012732909
 30
0.0
 10
1.68082752736724
 20
-0.0301329574406842
 30
0.0
 10
1.686520915638788
 20
-0.0312650976035532
 30
0.0
 10
1.692313224679577
 20
-0.0316439057428535
 30
0.0
 10
1.698105647362564
 20
-0.0312651738155672
 30
0.0
 10
1.70379898983432
 20
-0.0301327586531004
 30
0.0
 10
1.709295273755523
 20
-0.0282656666768029
 30
0.0
 10
1.714501947596677
 20
-0.0256995414152855
 30
0.0
 10
1.719328324042622
 20
-0.022474186179148
 30
0.0
 10
1.72369207114986
 20
-0.0186463806406545
 30
0.0
 10
1.727520048114894
 20
-0.0142826973645467
 30
0.0
 10
1.730744821750774
 20
-0.0094560403721605
 30
0.0
 10
1.73331140455216
 20
-0.0042495858024414
 30
0.0
 10
1.735178288339902
 20
0.0012467151956831
 30
0.0
 10
1.736310496297534
 20
0.006940159490063
 30
0.0
 10
1.736689280288112
 20
0.0127324706419691
 30
0.0
 10
1.736310597026347
 20
0.0185248248649827
 30
0.0
 10
1.735178047401418
 20
0.0242181263846923
 30
0.0
 10
1.733311187919054
 20
0.0297144234039081
 30
0.0
 10
1.730744764969888
 20
0.0349210162566442
 30
0.0
 10
1.727519739658618
 20
0.0397475490524663
 30
0.0
 10
1.7236916787604
 20
0.0441110461549927
 30
0.0
 10
1.719328020419256
 20
0.0479392062165313
 30
0.0
 10
1.714501452144437
 20
0.0511635097548386
 30
0.0
 10
1.70929488395211
 20
0.0537330176035117
 30
0.0
 10
1.703798706487342
 20
0.055588158554165
 30
0.0
 10
1.698105392237605
 20
0.0567633832038754
 30
0.0
 10
1.694243237969853
 20
0.056909369266064
 30
0.0
 10
1.692313069313247
 20
0.0569823279575096
 30
0.0
  0
SPLINE
  5
32C
330
1F
100
AcDbEntity
  8
0
  6
Continuous
 62
     7
370
    25
100
AcDbSpline
210
0.0
220
0.0
230
1.0
 70
    11
 71
     3
 72
    23
 73
    19
 74
     0
 42
0.000000001
 43
0.00000001
 40
0.0
 40
0.0
 40
0.0
 40
0.0
 40
0.062605848896777
 40
0.1249380470009154
 40
0.1871452511536472
 40
0.2498864351149038
 40
0.3121424199125467
 40
0.3749613693598572
 40
0.4371357512145297
 40
0.4999287856751281
 40
0.5621776590095768
 40
0.6249334863619551
 40
0.6872453420334177
 40
0.7499865259946742
 40
0.8122425107923171
 40
0.8749138251395899
 40
0.937629421303424
 40
1.0
 40
1.0
 40
1.0
 40
1.0
 10
-0.7076869068448953
 20
0.0129821791843163
 30
0.0
 10
-0.7077198426444891
 20
0.0129786923860453
 30
0.0
 10
-0.7077855702809667
 20
0.012971734030335
 30
0.0
 10
-0.7078677698490459
 20
0.0129127746045649
 30
0.0
 10
-0.7079252329362935
 20
0.0128312576923867
 30
0.0
 10
-0.7079427893327735
 20
0.0127325318443784
 30
0.0
 10
-0.7079252967880698
 20
0.0126337252045733
 30
0.0
 10
-0.7078680944582176
 20
0.0125514672389357
 30
0.0
 10
-0.7077857267426564
 20
0.0124941085947884
 30
0.0
 10
-0.7076872041670385
 20
0.0124763515964296
 30
0.0
 10
-0.7075883103485547
 20
0.0124937692383868
 30
0.0
 10
-0.707506128652963
 20
0.0125511035047063
 30
0.0
 10
-0.7074486947708595
 20
0.0126334623910064
 30
0.0
 10
-0.7074310868232548
 20
0.0127320187903912
 30
0.0
 10
-0.707448507392476
 20
0.0128310171486551
 30
0.0
 10
-0.7075060587772395
 20
0.0129126092066766
 30
0.0
 10
-0.7075880662258257
 20
0.012972641339779
 30
0.0
 10
-0.707654020611174
 20
0.0129790057543277
 30
0.0
 10
-0.7076869068448953
 20
0.0129821791843163
 30
0.0
  0
SPLINE
  5
32D
330
1F
100
AcDbEntity
  8
0
  6
Continuous
 62
     7
370
    25
100
AcDbSpline
210
0.0
220
0.0
230
1.0
 70
    11
 71
     3
 72
    55
 73
    51
 74
     0
 42
0.000000001
 43
0.00000001
 40
0.0
 40
0.0
 40
0.0
 40
0.0
 40
0.0208252219621693
 40
0.041675348091011
 40
0.0625000532784687
 40
0.0833273085159485
 40
0.1041753294627961
 40
0.1250003999750672
 40
0.1458274878831804
 40
0.1666752712590503
 40
0.1875001306572363
 40
0.208326802073016
 40
0.2291757924423708
 40
0.24999993001772
 40
0.2708275068069772
 40
0.2916757392382521
 40
0.3125005785866327
 40
0.3333274516664461
 40
0.354175473422386
 40
0.3750002808130343
 40
0.3958273687211475
 40
0.4166755680483789
 40
0.4375001401614211
 40
0.4583271526796693
 40
0.4791754281159886
 40
0.500000221927901
 40
0.5208271564914756
 40
0.5416755993332552
 40
0.5625003045207129
 40
0.583327180284402
 40
0.6041754996076082
 40
0.6250000042504564
 40
0.6458270921585696
 40
0.6666757082357255
 40
0.6874997030956044
 40
0.7083271870780566
 40
0.7291753358015094
 40
0.7500003436885455
 40
0.7708270781886319
 40
0.7916753106199069
 40
0.8125001499682875
 40
0.8333269281796655
 40
0.8541757826317857
 40
0.8749999448989284
 40
0.895826871524705
 40
0.9166755475998392
 40
0.9375001197128813
 40
0.9583270594596687
 40
0.9791736516007864
 40
1.0
 40
1.0
 40
1.0
 40
1.0
 10
-0.7076869068448952
 20
0.0569823279575092
 30
0.0
 10
-0.7096169361121387
 20
0.0569094564512448
 30
0.0
 10
-0.7134793027022442
 20
0.0567636262941886
 30
0.0
 10
-0.7191726495852838
 20
0.0555883081656083
 30
0.0
 10
-0.7246691731999976
 20
0.0537328943178194
 30
0.0
 10
-0.7298755564504212
 20
0.0511630850858835
 30
0.0
 10
-0.7347023160049722
 20
0.0479391290458237
 30
0.0
 10
-0.7390657674023635
 20
0.0441106766724921
 30
0.0
 10
-0.7428937534203909
 20
0.0397471331959313
 30
0.0
 10
-0.7461187878082884
 20
0.0349205903782734
 30
0.0
 10
-0.7486852280247518
 20
0.0297141254711079
 30
0.0
 10
-0.7505520765163528
 20
0.0242177451598579
 30
0.0
 10
-0.7516844160690893
 20
0.0185244053302029
 30
0.0
 10
-0.7520630883908281
 20
0.0127320014311456
 30
0.0
 10
-0.7516844644081122
 20
0.0069396458332109
 30
0.0
 10
-0.7505518582411201
 20
0.0012462834420117
 30
0.0
 10
-0.7486851216249781
 20
-0.0042500672399713
 30
0.0
 10
-0.7461185818402892
 20
-0.0094565468779169
 30
0.0
 10
-0.7428934431687233
 20
-0.0142829870660855
 30
0.0
 10
-0.7390655342847764
 20
-0.0186466646476045
 30
0.0
 10
-0.7347018697360904
 20
-0.0224746385360009
 30
0.0
 10
-0.7298752231417945
 20
-0.0256995115397976
 30
0.0
 10
-0.724668710622338
 20
-0.028265927257464
 30
0.0
 10
-0.7191724462596815
 20
-0.0301329537683564
 30
0.0
 10
-0.7134790393704495
 20
-0.0312650916080588
 30
0.0
 10
-0.7076867136637592
 20
-0.0316439002219982
 30
0.0
 10
-0.7018943411213893
 20
-0.0312652044618461
 30
0.0
 10
-0.6962010082270841
 20
-0.0301326879921127
 30
0.0
 10
-0.6907047217161936
 20
-0.0282657609263977
 30
0.0
 10
-0.6854981110298183
 20
-0.0256994614781184
 30
0.0
 10
-0.6806717187625111
 20
-0.0224742327473613
 30
0.0
 10
-0.67630801876331
 20
-0.0186463595843951
 30
0.0
 10
-0.6724800567587262
 20
-0.014282665209862
 30
0.0
 10
-0.6692551492443873
 20
-0.0094560745803488
 30
0.0
 10
-0.6666885343740707
 20
-0.0042496080568709
 30
0.0
 10
-0.6648218794533525
 20
0.0012467554068415
 30
0.0
 10
-0.6636894343023624
 20
0.0069401400759319
 30
0.0
 10
-0.663310689627379
 20
0.0127324757749924
 30
0.0
 10
-0.6636894501059811
 20
0.0185248237738635
 30
0.0
 10
-0.6648220064813191
 20
0.0242181116023396
 30
0.0
 10
-0.6666887571795288
 20
0.029714453487156
 30
0.0
 10
-0.6692552925032933
 20
0.0349209949040911
 30
0.0
 10
-0.6724802832907483
 20
0.0397475756083651
 30
0.0
 10
-0.6763084189326146
 20
0.0441110056825109
 30
0.0
 10
-0.6806720066059281
 20
0.047939211542697
 30
0.0
 10
-0.685498525540359
 20
0.0511635029889636
 30
0.0
 10
-0.6907050759332981
 20
0.0537330584414177
 30
0.0
 10
-0.6962013160700763
 20
0.0555881438850476
 30
0.0
 10
-0.7018946439941691
 20
0.0567633734864658
 30
0.0
 10
-0.7057567779394972
 20
0.0569093667738726
 30
0.0
 10
-0.7076869068448953
 20
0.0569823279575096
 30
0.0
  0
SPLINE
  5
32E
330
1F
100
AcDbEntity
  8
0
  6
Continuous
 62
     7
370
    25
100
AcDbSpline
210
0.0
220
0.0
230
1.0
 70
    11
 71
     3
 72
    23
 73
    19
 74
     0
 42
0.000000001
 43
0.00000001
 40
0.0
 40
0.0
 40
0.0
 40
0.0
 40
0.0626121861163501
 40
0.1248875387999173
 40
0.1871855375339559
 40
0.2499474855912659
 40
0.3122312439554754
 40
0.3749934237088582
 40
0.4371854520927157
 40
0.499932986972713
 40
0.5621881613922114
 40
0.6248872418718914
 40
0.6871852406059299
 40
0.74994718866324
 40
0.8122309470274495
 40
0.8749931267808323
 40
0.9376090752453994
 40
1.0
 40
1.0
 40
1.0
 40
1.0
 10
1.692313069313247
 20
0.81298225070989
 30
0.0
 10
1.692280130028646
 20
0.812978771441361
 30
0.0
 10
1.692214428662207
 20
0.8129718316216488
 30
0.0
 10
1.692132263430072
 20
0.8129127778162619
 30
0.0
 10
1.692074871136322
 20
0.8128312391751471
 30
0.0
 10
1.692057027184626
 20
0.8127324848036546
 30
0.0
 10
1.692074830862603
 20
0.8126337009393629
 30
0.0
 10
1.69213205844324
 20
0.812551575476216
 30
0.0
 10
1.692214247491191
 20
0.8124939925569177
 30
0.0
 10
1.692312806634957
 20
0.8124764824801793
 30
0.0
 10
1.692411653289775
 20
0.8124937899443441
 30
0.0
 10
1.692493695289858
 20
0.8125512493428919
 30
0.0
 10
1.692551281876026
 20
0.812633395420993
 30
0.0
 10
1.69256910428053
 20
0.8127319929831875
 30
0.0
 10
1.692551322025552
 20
0.8128309789943549
 30
0.0
 10
1.692493900342805
 20
0.8129126348581195
 30
0.0
 10
1.692411833776394
 20
0.8129725691207361
 30
0.0
 10
1.692345951269467
 20
0.8129790273886612
 30
0.0
 10
1.692313069313247
 20
0.81298225070989
 30
0.0
  0
SPLINE
  5
32F
330
1F
100
AcDbEntity
  8
0
  6
Continuous
 62
     7
370
    25
100
AcDbSpline
210
0.0
220
0.0
230
1.0
 70
    11
 71
     3
 72
    55
 73
    51
 74
     0
 42
0.000000001
 43
0.00000001
 40
0.0
 40
0.0
 40
0.0
 40
0.0
 40
0.0208249983420039
 40
0.0416749045032202
 40
0.0624998032863062
 40
0.0833266668202324
 40
0.1041752733415356
 40
0.1250002126528143
 40
0.145827291014942
 40
0.1666753024062095
 40
0.1875000573929164
 40
0.2083272635053289
 40
0.2291753189738537
 40
0.2499998891658156
 40
0.270827028258595
 40
0.2916752511341929
 40
0.3125001499172789
 40
0.3333268237161992
 40
0.3541753118592301
 40
0.3749996456748981
 40
0.3958270069693736
 40
0.4166753751219265
 40
0.4375001301086335
 40
0.4583267919786186
 40
0.4791749311464327
 40
0.4999999294884366
 40
0.5208266404309856
 40
0.5416757049487205
 40
0.5624997911710905
 40
0.5833272346481252
 40
0.6041753660407545
 40
0.6250003053520332
 40
0.6458270611505963
 40
0.6666754293031493
 40
0.6874997994532938
 40
0.7083270055657063
 40
0.7291754818585106
 40
0.7500000520504725
 40
0.7708271911432519
 40
0.7916754140188499
 40
0.8124999065211209
 40
0.8333269651582342
 40
0.8541754533012651
 40
0.8749997871169332
 40
0.8958268654790608
 40
0.9166754720003639
 40
0.9375002269870709
 40
0.9583268888570559
 40
0.9791732610318228
 40
1.0
 40
1.0
 40
1.0
 40
1.0
 10
1.692313069313247
 20
0.8569822802737939
 30
0.0
 10
1.690383059873158
 20
0.8569094091577474
 30
0.0
 10
1.68652073259778
 20
0.8567635797678756
 30
0.0
 10
1.680827407606333
 20
0.8555882477700525
 30
0.0
 10
1.675330926924318
 20
0.8537328434558147
 30
0.0
 10
1.670124433422238
 20
0.8511631554725829
 30
0.0
 10
1.665297751570885
 20
0.8479390715583803
 30
0.0
 10
1.66093411440254
 20
0.8441107752454942
 30
0.0
 10
1.657106130834554
 20
0.839747196995424
 30
0.0
 10
1.653881208661182
 20
0.8349205605789929
 30
0.0
 10
1.651314827873955
 20
0.829714010079458
 30
0.0
 10
1.649447816769407
 20
0.8242177243299242
 30
0.0
 10
1.648315657124238
 20
0.8185243428132287
 30
0.0
 10
1.647936856333035
 20
0.8127320364469952
 30
0.0
 10
1.648315534822069
 20
0.8069396803737312
 30
0.0
 10
1.649448089296711
 20
0.8012463383974169
 30
0.0
 10
1.651314957432286
 20
0.7957500480263542
 30
0.0
 10
1.653881334019823
 20
0.790543459749379
 30
0.0
 10
1.657106470200978
 20
0.7857170203273083
 30
0.0
 10
1.66093446205499
 20
0.7813533931551828
 30
0.0
 10
1.665298008564163
 20
0.7775252813017981
 30
0.0
 10
1.670124765971088
 20
0.7743004599240493
 30
0.0
 10
1.675331266901831
 20
0.7717340036639353
 30
0.0
 10
1.680827569392974
 20
0.7698671905622847
 30
0.0
 10
1.686520895938868
 20
0.768734803096125
 30
0.0
 10
1.692313227844867
 20
0.7683560605707849
 30
0.0
 10
1.698105646638392
 20
0.7687347746089497
 30
0.0
 10
1.703798989561132
 20
0.7698671952146436
 30
0.0
 10
1.709295275569171
 20
0.7717342833249461
 30
0.0
 10
1.714501940610268
 20
0.7743004186137017
 30
0.0
 10
1.719328372038361
 20
0.7775257521852061
 30
0.0
 10
1.723691989611979
 20
0.7813536943010617
 30
0.0
 10
1.727520088107845
 20
0.7857172556627248
 30
0.0
 10
1.73074485363545
 20
0.7905439397976088
 30
0.0
 10
1.733311346105482
 20
0.7957504295528948
 30
0.0
 10
1.735178334401398
 20
0.8012467333690327
 30
0.0
 10
1.73631047047665
 20
0.8069401566843322
 30
0.0
 10
1.736689285891105
 20
0.8127325014766666
 30
0.0
 10
1.73631059788144
 20
0.8185248553887434
 30
0.0
 10
1.735178076795409
 20
0.8242181695808177
 30
0.0
 10
1.733311121960834
 20
0.8297144252783502
 30
0.0
 10
1.730744845678021
 20
0.8349210561629936
 30
0.0
 10
1.727519655791193
 20
0.8397475184033099
 30
0.0
 10
1.723691723204307
 20
0.8441111125184442
 30
0.0
 10
1.719328049482959
 20
0.8479392854020251
 30
0.0
 10
1.714501418156117
 20
0.8511634541052868
 30
0.0
 10
1.709294863897241
 20
0.8537329457620431
 30
0.0
 10
1.703798730306487
 20
0.8555882554283498
 30
0.0
 10
1.698105393936715
 20
0.8567634770389208
 30
0.0
 10
1.694243237669451
 20
0.8569093687732061
 30
0.0
 10
1.692313069313247
 20
0.8569822802737939
 30
0.0
  0
SPLINE
  5
330
330
1F
100
AcDbEntity
  8
0
  6
Continuous
 62
     7
370
    25
100
AcDbSpline
210
0.0
220
0.0
230
1.0
 70
    11
 71
     3
 72
    23
 73
    19
 74
     0
 42
0.000000001
 43
0.00000001
 40
0.0
 40
0.0
 40
0.0
 40
0.0
 40
0.0626058835742671
 40
0.12493811620432
 40
0.1872083793313706
 40
0.2499495980450795
 40
0.3122056173264223
 40
0.3749614794393639
 40
0.4371787670039415
 40
0.4999574331138346
 40
0.562206340928044
 40
0.6249622030409858
 40
0.6872110174315016
 40
0.7499522361452106
 40
0.8122082554265532
 40
0.8749427189522341
 40
0.9376153555153157
 40
1.0
 40
1.0
 40
1.0
 40
1.0
 10
-0.7076869068448953
 20
0.81298225070989
 30
0.0
 10
-0.707719841247077
 20
0.8129787629035932
 30
0.0
 10
-0.7077855660948383
 20
0.8129718025362349
 30
0.0
 10
-0.7078678141834707
 20
0.8129128382866577
 30
0.0
 10
-0.7079252048187683
 20
0.8128312253863725
 30
0.0
 10
-0.7079427876233584
 20
0.8127324957259578
 30
0.0
 10
-0.7079253313829985
 20
0.812633682389444
 30
0.0
 10
-0.7078680127196397
 20
0.8125515558221821
 30
0.0
 10
-0.707785787264494
 20
0.8124939959661401
 30
0.0
 10
-0.7076871835573498
 20
0.8124764743045072
 30
0.0
 10
-0.7075883096975489
 20
0.8124938243864586
 30
0.0
 10
-0.7075061721487896
 20
0.8125511711620539
 30
0.0
 10
-0.707448666931597
 20
0.8126334292344135
 30
0.0
 10
-0.7074310851051033
 20
0.8127319826306947
 30
0.0
 10
-0.7074485417073693
 20
0.8128309753836598
 30
0.0
 10
-0.7075059779549515
 20
0.8129126935901791
 30
0.0
 10
-0.7075881228493694
 20
0.8129725408649238
 30
0.0
 10
-0.707654029438071
 20
0.8129790190677451
 30
0.0
 10
-0.7076869068448953
 20
0.81298225070989
 30
0.0
  0
SPLINE
  5
331
330
1F
100
AcDbEntity
  8
0
  6
Continuous
 62
     7
370
    25
100
AcDbSpline
210
0.0
220
0.0
230
1.0
 70
    11
 71
     3
 72
    55
 73
    51
 74
     0
 42
0.000000001
 43
0.00000001
 40
0.0
 40
0.0
 40
0.0
 40
0.0
 40
0.020825219346714
 40
0.0416753428569726
 40
0.0625000454290398
 40
0.083327108310382
 40
0.1041753650118195
 40
0.1250001499714802
 40
0.1458272352639038
 40
0.1666753727781239
 40
0.1875002295609001
 40
0.2083273046438708
 40
0.2291754507489889
 40
0.2500000138594538
 40
0.2708271598825493
 40
0.291675389695479
 40
0.3125002264284523
 40
0.3333270968926029
 40
0.3541754727827841
 40
0.3749999549943946
 40
0.3958273232192602
 40
0.4166755199281504
 40
0.4375000894258189
 40
0.4583269613672612
 40
0.4791753178837024
 40
0.5000001090802131
 40
0.5208270410281174
 40
0.5416754812515252
 40
0.5625001838235926
 40
0.5833270569716186
 40
0.6041753736764687
 40
0.6250001586361293
 40
0.6458269213648811
 40
0.6666755348236436
 40
0.6874999119031828
 40
0.7083269869861536
 40
0.7291755539140017
 40
0.750000131035425
 40
0.770827291069951
 40
0.7916755208828806
 40
0.812499951333558
 40
0.8333271117658534
 40
0.8541756068463043
 40
0.8750000890579148
 40
0.895827013068022
 40
0.9166754481477813
 40
0.9375000176454499
 40
0.9583270927284205
 40
0.979173682251399
 40
1.0
 40
1.0
 40
1.0
 40
1.0
 10
-0.7076869068448952
 20
0.8569822802737936
 30
0.0
 10
-0.7096169355863432
 20
0.8569094077918109
 30
0.0
 10
-0.7134793011242285
 20
0.8567635756821506
 30
0.0
 10
-0.7191726559029421
 20
0.8555882722055641
 30
0.0
 10
-0.7246691328547915
 20
0.8537328083623963
 30
0.0
 10
-0.7298756335164229
 20
0.851163208296416
 30
0.0
 10
-0.734702232585551
 20
0.847939047192813
 30
0.0
 10
-0.7390658085196339
 20
0.8441107612506542
 30
0.0
 10
-0.7428937875785168
 20
0.8397471830634151
 30
0.0
 10
-0.7461187498053111
 20
0.8349205596021501
 30
0.0
 10
-0.748685265303804
 20
0.8297140516837396
 30
0.0
 10
-0.7505520142942627
 20
0.8242176809193054
 30
0.0
 10
-0.7516844531766084
 20
0.8185243652806025
 30
0.0
 10
-0.7520630817563001
 20
0.8127320313136841
 30
0.0
 10
-0.7516844589434836
 20
0.8069396784114375
 30
0.0
 10
-0.7505518556932887
 20
0.8012463563782692
 30
0.0
 10
-0.7486851295135715
 20
0.7957499985965204
 30
0.0
 10
-0.7461185381641456
 20
0.7905435162886105
 30
0.0
 10
-0.7428935293998784
 20
0.7857169755535149
 30
0.0
 10
-0.7390654459339416
 20
0.7813534152978645
 30
0.0
 10
-0.7347019206127118
 20
0.7775252951079117
 30
0.0
 10
-0.7298752114549123
 20
0.7743004623655168
 30
0.0
 10
-0.7246687398383674
 20
0.7717339776806549
 30
0.0
 10
-0.7191724042342427
 20
0.7698671942351134
 30
0.0
 10
-0.7134790590699243
 20
0.7687348090926809
 30
0.0
 10
-0.7076867104985165
 20
0.76835606609157
 30
0.0
 10
-0.7018943418455168
 20
0.768734743962836
 30
0.0
 10
-0.6962010085002645
 20
0.7698672658756236
 30
0.0
 10
-0.6907047199024913
 20
0.7717341890753278
 30
0.0
 10
-0.6854981180160746
 20
0.7743004985506032
 30
0.0
 10
-0.6806716707659842
 20
0.7775257056166482
 30
0.0
 10
-0.6763081003010757
 20
0.781353715356591
 30
0.0
 10
-0.6724800167648219
 20
0.7857172878167151
 30
0.0
 10
-0.6692551173590734
 20
0.7905439055890453
 30
0.0
 10
-0.6666885928194384
 20
0.7957504072974604
 30
0.0
 10
-0.6648218333916526
 20
0.8012467735805067
 30
0.0
 10
-0.6636894601247335
 20
0.8069401372707823
 30
0.0
 10
-0.663310684025291
 20
0.8127325066095523
 30
0.0
 10
-0.6636894492503282
 20
0.8185248542978185
 30
0.0
 10
-0.6648219770876805
 20
0.8242181547981884
 30
0.0
 10
-0.6666888231375168
 20
0.829714455361495
 30
0.0
 10
-0.6692552117948023
 20
0.8349210348110445
 30
0.0
 10
-0.6724803671583467
 20
0.8397475449584606
 30
0.0
 10
-0.6763083744894854
 20
0.844111072045858
 30
0.0
 10
-0.6806719775419958
 20
0.8479392907277585
 30
0.0
 10
-0.6854985595290563
 20
0.8511634473395597
 30
0.0
 10
-0.6907050959871098
 20
0.8537329866011161
 30
0.0
 10
-0.6962012922515635
 20
0.8555882407587394
 30
0.0
 10
-0.7018946422946938
 20
0.8567634673229487
 30
0.0
 10
-0.7057567782398206
 20
0.8569093662810152
 30
0.0
 10
-0.7076869068448953
 20
0.8569822802737939
 30
0.0
  0
LINE
  5
332
330
1F
100
AcDbEntity
  8
0
  6
Continuous
 62
     8
370
    25
100
AcDbLine
 10
-0.6772860346
 20
0.7777323022
 30
0.0
 11
-0.6784647761
 21
0.7792379155
 31
0.0
  0
LINE
  5
333
330
1F
100
AcDbEntity
  8
0
  6
Continuous
 62
     8
370
    25
100
AcDbLine
 10
0.8448630514
 20
0.0127323165
 30
0.0
 11
0.8478630724
 21
0.0127323165
 31
0.0
  0
LINE
  5
334
330
1F
100
AcDbEntity
  8
0
  6
Continuous
 62
     8
370
    25
100
AcDbLine
 10
0.8468130769
 20
-0.2281114564
 30
0.0
 11
0.8468130769
 21
-0.2881116376
 31
0.0
  0
LINE
  5
335
330
1F
100
AcDbEntity
  8
0
  6
Continuous
 62
     8
370
    25
100
AcDbLine
 10
0.8468130769
 20
-0.6086675629
 30
0.0
 11
0.8468130769
 21
-0.6686675057
 31
0.0
  0
LINE
  5
336
330
1F
100
AcDbEntity
  8
0
  6
Continuous
 62
     8
370
    25
100
AcDbLine
 10
-0.8666869161
 20
-0.1704754338
 30
0.0
 11
-1.3486869206
 21
-0.1704754338
 31
0.0
  0
LINE
  5
337
330
1F
100
AcDbEntity
  8
0
  6
Continuous
 62
     8
370
    25
100
AcDbLine
 10
-0.8666869161
 20
-0.1975502476
 30
0.0
 11
-1.3486869206
 21
-0.1975502476
 31
0.0
  0
LINE
  5
338
330
1F
100
AcDbEntity
  8
0
  6
Continuous
 62
     8
370
    25
100
AcDbLine
 10
-0.8666869161
 20
-0.7932745919
 30
0.0
 11
-1.3486869206
 21
-0.7932745919
 31
0.0
  0
LINE
  5
339
330
1F
100
AcDbEntity
  8
0
  6
Continuous
 62
     8
370
    25
100
AcDbLine
 10
-0.8666869161
 20
-1.2145733342
 30
0.0
 11
-1.3486869206
 21
-1.2145733342
 31
0.0
  0
LINE
  5
33A
330
1F
100
AcDbEntity
  8
0
  6
Continuous
 62
     8
370
    25
100
AcDbLine
 10
-0.8666869161
 20
-1.5600058541
 30
0.0
 11
-1.3486869206
 21
-1.5600058541
 31
0.0
  0
LINE
  5
33B
330
1F
100
AcDbEntity
  8
0
  6
Continuous
 62
     8
370
    25
100
AcDbLine
 10
1.6502946558
 20
0.0272322192
 30
0.0
 11
1.6450368108
 21
0.0272322192
 31
0.0
  0
LINE
  5
33C
330
1F
100
AcDbEntity
  8
0
  6
Continuous
 62
     8
370
    25
100
AcDbLine
 10
0.9395893755
 20
0.0272322192
 30
0.0
 11
0.9343315305
 21
0.0272322192
 31
0.0
  0
LINE
  5
33D
330
1F
100
AcDbEntity
  8
0
  6
Continuous
 62
     8
370
    25
100
AcDbLine
 10
1.6502946558
 20
-0.0017678246
 30
0.0
 11
1.6450368108
 21
-0.0017678246
 31
0.0
  0
LINE
  5
33E
330
1F
100
AcDbEntity
  8
0
  6
Continuous
 62
     8
370
    25
100
AcDbLine
 10
0.9395893755
 20
-0.0017678246
 30
0.0
 11
0.9343315305
 21
-0.0017678246
 31
0.0
  0
LINE
  5
33F
330
1F
100
AcDbEntity
  8
0
  6
Continuous
 62
     8
370
    25
100
AcDbLine
 10
0.8778129759
 20
0.7707137361
 30
0.0
 11
0.8778129759
 21
0.763282229
 31
0.0
  0
LINE
  5
340
330
1F
100
AcDbEntity
  8
0
  6
Continuous
 62
     8
370
    25
100
AcDbLine
 10
0.8778129759
 20
0.0621822372
 30
0.0
 11
0.8778129759
 21
0.0547507301
 31
0.0
  0
LINE
  5
341
330
1F
100
AcDbEntity
  8
0
  6
Continuous
 62
     8
370
    25
100
AcDbLine
 10
0.9068130197
 20
0.7707137361
 30
0.0
 11
0.9068130197
 21
0.7654558912
 31
0.0
  0
LINE
  5
342
330
1F
100
AcDbEntity
  8
0
  6
Continuous
 62
     8
370
    25
100
AcDbLine
 10
0.9068130197
 20
0.060008575
 30
0.0
 11
0.9068130197
 21
0.0547507301
 31
0.0
  0
LINE
  5
343
330
1F
100
AcDbEntity
  8
0
  6
Continuous
 62
     8
370
    25
100
AcDbLine
 10
-0.6931869445
 20
0.0547507301
 30
0.0
 11
-0.6931869445
 21
0.0621822372
 31
0.0
  0
LINE
  5
344
330
1F
100
AcDbEntity
  8
0
  6
Continuous
 62
     8
370
    25
100
AcDbLine
 10
-0.6931869445
 20
0.763282229
 30
0.0
 11
-0.6931869445
 21
0.7707137361
 31
0.0
  0
LINE
  5
345
330
1F
100
AcDbEntity
  8
0
  6
Continuous
 62
     8
370
    25
100
AcDbLine
 10
-0.7221869288
 20
0.0547507301
 30
0.0
 11
-0.7221869288
 21
0.060008575
 31
0.0
  0
LINE
  5
346
330
1F
100
AcDbEntity
  8
0
  6
Continuous
 62
     8
370
    25
100
AcDbLine
 10
-0.7221869288
 20
0.7654558912
 30
0.0
 11
-0.7221869288
 21
0.7707137361
 31
0.0
  0
ENDSEC
  0
SECTION
  2
OBJECTS
  0
DICTIONARY
  5
C
330
0
100
AcDbDictionary
281
     1
  3
ACAD_GROUP
350
D
  3
ACAD_LAYOUT
350
1A
  3
ACAD_MLINESTYLE
350
17
  3
ACAD_PLOTSETTINGS
350
19
  3
ACAD_PLOTSTYLENAME
350
E
  3
ACAD_SCALELIST
350
47
  0
DICTIONARY
  5
D
102
{ACAD_REACTORS
330
C
102
}
330
C
100
AcDbDictionary
281
     1
  0
DICTIONARY
  5
1A
102
{ACAD_REACTORS
330
C
102
}
330
C
100
AcDbDictionary
281
     1
  3
Layout1
350
1E
  3
Layout2
350
26
  3
Model
350
22
  0
DICTIONARY
  5
17
102
{ACAD_REACTORS
330
C
102
}
330
C
100
AcDbDictionary
281
     1
  3
Standard
350
18
  0
DICTIONARY
  5
19
102
{ACAD_REACTORS
330
C
102
}
330
C
100
AcDbDictionary
281
     1
  0
ACDBDICTIONARYWDFLT
  5
E
102
{ACAD_REACTORS
330
C
102
}
330
C
100
AcDbDictionary
281
     1
  3
Normal
350
F
100
AcDbDictionaryWithDefault
340
F
  0
DICTIONARY
  5
47
102
{ACAD_REACTORS
330
C
102
}
330
C
100
AcDbDictionary
281
     1
  3
A0
350
48
  3
A1
350
49
  3
A2
350
4A
  3
A3
350
4B
  3
A4
350
4C
  3
A5
350
4D
  3
A6
350
4E
  3
A7
350
4F
  3
A8
350
50
  3
A9
350
51
  3
B0
350
52
  3
B1
350
53
  3
B2
350
54
  3
B3
350
55
  3
B4
350
56
  3
B5
350
57
  3
B6
350
58
  3
B7
350
59
  3
B8
350
5A
  3
B9
350
5B
  3
C0
350
5C
  3
C1
350
5D
  3
C2
350
5E
  3
C3
350
5F
  3
C4
350
60
  3
C5
350
61
  3
C6
350
62
  3
C7
350
63
  3
C8
350
64
  3
C9
350
65
  3
D0
350
66
  3
D1
350
67
  3
D2
350
68
  0
LAYOUT
  5
1E
102
{ACAD_REACTORS
330
1A
102
}
330
1A
100
AcDbPlotSettings
  1

  2
none_device
  4

  6

 40
0.0
 41
0.0
 42
0.0
 43
0.0
 44
0.0
 45
0.0
 46
0.0
 47
0.0
 48
0.0
 49
0.0
140
0.0
141
0.0
142
1.0
143
1.0
 70
   688
 72
     1
 73
     0
 74
     5
  7

 75
    16
147
1.0
148
0.0
149
0.0
100
AcDbLayout
  1
Layout1
 70
     1
 71
     1
 10
0.0
 20
0.0
 11
420.0
 21
297.0
 12
0.0
 22
0.0
 32
0.0
 14
1.0000000000E+20
 24
1.0000000000E+20
 34
1.0000000000E+20
 15
-1.0000000000E+20
 25
-1.0000000000E+20
 35
-1.0000000000E+20
146
0.0
 13
0.0
 23
0.0
 33
0.0
 16
1.0
 26
0.0
 36
0.0
 17
0.0
 27
1.0
 37
0.0
 76
     0
330
1B
  0
LAYOUT
  5
26
102
{ACAD_REACTORS
330
1A
102
}
330
1A
100
AcDbPlotSettings
  1

  2
none_device
  4

  6

 40
0.0
 41
0.0
 42
0.0
 43
0.0
 44
0.0
 45
0.0
 46
0.0
 47
0.0
 48
0.0
 49
0.0
140
0.0
141
0.0
142
1.0
143
1.0
 70
   688
 72
     1
 73
     0
 74
     5
  7

 75
    16
147
1.0
148
0.0
149
0.0
100
AcDbLayout
  1
Layout2
 70
     1
 71
     2
 10
0.0
 20
0.0
 11
0.0
 21
0.0
 12
0.0
 22
0.0
 32
0.0
 14
0.0
 24
0.0
 34
0.0
 15
0.0
 25
0.0
 35
0.0
146
0.0
 13
0.0
 23
0.0
 33
0.0
 16
1.0
 26
0.0
 36
0.0
 17
0.0
 27
1.0
 37
0.0
 76
     0
330
23
  0
LAYOUT
  5
22
102
{ACAD_REACTORS
330
1A
102
}
330
1A
100
AcDbPlotSettings
  1

  2
none_device
  4
Letter_(8.50_x_11.00_Inches)
  6

 40
6.35
 41
6.35
 42
6.35000508
 43
6.35000508
 44
215.9
 45
279.4
 46
0.0
 47
0.0
 48
0.0
 49
0.0
140
0.0
141
0.0
142
1.0
143
1.0
 70
  1712
 72
     1
 73
     0
 74
     0
  7

 75
     0
147
1.0
148
0.0
149
0.0
100
AcDbLayout
  1
Model
 70
     1
 71
     0
 10
0.0
 20
0.0
 11
0.4318
 21
0.2794
 12
0.0
 22
0.0
 32
0.0
 14
0.0
 24
0.0
 34
0.0
 15
0.4318
 25
0.2794
 35
0.0
146
0.0
 13
0.0
 23
0.0
 33
0.0
 16
1.0
 26
0.0
 36
0.0
 17
0.0
 27
1.0
 37
0.0
 76
     0
330
1F
331
29
  0
MLINESTYLE
  5
18
102
{ACAD_REACTORS
330
17
102
}
330
17
100
AcDbMlineStyle
  2
Standard
 70
     0
  3

 62
   256
 51
90.0
 52
90.0
 71
     2
 49
0.5
 62
   256
  6
BYLAYER
 49
-0.5
 62
   256
  6
BYLAYER
  0
ACDBPLACEHOLDER
  5
F
102
{ACAD_REACTORS
330
E
102
}
330
E
  0
SCALE
  5
48
102
{ACAD_REACTORS
330
47
102
}
330
47
100
AcDbScale
 70
     0
300
1:1
140
1.0
141
1.0
290
     1
  0
SCALE
  5
49
102
{ACAD_REACTORS
330
47
102
}
330
47
100
AcDbScale
 70
     0
300
1:2
140
1.0
141
2.0
290
     0
  0
SCALE
  5
4A
102
{ACAD_REACTORS
330
47
102
}
330
47
100
AcDbScale
 70
     0
300
1:4
140
1.0
141
4.0
290
     0
  0
SCALE
  5
4B
102
{ACAD_REACTORS
330
47
102
}
330
47
100
AcDbScale
 70
     0
300
1:5
140
1.0
141
5.0
290
     0
  0
SCALE
  5
4C
102
{ACAD_REACTORS
330
47
102
}
330
47
100
AcDbScale
 70
     0
300
1:8
140
1.0
141
8.0
290
     0
  0
SCALE
  5
4D
102
{ACAD_REACTORS
330
47
102
}
330
47
100
AcDbScale
 70
     0
300
1:10
140
1.0
141
10.0
290
     0
  0
SCALE
  5
4E
102
{ACAD_REACTORS
330
47
102
}
330
47
100
AcDbScale
 70
     0
300
1:16
140
1.0
141
16.0
290
     0
  0
SCALE
  5
4F
102
{ACAD_REACTORS
330
47
102
}
330
47
100
AcDbScale
 70
     0
300
1:20
140
1.0
141
20.0
290
     0
  0
SCALE
  5
50
102
{ACAD_REACTORS
330
47
102
}
330
47
100
AcDbScale
 70
     0
300
1:30
140
1.0
141
30.0
290
     0
  0
SCALE
  5
51
102
{ACAD_REACTORS
330
47
102
}
330
47
100
AcDbScale
 70
     0
300
1:40
140
1.0
141
40.0
290
     0
  0
SCALE
  5
52
102
{ACAD_REACTORS
330
47
102
}
330
47
100
AcDbScale
 70
     0
300
1:50
140
1.0
141
50.0
290
     0
  0
SCALE
  5
53
102
{ACAD_REACTORS
330
47
102
}
330
47
100
AcDbScale
 70
     0
300
1:100
140
1.0
141
100.0
290
     0
  0
SCALE
  5
54
102
{ACAD_REACTORS
330
47
102
}
330
47
100
AcDbScale
 70
     0
300
2:1
140
2.0
141
1.0
290
     0
  0
SCALE
  5
55
102
{ACAD_REACTORS
330
47
102
}
330
47
100
AcDbScale
 70
     0
300
4:1
140
4.0
141
1.0
290
     0
  0
SCALE
  5
56
102
{ACAD_REACTORS
330
47
102
}
330
47
100
AcDbScale
 70
     0
300
8:1
140
8.0
141
1.0
290
     0
  0
SCALE
  5
57
102
{ACAD_REACTORS
330
47
102
}
330
47
100
AcDbScale
 70
     0
300
10:1
140
10.0
141
1.0
290
     0
  0
SCALE
  5
58
102
{ACAD_REACTORS
330
47
102
}
330
47
100
AcDbScale
 70
     0
300
100:1
140
100.0
141
1.0
290
     0
  0
SCALE
  5
59
102
{ACAD_REACTORS
330
47
102
}
330
47
100
AcDbScale
 70
     0
300
1/128" = 1'-0"
140
0.0078125
141
12.0
290
     0
  0
SCALE
  5
5A
102
{ACAD_REACTORS
330
47
102
}
330
47
100
AcDbScale
 70
     0
300
1/64" = 1'-0"
140
0.015625
141
12.0
290
     0
  0
SCALE
  5
5B
102
{ACAD_REACTORS
330
47
102
}
330
47
100
AcDbScale
 70
     0
300
1/32" = 1'-0"
140
0.03125
141
12.0
290
     0
  0
SCALE
  5
5C
102
{ACAD_REACTORS
330
47
102
}
330
47
100
AcDbScale
 70
     0
300
1/16" = 1'-0"
140
0.0625
141
12.0
290
     0
  0
SCALE
  5
5D
102
{ACAD_REACTORS
330
47
102
}
330
47
100
AcDbScale
 70
     0
300
3/32" = 1'-0"
140
0.09375
141
12.0
290
     0
  0
SCALE
  5
5E
102
{ACAD_REACTORS
330
47
102
}
330
47
100
AcDbScale
 70
     0
300
1/8" = 1'-0"
140
0.125
141
12.0
290
     0
  0
SCALE
  5
5F
102
{ACAD_REACTORS
330
47
102
}
330
47
100
AcDbScale
 70
     0
300
3/16" = 1'-0"
140
0.1875
141
12.0
290
     0
  0
SCALE
  5
60
102
{ACAD_REACTORS
330
47
102
}
330
47
100
AcDbScale
 70
     0
300
1/4" = 1'-0"
140
0.25
141
12.0
290
     0
  0
SCALE
  5
61
102
{ACAD_REACTORS
330
47
102
}
330
47
100
AcDbScale
 70
     0
300
3/8" = 1'-0"
140
0.375
141
12.0
290
     0
  0
SCALE
  5
62
102
{ACAD_REACTORS
330
47
102
}
330
47
100
AcDbScale
 70
     0
300
1/2" = 1'-0"
140
0.5
141
12.0
290
     0
  0
SCALE
  5
63
102
{ACAD_REACTORS
330
47
102
}
330
47
100
AcDbScale
 70
     0
300
3/4" = 1'-0"
140
0.75
141
12.0
290
     0
  0
SCALE
  5
64
102
{ACAD_REACTORS
330
47
102
}
330
47
100
AcDbScale
 70
     0
300
1" = 1'-0"
140
1.0
141
12.0
290
     0
  0
SCALE
  5
65
102
{ACAD_REACTORS
330
47
102
}
330
47
100
AcDbScale
 70
     0
300
1-1/2" = 1'-0"
140
1.5
141
12.0
290
     0
  0
SCALE
  5
66
102
{ACAD_REACTORS
330
47
102
}
330
47
100
AcDbScale
 70
     0
300
3" = 1'-0"
140
3.0
141
12.0
290
     0
  0
SCALE
  5
67
102
{ACAD_REACTORS
330
47
102
}
330
47
100
AcDbScale
 70
     0
300
6" = 1'-0"
140
6.0
141
12.0
290
     0
  0
SCALE
  5
68
102
{ACAD_REACTORS
330
47
102
}
330
47
100
AcDbScale
 70
     0
300
1'-0" = 1'-0"
140
12.0
141
12.0
290
     0
  0
ENDSEC
  0
EOF
