  0
SECTION
  2
HEADER
  9
$ACADVER
  1
AC1015
  9
$ACADMAINTVER
 70
     6
  9
$DWGCODEPAGE
  3
ANSI_1250
  9
$INSBASE
 10
0.0
 20
0.0
 30
0.0
  9
$EXTMIN
 10
0.0
 20
0.0
 30
0.0
  9
$EXTMAX
 10
0.4318
 20
0.2794
 30
0.0
  9
$LIMMIN
 10
0.0
 20
0.0
  9
$LIMMAX
 10
0.4318
 20
0.2794
  9
$ORTHOMODE
 70
     0
  9
$REGENMODE
 70
     1
  9
$FILLMODE
 70
     1
  9
$QTEXTMODE
 70
     0
  9
$MIRRTEXT
 70
     1
  9
$LTSCALE
 40
1.0
  9
$ATTMODE
 70
     1
  9
$TEXTSIZE
 40
0.0035
  9
$TRACEWID
 40
1.0
  9
$TEXTSTYLE
  7
Standard
  9
$CLAYER
  8
0
  9
$CELTYPE
  6
ByLayer
  9
$CECOLOR
 62
   256
  9
$CELTSCALE
 40
1.0
  9
$DISPSILH
 70
     0
  9
$DIMSCALE
 40
1.0
  9
$DIMASZ
 40
0.003302
  9
$DIMEXO
 40
0.001
  9
$DIMDLI
 40
3.75
  9
$DIMRND
 40
0.0
  9
$DIMDLE
 40
0.0
  9
$DIMEXE
 40
0.001
  9
$DIMTP
 40
0.0
  9
$DIMTM
 40
0.0
  9
$DIMTXT
 40
0.0035
  9
$DIMCEN
 40
2.5
  9
$DIMTSZ
 40
0.0
  9
$DIMTOL
 70
     0
  9
$DIMLIM
 70
     0
  9
$DIMTIH
 70
     1
  9
$DIMTOH
 70
     1
  9
$DIMSE1
 70
     0
  9
$DIMSE2
 70
     0
  9
$DIMTAD
 70
     1
  9
$DIMZIN
 70
     0
  9
$DIMBLK
  1

  9
$DIMASO
 70
     1
  9
$DIMSHO
 70
     1
  9
$DIMPOST
  1

  9
$DIMAPOST
  1

  9
$DIMALT
 70
     0
  9
$DIMALTD
 70
     3
  9
$DIMALTF
 40
39.3700787402
  9
$DIMLFAC
 40
1.0
  9
$DIMTOFL
 70
     1
  9
$DIMTVP
 40
0.0
  9
$DIMTIX
 70
     0
  9
$DIMSOXD
 70
     0
  9
$DIMSAH
 70
     0
  9
$DIMBLK1
  1

  9
$DIMBLK2
  1

  9
$DIMSTYLE
  2
ISO-25
  9
$DIMCLRD
 70
     0
  9
$DIMCLRE
 70
     0
  9
$DIMCLRT
 70
     0
  9
$DIMTFAC
 40
1.0
  9
$DIMGAP
 40
0.001524
  9
$DIMJUST
 70
     0
  9
$DIMSD1
 70
     0
  9
$DIMSD2
 70
     0
  9
$DIMTOLJ
 70
     0
  9
$DIMTZIN
 70
     0
  9
$DIMALTZ
 70
     0
  9
$DIMALTTZ
 70
     0
  9
$DIMUPT
 70
     0
  9
$DIMDEC
 70
     2
  9
$DIMTDEC
 70
     2
  9
$DIMALTU
 70
     2
  9
$DIMALTTD
 70
     3
  9
$DIMTXSTY
  7
Standard
  9
$DIMAUNIT
 70
     0
  9
$DIMADEC
 70
     2
  9
$DIMALTRND
 40
0.0
  9
$DIMAZIN
 70
     0
  9
$DIMDSEP
 70
    44
  9
$DIMATFIT
 70
     3
  9
$DIMFRAC
 70
     0
  9
$DIMLDRBLK
  1

  9
$DIMLUNIT
 70
     2
  9
$DIMLWD
 70
    -2
  9
$DIMLWE
 70
    -2
  9
$DIMTMOVE
 70
     0
  9
$LUNITS
 70
     2
  9
$LUPREC
 70
     2
  9
$SKETCHINC
 40
1.0
  9
$FILLETRAD
 40
10.0
  9
$AUNITS
 70
     0
  9
$AUPREC
 70
     2
  9
$MENU
  1
.
  9
$ELEVATION
 40
0.0
  9
$PELEVATION
 40
0.0
  9
$THICKNESS
 40
0.0
  9
$LIMCHECK
 70
     0
  9
$CHAMFERA
 40
0.0
  9
$CHAMFERB
 40
0.0
  9
$CHAMFERC
 40
0.0
  9
$CHAMFERD
 40
0.0
  9
$SKPOLY
 70
     0
  9
$TDCREATE
 40
2458632.493265243
  9
$TDUCREATE
 40
2458632.40993191
  9
$TDUPDATE
 40
2458632.49326588
  9
$TDUUPDATE
 40
2458632.409932546
  9
$TDINDWG
 40
0.0000000116
  9
$TDUSRTIMER
 40
0.0000000116
  9
$USRTIMER
 70
     1
  9
$ANGBASE
 50
0.0
  9
$ANGDIR
 70
     0
  9
$PDMODE
 70
     0
  9
$PDSIZE
 40
-1.0
  9
$PLINEWID
 40
0.0
  9
$SPLFRAME
 70
     0
  9
$SPLINETYPE
 70
     6
  9
$SPLINESEGS
 70
     8
  9
$HANDSEED
  5
2F0
  9
$SURFTAB1
 70
     6
  9
$SURFTAB2
 70
     6
  9
$SURFTYPE
 70
     6
  9
$SURFU
 70
     6
  9
$SURFV
 70
     6
  9
$UCSBASE
  2

  9
$UCSNAME
  2

  9
$UCSORG
 10
0.0
 20
0.0
 30
0.0
  9
$UCSXDIR
 10
1.0
 20
0.0
 30
0.0
  9
$UCSYDIR
 10
0.0
 20
1.0
 30
0.0
  9
$UCSORTHOREF
  2

  9
$UCSORTHOVIEW
 70
     0
  9
$UCSORGTOP
 10
0.0
 20
0.0
 30
0.0
  9
$UCSORGBOTTOM
 10
0.0
 20
0.0
 30
0.0
  9
$UCSORGLEFT
 10
0.0
 20
0.0
 30
0.0
  9
$UCSORGRIGHT
 10
0.0
 20
0.0
 30
0.0
  9
$UCSORGFRONT
 10
0.0
 20
0.0
 30
0.0
  9
$UCSORGBACK
 10
0.0
 20
0.0
 30
0.0
  9
$PUCSBASE
  2

  9
$PUCSNAME
  2

  9
$PUCSORG
 10
0.0
 20
0.0
 30
0.0
  9
$PUCSXDIR
 10
1.0
 20
0.0
 30
0.0
  9
$PUCSYDIR
 10
0.0
 20
1.0
 30
0.0
  9
$PUCSORTHOREF
  2

  9
$PUCSORTHOVIEW
 70
     0
  9
$PUCSORGTOP
 10
0.0
 20
0.0
 30
0.0
  9
$PUCSORGBOTTOM
 10
0.0
 20
0.0
 30
0.0
  9
$PUCSORGLEFT
 10
0.0
 20
0.0
 30
0.0
  9
$PUCSORGRIGHT
 10
0.0
 20
0.0
 30
0.0
  9
$PUCSORGFRONT
 10
0.0
 20
0.0
 30
0.0
  9
$PUCSORGBACK
 10
0.0
 20
0.0
 30
0.0
  9
$USERI1
 70
     0
  9
$USERI2
 70
     0
  9
$USERI3
 70
     0
  9
$USERI4
 70
     0
  9
$USERI5
 70
     0
  9
$USERR1
 40
0.0
  9
$USERR2
 40
0.0
  9
$USERR3
 40
0.0
  9
$USERR4
 40
0.0
  9
$USERR5
 40
0.0
  9
$WORLDVIEW
 70
     1
  9
$SHADEDGE
 70
     3
  9
$SHADEDIF
 70
    70
  9
$TILEMODE
 70
     1
  9
$MAXACTVP
 70
    64
  9
$PINSBASE
 10
0.0
 20
0.0
 30
0.0
  9
$PLIMCHECK
 70
     0
  9
$PEXTMIN
 10
1.0000000000E+20
 20
1.0000000000E+20
 30
1.0000000000E+20
  9
$PEXTMAX
 10
-1.0000000000E+20
 20
-1.0000000000E+20
 30
-1.0000000000E+20
  9
$PLIMMIN
 10
0.0
 20
0.0
  9
$PLIMMAX
 10
420.0
 20
297.0
  9
$UNITMODE
 70
     0
  9
$VISRETAIN
 70
     1
  9
$PLINEGEN
 70
     0
  9
$PSLTSCALE
 70
     1
  9
$TREEDEPTH
 70
  3020
  9
$CMLSTYLE
  2
Standard
  9
$CMLJUST
 70
     0
  9
$CMLSCALE
 40
20.0
  9
$PROXYGRAPHICS
 70
     1
  9
$MEASUREMENT
 70
     1
  9
$CELWEIGHT
370
    -1
  9
$ENDCAPS
280
     0
  9
$JOINSTYLE
280
     0
  9
$LWDISPLAY
290
     1
  9
$INSUNITS
 70
     4
  9
$HYPERLINKBASE
  1

  9
$STYLESHEET
  1

  9
$XEDIT
290
     1
  9
$CEPSNTYPE
380
     0
  9
$PSTYLEMODE
290
     1
  9
$FINGERPRINTGUID
  2
{6DE215C1-D7A0-4249-96F3-6A2CBE5251DD}
  9
$VERSIONGUID
  2
{FAEB1C32-E019-11D5-929B-00C0DF256EC4}
  9
$EXTNAMES
290
     1
  9
$PSVPSCALE
 40
0.0
  9
$OLESTARTUP
290
     0
  0
ENDSEC
  0
SECTION
  2
CLASSES
  0
CLASS
  1
ACDBDICTIONARYWDFLT
  2
AcDbDictionaryWithDefault
  3
ObjectDBX Classes
 90
        0
280
     0
281
     0
  0
CLASS
  1
VISUALSTYLE
  2
AcDbVisualStyle
  3
ObjectDBX Classes
 90
     4095
280
     0
281
     0
  0
CLASS
  1
MATERIAL
  2
AcDbMaterial
  3
ObjectDBX Classes
 90
     1153
280
     0
281
     0
  0
CLASS
  1
SCALE
  2
AcDbScale
  3
ObjectDBX Classes
 90
     1153
280
     0
281
     0
  0
CLASS
  1
TABLESTYLE
  2
AcDbTableStyle
  3
ObjectDBX Classes
 90
     4095
280
     0
281
     0
  0
CLASS
  1
MLEADERSTYLE
  2
AcDbMLeaderStyle
  3
ACDB_MLEADERSTYLE_CLASS
 90
     4095
280
     0
281
     0
  0
CLASS
  1
SUN
  2
AcDbSun
  3
SCENEOE
 90
     1153
280
     0
281
     0
  0
CLASS
  1
ACDBPLACEHOLDER
  2
AcDbPlaceHolder
  3
ObjectDBX Classes
 90
        0
280
     0
281
     0
  0
CLASS
  1
LAYOUT
  2
AcDbLayout
  3
ObjectDBX Classes
 90
        0
280
     0
281
     0
  0
ENDSEC
  0
SECTION
  2
TABLES
  0
TABLE
  2
VPORT
  5
8
330
0
100
AcDbSymbolTable
 70
     1
  0
VPORT
  5
29
330
8
100
AcDbSymbolTableRecord
100
AcDbViewportTableRecord
  2
*Active
 70
     0
 10
0.0
 20
0.0
 11
1.0
 21
1.0
 12
0.2159
 22
0.1397
 13
0.0
 23
0.0
 14
10.0
 24
10.0
 15
10.0
 25
10.0
 16
0.0
 26
0.0
 36
1.0
 17
0.0
 27
0.0
 37
0.0
 40
0.2794
 41
1.5454545455
 42
50.0
 43
0.0
 44
0.0
 50
0.0
 51
0.0
 71
     0
 72
  2000
 73
     1
 74
     3
 75
     0
 76
     0
 77
     0
 78
     0
281
     0
 65
     1
110
0.0
120
0.0
130
0.0
111
1.0
121
0.0
131
0.0
112
0.0
122
1.0
132
0.0
 79
     0
146
0.0
  0
ENDTAB
  0
TABLE
  2
LTYPE
  5
5
330
0
100
AcDbSymbolTable
 70
     6
  0
LTYPE
  5
14
330
5
100
AcDbSymbolTableRecord
100
AcDbLinetypeTableRecord
  2
ByBlock
 70
     0
  3

 72
    65
 73
     0
 40
0.0
  0
LTYPE
  5
15
330
5
100
AcDbSymbolTableRecord
100
AcDbLinetypeTableRecord
  2
ByLayer
 70
     0
  3

 72
    65
 73
     0
 40
0.0
  0
LTYPE
  5
16
330
5
100
AcDbSymbolTableRecord
100
AcDbLinetypeTableRecord
  2
Continuous
 70
     0
  3
Solid line
 72
    65
 73
     0
 40
0.0
  0
LTYPE
  5
6E
330
5
100
AcDbSymbolTableRecord
100
AcDbLinetypeTableRecord
  2
HIDDEN
 70
     0
  3
Hidden __ __ __ __ __ __ __ __ __ __ __ __ __ __
 72
    65
 73
     2
 40
0.001905
 49
0.00127
 74
     0
 49
-0.000635
 74
     0
  0
LTYPE
  5
6F
330
5
100
AcDbSymbolTableRecord
100
AcDbLinetypeTableRecord
  2
PHANTOM
 70
     0
  3
Phantom ______  __  __  ______  __  __  ______
 72
    65
 73
     6
 40
0.0127
 49
0.00635
 74
     0
 49
-0.00127
 74
     0
 49
0.00127
 74
     0
 49
-0.00127
 74
     0
 49
0.00127
 74
     0
 49
-0.00127
 74
     0
  0
LTYPE
  5
70
330
5
100
AcDbSymbolTableRecord
100
AcDbLinetypeTableRecord
  2
CENTER
 70
     0
  3
Center ____ _ ____ _ ____ _ ____ _ ____ _ ____
 72
    65
 73
     4
 40
0.01016
 49
0.00635
 74
     0
 49
-0.00127
 74
     0
 49
0.00127
 74
     0
 49
-0.00127
 74
     0
  0
LTYPE
  5
71
330
5
100
AcDbSymbolTableRecord
100
AcDbLinetypeTableRecord
  2
CENTERX2
 70
     0
  3
Center (2x) ________  __  ________  __  _____
 72
    65
 73
     4
 40
0.02032
 49
0.0127
 74
     0
 49
-0.00254
 74
     0
 49
0.00254
 74
     0
 49
-0.00254
 74
     0
  0
LTYPE
  5
72
330
5
100
AcDbSymbolTableRecord
100
AcDbLinetypeTableRecord
  2
DOT2
 70
     0
  3
Dot (.5x) ........................................
 72
    65
 73
     2
 40
0.000635
 49
0.0
 74
     0
 49
-0.000635
 74
     0
  0
ENDTAB
  0
TABLE
  2
LAYER
  5
2
330
0
100
AcDbSymbolTable
 70
     1
  0
LAYER
  5
10
330
2
100
AcDbSymbolTableRecord
100
AcDbLayerTableRecord
  2
0
 70
     0
 62
     7
  6
Continuous
370
    -3
390
F
  0
ENDTAB
  0
TABLE
  2
STYLE
  5
3
330
0
100
AcDbSymbolTable
 70
     1
  0
STYLE
  5
11
330
3
100
AcDbSymbolTableRecord
100
AcDbTextStyleTableRecord
  2
Standard
 70
     0
 40
0.0
 41
1.0
 50
0.0
 71
     0
 42
0.0035
  3
txt
  4

  0
ENDTAB
  0
TABLE
  2
VIEW
  5
6
330
0
100
AcDbSymbolTable
 70
     0
  0
ENDTAB
  0
TABLE
  2
UCS
  5
7
330
0
100
AcDbSymbolTable
 70
     0
  0
ENDTAB
  0
TABLE
  2
APPID
  5
9
330
0
100
AcDbSymbolTable
 70
     1
  0
APPID
  5
12
330
9
100
AcDbSymbolTableRecord
100
AcDbRegAppTableRecord
  2
ACAD
 70
     0
  0
ENDTAB
  0
TABLE
  2
DIMSTYLE
  5
A
330
0
100
AcDbSymbolTable
 70
     1
100
AcDbDimStyleTable
  0
DIMSTYLE
105
27
330
A
100
AcDbSymbolTableRecord
100
AcDbDimStyleTableRecord
  2
ISO-25
 70
     0
 41
2.5
 42
0.625
 43
3.75
 44
1.25
 73
     0
 74
     0
 77
     1
 78
     8
140
2.5
141
2.5
143
0.0393700787
147
0.625
171
     3
172
     1
178
     0
271
     2
272
     2
274
     3
278
    44
283
     0
284
     8
340
11
  0
ENDTAB
  0
TABLE
  2
BLOCK_RECORD
  5
1
330
0
100
AcDbSymbolTable
 70
     1
  0
BLOCK_RECORD
  5
1F
330
1
100
AcDbSymbolTableRecord
100
AcDbBlockTableRecord
  2
*Model_Space
340
22
  0
BLOCK_RECORD
  5
1B
330
1
100
AcDbSymbolTableRecord
100
AcDbBlockTableRecord
  2
*Paper_Space
340
1E
  0
BLOCK_RECORD
  5
23
330
1
100
AcDbSymbolTableRecord
100
AcDbBlockTableRecord
  2
*Paper_Space0
340
26
  0
ENDTAB
  0
ENDSEC
  0
SECTION
  2
BLOCKS
  0
BLOCK
  5
20
330
1F
100
AcDbEntity
  8
0
100
AcDbBlockBegin
  2
*Model_Space
 70
     0
 10
0.0
 20
0.0
 30
0.0
  3
*Model_Space
  1

  0
ENDBLK
  5
21
330
1F
100
AcDbEntity
  8
0
100
AcDbBlockEnd
  0
BLOCK
  5
1C
330
1B
100
AcDbEntity
 67
     1
  8
0
100
AcDbBlockBegin
  2
*Paper_Space
 70
     0
 10
0.0
 20
0.0
 30
0.0
  3
*Paper_Space
  1

  0
ENDBLK
  5
1D
330
1B
100
AcDbEntity
 67
     1
  8
0
100
AcDbBlockEnd
  0
BLOCK
  5
24
330
23
100
AcDbEntity
  8
0
100
AcDbBlockBegin
  2
*Paper_Space0
 70
     0
 10
0.0
 20
0.0
 30
0.0
  3
*Paper_Space0
  1

  0
ENDBLK
  5
25
330
23
100
AcDbEntity
  8
0
100
AcDbBlockEnd
  0
ENDSEC
  0
SECTION
  2
ENTITIES
  0
ARC
  5
73
330
1F
100
AcDbEntity
  8
0
  6
Continuous
 62
     7
100
AcDbCircle
 10
2.1845664748
 20
0.9621270911
 30
0.0
 40
1.499999999999999
100
AcDbArc
 50
323.31966626
 51
62.714364959
  0
ARC
  5
74
330
1F
100
AcDbEntity
  8
0
  6
Continuous
 62
     7
100
AcDbCircle
 10
1.6845664748
 20
1.3789770911
 30
0.0
 40
1.5
100
AcDbArc
 50
37.6497004656
 51
90.0
  0
ARC
  5
75
330
1F
100
AcDbEntity
  8
0
  6
Continuous
 62
     7
100
AcDbCircle
 10
-1.9154335252
 20
0.5789770911
 30
0.0
 40
1.5
100
AcDbArc
 50
180.0
 51
235.0170021308
  0
ARC
  5
76
330
1F
100
AcDbEntity
  8
0
  6
Continuous
 62
     7
100
AcDbCircle
 10
-1.9154335252
 20
1.3789770911
 30
0.0
 40
1.5
100
AcDbArc
 50
90.0
 51
180.0
  0
ARC
  5
77
330
1F
100
AcDbEntity
  8
0
  6
Continuous
 62
     7
100
AcDbCircle
 10
1.9145664748
 20
-0.2173694101
 30
0.0
 40
1.5
100
AcDbArc
 50
270.0
 51
10.8933278297
  0
ARC
  5
78
330
1F
100
AcDbEntity
  8
0
  6
Continuous
 62
     7
100
AcDbCircle
 10
-1.2554335252
 20
-2.0786596836
 30
0.0
 40
1.0
100
AcDbArc
 50
270.0
 51
0.0
  0
ARC
  5
79
330
1F
100
AcDbEntity
  8
0
  6
Continuous
 62
     7
100
AcDbCircle
 10
-1.7754335252
 20
-2.0786596836
 30
0.0
 40
1.0
100
AcDbArc
 50
180.0
 51
270.0
  0
CIRCLE
  5
7A
330
1F
100
AcDbEntity
  8
0
  6
Continuous
 62
     7
100
AcDbCircle
 10
-1.7395835252
 20
-0.9210739843
 30
0.0
 40
0.01585
  0
CIRCLE
  5
7B
330
1F
100
AcDbEntity
  8
0
  6
Continuous
 62
     7
100
AcDbCircle
 10
-1.7395835252
 20
-0.9210739843
 30
0.0
 40
0.01685
  0
CIRCLE
  5
7C
330
1F
100
AcDbEntity
  8
0
  6
Continuous
 62
     7
100
AcDbCircle
 10
-1.2912835252
 20
-0.9210739843
 30
0.0
 40
0.01585
  0
CIRCLE
  5
7D
330
1F
100
AcDbEntity
  8
0
  6
Continuous
 62
     7
100
AcDbCircle
 10
-1.2912835252
 20
-0.9210739843
 30
0.0
 40
0.01685
  0
LINE
  5
7E
330
1F
100
AcDbEntity
  8
0
  6
Continuous
 62
     7
100
AcDbLine
 10
2.0442666223
 20
0.9789770911
 30
0.0
 11
2.1845664748
 21
0.9789770911
 31
0.0
  0
CIRCLE
  5
7F
330
1F
100
AcDbEntity
  8
0
  6
Continuous
 62
     7
100
AcDbCircle
 10
2.1845664748
 20
0.9789770911
 30
0.0
 40
0.0158499999999998
  0
CIRCLE
  5
80
330
1F
100
AcDbEntity
  8
0
  6
Continuous
 62
     7
100
AcDbCircle
 10
2.1845664748
 20
0.9789770911
 30
0.0
 40
0.0168499999999998
  0
CIRCLE
  5
81
330
1F
100
AcDbEntity
  8
0
  6
Continuous
 62
     7
100
AcDbCircle
 10
2.1845664748
 20
0.9789770911
 30
0.0
 40
0.0158499999999998
  0
CIRCLE
  5
82
330
1F
100
AcDbEntity
  8
0
  6
Continuous
 62
     7
100
AcDbCircle
 10
2.1845664748
 20
0.9789770911
 30
0.0
 40
0.0168499999999998
  0
CIRCLE
  5
83
330
1F
100
AcDbEntity
  8
0
  6
Continuous
 62
     7
100
AcDbCircle
 10
-1.1154335252
 20
1.3789770911
 30
0.0
 40
0.0424500000000001
  0
CIRCLE
  5
84
330
1F
100
AcDbEntity
  8
0
  6
Continuous
 62
     7
100
AcDbCircle
 10
-1.1154335252
 20
1.3789770911
 30
0.0
 40
0.04445
  0
CIRCLE
  5
85
330
1F
100
AcDbEntity
  8
0
  6
Continuous
 62
     7
100
AcDbCircle
 10
-1.1154335252
 20
1.3789770911
 30
0.0
 40
0.0424500000000001
  0
CIRCLE
  5
86
330
1F
100
AcDbEntity
  8
0
  6
Continuous
 62
     7
100
AcDbCircle
 10
-1.1154335252
 20
1.3789770911
 30
0.0
 40
0.04445
  0
CIRCLE
  5
87
330
1F
100
AcDbEntity
  8
0
  6
Continuous
 62
     7
100
AcDbCircle
 10
-1.1154335252
 20
1.3789770911
 30
0.0
 40
0.0424500000000001
  0
CIRCLE
  5
88
330
1F
100
AcDbEntity
  8
0
  6
Continuous
 62
     7
100
AcDbCircle
 10
-1.1154335252
 20
1.3789770911
 30
0.0
 40
0.04445
  0
CIRCLE
  5
89
330
1F
100
AcDbEntity
  8
0
  6
Continuous
 62
     7
100
AcDbCircle
 10
-1.1154335252
 20
1.3789770911
 30
0.0
 40
0.0424500000000001
  0
CIRCLE
  5
8A
330
1F
100
AcDbEntity
  8
0
  6
Continuous
 62
     7
100
AcDbCircle
 10
-1.1154335252
 20
1.3789770911
 30
0.0
 40
0.04445
  0
LINE
  5
8B
330
1F
100
AcDbEntity
  8
0
  6
Continuous
 62
     7
100
AcDbLine
 10
-1.9154335252
 20
2.8789770911
 30
0.0
 11
1.6845664748
 21
2.8789770911
 31
0.0
  0
LINE
  5
8C
330
1F
100
AcDbEntity
  8
0
  6
Continuous
 62
     7
100
AcDbLine
 10
-0.2554335252
 20
-1.7173694101
 30
0.0
 11
1.9145664748
 21
-1.7173694101
 31
0.0
  0
LINE
  5
8D
330
1F
100
AcDbEntity
  8
0
  6
Continuous
 62
     7
100
AcDbLine
 10
-1.7754335252
 20
-3.0786596836
 30
0.0
 11
-1.2554335252
 21
-3.0786596836
 31
0.0
  0
LINE
  5
8E
330
1F
100
AcDbEntity
  8
0
  6
Continuous
 62
     7
100
AcDbLine
 10
-2.7754335252
 20
-0.6500062286
 30
0.0
 11
-2.7754335252
 21
-2.0786596836
 31
0.0
  0
LINE
  5
8F
330
1F
100
AcDbEntity
  8
0
  6
Continuous
 62
     7
100
AcDbLine
 10
-3.4154335252
 20
1.3789770911
 30
0.0
 11
-3.4154335252
 21
0.5789770911
 31
0.0
  0
LINE
  5
90
330
1F
100
AcDbEntity
  8
0
  6
Continuous
 62
     7
100
AcDbLine
 10
-0.2554335252
 20
-2.0786596836
 30
0.0
 11
-0.2554335252
 21
-1.7173694101
 31
0.0
  0
LINE
  5
91
330
1F
100
AcDbEntity
  8
0
  6
Continuous
 62
     7
100
AcDbLine
 10
-1.9154335252
 20
1.3789770911
 30
0.0
 11
-1.1154335252
 21
1.3789770911
 31
0.0
  0
LINE
  5
92
330
1F
100
AcDbEntity
  8
0
  6
Continuous
 62
     7
100
AcDbLine
 10
-1.9154335252
 20
0.5789770911
 30
0.0
 11
-1.1154335252
 21
0.5789770911
 31
0.0
  0
LINE
  5
93
330
1F
100
AcDbEntity
  8
0
  6
Continuous
 62
     7
100
AcDbLine
 10
-1.9154335252
 20
1.3789770911
 30
0.0
 11
-1.1154335252
 21
1.3789770911
 31
0.0
  0
LINE
  5
94
330
1F
100
AcDbEntity
  8
0
  6
Continuous
 62
     7
100
AcDbLine
 10
-1.9154335252
 20
0.5789770911
 30
0.0
 11
-1.9154335252
 21
1.3789770911
 31
0.0
  0
LINE
  5
95
330
1F
100
AcDbEntity
  8
0
  6
Continuous
 62
     7
100
AcDbLine
 10
-1.1154335252
 20
0.5789770911
 30
0.0
 11
-1.1154335252
 21
1.3789770911
 31
0.0
  0
LINE
  5
96
330
1F
100
AcDbEntity
  8
0
  6
Continuous
 62
     7
100
AcDbLine
 10
-1.9154335252
 20
0.5789770911
 30
0.0
 11
-1.1154335252
 21
0.5789770911
 31
0.0
  0
LINE
  5
97
330
1F
100
AcDbEntity
  8
0
  6
Continuous
 62
     7
100
AcDbLine
 10
-1.9154335252
 20
1.3789770911
 30
0.0
 11
-1.9154335252
 21
0.5789770911
 31
0.0
  0
LINE
  5
98
330
1F
100
AcDbEntity
  8
0
  6
Continuous
 62
     7
100
AcDbLine
 10
-1.1154335252
 20
1.3789770911
 30
0.0
 11
-1.1154335252
 21
0.5789770911
 31
0.0
  0
LINE
  5
99
330
1F
100
AcDbEntity
  8
0
  6
Continuous
 62
     7
100
AcDbLine
 10
1.0784930085
 20
0.2604384906
 30
0.0
 11
0.9925664748
 21
-0.0581001099
 31
0.0
  0
LINE
  5
9A
330
1F
100
AcDbEntity
  8
0
  6
Continuous
 62
     7
100
AcDbLine
 10
1.2845664748
 20
0.5789770911
 30
0.0
 11
1.2845664748
 21
0.2604384906
 31
0.0
  0
LINE
  5
9B
330
1F
100
AcDbEntity
  8
0
  6
Continuous
 62
     7
100
AcDbLine
 10
1.2845664748
 20
0.5789770911
 30
0.0
 11
1.4345664748
 21
0.5789770911
 31
0.0
  0
LINE
  5
9C
330
1F
100
AcDbEntity
  8
0
  6
Continuous
 62
     7
100
AcDbLine
 10
0.7205664748
 20
-0.0581001099
 30
0.0
 11
1.8485664748
 21
-0.0581001099
 31
0.0
  0
LINE
  5
9D
330
1F
100
AcDbEntity
  8
0
  6
Continuous
 62
     7
100
AcDbLine
 10
0.7865664748
 20
0.1011691903
 30
0.0
 11
1.7825664748
 21
0.1011691903
 31
0.0
  0
LINE
  5
9E
330
1F
100
AcDbEntity
  8
0
  6
Continuous
 62
     7
100
AcDbLine
 10
0.8525664748
 20
0.2604384906
 30
0.0
 11
1.7165664748
 21
0.2604384906
 31
0.0
  0
LINE
  5
9F
330
1F
100
AcDbEntity
  8
0
  6
Continuous
 62
     7
100
AcDbLine
 10
0.9185664748
 20
0.4197077908
 30
0.0
 11
1.6505664748
 21
0.4197077908
 31
0.0
  0
LINE
  5
A0
330
1F
100
AcDbEntity
  8
0
  6
Continuous
 62
     7
100
AcDbLine
 10
0.9845664748
 20
0.5789770911
 30
0.0
 11
0.6545664748
 21
-0.2173694101
 31
0.0
  0
LINE
  5
A1
330
1F
100
AcDbEntity
  8
0
  6
Continuous
 62
     7
100
AcDbLine
 10
1.5845664748
 20
0.5789770911
 30
0.0
 11
1.9145664748
 21
-0.2173694101
 31
0.0
  0
LINE
  5
A2
330
1F
100
AcDbEntity
  8
0
  6
Continuous
 62
     7
100
AcDbLine
 10
0.9845664748
 20
0.5789770911
 30
0.0
 11
1.2845664748
 21
0.5789770911
 31
0.0
  0
LINE
  5
A3
330
1F
100
AcDbEntity
  8
0
  6
Continuous
 62
     7
100
AcDbLine
 10
1.2845664748
 20
0.5789770911
 30
0.0
 11
1.5845664748
 21
0.5789770911
 31
0.0
  0
LINE
  5
A4
330
1F
100
AcDbEntity
  8
0
  6
Continuous
 62
     7
100
AcDbLine
 10
1.2845664748
 20
0.2604384906
 30
0.0
 11
1.2845664748
 21
-0.2173694101
 31
0.0
  0
LINE
  5
A5
330
1F
100
AcDbEntity
  8
0
  6
Continuous
 62
     7
100
AcDbLine
 10
1.5055664748
 20
0.2604384906
 30
0.0
 11
1.5765664748
 21
-0.0581001099
 31
0.0
  0
LINE
  5
A6
330
1F
100
AcDbEntity
  8
0
  6
Continuous
 62
     7
100
AcDbLine
 10
1.551184486
 20
-0.0581001099
 30
0.0
 11
1.6019484636
 21
-0.0581001099
 31
0.0
  0
LINE
  5
A7
330
1F
100
AcDbEntity
  8
0
  6
Continuous
 62
     7
100
AcDbLine
 10
1.5765664748
 20
-0.0480858085
 30
0.0
 11
1.5765664748
 21
-0.0681144113
 31
0.0
  0
LINE
  5
A8
330
1F
100
AcDbEntity
  8
0
  6
Continuous
 62
     7
100
AcDbLine
 10
1.0071013825
 20
-0.040808664
 30
0.0
 11
0.978031567
 21
-0.0753915558
 31
0.0
  0
LINE
  5
A9
330
1F
100
AcDbEntity
  8
0
  6
Continuous
 62
     7
100
AcDbLine
 10
0.9807359165
 20
-0.0437243078
 30
0.0
 11
1.0043970331
 21
-0.072475912
 31
0.0
  0
LINE
  5
AA
330
1F
100
AcDbEntity
  8
0
  6
Continuous
 62
     7
100
AcDbLine
 10
1.259184486
 20
-0.0581001099
 30
0.0
 11
1.3099484636
 21
-0.0581001099
 31
0.0
  0
LINE
  5
AB
330
1F
100
AcDbEntity
  8
0
  6
Continuous
 62
     7
100
AcDbLine
 10
1.2845664748
 20
-0.045511698
 30
0.0
 11
1.2845664748
 21
-0.0706885218
 31
0.0
  0
LINE
  5
AC
330
1F
100
AcDbEntity
  8
0
  6
Continuous
 62
     7
100
AcDbLine
 10
0.761184486
 20
0.1011691903
 30
0.0
 11
0.8119484636
 21
0.1011691903
 31
0.0
  0
LINE
  5
AD
330
1F
100
AcDbEntity
  8
0
  6
Continuous
 62
     7
100
AcDbLine
 10
0.7865664748
 20
0.1110107725
 30
0.0
 11
0.7865664748
 21
0.0913276081
 31
0.0
  0
LINE
  5
AE
330
1F
100
AcDbEntity
  8
0
  6
Continuous
 62
     7
100
AcDbLine
 10
0.827184486
 20
0.2604384906
 30
0.0
 11
0.8779484636
 21
0.2604384906
 31
0.0
  0
LINE
  5
AF
330
1F
100
AcDbEntity
  8
0
  6
Continuous
 62
     7
100
AcDbLine
 10
0.8525664748
 20
0.2754136316
 30
0.0
 11
0.8525664748
 21
0.2454633496
 31
0.0
  0
LINE
  5
B0
330
1F
100
AcDbEntity
  8
0
  6
Continuous
 62
     7
100
AcDbLine
 10
0.695184486
 20
-0.0581001099
 30
0.0
 11
0.7459484636
 21
-0.0581001099
 31
0.0
  0
LINE
  5
B1
330
1F
100
AcDbEntity
  8
0
  6
Continuous
 62
     7
100
AcDbLine
 10
0.7205664748
 20
-0.052063811
 30
0.0
 11
0.7205664748
 21
-0.0641364088
 31
0.0
  0
LINE
  5
B2
330
1F
100
AcDbEntity
  8
0
  6
Continuous
 62
     7
100
AcDbLine
 10
1.8420876029
 20
-0.0424654829
 30
0.0
 11
1.8550453466
 21
-0.0737347369
 31
0.0
  0
LINE
  5
B3
330
1F
100
AcDbEntity
  8
0
  6
Continuous
 62
     7
100
AcDbLine
 10
1.8676614476
 20
-0.054393377
 30
0.0
 11
1.829471502
 21
-0.0618068428
 31
0.0
  0
LINE
  5
B4
330
1F
100
AcDbEntity
  8
0
  6
Continuous
 62
     7
100
AcDbLine
 10
1.7760876029
 20
0.1168038174
 30
0.0
 11
1.7890453466
 21
0.0855345633
 31
0.0
  0
LINE
  5
B5
330
1F
100
AcDbEntity
  8
0
  6
Continuous
 62
     7
100
AcDbLine
 10
1.7915967766
 20
0.1161099389
 30
0.0
 11
1.773536173
 21
0.0862284418
 31
0.0
  0
LINE
  5
B6
330
1F
100
AcDbEntity
  8
0
  6
Continuous
 62
     7
100
AcDbLine
 10
1.259184486
 20
0.4197077908
 30
0.0
 11
1.3099484636
 21
0.4197077908
 31
0.0
  0
LINE
  5
B7
330
1F
100
AcDbEntity
  8
0
  6
Continuous
 62
     7
100
AcDbLine
 10
1.2845664748
 20
0.436091694
 30
0.0
 11
1.2845664748
 21
0.4033238876
 31
0.0
  0
LINE
  5
B8
330
1F
100
AcDbEntity
  8
0
  6
Continuous
 62
     7
100
AcDbLine
 10
1.2845664748
 20
0.1173394767
 30
0.0
 11
1.2845664748
 21
0.084998904
 31
0.0
  0
LINE
  5
B9
330
1F
100
AcDbEntity
  8
0
  6
Continuous
 62
     7
100
AcDbLine
 10
1.2961660165
 20
0.1134994305
 30
0.0
 11
1.272966933
 21
0.0888389501
 31
0.0
  0
LINE
  5
BA
330
1F
100
AcDbEntity
  8
0
  6
Continuous
 62
     7
100
AcDbLine
 10
1.515684486
 20
0.1011691903
 30
0.0
 11
1.5664484636
 21
0.1011691903
 31
0.0
  0
LINE
  5
BB
330
1F
100
AcDbEntity
  8
0
  6
Continuous
 62
     7
100
AcDbLine
 10
1.5410664748
 20
0.1067627473
 30
0.0
 11
1.5410664748
 21
0.0955756333
 31
0.0
  0
LINE
  5
BC
330
1F
100
AcDbEntity
  8
0
  6
Continuous
 62
     7
100
AcDbLine
 10
1.0531110197
 20
0.2604384906
 30
0.0
 11
1.1038749973
 21
0.2604384906
 31
0.0
  0
LINE
  5
BD
330
1F
100
AcDbEntity
  8
0
  6
Continuous
 62
     7
100
AcDbLine
 10
1.0784930085
 20
0.2730269025
 30
0.0
 11
1.0784930085
 21
0.2478500787
 31
0.0
  0
LINE
  5
BE
330
1F
100
AcDbEntity
  8
0
  6
Continuous
 62
     7
100
AcDbLine
 10
1.480184486
 20
0.2604384906
 30
0.0
 11
1.5309484636
 21
0.2604384906
 31
0.0
  0
LINE
  5
BF
330
1F
100
AcDbEntity
  8
0
  6
Continuous
 62
     7
100
AcDbLine
 10
1.5055664748
 20
0.2779979245
 30
0.0
 11
1.5055664748
 21
0.2428790567
 31
0.0
  0
LINE
  5
C0
330
1F
100
AcDbEntity
  8
0
  6
Continuous
 62
     7
100
AcDbLine
 10
1.7100876029
 20
0.2760731176
 30
0.0
 11
1.7230453466
 21
0.2448038636
 31
0.0
  0
LINE
  5
C1
330
1F
100
AcDbEntity
  8
0
  6
Continuous
 62
     7
100
AcDbLine
 10
1.7255632411
 20
0.2753879041
 30
0.0
 11
1.7075697084
 21
0.2454890771
 31
0.0
  0
LINE
  5
C2
330
1F
100
AcDbEntity
  8
0
  6
Continuous
 62
     7
100
AcDbLine
 10
1.444684486
 20
0.4197077908
 30
0.0
 11
1.4954484636
 21
0.4197077908
 31
0.0
  0
LINE
  5
C3
330
1F
100
AcDbEntity
  8
0
  6
Continuous
 62
     7
100
AcDbLine
 10
1.4700664748
 20
0.4375398207
 30
0.0
 11
1.4700664748
 21
0.4018757609
 31
0.0
  0
LINE
  5
C4
330
1F
100
AcDbEntity
  8
0
  6
Continuous
 62
     7
100
AcDbLine
 10
1.625184486
 20
0.4197077908
 30
0.0
 11
1.6759484636
 21
0.4197077908
 31
0.0
  0
LINE
  5
C5
330
1F
100
AcDbEntity
  8
0
  6
Continuous
 62
     7
100
AcDbLine
 10
1.6505664748
 20
0.4370499712
 30
0.0
 11
1.6505664748
 21
0.4023656104
 31
0.0
  0
LINE
  5
C6
330
1F
100
AcDbEntity
  8
0
  6
Continuous
 62
     7
100
AcDbLine
 10
1.1257552283
 20
0.435644457
 30
0.0
 11
1.1171573223
 21
0.4037711247
 31
0.0
  0
LINE
  5
C7
330
1F
100
AcDbEntity
  8
0
  6
Continuous
 62
     7
100
AcDbLine
 10
1.1397937901
 20
0.422827407
 30
0.0
 11
1.1031187605
 21
0.4165881747
 31
0.0
  0
LINE
  5
C8
330
1F
100
AcDbEntity
  8
0
  6
Continuous
 62
     7
100
AcDbLine
 10
0.893184486
 20
0.4197077908
 30
0.0
 11
0.9439484636
 21
0.4197077908
 31
0.0
  0
LINE
  5
C9
330
1F
100
AcDbEntity
  8
0
  6
Continuous
 62
     7
100
AcDbLine
 10
0.9185664748
 20
0.4322962027
 30
0.0
 11
0.9185664748
 21
0.4071193789
 31
0.0
  0
LINE
  5
CA
330
1F
100
AcDbEntity
  8
0
  6
Continuous
 62
     7
100
AcDbLine
 10
1.2845664748
 20
0.276608777
 30
0.0
 11
1.2845664748
 21
0.2442682042
 31
0.0
  0
LINE
  5
CB
330
1F
100
AcDbEntity
  8
0
  6
Continuous
 62
     7
100
AcDbLine
 10
1.2866055546
 20
0.2755879026
 30
0.0
 11
1.2825273949
 21
0.2452890786
 31
0.0
  0
LINE
  5
CC
330
1F
100
AcDbEntity
  8
0
  6
Continuous
 62
     7
100
AcDbLine
 10
1.0398286947
 20
0.1171058565
 30
0.0
 11
1.0312307886
 21
0.0852325242
 31
0.0
  0
LINE
  5
CD
330
1F
100
AcDbEntity
  8
0
  6
Continuous
 62
     7
100
AcDbLine
 10
1.0487924797
 20
0.1108697353
 30
0.0
 11
1.0222670036
 21
0.0914686454
 31
0.0
  0
LINE
  5
CE
330
1F
100
AcDbEntity
  8
0
  6
CENTERX2
 62
     7
100
AcDbLine
 10
2.1845664748
 20
0.9789770911
 30
0.0
 11
1.6845664748
 21
0.9789770911
 31
0.0
  0
LINE
  5
CF
330
1F
100
AcDbEntity
  8
0
  6
Continuous
 62
     7
100
AcDbLine
 10
1.6845664748
 20
0.5789770911
 30
0.0
 11
1.6845664748
 21
1.3789770911
 31
0.0
  0
LINE
  5
D0
330
1F
100
AcDbEntity
  8
0
  6
Continuous
 62
     7
100
AcDbLine
 10
1.6845664748
 20
0.9789770911
 30
0.0
 11
2.0442666223
 21
0.9789770911
 31
0.0
  0
LINE
  5
D1
330
1F
100
AcDbEntity
  8
0
  6
Continuous
 62
     7
100
AcDbLine
 10
0.8401164748
 20
1.3789770911
 30
0.0
 11
0.8845664748
 21
1.3789770911
 31
0.0
  0
LINE
  5
D2
330
1F
100
AcDbEntity
  8
0
  6
Continuous
 62
     7
100
AcDbLine
 10
-1.0709835252
 20
1.3789770911
 30
0.0
 11
-1.1154335252
 21
1.3789770911
 31
0.0
  0
LINE
  5
D3
330
1F
100
AcDbEntity
  8
0
  6
Continuous
 62
     7
100
AcDbLine
 10
0.8845664748
 20
1.3789770911
 30
0.0
 11
1.6845664748
 21
1.3789770911
 31
0.0
  0
LINE
  5
D4
330
1F
100
AcDbEntity
  8
0
  6
Continuous
 62
     7
100
AcDbLine
 10
0.8845664748
 20
0.5789770911
 30
0.0
 11
1.6845664748
 21
0.5789770911
 31
0.0
  0
LINE
  5
D5
330
1F
100
AcDbEntity
  8
0
  6
Continuous
 62
     7
100
AcDbLine
 10
0.8845664748
 20
1.3789770911
 30
0.0
 11
1.6845664748
 21
1.3789770911
 31
0.0
  0
LINE
  5
D6
330
1F
100
AcDbEntity
  8
0
  6
Continuous
 62
     7
100
AcDbLine
 10
0.8845664748
 20
0.5789770911
 30
0.0
 11
0.8845664748
 21
1.3789770911
 31
0.0
  0
LINE
  5
D7
330
1F
100
AcDbEntity
  8
0
  6
Continuous
 62
     7
100
AcDbLine
 10
1.6845664748
 20
0.5789770911
 30
0.0
 11
1.6845664748
 21
1.3789770911
 31
0.0
  0
LINE
  5
D8
330
1F
100
AcDbEntity
  8
0
  6
Continuous
 62
     7
100
AcDbLine
 10
0.8845664748
 20
0.5789770911
 30
0.0
 11
1.6845664748
 21
0.5789770911
 31
0.0
  0
LINE
  5
D9
330
1F
100
AcDbEntity
  8
0
  6
Continuous
 62
     7
100
AcDbLine
 10
0.8845664748
 20
1.3789770911
 30
0.0
 11
0.8845664748
 21
0.5789770911
 31
0.0
  0
LINE
  5
DA
330
1F
100
AcDbEntity
  8
0
  6
Continuous
 62
     7
100
AcDbLine
 10
1.6845664748
 20
1.3789770911
 30
0.0
 11
1.6845664748
 21
0.5789770911
 31
0.0
  0
POINT
  5
DB
330
1F
100
AcDbEntity
  8
0
  6
Continuous
 62
     7
100
AcDbPoint
 10
-1.7395835252
 20
-0.9210739843
 30
0.0
  0
POINT
  5
DC
330
1F
100
AcDbEntity
  8
0
  6
Continuous
 62
     7
100
AcDbPoint
 10
-1.2912835252
 20
-0.9210739843
 30
0.0
  0
POINT
  5
DD
330
1F
100
AcDbEntity
  8
0
  6
Continuous
 62
     7
100
AcDbPoint
 10
1.2845664748
 20
-0.2173694101
 30
0.0
  0
POINT
  5
DE
330
1F
100
AcDbEntity
  8
0
  6
Continuous
 62
     7
100
AcDbPoint
 10
1.5765664748
 20
-0.0581001099
 30
0.0
  0
POINT
  5
DF
330
1F
100
AcDbEntity
  8
0
  6
Continuous
 62
     7
100
AcDbPoint
 10
1.5765664748
 20
-0.0581001099
 30
0.0
  0
POINT
  5
E0
330
1F
100
AcDbEntity
  8
0
  6
Continuous
 62
     7
100
AcDbPoint
 10
0.9925664748
 20
-0.0581001099
 30
0.0
  0
POINT
  5
E1
330
1F
100
AcDbEntity
  8
0
  6
Continuous
 62
     7
100
AcDbPoint
 10
0.9925664748
 20
-0.0581001099
 30
0.0
  0
POINT
  5
E2
330
1F
100
AcDbEntity
  8
0
  6
Continuous
 62
     7
100
AcDbPoint
 10
1.2845664748
 20
-0.0581001099
 30
0.0
  0
POINT
  5
E3
330
1F
100
AcDbEntity
  8
0
  6
Continuous
 62
     7
100
AcDbPoint
 10
1.2845664748
 20
-0.0581001099
 30
0.0
  0
POINT
  5
E4
330
1F
100
AcDbEntity
  8
0
  6
Continuous
 62
     7
100
AcDbPoint
 10
0.7865664748
 20
0.1011691903
 30
0.0
  0
POINT
  5
E5
330
1F
100
AcDbEntity
  8
0
  6
Continuous
 62
     7
100
AcDbPoint
 10
0.7865664748
 20
0.1011691903
 30
0.0
  0
POINT
  5
E6
330
1F
100
AcDbEntity
  8
0
  6
Continuous
 62
     7
100
AcDbPoint
 10
0.8525664748
 20
0.2604384906
 30
0.0
  0
POINT
  5
E7
330
1F
100
AcDbEntity
  8
0
  6
Continuous
 62
     7
100
AcDbPoint
 10
0.8525664748
 20
0.2604384906
 30
0.0
  0
POINT
  5
E8
330
1F
100
AcDbEntity
  8
0
  6
Continuous
 62
     7
100
AcDbPoint
 10
0.7205664748
 20
-0.0581001099
 30
0.0
  0
POINT
  5
E9
330
1F
100
AcDbEntity
  8
0
  6
Continuous
 62
     7
100
AcDbPoint
 10
0.7205664748
 20
-0.0581001099
 30
0.0
  0
POINT
  5
EA
330
1F
100
AcDbEntity
  8
0
  6
Continuous
 62
     7
100
AcDbPoint
 10
1.8485664748
 20
-0.0581001099
 30
0.0
  0
POINT
  5
EB
330
1F
100
AcDbEntity
  8
0
  6
Continuous
 62
     7
100
AcDbPoint
 10
1.8485664748
 20
-0.0581001099
 30
0.0
  0
POINT
  5
EC
330
1F
100
AcDbEntity
  8
0
  6
Continuous
 62
     7
100
AcDbPoint
 10
1.7825664748
 20
0.1011691903
 30
0.0
  0
POINT
  5
ED
330
1F
100
AcDbEntity
  8
0
  6
Continuous
 62
     7
100
AcDbPoint
 10
1.7825664748
 20
0.1011691903
 30
0.0
  0
POINT
  5
EE
330
1F
100
AcDbEntity
  8
0
  6
Continuous
 62
     7
100
AcDbPoint
 10
1.2845664748
 20
0.4197077908
 30
0.0
  0
POINT
  5
EF
330
1F
100
AcDbEntity
  8
0
  6
Continuous
 62
     7
100
AcDbPoint
 10
1.2845664748
 20
0.4197077908
 30
0.0
  0
POINT
  5
F0
330
1F
100
AcDbEntity
  8
0
  6
Continuous
 62
     7
100
AcDbPoint
 10
1.2845664748
 20
0.1011691903
 30
0.0
  0
POINT
  5
F1
330
1F
100
AcDbEntity
  8
0
  6
Continuous
 62
     7
100
AcDbPoint
 10
1.2845664748
 20
0.1011691903
 30
0.0
  0
POINT
  5
F2
330
1F
100
AcDbEntity
  8
0
  6
Continuous
 62
     7
100
AcDbPoint
 10
1.5410664748
 20
0.1011691903
 30
0.0
  0
POINT
  5
F3
330
1F
100
AcDbEntity
  8
0
  6
Continuous
 62
     7
100
AcDbPoint
 10
1.5410664748
 20
0.1011691903
 30
0.0
  0
POINT
  5
F4
330
1F
100
AcDbEntity
  8
0
  6
Continuous
 62
     7
100
AcDbPoint
 10
1.0784930085
 20
0.2604384906
 30
0.0
  0
POINT
  5
F5
330
1F
100
AcDbEntity
  8
0
  6
Continuous
 62
     7
100
AcDbPoint
 10
1.0784930085
 20
0.2604384906
 30
0.0
  0
POINT
  5
F6
330
1F
100
AcDbEntity
  8
0
  6
Continuous
 62
     7
100
AcDbPoint
 10
1.5055664748
 20
0.2604384906
 30
0.0
  0
POINT
  5
F7
330
1F
100
AcDbEntity
  8
0
  6
Continuous
 62
     7
100
AcDbPoint
 10
1.5055664748
 20
0.2604384906
 30
0.0
  0
POINT
  5
F8
330
1F
100
AcDbEntity
  8
0
  6
Continuous
 62
     7
100
AcDbPoint
 10
1.7165664748
 20
0.2604384906
 30
0.0
  0
POINT
  5
F9
330
1F
100
AcDbEntity
  8
0
  6
Continuous
 62
     7
100
AcDbPoint
 10
1.7165664748
 20
0.2604384906
 30
0.0
  0
POINT
  5
FA
330
1F
100
AcDbEntity
  8
0
  6
Continuous
 62
     7
100
AcDbPoint
 10
1.4700664748
 20
0.4197077908
 30
0.0
  0
POINT
  5
FB
330
1F
100
AcDbEntity
  8
0
  6
Continuous
 62
     7
100
AcDbPoint
 10
1.4700664748
 20
0.4197077908
 30
0.0
  0
POINT
  5
FC
330
1F
100
AcDbEntity
  8
0
  6
Continuous
 62
     7
100
AcDbPoint
 10
1.6505664748
 20
0.4197077908
 30
0.0
  0
POINT
  5
FD
330
1F
100
AcDbEntity
  8
0
  6
Continuous
 62
     7
100
AcDbPoint
 10
1.6505664748
 20
0.4197077908
 30
0.0
  0
POINT
  5
FE
330
1F
100
AcDbEntity
  8
0
  6
Continuous
 62
     7
100
AcDbPoint
 10
1.1214562753
 20
0.4197077908
 30
0.0
  0
POINT
  5
FF
330
1F
100
AcDbEntity
  8
0
  6
Continuous
 62
     7
100
AcDbPoint
 10
1.1214562753
 20
0.4197077908
 30
0.0
  0
POINT
  5
100
330
1F
100
AcDbEntity
  8
0
  6
Continuous
 62
     7
100
AcDbPoint
 10
0.9185664748
 20
0.4197077908
 30
0.0
  0
POINT
  5
101
330
1F
100
AcDbEntity
  8
0
  6
Continuous
 62
     7
100
AcDbPoint
 10
0.9185664748
 20
0.4197077908
 30
0.0
  0
POINT
  5
102
330
1F
100
AcDbEntity
  8
0
  6
Continuous
 62
     7
100
AcDbPoint
 10
1.2845664748
 20
0.2604384906
 30
0.0
  0
POINT
  5
103
330
1F
100
AcDbEntity
  8
0
  6
Continuous
 62
     7
100
AcDbPoint
 10
1.2845664748
 20
0.2604384906
 30
0.0
  0
POINT
  5
104
330
1F
100
AcDbEntity
  8
0
  6
Continuous
 62
     7
100
AcDbPoint
 10
1.0355297416
 20
0.1011691903
 30
0.0
  0
POINT
  5
105
330
1F
100
AcDbEntity
  8
0
  6
Continuous
 62
     7
100
AcDbPoint
 10
1.0355297416
 20
0.1011691903
 30
0.0
  0
POINT
  5
106
330
1F
100
AcDbEntity
  8
0
  6
Continuous
 62
     7
100
AcDbPoint
 10
1.6845664748
 20
0.9789770911
 30
0.0
  0
POINT
  5
107
330
1F
100
AcDbEntity
  8
0
  6
Continuous
 62
     7
100
AcDbPoint
 10
2.1845664748
 20
0.9789770911
 30
0.0
  0
POINT
  5
108
330
1F
100
AcDbEntity
  8
0
  6
Continuous
 62
     7
100
AcDbPoint
 10
1.6845664748
 20
0.5789770911
 30
0.0
  0
POINT
  5
109
330
1F
100
AcDbEntity
  8
0
  6
Continuous
 62
     7
100
AcDbPoint
 10
1.6845664748
 20
1.3789770911
 30
0.0
  0
POINT
  5
10A
330
1F
100
AcDbEntity
  8
0
  6
Continuous
 62
     7
100
AcDbPoint
 10
2.1845664748
 20
0.9789770911
 30
0.0
  0
POINT
  5
10B
330
1F
100
AcDbEntity
  8
0
  6
Continuous
 62
     7
100
AcDbPoint
 10
2.1845664748
 20
0.9789770911
 30
0.0
  0
POINT
  5
10C
330
1F
100
AcDbEntity
  8
0
  6
Continuous
 62
     7
100
AcDbPoint
 10
2.1845664748
 20
0.9789770911
 30
0.0
  0
POINT
  5
10D
330
1F
100
AcDbEntity
  8
0
  6
Continuous
 62
     7
100
AcDbPoint
 10
-1.1154335252
 20
1.3789770911
 30
0.0
  0
POINT
  5
10E
330
1F
100
AcDbEntity
  8
0
  6
Continuous
 62
     7
100
AcDbPoint
 10
-1.1154335252
 20
1.3789770911
 30
0.0
  0
POINT
  5
10F
330
1F
100
AcDbEntity
  8
0
  6
Continuous
 62
     7
100
AcDbPoint
 10
-1.1154335252
 20
1.3789770911
 30
0.0
  0
POINT
  5
110
330
1F
100
AcDbEntity
  8
0
  6
Continuous
 62
     7
100
AcDbPoint
 10
-1.1154335252
 20
1.3789770911
 30
0.0
  0
LINE
  5
111
330
1F
100
AcDbEntity
  8
0
  6
Continuous
 62
     7
370
    25
100
AcDbLine
 10
0.9014164218
 20
0.6201095889
 30
0.0
 11
0.9014164218
 21
1.3378446223
 31
0.0
  0
LINE
  5
112
330
1F
100
AcDbEntity
  8
0
  6
Continuous
 62
     7
370
    25
100
AcDbLine
 10
0.8677164324
 20
1.3378384197
 30
0.0
 11
0.8677164324
 21
0.6201157877
 31
0.0
  0
LINE
  5
113
330
1F
100
AcDbEntity
  8
0
  6
Continuous
 62
     7
370
    25
100
AcDbLine
 10
-1.898583525
 20
0.6201095889
 30
0.0
 11
-1.898583525
 21
1.3378446223
 31
0.0
  0
LINE
  5
114
330
1F
100
AcDbEntity
  8
0
  6
Continuous
 62
     7
370
    25
100
AcDbLine
 10
-1.9322835255
 20
1.3378384197
 30
0.0
 11
-1.9322835255
 21
0.6201157877
 31
0.0
  0
LINE
  5
115
330
1F
100
AcDbEntity
  8
0
  6
Continuous
 62
     7
370
    25
100
AcDbLine
 10
0.9256988772
 20
1.3621270908
 30
0.0
 11
1.6434339293
 21
1.3621270908
 31
0.0
  0
LINE
  5
116
330
1F
100
AcDbEntity
  8
0
  6
Continuous
 62
     7
370
    25
100
AcDbLine
 10
1.6434277304
 20
1.3958270913
 30
0.0
 11
0.9257050761
 21
1.3958270913
 31
0.0
  0
LINE
  5
117
330
1F
100
AcDbEntity
  8
0
  6
Continuous
 62
     7
370
    25
100
AcDbLine
 10
-1.8743010565
 20
1.3621270908
 30
0.0
 11
-1.156566023
 21
1.3621270908
 31
0.0
  0
LINE
  5
118
330
1F
100
AcDbEntity
  8
0
  6
Continuous
 62
     7
370
    25
100
AcDbLine
 10
-1.1565722219
 20
1.3958270913
 30
0.0
 11
-1.8742948539
 21
1.3958270913
 31
0.0
  0
LINE
  5
119
330
1F
100
AcDbEntity
  8
0
  6
Continuous
 62
     7
370
    25
100
AcDbLine
 10
-1.0985835186
 20
0.6201095889
 30
0.0
 11
-1.0985835186
 21
1.3378446223
 31
0.0
  0
LINE
  5
11A
330
1F
100
AcDbEntity
  8
0
  6
Continuous
 62
     7
370
    25
100
AcDbLine
 10
-1.132283508
 20
1.3378384197
 30
0.0
 11
-1.132283508
 21
0.6201157877
 31
0.0
  0
LINE
  5
11B
330
1F
100
AcDbEntity
  8
0
  6
Continuous
 62
     7
370
    25
100
AcDbLine
 10
0.9256988772
 20
0.5621270845
 30
0.0
 11
1.6434339293
 21
0.5621270845
 31
0.0
  0
LINE
  5
11C
330
1F
100
AcDbEntity
  8
0
  6
Continuous
 62
     7
370
    25
100
AcDbLine
 10
1.6434277304
 20
0.5958270738
 30
0.0
 11
0.9257050761
 21
0.5958270738
 31
0.0
  0
LINE
  5
11D
330
1F
100
AcDbEntity
  8
0
  6
Continuous
 62
     7
370
    25
100
AcDbLine
 10
1.7147165545
 20
0.6116386959
 30
0.0
 11
1.7147165545
 21
0.9206063459
 31
0.0
  0
LINE
  5
11E
330
1F
100
AcDbEntity
  8
0
  6
Continuous
 62
     7
370
    25
100
AcDbLine
 10
1.7147165545
 20
1.0374275753
 30
0.0
 11
1.7147165545
 21
1.3463154929
 31
0.0
  0
LINE
  5
11F
330
1F
100
AcDbEntity
  8
0
  6
Continuous
 62
     7
370
    25
100
AcDbLine
 10
1.6544164427
 20
1.3463055054
 30
0.0
 11
1.6544164427
 21
0.6116486499
 31
0.0
  0
LINE
  5
120
330
1F
100
AcDbEntity
  8
0
  6
Continuous
 62
     7
370
    25
100
AcDbLine
 10
2.1845663794
 20
0.9958270798
 30
0.0
 11
2.0442665824
 21
0.9958270798
 31
0.0
  0
LINE
  5
121
330
1F
100
AcDbEntity
  8
0
  6
Continuous
 62
     7
370
    25
100
AcDbLine
 10
2.0442665824
 20
0.9621270904
 30
0.0
 11
2.1845663794
 21
0.9621270904
 31
0.0
  0
LINE
  5
122
330
1F
100
AcDbEntity
  8
0
  6
Continuous
 62
     7
370
    25
100
AcDbLine
 10
1.7097417124
 20
0.9621270904
 30
0.0
 11
2.0442665824
 21
0.9621270904
 31
0.0
  0
LINE
  5
123
330
1F
100
AcDbEntity
  8
0
  6
Continuous
 62
     7
370
    25
100
AcDbLine
 10
2.0442665824
 20
0.9958270798
 30
0.0
 11
1.7097417124
 21
0.9958270798
 31
0.0
  0
ARC
  5
124
330
1F
100
AcDbEntity
  8
0
  6
Continuous
 62
     7
370
    25
100
AcDbCircle
 10
1.7080854087
 20
1.0239770911
 30
0.0
 40
0.0074537363702098
100
AcDbArc
 50
296.8981884162
 51
3.1652796272
  0
ARC
  5
125
330
1F
100
AcDbEntity
  8
0
  6
Continuous
 62
     7
370
    25
100
AcDbCircle
 10
1.7080854087
 20
1.0239770911
 30
0.0
 40
0.0074537363702098
100
AcDbArc
 50
3.1652796272
 51
63.1018115838
  0
LINE
  5
126
330
1F
100
AcDbEntity
  8
0
  6
Continuous
 62
     7
370
    25
100
AcDbLine
 10
1.7100301989
 20
1.0309771011
 30
0.0
 11
1.7097417124
 21
1.0309771011
 31
0.0
  0
LINE
  5
127
330
1F
100
AcDbEntity
  8
0
  6
Continuous
 62
     7
370
    25
100
AcDbLine
 10
1.7097417124
 20
1.0169771025
 30
0.0
 11
1.7100301989
 21
1.0169771025
 31
0.0
  0
LINE
  5
128
330
1F
100
AcDbEntity
  8
0
  6
Continuous
 62
     7
370
    25
100
AcDbLine
 10
-1.0676035277
 20
1.3859770913
 30
0.0
 11
-1.0679835073
 21
1.3859770913
 31
0.0
  0
LINE
  5
129
330
1F
100
AcDbEntity
  8
0
  6
Continuous
 62
     7
370
    25
100
AcDbLine
 10
-1.0679835073
 20
1.3719770909
 30
0.0
 11
-1.0676035277
 21
1.3719770909
 31
0.0
  0
ARC
  5
12A
330
1F
100
AcDbEntity
  8
0
  6
Continuous
 62
     7
370
    25
100
AcDbCircle
 10
-1.0701644207
 20
1.3789770911
 30
0.0
 40
0.0074537363702099
100
AcDbArc
 50
28.00594401
 51
69.9053469508
  0
ARC
  5
12B
330
1F
100
AcDbEntity
  8
0
  6
Continuous
 62
     7
370
    25
100
AcDbCircle
 10
-1.0701644207
 20
1.3789770911
 30
0.0
 40
0.0074537363702099
100
AcDbArc
 50
290.0946530492
 51
331.99405599
  0
ARC
  5
12C
330
1F
100
AcDbEntity
  8
0
  6
Continuous
 62
     7
370
    25
100
AcDbCircle
 10
-1.0683835252
 20
1.3833770911
 30
0.0
 40
0.0004
100
AcDbArc
 50
300.7583952144
 51
0.0
  0
ARC
  5
12D
330
1F
100
AcDbEntity
  8
0
  6
Continuous
 62
     7
370
    25
100
AcDbCircle
 10
-1.0683835252
 20
1.3745770911
 30
0.0
 40
0.0004
100
AcDbArc
 50
0.0
 51
90.0
  0
LINE
  5
12E
330
1F
100
AcDbEntity
  8
0
  6
Continuous
 62
     7
370
    25
100
AcDbLine
 10
0.8367365607
 20
1.3719770909
 30
0.0
 11
0.8371163615
 21
1.3719770909
 31
0.0
  0
LINE
  5
12F
330
1F
100
AcDbEntity
  8
0
  6
Continuous
 62
     7
370
    25
100
AcDbLine
 10
0.8371163615
 20
1.3859770913
 30
0.0
 11
0.8367365607
 21
1.3859770913
 31
0.0
  0
ARC
  5
130
330
1F
100
AcDbEntity
  8
0
  6
Continuous
 62
     7
370
    25
100
AcDbCircle
 10
0.8392973703
 20
1.3789770911
 30
0.0
 40
0.0074537363702099
100
AcDbArc
 50
208.00594401
 51
249.9053469508
  0
ARC
  5
131
330
1F
100
AcDbEntity
  8
0
  6
Continuous
 62
     7
370
    25
100
AcDbCircle
 10
0.8392973703
 20
1.3789770911
 30
0.0
 40
0.0074537363702099
100
AcDbArc
 50
110.0946530492
 51
151.99405599
  0
ARC
  5
132
330
1F
100
AcDbEntity
  8
0
  6
Continuous
 62
     7
370
    25
100
AcDbCircle
 10
0.8375164748
 20
1.3745770911
 30
0.0
 40
0.0004000000000001
100
AcDbArc
 50
120.7583952144
 51
180.0
  0
ARC
  5
133
330
1F
100
AcDbEntity
  8
0
  6
Continuous
 62
     7
370
    25
100
AcDbCircle
 10
0.8375164748
 20
1.3833770911
 30
0.0
 40
0.0004
100
AcDbArc
 50
180.0
 51
270.0
  0
ARC
  5
134
330
1F
100
AcDbEntity
  8
0
  6
Continuous
 62
     7
370
    25
100
AcDbCircle
 10
1.7080854087
 20
0.9339770911
 30
0.0
 40
0.0074537363702098
100
AcDbArc
 50
296.8981884162
 51
3.2602941586
  0
ARC
  5
135
330
1F
100
AcDbEntity
  8
0
  6
Continuous
 62
     7
370
    25
100
AcDbCircle
 10
1.7080854087
 20
0.9339770911
 30
0.0
 40
0.0074537363702098
100
AcDbArc
 50
3.2602941586
 51
63.1018115838
  0
LINE
  5
136
330
1F
100
AcDbEntity
  8
0
  6
Continuous
 62
     7
370
    25
100
AcDbLine
 10
1.7100301989
 20
0.9409770975
 30
0.0
 11
1.7097417124
 21
0.9409770975
 31
0.0
  0
LINE
  5
137
330
1F
100
AcDbEntity
  8
0
  6
Continuous
 62
     7
370
    25
100
AcDbLine
 10
1.7097417124
 20
0.9269770989
 30
0.0
 11
1.7100301989
 21
0.9269770989
 31
0.0
  0
LINE
  5
138
330
1F
100
AcDbEntity
  8
0
  6
Continuous
 62
     7
370
    25
100
AcDbLine
 10
-1.0797812334
 20
1.3488270911
 30
0.0
 11
0.8489743479
 21
1.3488270911
 31
0.0
  0
LINE
  5
139
330
1F
100
AcDbEntity
  8
0
  6
Continuous
 62
     7
370
    25
100
AcDbLine
 10
0.8489142664
 20
1.4091270911
 30
0.0
 11
-1.0798413149
 21
1.4091270911
 31
0.0
  0
ARC
  5
13A
330
1F
100
AcDbEntity
  8
0
  6
Continuous
 62
     7
370
    25
100
AcDbCircle
 10
1.1214562753
 20
0.4197077908
 30
0.0
 40
0.0211922721733764
100
AcDbArc
 50
279.6548433052
 51
336.7956588034
  0
ARC
  5
13B
330
1F
100
AcDbEntity
  8
0
  6
Continuous
 62
     7
370
    25
100
AcDbCircle
 10
1.1214562753
 20
0.4197077908
 30
0.0
 40
0.0211922721733764
100
AcDbArc
 50
23.2043411966
 51
156.7956588034
  0
ARC
  5
13C
330
1F
100
AcDbEntity
  8
0
  6
Continuous
 62
     7
370
    25
100
AcDbCircle
 10
1.1214562753
 20
0.4197077908
 30
0.0
 40
0.0211922721733764
100
AcDbArc
 50
203.2043411966
 51
279.6548433052
  0
ARC
  5
13D
330
1F
100
AcDbEntity
  8
0
  6
Continuous
 62
     7
370
    25
100
AcDbCircle
 10
1.0355297416
 20
0.1011691903
 30
0.0
 40
0.0211922721733765
100
AcDbArc
 50
230.0741516343
 51
336.7956588034
  0
ARC
  5
13E
330
1F
100
AcDbEntity
  8
0
  6
Continuous
 62
     7
370
    25
100
AcDbCircle
 10
1.0355297416
 20
0.1011691903
 30
0.0
 40
0.0211922721733764
100
AcDbArc
 50
23.2043411966
 51
51.6993100834
  0
ARC
  5
13F
330
1F
100
AcDbEntity
  8
0
  6
Continuous
 62
     7
370
    25
100
AcDbCircle
 10
1.0355297416
 20
0.1011691903
 30
0.0
 40
0.0211922721733764
100
AcDbArc
 50
98.1079924767
 51
156.7956588034
  0
ARC
  5
140
330
1F
100
AcDbEntity
  8
0
  6
Continuous
 62
     7
370
    25
100
AcDbCircle
 10
1.0355297416
 20
0.1011691903
 30
0.0
 40
0.0211922721733765
100
AcDbArc
 50
203.2043411966
 51
230.0741516343
  0
ARC
  5
141
330
1F
100
AcDbEntity
  8
0
  6
Continuous
 62
     7
370
    25
100
AcDbCircle
 10
1.2845664748
 20
0.2604384906
 30
0.0
 40
0.0211922721733764
100
AcDbArc
 50
265.4278414763
 51
336.7956588034
  0
ARC
  5
142
330
1F
100
AcDbEntity
  8
0
  6
Continuous
 62
     7
370
    25
100
AcDbCircle
 10
1.2845664748
 20
0.2604384906
 30
0.0
 40
0.0211922721733765
100
AcDbArc
 50
23.2043411966
 51
66.7956588034
  0
ARC
  5
143
330
1F
100
AcDbEntity
  8
0
  6
Continuous
 62
     7
370
    25
100
AcDbCircle
 10
1.2845664748
 20
0.2604384906
 30
0.0
 40
0.0211922721733765
100
AcDbArc
 50
113.2043411966
 51
156.7956588034
  0
ARC
  5
144
330
1F
100
AcDbEntity
  8
0
  6
Continuous
 62
     7
370
    25
100
AcDbCircle
 10
1.2845664748
 20
0.2604384906
 30
0.0
 40
0.0211922721733764
100
AcDbArc
 50
203.2043411966
 51
265.4278414763
  0
ARC
  5
145
330
1F
100
AcDbEntity
  8
0
  6
Continuous
 62
     7
370
    25
100
AcDbCircle
 10
1.6505664748
 20
0.4197077908
 30
0.0
 40
0.0211922721733763
100
AcDbArc
 50
270.0
 51
89.3044081207
  0
ARC
  5
146
330
1F
100
AcDbEntity
  8
0
  6
Continuous
 62
     7
370
    25
100
AcDbCircle
 10
1.6505664748
 20
0.4197077908
 30
0.0
 40
0.0211922721733765
100
AcDbArc
 50
135.713090514
 51
156.7956588034
  0
ARC
  5
147
330
1F
100
AcDbEntity
  8
0
  6
Continuous
 62
     7
370
    25
100
AcDbCircle
 10
1.6505664748
 20
0.4197077908
 30
0.0
 40
0.0211922721733763
100
AcDbArc
 50
203.2043411966
 51
270.0
  0
ARC
  5
148
330
1F
100
AcDbEntity
  8
0
  6
Continuous
 62
     7
370
    25
100
AcDbCircle
 10
1.5765664748
 20
-0.0581001099
 30
0.0
 40
0.0211922721733764
100
AcDbArc
 50
270.0
 51
336.7956588034
  0
ARC
  5
149
330
1F
100
AcDbEntity
  8
0
  6
Continuous
 62
     7
370
    25
100
AcDbCircle
 10
1.5765664748
 20
-0.0581001099
 30
0.0
 40
0.0211922721733765
100
AcDbArc
 50
23.2043411966
 51
79.361081282
  0
ARC
  5
14A
330
1F
100
AcDbEntity
  8
0
  6
Continuous
 62
     7
370
    25
100
AcDbCircle
 10
1.5765664748
 20
-0.0581001099
 30
0.0
 40
0.0211922721733765
100
AcDbArc
 50
125.7697636753
 51
156.7956588034
  0
ARC
  5
14B
330
1F
100
AcDbEntity
  8
0
  6
Continuous
 62
     7
370
    25
100
AcDbCircle
 10
1.5765664748
 20
-0.0581001099
 30
0.0
 40
0.0211922721733764
100
AcDbArc
 50
203.2043411966
 51
270.0
  0
LWPOLYLINE
  5
14C
330
1F
100
AcDbEntity
  8
0
  6
Continuous
 62
     7
370
    25
100
AcDbPolyline
 90
        3
 70
   128
 43
0.0
 10
1.0089300879
 20
-0.0446337154
 10
1.007032276
 20
-0.0426129987
 10
1.0057011851
 20
-0.0414690664
  0
ARC
  5
14D
330
1F
100
AcDbEntity
  8
0
  6
Continuous
 62
     7
370
    25
100
AcDbCircle
 10
0.9925664748
 20
-0.0581001099
 30
0.0
 40
0.0211922721733764
100
AcDbArc
 50
98.1079924767
 51
156.7956588034
  0
ARC
  5
14E
330
1F
100
AcDbEntity
  8
0
  6
Continuous
 62
     7
370
    25
100
AcDbCircle
 10
0.9925664748
 20
-0.0581001099
 30
0.0
 40
0.0211922721733766
100
AcDbArc
 50
203.2043411966
 51
336.7956588034
  0
ARC
  5
14F
330
1F
100
AcDbEntity
  8
0
  6
Continuous
 62
     7
370
    25
100
AcDbCircle
 10
0.9925664748
 20
-0.0581001099
 30
0.0
 40
0.0211922721733766
100
AcDbArc
 50
23.2043411966
 51
39.4526532994
  0
ARC
  5
150
330
1F
100
AcDbEntity
  8
0
  6
Continuous
 62
     7
370
    25
100
AcDbCircle
 10
1.2845664748
 20
-0.0581001099
 30
0.0
 40
0.0211922721733764
100
AcDbArc
 50
270.0
 51
336.7956588034
  0
ARC
  5
151
330
1F
100
AcDbEntity
  8
0
  6
Continuous
 62
     7
370
    25
100
AcDbCircle
 10
1.2845664748
 20
-0.0581001099
 30
0.0
 40
0.0211922721733765
100
AcDbArc
 50
23.2043411966
 51
66.7956588034
  0
ARC
  5
152
330
1F
100
AcDbEntity
  8
0
  6
Continuous
 62
     7
370
    25
100
AcDbCircle
 10
1.2845664748
 20
-0.0581001099
 30
0.0
 40
0.0211922721733765
100
AcDbArc
 50
113.2043411966
 51
156.7956588034
  0
ARC
  5
153
330
1F
100
AcDbEntity
  8
0
  6
Continuous
 62
     7
370
    25
100
AcDbCircle
 10
1.2845664748
 20
-0.0581001099
 30
0.0
 40
0.0211922721733764
100
AcDbArc
 50
203.2043411966
 51
270.0
  0
ARC
  5
154
330
1F
100
AcDbEntity
  8
0
  6
Continuous
 62
     7
370
    25
100
AcDbCircle
 10
0.7865664748
 20
0.1011691903
 30
0.0
 40
0.0211922721733765
100
AcDbArc
 50
270.0
 51
336.7956588034
  0
ARC
  5
155
330
1F
100
AcDbEntity
  8
0
  6
Continuous
 62
     7
370
    25
100
AcDbCircle
 10
0.7865664748
 20
0.1011691903
 30
0.0
 40
0.0211922721733765
100
AcDbArc
 50
23.2043411966
 51
44.286909486
  0
ARC
  5
156
330
1F
100
AcDbEntity
  8
0
  6
Continuous
 62
     7
370
    25
100
AcDbCircle
 10
0.7865664748
 20
0.1011691903
 30
0.0
 40
0.0211922721733764
100
AcDbArc
 50
90.6955918793
 51
270.0
  0
ARC
  5
157
330
1F
100
AcDbEntity
  8
0
  6
Continuous
 62
     7
370
    25
100
AcDbCircle
 10
1.4700664748
 20
0.4197077908
 30
0.0
 40
0.0211922721733764
100
AcDbArc
 50
270.0
 51
336.7956588034
  0
ARC
  5
158
330
1F
100
AcDbEntity
  8
0
  6
Continuous
 62
     7
370
    25
100
AcDbCircle
 10
1.4700664748
 20
0.4197077908
 30
0.0
 40
0.0211922721733764
100
AcDbArc
 50
23.2043411966
 51
156.7956588034
  0
ARC
  5
159
330
1F
100
AcDbEntity
  8
0
  6
Continuous
 62
     7
370
    25
100
AcDbCircle
 10
1.4700664748
 20
0.4197077908
 30
0.0
 40
0.0211922721733764
100
AcDbArc
 50
203.2043411966
 51
270.0
  0
ARC
  5
15A
330
1F
100
AcDbEntity
  8
0
  6
Continuous
 62
     7
370
    25
100
AcDbCircle
 10
0.8525664748
 20
0.2604384906
 30
0.0
 40
0.0211922721733764
100
AcDbArc
 50
270.0
 51
336.7956588034
  0
ARC
  5
15B
330
1F
100
AcDbEntity
  8
0
  6
Continuous
 62
     7
370
    25
100
AcDbCircle
 10
0.8525664748
 20
0.2604384906
 30
0.0
 40
0.0211922721733765
100
AcDbArc
 50
23.2043411966
 51
44.286909486
  0
ARC
  5
15C
330
1F
100
AcDbEntity
  8
0
  6
Continuous
 62
     7
370
    25
100
AcDbCircle
 10
0.8525664748
 20
0.2604384906
 30
0.0
 40
0.0211922721733764
100
AcDbArc
 50
90.6955918793
 51
270.0
  0
ARC
  5
15D
330
1F
100
AcDbEntity
  8
0
  6
Continuous
 62
     7
370
    25
100
AcDbCircle
 10
1.7165664748
 20
0.2604384906
 30
0.0
 40
0.0211922721733765
100
AcDbArc
 50
328.9598821538
 51
89.3044081207
  0
ARC
  5
15E
330
1F
100
AcDbEntity
  8
0
  6
Continuous
 62
     7
370
    25
100
AcDbCircle
 10
1.7165664748
 20
0.2604384906
 30
0.0
 40
0.0211922721733765
100
AcDbArc
 50
135.713090514
 51
156.7956588034
  0
ARC
  5
15F
330
1F
100
AcDbEntity
  8
0
  6
Continuous
 62
     7
370
    25
100
AcDbCircle
 10
1.7165664748
 20
0.2604384906
 30
0.0
 40
0.0211922721733765
100
AcDbArc
 50
203.2043411966
 51
328.9598821538
  0
ARC
  5
160
330
1F
100
AcDbEntity
  8
0
  6
Continuous
 62
     7
370
    25
100
AcDbCircle
 10
0.9185664748
 20
0.4197077908
 30
0.0
 40
0.0211922721733764
100
AcDbArc
 50
270.0
 51
336.7956588034
  0
ARC
  5
161
330
1F
100
AcDbEntity
  8
0
  6
Continuous
 62
     7
370
    25
100
AcDbCircle
 10
0.9185664748
 20
0.4197077908
 30
0.0
 40
0.0211922721733764
100
AcDbArc
 50
23.2043411966
 51
44.286909486
  0
ARC
  5
162
330
1F
100
AcDbEntity
  8
0
  6
Continuous
 62
     7
370
    25
100
AcDbCircle
 10
0.9185664748
 20
0.4197077908
 30
0.0
 40
0.0211922721733763
100
AcDbArc
 50
90.6955918793
 51
270.0
  0
ARC
  5
163
330
1F
100
AcDbEntity
  8
0
  6
Continuous
 62
     7
370
    25
100
AcDbCircle
 10
0.7205664748
 20
-0.0581001099
 30
0.0
 40
0.0211922721733764
100
AcDbArc
 50
270.0
 51
336.7956588034
  0
ARC
  5
164
330
1F
100
AcDbEntity
  8
0
  6
Continuous
 62
     7
370
    25
100
AcDbCircle
 10
0.7205664748
 20
-0.0581001099
 30
0.0
 40
0.0211922721733765
100
AcDbArc
 50
23.2043411966
 51
44.286909486
  0
ARC
  5
165
330
1F
100
AcDbEntity
  8
0
  6
Continuous
 62
     7
370
    25
100
AcDbCircle
 10
0.7205664748
 20
-0.0581001099
 30
0.0
 40
0.0211922721733764
100
AcDbArc
 50
90.6955918793
 51
270.0
  0
ARC
  5
166
330
1F
100
AcDbEntity
  8
0
  6
Continuous
 62
     7
370
    25
100
AcDbCircle
 10
1.8485664748
 20
-0.0581001099
 30
0.0
 40
0.0211922721733763
100
AcDbArc
 50
280.9856762353
 51
89.3044081207
  0
ARC
  5
167
330
1F
100
AcDbEntity
  8
0
  6
Continuous
 62
     7
370
    25
100
AcDbCircle
 10
1.8485664748
 20
-0.0581001099
 30
0.0
 40
0.0211922721733764
100
AcDbArc
 50
135.713090514
 51
156.7956588034
  0
ARC
  5
168
330
1F
100
AcDbEntity
  8
0
  6
Continuous
 62
     7
370
    25
100
AcDbCircle
 10
1.8485664748
 20
-0.0581001099
 30
0.0
 40
0.0211922721733765
100
AcDbArc
 50
203.2043411966
 51
280.9856762353
  0
ARC
  5
169
330
1F
100
AcDbEntity
  8
0
  6
Continuous
 62
     7
370
    25
100
AcDbCircle
 10
1.7825664748
 20
0.1011691903
 30
0.0
 40
0.0211922721733763
100
AcDbArc
 50
328.8509160898
 51
89.3044081207
  0
ARC
  5
16A
330
1F
100
AcDbEntity
  8
0
  6
Continuous
 62
     7
370
    25
100
AcDbCircle
 10
1.7825664748
 20
0.1011691903
 30
0.0
 40
0.0211922721733763
100
AcDbArc
 50
135.713090514
 51
156.7956588034
  0
ARC
  5
16B
330
1F
100
AcDbEntity
  8
0
  6
Continuous
 62
     7
370
    25
100
AcDbCircle
 10
1.7825664748
 20
0.1011691903
 30
0.0
 40
0.0211922721733764
100
AcDbArc
 50
203.2043411966
 51
328.8509160898
  0
ARC
  5
16C
330
1F
100
AcDbEntity
  8
0
  6
Continuous
 62
     7
370
    25
100
AcDbCircle
 10
1.2845664748
 20
0.4197077908
 30
0.0
 40
0.0211922721733764
100
AcDbArc
 50
270.0
 51
336.7956588034
  0
ARC
  5
16D
330
1F
100
AcDbEntity
  8
0
  6
Continuous
 62
     7
370
    25
100
AcDbCircle
 10
1.2845664748
 20
0.4197077908
 30
0.0
 40
0.0211922721733764
100
AcDbArc
 50
23.2043411966
 51
66.7956588034
  0
ARC
  5
16E
330
1F
100
AcDbEntity
  8
0
  6
Continuous
 62
     7
370
    25
100
AcDbCircle
 10
1.2845664748
 20
0.4197077908
 30
0.0
 40
0.0211922721733764
100
AcDbArc
 50
113.2043411966
 51
156.7956588034
  0
ARC
  5
16F
330
1F
100
AcDbEntity
  8
0
  6
Continuous
 62
     7
370
    25
100
AcDbCircle
 10
1.2845664748
 20
0.4197077908
 30
0.0
 40
0.0211922721733764
100
AcDbArc
 50
203.2043411966
 51
270.0
  0
ARC
  5
170
330
1F
100
AcDbEntity
  8
0
  6
Continuous
 62
     7
370
    25
100
AcDbCircle
 10
1.2845664748
 20
0.1011691903
 30
0.0
 40
0.0211922721733765
100
AcDbArc
 50
240.7981303329
 51
336.7956588034
  0
ARC
  5
171
330
1F
100
AcDbEntity
  8
0
  6
Continuous
 62
     7
370
    25
100
AcDbCircle
 10
1.2845664748
 20
0.1011691903
 30
0.0
 40
0.0211922721733765
100
AcDbArc
 50
23.2043411966
 51
66.7956588034
  0
ARC
  5
172
330
1F
100
AcDbEntity
  8
0
  6
Continuous
 62
     7
370
    25
100
AcDbCircle
 10
1.2845664748
 20
0.1011691903
 30
0.0
 40
0.0211922721733765
100
AcDbArc
 50
113.2043411966
 51
156.7956588034
  0
ARC
  5
173
330
1F
100
AcDbEntity
  8
0
  6
Continuous
 62
     7
370
    25
100
AcDbCircle
 10
1.2845664748
 20
0.1011691903
 30
0.0
 40
0.0211922721733765
100
AcDbArc
 50
203.2043411966
 51
240.7981303329
  0
ARC
  5
174
330
1F
100
AcDbEntity
  8
0
  6
Continuous
 62
     7
370
    25
100
AcDbCircle
 10
1.5410664748
 20
0.1011691903
 30
0.0
 40
0.0211922721733764
100
AcDbArc
 50
270.0
 51
336.7956588034
  0
ARC
  5
175
330
1F
100
AcDbEntity
  8
0
  6
Continuous
 62
     7
370
    25
100
AcDbCircle
 10
1.5410664748
 20
0.1011691903
 30
0.0
 40
0.0211922721733762
100
AcDbArc
 50
23.2043411966
 51
79.361081282
  0
ARC
  5
176
330
1F
100
AcDbEntity
  8
0
  6
Continuous
 62
     7
370
    25
100
AcDbCircle
 10
1.5410664748
 20
0.1011691903
 30
0.0
 40
0.0211922721733764
100
AcDbArc
 50
125.7697636753
 51
156.7956588034
  0
ARC
  5
177
330
1F
100
AcDbEntity
  8
0
  6
Continuous
 62
     7
370
    25
100
AcDbCircle
 10
1.5410664748
 20
0.1011691903
 30
0.0
 40
0.0211922721733764
100
AcDbArc
 50
203.2043411966
 51
270.0
  0
ARC
  5
178
330
1F
100
AcDbEntity
  8
0
  6
Continuous
 62
     7
370
    25
100
AcDbCircle
 10
1.0784930085
 20
0.2604384906
 30
0.0
 40
0.0211922721733765
100
AcDbArc
 50
270.0
 51
336.7956588034
  0
ARC
  5
179
330
1F
100
AcDbEntity
  8
0
  6
Continuous
 62
     7
370
    25
100
AcDbCircle
 10
1.0784930085
 20
0.2604384906
 30
0.0
 40
0.0211922721733765
100
AcDbArc
 50
23.2043411966
 51
156.7956588034
  0
ARC
  5
17A
330
1F
100
AcDbEntity
  8
0
  6
Continuous
 62
     7
370
    25
100
AcDbCircle
 10
1.0784930085
 20
0.2604384906
 30
0.0
 40
0.0211922721733765
100
AcDbArc
 50
203.2043411966
 51
270.0
  0
ARC
  5
17B
330
1F
100
AcDbEntity
  8
0
  6
Continuous
 62
     7
370
    25
100
AcDbCircle
 10
1.5055664748
 20
0.2604384906
 30
0.0
 40
0.0211922721733764
100
AcDbArc
 50
270.0
 51
336.7956588034
  0
ARC
  5
17C
330
1F
100
AcDbEntity
  8
0
  6
Continuous
 62
     7
370
    25
100
AcDbCircle
 10
1.5055664748
 20
0.2604384906
 30
0.0
 40
0.0211922721733761
100
AcDbArc
 50
23.2043411966
 51
156.7956588034
  0
ARC
  5
17D
330
1F
100
AcDbEntity
  8
0
  6
Continuous
 62
     7
370
    25
100
AcDbCircle
 10
1.5055664748
 20
0.2604384906
 30
0.0
 40
0.0211922721733764
100
AcDbArc
 50
203.2043411966
 51
270.0
  0
LINE
  5
17E
330
1F
100
AcDbEntity
  8
0
  6
Continuous
 62
     7
370
    25
100
AcDbLine
 10
0.9571081408
 20
0.5345270941
 30
0.0
 11
0.9158242949
 21
0.4349022815
 31
0.0
  0
LINE
  5
17F
330
1F
100
AcDbEntity
  8
0
  6
Continuous
 62
     7
370
    25
100
AcDbLine
 10
0.9033960112
 20
0.4049102375
 30
0.0
 11
0.8498243102
 21
0.2756330082
 31
0.0
  0
LINE
  5
180
330
1F
100
AcDbEntity
  8
0
  6
Continuous
 62
     7
370
    25
100
AcDbLine
 10
0.8373960265
 20
0.2456409047
 30
0.0
 11
0.7838243254
 21
0.1163636754
 31
0.0
  0
LINE
  5
181
330
1F
100
AcDbEntity
  8
0
  6
Continuous
 62
     7
370
    25
100
AcDbLine
 10
0.7713960417
 20
0.086371691
 30
0.0
 11
0.7178243407
 21
-0.0429056575
 31
0.0
  0
LINE
  5
182
330
1F
100
AcDbEntity
  8
0
  6
Continuous
 62
     7
370
    25
100
AcDbLine
 10
0.705396057
 20
-0.0728976419
 30
0.0
 11
0.6468526133
 21
-0.2141728094
 31
0.0
  0
LINE
  5
183
330
1F
100
AcDbEntity
  8
0
  6
Continuous
 62
     7
370
    25
100
AcDbLine
 10
0.6622804411
 20
-0.2205660036
 30
0.0
 11
0.7208236464
 21
-0.0792908361
 31
0.0
  0
LINE
  5
184
330
1F
100
AcDbEntity
  8
0
  6
Continuous
 62
     7
370
    25
100
AcDbLine
 10
0.7332521685
 20
-0.0492988517
 30
0.0
 11
0.7868238696
 21
0.0799784968
 31
0.0
  0
LINE
  5
185
330
1F
100
AcDbEntity
  8
0
  6
Continuous
 62
     7
370
    25
100
AcDbLine
 10
0.7992521533
 20
0.1099704812
 30
0.0
 11
0.8528238543
 21
0.2392478297
 31
0.0
  0
LINE
  5
186
330
1F
100
AcDbEntity
  8
0
  6
Continuous
 62
     7
370
    25
100
AcDbLine
 10
0.865252138
 20
0.269239814
 30
0.0
 11
0.9188238391
 21
0.398517103
 31
0.0
  0
LINE
  5
187
330
1F
100
AcDbEntity
  8
0
  6
Continuous
 62
     7
370
    25
100
AcDbLine
 10
0.9312521227
 20
0.4285090873
 30
0.0
 11
0.9751852759
 21
0.5345270941
 31
0.0
  0
LINE
  5
188
330
1F
100
AcDbEntity
  8
0
  6
Continuous
 62
     7
370
    25
100
AcDbLine
 10
1.593947769
 20
0.5345270941
 30
0.0
 11
1.6378806838
 21
0.4285090873
 31
0.0
  0
LINE
  5
189
330
1F
100
AcDbEntity
  8
0
  6
Continuous
 62
     7
370
    25
100
AcDbLine
 10
1.6503092059
 20
0.398517103
 30
0.0
 11
1.7038806685
 21
0.269239814
 31
0.0
  0
LINE
  5
18A
330
1F
100
AcDbEntity
  8
0
  6
Continuous
 62
     7
370
    25
100
AcDbLine
 10
1.7163091906
 20
0.2392478297
 30
0.0
 11
1.7698806532
 21
0.1099704812
 31
0.0
  0
LINE
  5
18B
330
1F
100
AcDbEntity
  8
0
  6
Continuous
 62
     7
370
    25
100
AcDbLine
 10
1.7823091754
 20
0.0799784968
 30
0.0
 11
1.835880638
 21
-0.0492988517
 31
0.0
  0
LINE
  5
18C
330
1F
100
AcDbEntity
  8
0
  6
Continuous
 62
     7
370
    25
100
AcDbLine
 10
1.8483091601
 20
-0.0792908361
 30
0.0
 11
1.9068526038
 21
-0.2205660036
 31
0.0
  0
LINE
  5
18D
330
1F
100
AcDbEntity
  8
0
  6
Continuous
 62
     7
370
    25
100
AcDbLine
 10
1.9222804316
 20
-0.2141728094
 30
0.0
 11
1.8637369879
 21
-0.0728976419
 31
0.0
  0
LINE
  5
18E
330
1F
100
AcDbEntity
  8
0
  6
Continuous
 62
     7
370
    25
100
AcDbLine
 10
1.8513084658
 20
-0.0429056575
 30
0.0
 11
1.7977370032
 21
0.086371691
 31
0.0
  0
LINE
  5
18F
330
1F
100
AcDbEntity
  8
0
  6
Continuous
 62
     7
370
    25
100
AcDbLine
 10
1.7853084811
 20
0.1163636754
 30
0.0
 11
1.7317370184
 21
0.2456409047
 31
0.0
  0
LINE
  5
190
330
1F
100
AcDbEntity
  8
0
  6
Continuous
 62
     7
370
    25
100
AcDbLine
 10
1.7193084963
 20
0.2756330082
 30
0.0
 11
1.6657370337
 21
0.4049102375
 31
0.0
  0
LINE
  5
191
330
1F
100
AcDbEntity
  8
0
  6
Continuous
 62
     7
370
    25
100
AcDbLine
 10
1.6533085116
 20
0.4349022815
 30
0.0
 11
1.6120246657
 21
0.5345270941
 31
0.0
  0
LINE
  5
192
330
1F
100
AcDbEntity
  8
0
  6
Continuous
 62
     7
370
    25
100
AcDbLine
 10
1.2762163886
 20
0.5345270941
 30
0.0
 11
1.2762163886
 21
0.432116718
 31
0.0
  0
LINE
  5
193
330
1F
100
AcDbEntity
  8
0
  6
Continuous
 62
     7
370
    25
100
AcDbLine
 10
1.2929164179
 20
0.432116718
 30
0.0
 11
1.2929164179
 21
0.5345270941
 31
0.0
  0
LINE
  5
194
330
1F
100
AcDbEntity
  8
0
  6
Continuous
 62
     7
370
    25
100
AcDbLine
 10
1.5016540297
 20
0.2396104643
 30
0.0
 11
1.5301781901
 21
0.1116383383
 31
0.0
  0
LINE
  5
195
330
1F
100
AcDbEntity
  8
0
  6
Continuous
 62
     7
370
    25
100
AcDbLine
 10
1.5464781531
 20
0.1152714798
 30
0.0
 11
1.5179539927
 21
0.2432437251
 31
0.0
  0
LINE
  5
196
330
1F
100
AcDbEntity
  8
0
  6
Continuous
 62
     7
370
    25
100
AcDbLine
 10
1.5371540793
 20
0.0803412507
 30
0.0
 11
1.5656780013
 21
-0.0476309946
 31
0.0
  0
LINE
  5
197
330
1F
100
AcDbEntity
  8
0
  6
Continuous
 62
     7
370
    25
100
AcDbLine
 10
1.5819779643
 20
-0.043997853
 30
0.0
 11
1.5534540423
 21
0.0839743922
 31
0.0
  0
LINE
  5
198
330
1F
100
AcDbEntity
  8
0
  6
Continuous
 62
     7
370
    25
100
AcDbLine
 10
1.065358282
 20
0.2438074658
 30
0.0
 11
1.0307668456
 21
0.1155735562
 31
0.0
  0
LINE
  5
199
330
1F
100
AcDbEntity
  8
0
  6
Continuous
 62
     7
370
    25
100
AcDbLine
 10
1.0468906172
 20
0.1112242052
 30
0.0
 11
1.0814820536
 21
0.2394581149
 31
0.0
  0
LINE
  5
19A
330
1F
100
AcDbEntity
  8
0
  6
Continuous
 62
     7
370
    25
100
AcDbLine
 10
1.0223950156
 20
0.0845381329
 30
0.0
 11
0.9878035792
 21
-0.0436957767
 31
0.0
  0
LINE
  5
19B
330
1F
100
AcDbEntity
  8
0
  6
Continuous
 62
     7
370
    25
100
AcDbLine
 10
1.0039273509
 20
-0.0480451276
 30
0.0
 11
1.0385187872
 21
0.080188782
 31
0.0
  0
LINE
  5
19C
330
1F
100
AcDbEntity
  8
0
  6
Continuous
 62
     7
370
    25
100
AcDbLine
 10
0.9380444296
 20
0.4113577912
 30
0.0
 11
1.101978422
 21
0.4113577912
 31
0.0
  0
LINE
  5
19D
330
1F
100
AcDbEntity
  8
0
  6
Continuous
 62
     7
370
    25
100
AcDbLine
 10
1.1409341105
 20
0.4113577912
 30
0.0
 11
1.2650884398
 21
0.4113577912
 31
0.0
  0
LINE
  5
19E
330
1F
100
AcDbEntity
  8
0
  6
Continuous
 62
     7
370
    25
100
AcDbLine
 10
1.3040443667
 20
0.4113577912
 30
0.0
 11
1.4505885848
 21
0.4113577912
 31
0.0
  0
LINE
  5
19F
330
1F
100
AcDbEntity
  8
0
  6
Continuous
 62
     7
370
    25
100
AcDbLine
 10
1.4895445117
 20
0.4113577912
 30
0.0
 11
1.6310886153
 21
0.4113577912
 31
0.0
  0
LINE
  5
1A0
330
1F
100
AcDbEntity
  8
0
  6
Continuous
 62
     7
370
    25
100
AcDbLine
 10
1.6310886153
 20
0.4280578206
 30
0.0
 11
1.4895445117
 21
0.4280578206
 31
0.0
  0
LINE
  5
1A1
330
1F
100
AcDbEntity
  8
0
  6
Continuous
 62
     7
370
    25
100
AcDbLine
 10
1.4505885848
 20
0.4280578206
 30
0.0
 11
1.3040443667
 21
0.4280578206
 31
0.0
  0
LINE
  5
1A2
330
1F
100
AcDbEntity
  8
0
  6
Continuous
 62
     7
370
    25
100
AcDbLine
 10
1.2650884398
 20
0.4280578206
 30
0.0
 11
1.1409341105
 21
0.4280578206
 31
0.0
  0
LINE
  5
1A3
330
1F
100
AcDbEntity
  8
0
  6
Continuous
 62
     7
370
    25
100
AcDbLine
 10
1.101978422
 20
0.4280578206
 30
0.0
 11
0.9380444296
 21
0.4280578206
 31
0.0
  0
LINE
  5
1A4
330
1F
100
AcDbEntity
  8
0
  6
Continuous
 62
     7
370
    25
100
AcDbLine
 10
1.2762163886
 20
0.4002298424
 30
0.0
 11
1.2762163886
 21
0.2728474448
 31
0.0
  0
LINE
  5
1A5
330
1F
100
AcDbEntity
  8
0
  6
Continuous
 62
     7
370
    25
100
AcDbLine
 10
1.2929164179
 20
0.2728474448
 30
0.0
 11
1.2929164179
 21
0.4002298424
 31
0.0
  0
LINE
  5
1A6
330
1F
100
AcDbEntity
  8
0
  6
Continuous
 62
     7
370
    25
100
AcDbLine
 10
1.2762163886
 20
0.2409605095
 30
0.0
 11
1.2762163886
 21
0.1135781119
 31
0.0
  0
LINE
  5
1A7
330
1F
100
AcDbEntity
  8
0
  6
Continuous
 62
     7
370
    25
100
AcDbLine
 10
1.2929164179
 20
0.1135781119
 30
0.0
 11
1.2929164179
 21
0.2409605095
 31
0.0
  0
LINE
  5
1A8
330
1F
100
AcDbEntity
  8
0
  6
Continuous
 62
     7
370
    25
100
AcDbLine
 10
1.2762163886
 20
0.0816912959
 30
0.0
 11
1.2762163886
 21
-0.045691221
 31
0.0
  0
LINE
  5
1A9
330
1F
100
AcDbEntity
  8
0
  6
Continuous
 62
     7
370
    25
100
AcDbLine
 10
1.2929164179
 20
-0.045691221
 30
0.0
 11
1.2929164179
 21
0.0816912959
 31
0.0
  0
LINE
  5
1AA
330
1F
100
AcDbEntity
  8
0
  6
Continuous
 62
     7
370
    25
100
AcDbLine
 10
1.2762163886
 20
-0.077578037
 30
0.0
 11
1.2762163886
 21
-0.2173694065
 31
0.0
  0
LINE
  5
1AB
330
1F
100
AcDbEntity
  8
0
  6
Continuous
 62
     7
370
    25
100
AcDbLine
 10
1.2929164179
 20
-0.2173694065
 30
0.0
 11
1.2929164179
 21
-0.077578037
 31
0.0
  0
LINE
  5
1AC
330
1F
100
AcDbEntity
  8
0
  6
Continuous
 62
     7
370
    25
100
AcDbLine
 10
0.7400444754
 20
-0.0664500883
 30
0.0
 11
0.9730886229
 21
-0.0664500883
 31
0.0
  0
LINE
  5
1AD
330
1F
100
AcDbEntity
  8
0
  6
Continuous
 62
     7
370
    25
100
AcDbLine
 10
1.0120443114
 20
-0.0664500883
 30
0.0
 11
1.2650884398
 21
-0.0664500883
 31
0.0
  0
LINE
  5
1AE
330
1F
100
AcDbEntity
  8
0
  6
Continuous
 62
     7
370
    25
100
AcDbLine
 10
1.3040443667
 20
-0.0664500883
 30
0.0
 11
1.5570884951
 21
-0.0664500883
 31
0.0
  0
LINE
  5
1AF
330
1F
100
AcDbEntity
  8
0
  6
Continuous
 62
     7
370
    25
100
AcDbLine
 10
1.596044422
 20
-0.0664500883
 30
0.0
 11
1.8290885695
 21
-0.0664500883
 31
0.0
  0
LINE
  5
1B0
330
1F
100
AcDbEntity
  8
0
  6
Continuous
 62
     7
370
    25
100
AcDbLine
 10
1.8290885695
 20
-0.0497500589
 30
0.0
 11
1.596044422
 21
-0.0497500589
 31
0.0
  0
LINE
  5
1B1
330
1F
100
AcDbEntity
  8
0
  6
Continuous
 62
     7
370
    25
100
AcDbLine
 10
1.5570884951
 20
-0.0497500589
 30
0.0
 11
1.3040443667
 21
-0.0497500589
 31
0.0
  0
LINE
  5
1B2
330
1F
100
AcDbEntity
  8
0
  6
Continuous
 62
     7
370
    25
100
AcDbLine
 10
1.2650884398
 20
-0.0497500589
 30
0.0
 11
1.0120443114
 21
-0.0497500589
 31
0.0
  0
LINE
  5
1B3
330
1F
100
AcDbEntity
  8
0
  6
Continuous
 62
     7
370
    25
100
AcDbLine
 10
0.9730886229
 20
-0.0497500589
 30
0.0
 11
0.7400444754
 21
-0.0497500589
 31
0.0
  0
LINE
  5
1B4
330
1F
100
AcDbEntity
  8
0
  6
Continuous
 62
     7
370
    25
100
AcDbLine
 10
0.8060444602
 20
0.0928192446
 30
0.0
 11
1.0160518893
 21
0.0928192446
 31
0.0
  0
LINE
  5
1B5
330
1F
100
AcDbEntity
  8
0
  6
Continuous
 62
     7
370
    25
100
AcDbLine
 10
1.0550075778
 20
0.0928192446
 30
0.0
 11
1.2650884398
 21
0.0928192446
 31
0.0
  0
LINE
  5
1B6
330
1F
100
AcDbEntity
  8
0
  6
Continuous
 62
     7
370
    25
100
AcDbLine
 10
1.3040443667
 20
0.0928192446
 30
0.0
 11
1.5215884455
 21
0.0928192446
 31
0.0
  0
LINE
  5
1B7
330
1F
100
AcDbEntity
  8
0
  6
Continuous
 62
     7
370
    25
100
AcDbLine
 10
1.5605443724
 20
0.0928192446
 30
0.0
 11
1.7630885848
 21
0.0928192446
 31
0.0
  0
LINE
  5
1B8
330
1F
100
AcDbEntity
  8
0
  6
Continuous
 62
     7
370
    25
100
AcDbLine
 10
1.7630885848
 20
0.1095191548
 30
0.0
 11
1.5605443724
 21
0.1095191548
 31
0.0
  0
LINE
  5
1B9
330
1F
100
AcDbEntity
  8
0
  6
Continuous
 62
     7
370
    25
100
AcDbLine
 10
1.5215884455
 20
0.1095191548
 30
0.0
 11
1.3040443667
 21
0.1095191548
 31
0.0
  0
LINE
  5
1BA
330
1F
100
AcDbEntity
  8
0
  6
Continuous
 62
     7
370
    25
100
AcDbLine
 10
1.2650884398
 20
0.1095191548
 30
0.0
 11
1.0550075778
 21
0.1095191548
 31
0.0
  0
LINE
  5
1BB
330
1F
100
AcDbEntity
  8
0
  6
Continuous
 62
     7
370
    25
100
AcDbLine
 10
1.0160518893
 20
0.1095191548
 30
0.0
 11
0.8060444602
 21
0.1095191548
 31
0.0
  0
LINE
  5
1BC
330
1F
100
AcDbEntity
  8
0
  6
Continuous
 62
     7
370
    25
100
AcDbLine
 10
0.8720444449
 20
0.2520884583
 30
0.0
 11
1.0590151557
 21
0.2520884583
 31
0.0
  0
LINE
  5
1BD
330
1F
100
AcDbEntity
  8
0
  6
Continuous
 62
     7
370
    25
100
AcDbLine
 10
1.0979708441
 20
0.2520884583
 30
0.0
 11
1.2650884398
 21
0.2520884583
 31
0.0
  0
LINE
  5
1BE
330
1F
100
AcDbEntity
  8
0
  6
Continuous
 62
     7
370
    25
100
AcDbLine
 10
1.3040443667
 20
0.2520884583
 30
0.0
 11
1.4860886344
 21
0.2520884583
 31
0.0
  0
LINE
  5
1BF
330
1F
100
AcDbEntity
  8
0
  6
Continuous
 62
     7
370
    25
100
AcDbLine
 10
1.5250443228
 20
0.2520884583
 30
0.0
 11
1.6970886
 21
0.2520884583
 31
0.0
  0
LINE
  5
1C0
330
1F
100
AcDbEntity
  8
0
  6
Continuous
 62
     7
370
    25
100
AcDbLine
 10
1.6970886
 20
0.2687884877
 30
0.0
 11
1.5250443228
 21
0.2687884877
 31
0.0
  0
LINE
  5
1C1
330
1F
100
AcDbEntity
  8
0
  6
Continuous
 62
     7
370
    25
100
AcDbLine
 10
1.4860886344
 20
0.2687884877
 30
0.0
 11
1.3040443667
 21
0.2687884877
 31
0.0
  0
LINE
  5
1C2
330
1F
100
AcDbEntity
  8
0
  6
Continuous
 62
     7
370
    25
100
AcDbLine
 10
1.2650884398
 20
0.2687884877
 30
0.0
 11
1.0979708441
 21
0.2687884877
 31
0.0
  0
LINE
  5
1C3
330
1F
100
AcDbEntity
  8
0
  6
Continuous
 62
     7
370
    25
100
AcDbLine
 10
1.0590151557
 20
0.2687884877
 30
0.0
 11
0.8720444449
 21
0.2687884877
 31
0.0
  0
LINE
  5
1C4
330
1F
100
AcDbEntity
  8
0
  6
Continuous
 62
     7
370
    25
100
AcDbLine
 10
-1.7763935319
 20
0.2980783293
 30
0.0
 11
-1.7754335246
 21
0.2980783293
 31
0.0
  0
LINE
  5
1C5
330
1F
100
AcDbEntity
  8
0
  6
Continuous
 62
     7
370
    25
100
AcDbLine
 10
-1.7754335246
 20
0.3133182833
 30
0.0
 11
-1.7763935319
 21
0.3133182833
 31
0.0
  0
LINE
  5
1C6
330
1F
100
AcDbEntity
  8
0
  6
Continuous
 62
     7
370
    25
100
AcDbLine
 10
-1.7763935319
 20
0.1207657168
 30
0.0
 11
-1.7754335246
 21
0.1207657168
 31
0.0
  0
LINE
  5
1C7
330
1F
100
AcDbEntity
  8
0
  6
Continuous
 62
     7
370
    25
100
AcDbLine
 10
-1.7754335246
 20
0.13600579
 30
0.0
 11
-1.7763935319
 21
0.13600579
 31
0.0
  0
LINE
  5
1C8
330
1F
100
AcDbEntity
  8
0
  6
Continuous
 62
     7
370
    25
100
AcDbLine
 10
-1.2544735066
 20
-0.6283273389
 30
0.0
 11
-1.255433499
 21
-0.6283273389
 31
0.0
  0
LINE
  5
1C9
330
1F
100
AcDbEntity
  8
0
  6
Continuous
 62
     7
370
    25
100
AcDbLine
 10
-1.255433499
 20
-0.6435675314
 30
0.0
 11
-1.2544735066
 21
-0.6435675314
 31
0.0
  0
LINE
  5
1CA
330
1F
100
AcDbEntity
  8
0
  6
Continuous
 62
     7
370
    25
100
AcDbLine
 10
-1.7763935319
 20
-0.928693979
 30
0.0
 11
-1.7754335246
 21
-0.928693979
 31
0.0
  0
LINE
  5
1CB
330
1F
100
AcDbEntity
  8
0
  6
Continuous
 62
     7
370
    25
100
AcDbLine
 10
-1.7754335246
 20
-0.913454025
 30
0.0
 11
-1.7763935319
 21
-0.913454025
 31
0.0
  0
LINE
  5
1CC
330
1F
100
AcDbEntity
  8
0
  6
Continuous
 62
     7
370
    25
100
AcDbLine
 10
-1.2544735066
 20
-0.913454025
 30
0.0
 11
-1.255433499
 21
-0.913454025
 31
0.0
  0
LINE
  5
1CD
330
1F
100
AcDbEntity
  8
0
  6
Continuous
 62
     7
370
    25
100
AcDbLine
 10
-1.255433499
 20
-0.928693979
 30
0.0
 11
-1.2544735066
 21
-0.928693979
 31
0.0
  0
LINE
  5
1CE
330
1F
100
AcDbEntity
  8
0
  6
Continuous
 62
     7
370
    25
100
AcDbLine
 10
-1.2544735066
 20
0.13600579
 30
0.0
 11
-1.255433499
 21
0.13600579
 31
0.0
  0
LINE
  5
1CF
330
1F
100
AcDbEntity
  8
0
  6
Continuous
 62
     7
370
    25
100
AcDbLine
 10
-1.255433499
 20
0.1207657168
 30
0.0
 11
-1.2544735066
 21
0.1207657168
 31
0.0
  0
LINE
  5
1D0
330
1F
100
AcDbEntity
  8
0
  6
Continuous
 62
     7
370
    25
100
AcDbLine
 10
-1.2544735066
 20
-0.1346290996
 30
0.0
 11
-1.255433499
 21
-0.1346290996
 31
0.0
  0
LINE
  5
1D1
330
1F
100
AcDbEntity
  8
0
  6
Continuous
 62
     7
370
    25
100
AcDbLine
 10
-1.255433499
 20
-0.1498691728
 30
0.0
 11
-1.2544735066
 21
-0.1498691728
 31
0.0
  0
LINE
  5
1D2
330
1F
100
AcDbEntity
  8
0
  6
Continuous
 62
     7
370
    25
100
AcDbLine
 10
-1.2544735066
 20
0.3133182833
 30
0.0
 11
-1.255433499
 21
0.3133182833
 31
0.0
  0
LINE
  5
1D3
330
1F
100
AcDbEntity
  8
0
  6
Continuous
 62
     7
370
    25
100
AcDbLine
 10
-1.255433499
 20
0.2980783293
 30
0.0
 11
-1.2544735066
 21
0.2980783293
 31
0.0
  0
LINE
  5
1D4
330
1F
100
AcDbEntity
  8
0
  6
Continuous
 62
     7
370
    25
100
AcDbLine
 10
-1.7763935319
 20
-0.1498691728
 30
0.0
 11
-1.7754335246
 21
-0.1498691728
 31
0.0
  0
LINE
  5
1D5
330
1F
100
AcDbEntity
  8
0
  6
Continuous
 62
     7
370
    25
100
AcDbLine
 10
-1.7754335246
 20
-0.1346290996
 30
0.0
 11
-1.7763935319
 21
-0.1346290996
 31
0.0
  0
LINE
  5
1D6
330
1F
100
AcDbEntity
  8
0
  6
Continuous
 62
     7
370
    25
100
AcDbLine
 10
-1.7763935319
 20
-0.6435675314
 30
0.0
 11
-1.7754335246
 21
-0.6435675314
 31
0.0
  0
LINE
  5
1D7
330
1F
100
AcDbEntity
  8
0
  6
Continuous
 62
     7
370
    25
100
AcDbLine
 10
-1.7754335246
 20
-0.6283273389
 30
0.0
 11
-1.7763935319
 21
-0.6283273389
 31
0.0
  0
LINE
  5
1D8
330
1F
100
AcDbEntity
  8
0
  6
Continuous
 62
     7
370
    25
100
AcDbLine
 10
-1.7754335246
 20
-1.0786597421
 30
0.0
 11
-1.7564335308
 21
-1.0786597421
 31
0.0
  0
LINE
  5
1D9
330
1F
100
AcDbEntity
  8
0
  6
Continuous
 62
     7
370
    25
100
AcDbLine
 10
-1.7564335308
 20
-1.0386597803
 30
0.0
 11
-1.2744335524
 21
-1.0386597803
 31
0.0
  0
LINE
  5
1DA
330
1F
100
AcDbEntity
  8
0
  6
Continuous
 62
     7
370
    25
100
AcDbLine
 10
-1.2744335524
 20
-1.0786597421
 30
0.0
 11
-1.255433499
 21
-1.0786597421
 31
0.0
  0
LINE
  5
1DB
330
1F
100
AcDbEntity
  8
0
  6
Continuous
 62
     7
370
    25
100
AcDbLine
 10
-1.8743010565
 20
0.5621270845
 30
0.0
 11
-1.156566023
 21
0.5621270845
 31
0.0
  0
LINE
  5
1DC
330
1F
100
AcDbEntity
  8
0
  6
Continuous
 62
     7
370
    25
100
AcDbLine
 10
-1.1565722815
 20
0.5958270738
 30
0.0
 11
-1.8742947831
 21
0.5958270738
 31
0.0
  0
SPLINE
  5
1DD
330
1F
100
AcDbEntity
  8
0
  6
Continuous
 62
     7
370
    25
100
AcDbSpline
210
0.0
220
0.0
230
1.0
 70
    11
 71
     3
 72
    54
 73
    50
 74
     0
 42
0.000000001
 43
0.00000001
 40
0.0
 40
0.0
 40
0.0
 40
0.0
 40
0.0220504332557066
 40
0.0432284008335644
 40
0.0635353446817924
 40
0.0829700068166592
 40
0.1015318454494856
 40
0.1192217839781846
 40
0.1441070395963383
 40
0.16703089017079
 40
0.1879940712441399
 40
0.2069950878698728
 40
0.2240329525622588
 40
0.2391073196305066
 40
0.2522180905663005
 40
0.2641570388946431
 40
0.2882087131914888
 40
0.3125532466370167
 40
0.3371900648635811
 40
0.3621184279347547
 40
0.3873056166383039
 40
0.4125301172150882
 40
0.4377550975930227
 40
0.4629801362689111
 40
0.4882047226498583
 40
0.5134304303327967
 40
0.5386548880083101
 40
0.5638800060655327
 40
0.5891050615970508
 40
0.6143296473929203
 40
0.639432732653879
 40
0.6638668330038742
 40
0.6875687329371898
 40
0.7105375880819497
 40
0.7254492982662291
 40
0.7400345582638947
 40
0.755466418944728
 40
0.7732406004867448
 40
0.7933621489767476
 40
0.8158304839994337
 40
0.8342283843908194
 40
0.8539463656852911
 40
0.8749850376798993
 40
0.8973431555621133
 40
0.9210200437964353
 40
0.9460168462128029
 40
0.9634241801248495
 40
0.9814183209538142
 40
1.0
 40
1.0
 40
1.0
 40
1.0
 10
-1.124031006472844
 20
0.5357545921745408
 30
0.0
 10
-1.122019102648041
 20
0.535436424385304
 30
0.0
 10
-1.118074899649006
 20
0.5348126776967035
 30
0.0
 10
-1.112189130862689
 20
0.5349086535806324
 30
0.0
 10
-1.10661266929013
 20
0.5356816077385453
 30
0.0
 10
-1.101407576745534
 20
0.5370871034051907
 30
0.0
 10
-1.096632949385302
 20
0.5390105570492285
 30
0.0
 10
-1.091669476373611
 20
0.5417080288035456
 30
0.0
 10
-1.086768194024945
 20
0.5452832357553345
 30
0.0
 10
-1.082248147749774
 20
0.5497639233915521
 30
0.0
 10
-1.078722164121305
 20
0.5543900554284704
 30
0.0
 10
-1.076072454880237
 20
0.5589447696744612
 30
0.0
 10
-1.0741748498528
 20
0.5632699902912102
 30
0.0
 10
-1.072894142921442
 20
0.5672457644497386
 30
0.0
 10
-1.072072618274464
 20
0.5708582732749976
 30
0.0
 10
-1.071415154436964
 20
0.5753421235159257
 30
0.0
 10
-1.071233317985345
 20
0.5809271145315325
 30
0.0
 10
-1.072048009586178
 20
0.5876389326959006
 30
0.0
 10
-1.073893270207679
 20
0.5942292019157032
 30
0.0
 10
-1.076780053899519
 20
0.600521299859619
 30
0.0
 10
-1.080644937422359
 20
0.6063299447506492
 30
0.0
 10
-1.085393992011751
 20
0.611479829448712
 30
0.0
 10
-1.090905057396935
 20
0.6158093297381175
 30
0.0
 10
-1.097024550058493
 20
0.619225253235308
 30
0.0
 10
-1.103610638199673
 20
0.6216228157714283
 30
0.0
 10
-1.110490858902642
 20
0.6229548991831759
 30
0.0
 10
-1.117495960318484
 20
0.623187070201981
 30
0.0
 10
-1.124448037427678
 20
0.6223014274781162
 30
0.0
 10
-1.131176712925287
 20
0.6203411435581461
 30
0.0
 10
-1.137496873847851
 20
0.6173376480643296
 30
0.0
 10
-1.14320726469409
 20
0.6134232701024047
 30
0.0
 10
-1.148139902825799
 20
0.6087693038145654
 30
0.0
 10
-1.152185752362531
 20
0.6035781364402084
 30
0.0
 10
-1.155002433536052
 20
0.5986225115169712
 30
0.0
 10
-1.156876918558142
 20
0.5941544574105182
 30
0.0
 10
-1.158118836350969
 20
0.5901951415031936
 30
0.0
 10
-1.159039831512175
 20
0.5858780469499372
 30
0.0
 10
-1.159564777481085
 20
0.5809775811192186
 30
0.0
 10
-1.159491287350959
 20
0.5753960524809887
 30
0.0
 10
-1.158662687130151
 20
0.5698131009066563
 30
0.0
 10
-1.157144903546315
 20
0.5644236331729762
 30
0.0
 10
-1.155040433322688
 20
0.559374606622216
 30
0.0
 10
-1.152121866622907
 20
0.5543190963297577
 30
0.0
 10
-1.148324062589297
 20
0.549410237730974
 30
0.0
 10
-1.14358839135718
 20
0.5448495802309086
 30
0.0
 10
-1.138584718488071
 20
0.541322084614624
 30
0.0
 10
-1.133636986985941
 20
0.5387465974325669
 30
0.0
 10
-1.128989936250209
 20
0.536914063583952
 30
0.0
 10
-1.125701590588107
 20
0.5361451995446034
 30
0.0
 10
-1.124031006472844
 20
0.5357545921745408
 30
0.0
  0
SPLINE
  5
1DE
330
1F
100
AcDbEntity
  8
0
  6
Continuous
 62
     7
370
    25
100
AcDbSpline
210
0.0
220
0.0
230
1.0
 70
    11
 71
     3
 72
    54
 73
    50
 74
     0
 42
0.000000001
 43
0.00000001
 40
0.0
 40
0.0
 40
0.0
 40
0.0
 40
0.0220500124783048
 40
0.0432284172271966
 40
0.0635351538020236
 40
0.0829700297365459
 40
0.1015320737265517
 40
0.1192218282259906
 40
0.1441067432885798
 40
0.1670312127105886
 40
0.1879938774784039
 40
0.2069950080710279
 40
0.2240330509157932
 40
0.2391072241910251
 40
0.2522180946125902
 40
0.264157015284063
 40
0.2882086898129228
 40
0.312553204681734
 40
0.3371900302703784
 40
0.3621184007907526
 40
0.3873054776855651
 40
0.4125302779959998
 40
0.4377549272430893
 40
0.4629799734568322
 40
0.4882045673754987
 40
0.5134300710929639
 40
0.5386549669329361
 40
0.5638798788117529
 40
0.5891049418811305
 40
0.6143295352147192
 40
0.6394322726220648
 40
0.6638665369338015
 40
0.6875685764547207
 40
0.7105376512470313
 40
0.7254491992096312
 40
0.7400345280816548
 40
0.755466393373903
 40
0.7732405802272772
 40
0.7933621375520619
 40
0.8158304477258896
 40
0.8342285289916788
 40
0.8539464332991087
 40
0.8749847886461554
 40
0.8973431770068608
 40
0.9210203825919192
 40
0.9460170163784686
 40
0.9634237825981921
 40
0.9814187323927095
 40
1.0
 40
1.0
 40
1.0
 40
1.0
 10
1.675969005448084
 20
0.5357545921745408
 30
0.0
 10
1.677980869477134
 20
0.5354364259327071
 30
0.0
 10
1.681925071220226
 20
0.5348126701383225
 30
0.0
 10
1.687810822705374
 20
0.5349086455108574
 30
0.0
 10
1.693387320033989
 20
0.5356816207483832
 30
0.0
 10
1.698592433153791
 20
0.5370871056844131
 30
0.0
 10
1.703367091381602
 20
0.539010533368351
 30
0.0
 10
1.708330538247678
 20
0.541708010250801
 30
0.0
 10
1.71323168632552
 20
0.5452833726825925
 30
0.0
 10
1.717752017056577
 20
0.5497637539260254
 30
0.0
 10
1.721277704974307
 20
0.5543901537403888
 30
0.0
 10
1.72392745874269
 20
0.5589447825001959
 30
0.0
 10
1.725825321539263
 20
0.5632699225095792
 30
0.0
 10
1.727105646692457
 20
0.5672458208936935
 30
0.0
 10
1.727927458404887
 20
0.5708582464772431
 30
0.0
 10
1.728584739320718
 20
0.5753421390362568
 30
0.0
 10
1.728766553976447
 20
0.5809271066611039
 30
0.0
 10
1.727951962487724
 20
0.5876389375593505
 30
0.0
 10
1.726106681814974
 20
0.5942292052786393
 30
0.0
 10
1.723219883093053
 20
0.6005212734827414
 30
0.0
 10
1.719355093877729
 20
0.6063300119384485
 30
0.0
 10
1.714605899010196
 20
0.6114797442186624
 30
0.0
 10
1.709094952346076
 20
0.6158093741327535
 30
0.0
 10
1.702975455240885
 20
0.6192252461171199
 30
0.0
 10
1.696389393406404
 20
0.6216228084365278
 30
0.0
 10
1.689509154247168
 20
0.6229549104609815
 30
0.0
 10
1.682504051127534
 20
0.6231870731818161
 30
0.0
 10
1.675551954401683
 20
0.6223014232240385
 30
0.0
 10
1.66882330380388
 20
0.6203411370049634
 30
0.0
 10
1.662503149692566
 20
0.6173376870704421
 30
0.0
 10
1.656792854799791
 20
0.6134232098480656
 30
0.0
 10
1.651860154004871
 20
0.6087693186362209
 30
0.0
 10
1.647814303095865
 20
0.6035781077733464
 30
0.0
 10
1.644997387157037
 20
0.598622581326675
 30
0.0
 10
1.643123144410377
 20
0.5941544146307327
 30
0.0
 10
1.64188108455447
 20
0.5901951583124532
 30
0.0
 10
1.640960136788808
 20
0.5858780438607836
 30
0.0
 10
1.640435143931096
 20
0.580977579912914
 30
0.0
 10
1.64050878966659
 20
0.5753960638941868
 30
0.0
 10
1.641337169333749
 20
0.5698130585687138
 30
0.0
 10
1.642855294496206
 20
0.5644236742786404
 30
0.0
 10
1.644959638726831
 20
0.5593746427326671
 30
0.0
 10
1.647877994768625
 20
0.554319009993989
 30
0.0
 10
1.651675972882549
 20
0.5494102447024245
 30
0.0
 10
1.656411715720306
 20
0.5448496193418257
 30
0.0
 10
1.661415340035239
 20
0.5413221449620522
 30
0.0
 10
1.666362998018047
 20
0.5387464916306772
 30
0.0
 10
1.671010103575019
 20
0.5369141386952665
 30
0.0
 10
1.674298467302146
 20
0.5361452162974709
 30
0.0
 10
1.675969005448084
 20
0.5357545921745408
 30
0.0
  0
SPLINE
  5
1DF
330
1F
100
AcDbEntity
  8
0
  6
Continuous
 62
     7
370
    25
100
AcDbSpline
210
0.0
220
0.0
230
1.0
 70
     8
 71
     3
 72
    15
 73
    11
 74
     0
 42
0.000000001
 43
0.00000001
 40
0.0
 40
0.0
 40
0.0
 40
0.0
 40
0.1097102036403128
 40
0.2208732692579183
 40
0.3789106818919629
 40
0.5416224665415297
 40
0.6711445347047688
 40
0.8042144200165292
 40
0.9011910300056227
 40
1.0
 40
1.0
 40
1.0
 40
1.0
 10
1.689482332092982
 20
0.9330798397007096
 30
0.0
 10
1.689948832270209
 20
0.9322072896869389
 30
0.0
 10
1.690888010357886
 20
0.9304506347201464
 30
0.0
 10
1.692852402755473
 20
0.9277039249359968
 30
0.0
 10
1.695372351700732
 20
0.9248938844320436
 30
0.0
 10
1.698270812226307
 20
0.9224685844609448
 30
0.0
 10
1.701117504824178
 20
0.9206906929419765
 30
0.0
 10
1.703528436948909
 20
0.9196472128432025
 30
0.0
 10
1.705672637228741
 20
0.9190746815379969
 30
0.0
 10
1.70686275595803
 20
0.919009818014628
 30
0.0
 10
1.707463384491664
 20
0.9189770827236283
 30
0.0
  0
LINE
  5
1E0
330
1F
100
AcDbEntity
  8
0
  6
Continuous
 62
     7
370
    25
100
AcDbLine
 10
1.6904593714
 20
0.9330798397
 30
0.0
 11
1.6894823321
 21
0.9330798397
 31
0.0
  0
SPLINE
  5
1E1
330
1F
100
AcDbEntity
  8
0
  6
Continuous
 62
     7
370
    25
100
AcDbSpline
210
0.0
220
0.0
230
1.0
 70
     8
 71
     3
 72
    14
 73
    10
 74
     0
 42
0.000000001
 43
0.00000001
 40
0.0
 40
0.0
 40
0.0
 40
0.0
 40
0.1057030602587821
 40
0.2128510450000748
 40
0.3699891281944249
 40
0.5317348990822864
 40
0.6869230983371235
 40
0.8478421801335531
 40
1.0
 40
1.0
 40
1.0
 40
1.0
 10
1.690459371430141
 20
0.9330798397007096
 30
0.0
 10
1.690955573986096
 20
0.9322140501602139
 30
0.0
 10
1.691954762016302
 20
0.9304706360339485
 30
0.0
 10
1.694050092965324
 20
0.9277309085549952
 30
0.0
 10
1.696743046380677
 20
0.9249238485300555
 30
0.0
 10
1.700014835230036
 20
0.9223609463617557
 30
0.0
 10
1.7034171421086
 20
0.9204349033239321
 30
0.0
 10
1.706736989518671
 20
0.9192057495175527
 30
0.0
 10
1.708756432615823
 20
0.9190518695768644
 30
0.0
 10
1.709737897736292
 20
0.9189770827236283
 30
0.0
  0
LINE
  5
1E2
330
1F
100
AcDbEntity
  8
0
  6
Continuous
 62
     7
370
    25
100
AcDbLine
 10
1.7097417124
 20
0.9189770827
 30
0.0
 11
1.7074633845
 21
0.9189770827
 31
0.0
  0
LINE
  5
1E3
330
1F
100
AcDbEntity
  8
0
  6
Continuous
 62
     7
370
    25
100
AcDbLine
 10
1.6904593714
 20
0.9330798397
 30
0.0
 11
1.6904593714
 21
1.0248743305
 31
0.0
  0
SPLINE
  5
1E4
330
1F
100
AcDbEntity
  8
0
  6
Continuous
 62
     7
370
    25
100
AcDbSpline
210
0.0
220
0.0
230
1.0
 70
     8
 71
     3
 72
    15
 73
    11
 74
     0
 42
0.000000001
 43
0.00000001
 40
0.0
 40
0.0
 40
0.0
 40
0.0
 40
0.1067405360771759
 40
0.2135018284166756
 40
0.3526497883386359
 40
0.4918690481104777
 40
0.6325752581540159
 40
0.7733147631375665
 40
0.8866689741768182
 40
0.9999999999999999
 40
0.9999999999999999
 40
0.9999999999999999
 40
0.9999999999999999
 10
1.709742904526454
 20
1.038977087492
 30
0.0
 10
1.709061139392126
 20
1.038940093217942
 30
0.0
 10
1.707697476550633
 20
1.038866097476093
 30
0.0
 10
1.705271105177104
 20
1.038229261520026
 30
0.0
 10
1.702536985281126
 20
1.037066599755564
 30
0.0
 10
1.699560004599589
 20
1.035252393161485
 30
0.0
 10
1.69667582787956
 20
1.032938081866569
 30
0.0
 10
1.694171486934299
 20
1.030354481702902
 30
0.0
 10
1.692063148503265
 20
1.027656864756796
 30
0.0
 10
1.690993927334771
 20
1.025801778683219
 30
0.0
 10
1.69045937143014
 20
1.024874330514919
 30
0.0
  0
SPLINE
  5
1E5
330
1F
100
AcDbEntity
  8
0
  6
Continuous
 62
     7
370
    25
100
AcDbSpline
210
0.0
220
0.0
230
1.0
 70
     8
 71
     3
 72
    14
 73
    10
 74
     0
 42
0.000000001
 43
0.00000001
 40
0.0
 40
0.0
 40
0.0
 40
0.0
 40
0.1065092453449033
 40
0.2130422467083904
 40
0.3723101135965102
 40
0.5315273546950636
 40
0.6897126931035797
 40
0.8477774951478804
 40
0.9999999999999999
 40
0.9999999999999999
 40
0.9999999999999999
 40
0.9999999999999999
 10
1.719735742432338
 20
1.024874330514919
 30
0.0
 10
1.719637058425911
 20
1.025746535437087
 30
0.0
 10
1.719439668402394
 20
1.02749113981962
 30
0.0
 10
1.718910895264867
 20
1.030248051515987
 30
0.0
 10
1.718054565648933
 20
1.033042154204857
 30
0.0
 10
1.716681501248453
 20
1.035619718638534
 30
0.0
 10
1.714817801049586
 20
1.037523924230622
 30
0.0
 10
1.712533073960257
 20
1.038751623440058
 30
0.0
 10
1.71066121278584
 20
1.038902882141391
 30
0.0
 10
1.709742904526454
 20
1.038977087492
 30
0.0
  0
LINE
  5
1E6
330
1F
100
AcDbEntity
  8
0
  6
Continuous
 62
     7
370
    25
100
AcDbLine
 10
1.7197357424
 20
0.9330798397
 30
0.0
 11
1.7197357424
 21
0.9621270904
 31
0.0
  0
LINE
  5
1E7
330
1F
100
AcDbEntity
  8
0
  6
Continuous
 62
     7
370
    25
100
AcDbLine
 10
1.7197357424
 20
0.9958270798
 30
0.0
 11
1.7197357424
 21
1.0248743305
 31
0.0
  0
SPLINE
  5
1E8
330
1F
100
AcDbEntity
  8
0
  6
Continuous
 62
     7
370
    25
100
AcDbSpline
210
0.0
220
0.0
230
1.0
 70
     8
 71
     3
 72
    15
 73
    11
 74
     0
 42
0.000000001
 43
0.00000001
 40
0.0
 40
0.0
 40
0.0
 40
0.0
 40
0.1067308304078004
 40
0.2134707858933529
 40
0.3525501327804012
 40
0.4917081164103254
 40
0.6324044457886461
 40
0.77313464941662
 40
0.8865783294413995
 40
1.0
 40
1.0
 40
1.0
 40
1.0
 10
1.709737897736293
 20
0.9189770827236283
 30
0.0
 10
1.710387889857081
 20
0.9190140191580427
 30
0.0
 10
1.711687929670497
 20
0.9190878951847954
 30
0.0
 10
1.713575391110444
 20
0.9197239612222539
 30
0.0
 10
1.715344507214967
 20
0.9208858131819229
 30
0.0
 10
1.716891361648766
 20
0.9226987238992321
 30
0.0
 10
1.718073364554251
 20
0.9250119955443117
 30
0.0
 10
1.718879167581763
 20
0.927595932656083
 30
0.0
 10
1.719418060404581
 20
0.9302948203794916
 30
0.0
 10
1.719629855272217
 20
0.9321515599711729
 30
0.0
 10
1.719735742432337
 20
0.9330798397007096
 30
0.0
  0
SPLINE
  5
1E9
330
1F
100
AcDbEntity
  8
0
  6
Continuous
 62
     7
370
    25
100
AcDbSpline
210
0.0
220
0.0
230
1.0
 70
     8
 71
     3
 72
    15
 73
    11
 74
     0
 42
0.000000001
 43
0.00000001
 40
0.0
 40
0.0
 40
0.0
 40
0.0
 40
0.1112010869424938
 40
0.2224281344836934
 40
0.3333238512507014
 40
0.444265629124893
 40
0.5773431255559865
 40
0.7104889028354983
 40
0.8552489195500277
 40
1.0
 40
1.0
 40
1.0
 40
1.0
 10
1.707463384491664
 20
1.038977087492
 30
0.0
 10
1.706785003795114
 20
1.038934876656691
 30
0.0
 10
1.705428084029743
 20
1.038850445131686
 30
0.0
 10
1.703235980759128
 20
1.038196097744728
 30
0.0
 10
1.701003032660647
 20
1.037176822710174
 30
0.0
 10
1.698628759499274
 20
1.035713109662159
 30
0.0
 10
1.69617874496632
 20
1.033767583063976
 30
0.0
 10
1.69368927000549
 20
1.03125048260902
 30
0.0
 10
1.69136405784972
 20
1.028308832888014
 30
0.0
 10
1.690109561104486
 20
1.026019141080841
 30
0.0
 10
1.689482332092982
 20
1.024874330514919
 30
0.0
  0
LINE
  5
1EA
330
1F
100
AcDbEntity
  8
0
  6
Continuous
 62
     7
370
    25
100
AcDbLine
 10
1.7097417124
 20
1.0389770875
 30
0.0
 11
1.7074633845
 21
1.0389770875
 31
0.0
  0
LINE
  5
1EB
330
1F
100
AcDbEntity
  8
0
  6
Continuous
 62
     7
370
    25
100
AcDbLine
 10
1.6904593714
 20
1.0248743305
 30
0.0
 11
1.6894823321
 21
1.0248743305
 31
0.0
  0
LINE
  5
1EC
330
1F
100
AcDbEntity
  8
0
  6
Continuous
 62
     7
370
    25
100
AcDbLine
 10
1.6894823321
 20
0.9330798397
 30
0.0
 11
1.6894823321
 21
1.0248743305
 31
0.0
  0
LWPOLYLINE
  5
1ED
330
1F
100
AcDbEntity
  8
0
  6
Continuous
 62
     7
370
    25
100
AcDbPolyline
 90
       12
 70
   128
 43
0.0
 10
2.0333043345
 20
0.9789770851
 10
2.0334211596
 20
0.9814304719
 10
2.0337690123
 20
0.9838315556
 10
2.0343407401
 20
0.9861291954
 10
2.0351239451
 20
0.9882743666
 10
2.0361021765
 20
0.9902214119
 10
2.0372542151
 20
0.991928787
 10
2.0385559805
 20
0.9933601329
 10
2.039979101
 20
0.9944849322
 10
2.0414937743
 20
0.9952791939
 10
2.0430675753
 20
0.9957260201
 10
2.0442665824
 20
0.9958270798
  0
LWPOLYLINE
  5
1EE
330
1F
100
AcDbEntity
  8
0
  6
Continuous
 62
     7
370
    25
100
AcDbPolyline
 90
       12
 70
   128
 43
0.0
 10
2.0442665824
 20
0.9621270904
 10
2.0430675753
 20
0.9622281799
 10
2.0414937743
 20
0.9626749763
 10
2.039979101
 20
0.9634692678
 10
2.0385559805
 20
0.9645940373
 10
2.0372542151
 20
0.9660253832
 10
2.0361021765
 20
0.9677327583
 10
2.0351239451
 20
0.9696798036
 10
2.0343407401
 20
0.9718250046
 10
2.0337690123
 20
0.9741226146
 10
2.0334211596
 20
0.9765236983
 10
2.0333043345
 20
0.9789770851
  0
ARC
  5
1EF
330
1F
100
AcDbEntity
  8
0
  6
Continuous
 62
     7
370
    25
100
AcDbCircle
 10
2.1845664748
 20
0.9789770911
 30
0.0
 40
0.01685
100
AcDbArc
 50
270.0
 51
90.0
  0
LWPOLYLINE
  5
1F0
330
1F
100
AcDbEntity
  8
0
  6
Continuous
 62
     7
370
    25
100
AcDbPolyline
 90
       24
 70
   128
 43
0.0
 10
2.0442665824
 20
0.9958270798
 10
2.0438662776
 20
0.9958158443
 10
2.0422755488
 20
0.9955467889
 10
2.0407270201
 20
0.9949246058
 10
2.0392540701
 20
0.9939624975
 10
2.0378881701
 20
0.9926810274
 10
2.0366579302
 20
0.9911074648
 10
2.0355900534
 20
0.989275367
 10
2.034706951
 20
0.9872237751
 10
2.0340276965
 20
0.984996439
 10
2.0335665949
 20
0.9826408038
 10
2.0333334216
 20
0.9802070568
 10
2.0333334216
 20
0.9777471135
 10
2.0335665949
 20
0.9753133962
 10
2.0340276965
 20
0.972957761
 10
2.034706951
 20
0.9707303951
 10
2.0355900534
 20
0.9686788032
 10
2.0366579302
 20
0.9668467054
 10
2.0378881701
 20
0.9652731726
 10
2.0392540701
 20
0.9639916727
 10
2.0407270201
 20
0.9630295942
 10
2.0422755488
 20
0.9624073813
 10
2.0438662776
 20
0.9621383259
 10
2.0442665824
 20
0.9621270904
  0
LWPOLYLINE
  5
1F1
330
1F
100
AcDbEntity
  8
0
  6
Continuous
 62
     7
370
    25
100
AcDbPolyline
 90
        9
 70
   128
 43
0.0
 10
0.0770964631
 20
1.3763270911
 10
0.0772870787
 20
1.3766573463
 10
0.0774782904
 20
1.3769884538
 10
0.0776697405
 20
1.3773201303
 10
0.0778614291
 20
1.3776520911
 10
0.0780531176
 20
1.3779840518
 10
0.0782445677
 20
1.3783157282
 10
0.0784357794
 20
1.3786468358
 10
0.0786263951
 20
1.3789770911
  0
LINE
  5
1F2
330
1F
100
AcDbEntity
  8
0
  6
Continuous
 62
     7
370
    25
100
AcDbLine
 10
0.0770964631
 20
1.381627091
 30
0.0
 11
0.0740364798
 21
1.381627091
 31
0.0
  0
LWPOLYLINE
  5
1F3
330
1F
100
AcDbEntity
  8
0
  6
Continuous
 62
     7
370
    25
100
AcDbPolyline
 90
        9
 70
   128
 43
0.0
 10
0.0740364798
 20
1.381627091
 10
0.0738458642
 20
1.3812968359
 10
0.0736546525
 20
1.3809657283
 10
0.0734632023
 20
1.3806340519
 10
0.0732715138
 20
1.380302091
 10
0.0730798253
 20
1.3799701303
 10
0.0728883751
 20
1.3796384539
 10
0.0726971634
 20
1.3793073463
 10
0.0725065478
 20
1.3789770911
  0
LWPOLYLINE
  5
1F4
330
1F
100
AcDbEntity
  8
0
  6
Continuous
 62
     7
370
    25
100
AcDbPolyline
 90
        9
 70
   128
 43
0.0
 10
0.0725065478
 20
1.3789770911
 10
0.0726971634
 20
1.3786468358
 10
0.0728883751
 20
1.3783157282
 10
0.0730798253
 20
1.3779840518
 10
0.0732715138
 20
1.3776520911
 10
0.0734632023
 20
1.3773201303
 10
0.0736546525
 20
1.3769884538
 10
0.0738458642
 20
1.3766573463
 10
0.0740364798
 20
1.3763270911
  0
CIRCLE
  5
1F5
330
1F
100
AcDbEntity
  8
0
  6
Continuous
 62
     7
370
    25
100
AcDbCircle
 10
0.0755664748
 20
1.3789770911
 30
0.0
 40
0.0099227988090174
  0
LWPOLYLINE
  5
1F6
330
1F
100
AcDbEntity
  8
0
  6
Continuous
 62
     7
370
    25
100
AcDbPolyline
 90
        9
 70
   128
 43
0.0
 10
0.0786263951
 20
1.3789770911
 10
0.0784357794
 20
1.3793073463
 10
0.0782445677
 20
1.3796384539
 10
0.0780531176
 20
1.3799701303
 10
0.0778614291
 20
1.380302091
 10
0.0776697405
 20
1.3806340519
 10
0.0774782904
 20
1.3809657283
 10
0.0772870787
 20
1.3812968359
 10
0.0770964631
 20
1.381627091
  0
LINE
  5
1F7
330
1F
100
AcDbEntity
  8
0
  6
Continuous
 62
     7
370
    25
100
AcDbLine
 10
0.0740364798
 20
1.3763270911
 30
0.0
 11
0.0770964631
 21
1.3763270911
 31
0.0
  0
CIRCLE
  5
1F8
330
1F
100
AcDbEntity
  8
0
  6
Continuous
 62
     7
370
    25
100
AcDbCircle
 10
0.0755664748
 20
1.3789770911
 30
0.0
 40
0.01
  0
LWPOLYLINE
  5
1F9
330
1F
100
AcDbEntity
  8
0
  6
Continuous
 62
     7
370
    25
100
AcDbPolyline
 90
        9
 70
   128
 43
0.0
 10
-0.3033735744
 20
1.3789770911
 10
-0.30356419
 20
1.3793073463
 10
-0.3037554017
 20
1.3796384539
 10
-0.3039468519
 20
1.3799701303
 10
-0.3041385404
 20
1.380302091
 10
-0.3043302289
 20
1.3806340519
 10
-0.3045216791
 20
1.3809657283
 10
-0.3047128908
 20
1.3812968359
 10
-0.3049035064
 20
1.381627091
  0
LINE
  5
1FA
330
1F
100
AcDbEntity
  8
0
  6
Continuous
 62
     7
370
    25
100
AcDbLine
 10
-0.3049035064
 20
1.381627091
 30
0.0
 11
-0.3079634897
 21
1.381627091
 31
0.0
  0
CIRCLE
  5
1FB
330
1F
100
AcDbEntity
  8
0
  6
Continuous
 62
     7
370
    25
100
AcDbCircle
 10
-0.3064335252
 20
1.3789770911
 30
0.0
 40
0.0099227988090174
  0
LWPOLYLINE
  5
1FC
330
1F
100
AcDbEntity
  8
0
  6
Continuous
 62
     7
370
    25
100
AcDbPolyline
 90
        9
 70
   128
 43
0.0
 10
-0.3079634897
 20
1.381627091
 10
-0.3081542245
 20
1.3812968359
 10
-0.308345317
 20
1.3809657283
 10
-0.3085368864
 20
1.3806340519
 10
-0.3087284557
 20
1.380302091
 10
-0.3089201442
 20
1.3799701303
 10
-0.3091115943
 20
1.3796384539
 10
-0.309302806
 20
1.3793073463
 10
-0.3094935409
 20
1.3789770911
  0
LWPOLYLINE
  5
1FD
330
1F
100
AcDbEntity
  8
0
  6
Continuous
 62
     7
370
    25
100
AcDbPolyline
 90
        9
 70
   128
 43
0.0
 10
-0.3049035064
 20
1.3763270911
 10
-0.3047128908
 20
1.3766573463
 10
-0.3045216791
 20
1.3769884538
 10
-0.3043302289
 20
1.3773201303
 10
-0.3041385404
 20
1.3776520911
 10
-0.3039468519
 20
1.3779840518
 10
-0.3037554017
 20
1.3783157282
 10
-0.30356419
 20
1.3786468358
 10
-0.3033735744
 20
1.3789770911
  0
LINE
  5
1FE
330
1F
100
AcDbEntity
  8
0
  6
Continuous
 62
     7
370
    25
100
AcDbLine
 10
-0.3079634897
 20
1.3763270911
 30
0.0
 11
-0.3049035064
 21
1.3763270911
 31
0.0
  0
LWPOLYLINE
  5
1FF
330
1F
100
AcDbEntity
  8
0
  6
Continuous
 62
     7
370
    25
100
AcDbPolyline
 90
        9
 70
   128
 43
0.0
 10
-0.3094935409
 20
1.3789770911
 10
-0.309302806
 20
1.3786468358
 10
-0.3091115943
 20
1.3783157282
 10
-0.3089201442
 20
1.3779840518
 10
-0.3087284557
 20
1.3776520911
 10
-0.3085368864
 20
1.3773201303
 10
-0.308345317
 20
1.3769884538
 10
-0.3081542245
 20
1.3766573463
 10
-0.3079634897
 20
1.3763270911
  0
CIRCLE
  5
200
330
1F
100
AcDbEntity
  8
0
  6
Continuous
 62
     7
370
    25
100
AcDbCircle
 10
-0.3064335252
 20
1.3789770911
 30
0.0
 40
0.01
  0
LWPOLYLINE
  5
201
330
1F
100
AcDbEntity
  8
0
  6
Continuous
 62
     7
370
    25
100
AcDbPolyline
 90
        9
 70
   128
 43
0.0
 10
0.4590965518
 20
1.3763270911
 10
0.4592870482
 20
1.3766573463
 10
0.4594782599
 20
1.3769884538
 10
0.45966971
 20
1.3773201303
 10
0.4598613986
 20
1.3776520911
 10
0.4600530871
 20
1.3779840518
 10
0.4602445372
 20
1.3783157282
 10
0.4604357489
 20
1.3786468358
 10
0.4606264838
 20
1.3789770911
  0
LWPOLYLINE
  5
202
330
1F
100
AcDbEntity
  8
0
  6
Continuous
 62
     7
370
    25
100
AcDbPolyline
 90
        9
 70
   128
 43
0.0
 10
0.4606264838
 20
1.3789770911
 10
0.4604357489
 20
1.3793073463
 10
0.4602445372
 20
1.3796384539
 10
0.4600530871
 20
1.3799701303
 10
0.4598613986
 20
1.380302091
 10
0.45966971
 20
1.3806340519
 10
0.4594782599
 20
1.3809657283
 10
0.4592870482
 20
1.3812968359
 10
0.4590965518
 20
1.381627091
  0
CIRCLE
  5
203
330
1F
100
AcDbEntity
  8
0
  6
Continuous
 62
     7
370
    25
100
AcDbCircle
 10
0.4575664748
 20
1.3789770911
 30
0.0
 40
0.0099227988090174
  0
LINE
  5
204
330
1F
100
AcDbEntity
  8
0
  6
Continuous
 62
     7
370
    25
100
AcDbLine
 10
0.4560364493
 20
1.3763270911
 30
0.0
 11
0.4590965518
 21
1.3763270911
 31
0.0
  0
LWPOLYLINE
  5
205
330
1F
100
AcDbEntity
  8
0
  6
Continuous
 62
     7
370
    25
100
AcDbPolyline
 90
        9
 70
   128
 43
0.0
 10
0.4560364493
 20
1.381627091
 10
0.4558457144
 20
1.3812968359
 10
0.4556547412
 20
1.3809657283
 10
0.4554630526
 20
1.3806340519
 10
0.4552716025
 20
1.380302091
 10
0.455079914
 20
1.3799701303
 10
0.4548884638
 20
1.3796384539
 10
0.4546972521
 20
1.3793073463
 10
0.4545065173
 20
1.3789770911
  0
LWPOLYLINE
  5
206
330
1F
100
AcDbEntity
  8
0
  6
Continuous
 62
     7
370
    25
100
AcDbPolyline
 90
        9
 70
   128
 43
0.0
 10
0.4545065173
 20
1.3789770911
 10
0.4546972521
 20
1.3786468358
 10
0.4548884638
 20
1.3783157282
 10
0.455079914
 20
1.3779840518
 10
0.4552716025
 20
1.3776520911
 10
0.4554630526
 20
1.3773201303
 10
0.4556547412
 20
1.3769884538
 10
0.4558457144
 20
1.3766573463
 10
0.4560364493
 20
1.3763270911
  0
LINE
  5
207
330
1F
100
AcDbEntity
  8
0
  6
Continuous
 62
     7
370
    25
100
AcDbLine
 10
0.4590965518
 20
1.381627091
 30
0.0
 11
0.4560364493
 21
1.381627091
 31
0.0
  0
CIRCLE
  5
208
330
1F
100
AcDbEntity
  8
0
  6
Continuous
 62
     7
370
    25
100
AcDbCircle
 10
0.4575664748
 20
1.3789770911
 30
0.0
 40
0.01
  0
LWPOLYLINE
  5
209
330
1F
100
AcDbEntity
  8
0
  6
Continuous
 62
     7
370
    25
100
AcDbPolyline
 90
        9
 70
   128
 43
0.0
 10
-0.6869035951
 20
1.3763270911
 10
-0.6867128602
 20
1.3766573463
 10
-0.6865217678
 20
1.3769884538
 10
-0.6863301984
 20
1.3773201303
 10
-0.6861385099
 20
1.3776520911
 10
-0.6859469406
 20
1.3779840518
 10
-0.6857553712
 20
1.3783157282
 10
-0.6855642787
 20
1.3786468358
 10
-0.6853735439
 20
1.3789770911
  0
LWPOLYLINE
  5
20A
330
1F
100
AcDbEntity
  8
0
  6
Continuous
 62
     7
370
    25
100
AcDbPolyline
 90
        9
 70
   128
 43
0.0
 10
-0.6853735439
 20
1.3789770911
 10
-0.6855642787
 20
1.3793073463
 10
-0.6857553712
 20
1.3796384539
 10
-0.6859469406
 20
1.3799701303
 10
-0.6861385099
 20
1.380302091
 10
-0.6863301984
 20
1.3806340519
 10
-0.6865217678
 20
1.3809657283
 10
-0.6867128602
 20
1.3812968359
 10
-0.6869035951
 20
1.381627091
  0
LINE
  5
20B
330
1F
100
AcDbEntity
  8
0
  6
Continuous
 62
     7
370
    25
100
AcDbLine
 10
-0.6869035951
 20
1.381627091
 30
0.0
 11
-0.6899634592
 21
1.381627091
 31
0.0
  0
LWPOLYLINE
  5
20C
330
1F
100
AcDbEntity
  8
0
  6
Continuous
 62
     7
370
    25
100
AcDbPolyline
 90
        9
 70
   128
 43
0.0
 10
-0.6899634592
 20
1.381627091
 10
-0.690154194
 20
1.3812968359
 10
-0.6903452865
 20
1.3809657283
 10
-0.6905368558
 20
1.3806340519
 10
-0.6907285444
 20
1.380302091
 10
-0.6909201137
 20
1.3799701303
 10
-0.691111683
 20
1.3796384539
 10
-0.6913027755
 20
1.3793073463
 10
-0.6914935104
 20
1.3789770911
  0
LWPOLYLINE
  5
20D
330
1F
100
AcDbEntity
  8
0
  6
Continuous
 62
     7
370
    25
100
AcDbPolyline
 90
        9
 70
   128
 43
0.0
 10
-0.6914935104
 20
1.3789770911
 10
-0.6913027755
 20
1.3786468358
 10
-0.691111683
 20
1.3783157282
 10
-0.6909201137
 20
1.3779840518
 10
-0.6907285444
 20
1.3776520911
 10
-0.6905368558
 20
1.3773201303
 10
-0.6903452865
 20
1.3769884538
 10
-0.690154194
 20
1.3766573463
 10
-0.6899634592
 20
1.3763270911
  0
LINE
  5
20E
330
1F
100
AcDbEntity
  8
0
  6
Continuous
 62
     7
370
    25
100
AcDbLine
 10
-0.6899634592
 20
1.3763270911
 30
0.0
 11
-0.6869035951
 21
1.3763270911
 31
0.0
  0
CIRCLE
  5
20F
330
1F
100
AcDbEntity
  8
0
  6
Continuous
 62
     7
370
    25
100
AcDbCircle
 10
-0.6884335252
 20
1.3789770911
 30
0.0
 40
0.0099227988090174
  0
CIRCLE
  5
210
330
1F
100
AcDbEntity
  8
0
  6
Continuous
 62
     7
370
    25
100
AcDbCircle
 10
-0.6884335252
 20
1.3789770911
 30
0.0
 40
0.01
  0
LWPOLYLINE
  5
211
330
1F
100
AcDbEntity
  8
0
  6
Continuous
 62
     7
370
    25
100
AcDbPolyline
 90
       20
 70
   128
 43
0.0
 10
1.7128902682
 20
1.02746451
 10
1.7121640452
 20
1.0271793017
 10
1.7115374812
 20
1.0265470753
 10
1.711078287
 20
1.0256363759
 10
1.7108362921
 20
1.0245458493
 10
1.7108379611
 20
1.0233936915
 10
1.7110828169
 20
1.0223047445
 10
1.7115443953
 20
1.0213970253
 10
1.7121728667
 20
1.0207689116
 10
1.7129000434
 20
1.0204884419
 10
1.7136467703
 20
1.0205860147
 10
1.7143327006
 20
1.02105108
 10
1.7148829707
 20
1.0218332121
 10
1.7152384528
 20
1.0228476832
 10
1.7153602847
 20
1.0239845226
 10
1.7152353533
 20
1.0251205573
 10
1.7148770102
 20
1.0261327038
 10
1.7143245944
 20
1.0269112298
 10
1.713637472
 20
1.0273717949
 10
1.7128902682
 20
1.02746451
  0
LWPOLYLINE
  5
212
330
1F
100
AcDbEntity
  8
0
  6
Continuous
 62
     7
370
    25
100
AcDbPolyline
 90
       17
 70
   128
 43
0.0
 10
1.7096444377
 20
1.0309519479
 10
1.7086445101
 20
1.030645133
 10
1.7077139624
 20
1.0300039658
 10
1.7068995246
 20
1.0290606031
 10
1.7062419661
 20
1.0278623114
 10
1.7057744273
 20
1.0264692018
 10
1.7055205115
 20
1.0249511311
 10
1.7054923781
 20
1.0233842144
 10
1.7056921729
 20
1.0218470404
 10
1.706109167
 20
1.0204166481
 10
1.7067228564
 20
1.0191648314
 10
1.7075024851
 20
1.0181542942
 10
1.7084089526
 20
1.0174357305
 10
1.7093964823
 20
1.0170452008
 10
1.7104159602
 20
1.0170022557
 10
1.7114161261
 20
1.0173090408
 10
1.7114576109
 20
1.0173297534
  0
LWPOLYLINE
  5
213
330
1F
100
AcDbEntity
  8
0
  6
Continuous
 62
     7
370
    25
100
AcDbPolyline
 90
        3
 70
   128
 43
0.0
 10
1.7114576109
 20
1.0306244204
 10
1.7106639155
 20
1.0309090028
 10
1.7096444377
 20
1.0309519479
  0
LWPOLYLINE
  5
214
330
1F
100
AcDbEntity
  8
0
  6
Continuous
 62
     7
370
    25
100
AcDbPolyline
 90
       16
 70
   128
 43
0.0
 10
1.7097417124
 20
1.0309771011
 10
1.7093559512
 20
1.0309519479
 10
1.7083557852
 20
1.030645133
 10
1.7074252375
 20
1.0300039658
 10
1.7066107997
 20
1.0290606031
 10
1.7059534796
 20
1.0278623114
 10
1.7054859408
 20
1.0264692018
 10
1.7052317866
 20
1.0249511311
 10
1.7052038916
 20
1.0233842144
 10
1.705403448
 20
1.0218470404
 10
1.7058206805
 20
1.0204166481
 10
1.7064343699
 20
1.0191648314
 10
1.7072139987
 20
1.0181542942
 10
1.7081202277
 20
1.0174357305
 10
1.7091079959
 20
1.0170452008
 10
1.7097417124
 20
1.0169771025
  0
LINE
  5
215
330
1F
100
AcDbEntity
  8
0
  6
Continuous
 62
     7
370
    25
100
AcDbLine
 10
1.7112118014
 20
1.0237326035
 30
0.0
 11
1.7120097884
 21
1.02634585
 31
0.0
  0
LINE
  5
216
330
1F
100
AcDbEntity
  8
0
  6
Continuous
 62
     7
370
    25
100
AcDbLine
 10
1.7122851618
 20
1.0213638256
 30
0.0
 11
1.7112118014
 21
1.0237326035
 31
0.0
  0
LINE
  5
217
330
1F
100
AcDbEntity
  8
0
  6
Continuous
 62
     7
370
    25
100
AcDbLine
 10
1.7141565093
 20
1.0216083238
 30
0.0
 11
1.7122851618
 21
1.0213638256
 31
0.0
  0
LINE
  5
218
330
1F
100
AcDbEntity
  8
0
  6
Continuous
 62
     7
370
    25
100
AcDbLine
 10
1.7149544962
 20
1.0242216
 30
0.0
 11
1.7141565093
 21
1.0216083238
 31
0.0
  0
LINE
  5
219
330
1F
100
AcDbEntity
  8
0
  6
Continuous
 62
     7
370
    25
100
AcDbLine
 10
1.7138811358
 20
1.0265903482
 30
0.0
 11
1.7149544962
 21
1.0242216
 31
0.0
  0
LINE
  5
21A
330
1F
100
AcDbEntity
  8
0
  6
Continuous
 62
     7
370
    25
100
AcDbLine
 10
1.7120097884
 20
1.02634585
 30
0.0
 11
1.7138811358
 21
1.0265903482
 31
0.0
  0
LINE
  5
21B
330
1F
100
AcDbEntity
  8
0
  6
Continuous
 62
     7
370
    25
100
AcDbLine
 10
1.712182165
 20
1.0216083238
 30
0.0
 11
1.7141565093
 21
1.0216083238
 31
0.0
  0
LINE
  5
21C
330
1F
100
AcDbEntity
  8
0
  6
Continuous
 62
     7
370
    25
100
AcDbLine
 10
1.712182165
 20
1.0216083238
 30
0.0
 11
1.712174774
 21
1.0216073701
 31
0.0
  0
ARC
  5
21D
330
1F
100
AcDbEntity
  8
0
  6
Continuous
 62
     7
370
    25
100
AcDbCircle
 10
1.7104562923
 20
1.0245530722
 30
0.0
 40
0.0021622619227201
100
AcDbArc
 50
23.2316108074
 51
46.59554774
  0
ARC
  5
21E
330
1F
100
AcDbEntity
  8
0
  6
Continuous
 62
     7
370
    25
100
AcDbCircle
 10
1.7090890999
 20
1.023971095
 30
0.0
 40
0.0036481624208509
100
AcDbArc
 50
343.1718941859
 51
23.1609624144
  0
ARC
  5
21F
330
1F
100
AcDbEntity
  8
0
  6
Continuous
 62
     7
370
    25
100
AcDbCircle
 10
1.7101500469
 20
1.02360564
 30
0.0
 40
0.0025272081169119
100
AcDbArc
 50
318.1705358305
 51
344.139104682
  0
LINE
  5
220
330
1F
100
AcDbEntity
  8
0
  6
Continuous
 62
     7
370
    25
100
AcDbLine
 10
1.7129799136
 20
1.0242216
 30
0.0
 11
1.7149544962
 21
1.0242216
 31
0.0
  0
LINE
  5
221
330
1F
100
AcDbEntity
  8
0
  6
Continuous
 62
     7
370
    25
100
AcDbLine
 10
1.7124432334
 20
1.0254059741
 30
0.0
 11
1.7129799136
 21
1.0242216
 31
0.0
  0
LINE
  5
222
330
1F
100
AcDbEntity
  8
0
  6
Continuous
 62
     7
370
    25
100
AcDbLine
 10
1.7120169409
 20
1.0263468037
 30
0.0
 11
1.7124432334
 21
1.0254059741
 31
0.0
  0
LINE
  5
223
330
1F
100
AcDbEntity
  8
0
  6
Continuous
 62
     7
370
    25
100
AcDbLine
 10
1.7125810393
 20
1.022914947
 30
0.0
 11
1.712182165
 21
1.0216083238
 31
0.0
  0
LINE
  5
224
330
1F
100
AcDbEntity
  8
0
  6
Continuous
 62
     7
370
    25
100
AcDbLine
 10
1.7129799136
 20
1.0242216
 30
0.0
 11
1.7125810393
 21
1.022914947
 31
0.0
  0
LINE
  5
225
330
1F
100
AcDbEntity
  8
0
  6
Continuous
 62
     7
370
    25
100
AcDbLine
 10
-1.0676035277
 20
1.3847901975
 30
0.0
 11
-1.0676035277
 21
1.3719770909
 31
0.0
  0
LINE
  5
226
330
1F
100
AcDbEntity
  8
0
  6
Continuous
 62
     7
370
    25
100
AcDbLine
 10
-1.0676035277
 20
1.3859770913
 30
0.0
 11
-1.0676035277
 21
1.3847901975
 31
0.0
  0
LINE
  5
227
330
1F
100
AcDbEntity
  8
0
  6
Continuous
 62
     7
370
    25
100
AcDbLine
 10
-1.0679835073
 20
1.3847901975
 30
0.0
 11
-1.0679835073
 21
1.3719770909
 31
0.0
  0
LINE
  5
228
330
1F
100
AcDbEntity
  8
0
  6
Continuous
 62
     7
370
    25
100
AcDbLine
 10
-1.0679835073
 20
1.3859770913
 30
0.0
 11
-1.0679835073
 21
1.3847901975
 31
0.0
  0
LINE
  5
229
330
1F
100
AcDbEntity
  8
0
  6
Continuous
 62
     7
370
    25
100
AcDbLine
 10
-1.063583552
 20
1.3818836443
 30
0.0
 11
-1.063583552
 21
1.375477091
 31
0.0
  0
LINE
  5
22A
330
1F
100
AcDbEntity
  8
0
  6
Continuous
 62
     7
370
    25
100
AcDbLine
 10
-1.063583552
 20
1.3824770912
 30
0.0
 11
-1.063583552
 21
1.3818836443
 31
0.0
  0
LINE
  5
22B
330
1F
100
AcDbEntity
  8
0
  6
Continuous
 62
     7
370
    25
100
AcDbLine
 10
0.8371163615
 20
1.3719770909
 30
0.0
 11
0.8371163615
 21
1.3859770913
 31
0.0
  0
LINE
  5
22C
330
1F
100
AcDbEntity
  8
0
  6
Continuous
 62
     7
370
    25
100
AcDbLine
 10
0.8367365607
 20
1.3719770909
 30
0.0
 11
0.8367365607
 21
1.3859770913
 31
0.0
  0
LINE
  5
22D
330
1F
100
AcDbEntity
  8
0
  6
Continuous
 62
     7
370
    25
100
AcDbLine
 10
0.832716585
 20
1.375477091
 30
0.0
 11
0.832716585
 21
1.3824770912
 31
0.0
  0
LWPOLYLINE
  5
22E
330
1F
100
AcDbEntity
  8
0
  6
Continuous
 62
     7
370
    25
100
AcDbPolyline
 90
       20
 70
   128
 43
0.0
 10
1.7128845461
 20
0.9374637613
 10
1.7121588
 20
0.9371757219
 10
1.7115331896
 20
0.9365410516
 10
1.711075426
 20
0.9356285343
 10
1.7108353385
 20
0.9345370839
 10
1.7108389147
 20
0.9333849261
 10
1.711085678
 20
0.9322969327
 10
1.7115486868
 20
0.9313910315
 10
1.7121781119
 20
0.9307653615
 10
1.7129057654
 20
0.9304877231
 10
1.7136524924
 20
0.9305882463
 10
1.714337469
 20
0.931055964
 10
1.714886547
 20
0.9318402419
 10
1.7152403601
 20
0.9328560839
 10
1.7153602847
 20
0.9339934001
 10
1.715233446
 20
0.935128958
 10
1.7148734339
 20
0.9361397037
 10
1.7143195876
 20
0.9369160542
 10
1.71363175
 20
0.9373739669
 10
1.7128845461
 20
0.9374637613
  0
LWPOLYLINE
  5
22F
330
1F
100
AcDbEntity
  8
0
  6
Continuous
 62
     7
370
    25
100
AcDbPolyline
 90
       17
 70
   128
 43
0.0
 10
1.7096329936
 20
0.9409504244
 10
1.7086335429
 20
0.9406397054
 10
1.7077039488
 20
0.9399949322
 10
1.7068909415
 20
0.9390483806
 10
1.7062355288
 20
0.9378475258
 10
1.7057703742
 20
0.9364525983
 10
1.7055188426
 20
0.9349335442
 10
1.7054935702
 20
0.9333665082
 10
1.7056955107
 20
0.9318301091
 10
1.7061151274
 20
0.9304013858
 10
1.7067309626
 20
0.9291519234
 10
1.7075122603
 20
0.9281444559
 10
1.7084196814
 20
0.9274294386
 10
1.7094079264
 20
0.9270427535
 10
1.7104274043
 20
0.927003772
 10
1.7114270934
 20
0.9273144612
 10
1.7114576109
 20
0.9273297498
  0
LWPOLYLINE
  5
230
330
1F
100
AcDbEntity
  8
0
  6
Continuous
 62
     7
370
    25
100
AcDbPolyline
 90
        3
 70
   128
 43
0.0
 10
1.7114576109
 20
0.9406244168
 10
1.7106524714
 20
0.940911443
 10
1.7096329936
 20
0.9409504244
  0
LWPOLYLINE
  5
231
330
1F
100
AcDbEntity
  8
0
  6
Continuous
 62
     7
370
    25
100
AcDbPolyline
 90
       16
 70
   128
 43
0.0
 10
1.7097417124
 20
0.9409770975
 10
1.7093445071
 20
0.9409504244
 10
1.708344818
 20
0.9406397054
 10
1.7074152239
 20
0.9399949322
 10
1.706602455
 20
0.9390483806
 10
1.7059470423
 20
0.9378475258
 10
1.7054818877
 20
0.9364525983
 10
1.7052303561
 20
0.9349335442
 10
1.7052048453
 20
0.9333665082
 10
1.7054070242
 20
0.9318301091
 10
1.7058266409
 20
0.9304013858
 10
1.7064422377
 20
0.9291519234
 10
1.7072235354
 20
0.9281444559
 10
1.7081311949
 20
0.9274294386
 10
1.7091194399
 20
0.9270427535
 10
1.7097417124
 20
0.9269770989
  0
LINE
  5
232
330
1F
100
AcDbEntity
  8
0
  6
Continuous
 62
     7
370
    25
100
AcDbLine
 10
1.7112122782
 20
0.9337252984
 30
0.0
 11
1.7120057353
 21
0.9363416741
 31
0.0
  0
LINE
  5
233
330
1F
100
AcDbEntity
  8
0
  6
Continuous
 62
     7
370
    25
100
AcDbLine
 10
1.7122894534
 20
0.9313607225
 30
0.0
 11
1.7112122782
 21
0.9337252984
 31
0.0
  0
LINE
  5
234
330
1F
100
AcDbEntity
  8
0
  6
Continuous
 62
     7
370
    25
100
AcDbLine
 10
1.7141605624
 20
0.9316125224
 30
0.0
 11
1.7122894534
 21
0.9313607225
 31
0.0
  0
LINE
  5
235
330
1F
100
AcDbEntity
  8
0
  6
Continuous
 62
     7
370
    25
100
AcDbLine
 10
1.7149540194
 20
0.934228898
 30
0.0
 11
1.7141605624
 21
0.9316125224
 31
0.0
  0
LINE
  5
236
330
1F
100
AcDbEntity
  8
0
  6
Continuous
 62
     7
370
    25
100
AcDbLine
 10
1.7138768443
 20
0.9365934739
 30
0.0
 11
1.7149540194
 21
0.934228898
 31
0.0
  0
LINE
  5
237
330
1F
100
AcDbEntity
  8
0
  6
Continuous
 62
     7
370
    25
100
AcDbLine
 10
1.7120057353
 20
0.9363416741
 30
0.0
 11
1.7138768443
 21
0.9365934739
 31
0.0
  0
LINE
  5
238
330
1F
100
AcDbEntity
  8
0
  6
Continuous
 62
     7
370
    25
100
AcDbLine
 10
1.7121859797
 20
0.9316125224
 30
0.0
 11
1.7141605624
 21
0.9316125224
 31
0.0
  0
LINE
  5
239
330
1F
100
AcDbEntity
  8
0
  6
Continuous
 62
     7
370
    25
100
AcDbLine
 10
1.7121859797
 20
0.9316125224
 30
0.0
 11
1.7121754893
 21
0.9316111216
 31
0.0
  0
ARC
  5
23A
330
1F
100
AcDbEntity
  8
0
  6
Continuous
 62
     7
370
    25
100
AcDbCircle
 10
1.7104688295
 20
0.9345617476
 30
0.0
 40
0.002147185886901
100
AcDbArc
 50
23.3037387545
 51
46.7454050094
  0
ARC
  5
23B
330
1F
100
AcDbEntity
  8
0
  6
Continuous
 62
     7
370
    25
100
AcDbCircle
 10
1.7090922012
 20
0.9339711605
 30
0.0
 40
0.0036451497062459
100
AcDbArc
 50
343.2508750214
 51
23.269247287
  0
ARC
  5
23C
330
1F
100
AcDbEntity
  8
0
  6
Continuous
 62
     7
370
    25
100
AcDbCircle
 10
1.7102076183
 20
0.9335741974
 30
0.0
 40
0.0024633548470563
100
AcDbArc
 50
317.8562695416
 51
344.6158458508
  0
LINE
  5
23D
330
1F
100
AcDbEntity
  8
0
  6
Continuous
 62
     7
370
    25
100
AcDbLine
 10
1.7129794367
 20
0.934228898
 30
0.0
 11
1.7149540194
 21
0.934228898
 31
0.0
  0
LINE
  5
23E
330
1F
100
AcDbEntity
  8
0
  6
Continuous
 62
     7
370
    25
100
AcDbLine
 10
1.7124408492
 20
0.935411186
 30
0.0
 11
1.7129794367
 21
0.934228898
 31
0.0
  0
LINE
  5
23F
330
1F
100
AcDbEntity
  8
0
  6
Continuous
 62
     7
370
    25
100
AcDbLine
 10
1.7120162257
 20
0.9363430748
 30
0.0
 11
1.7124408492
 21
0.935411186
 31
0.0
  0
LINE
  5
240
330
1F
100
AcDbEntity
  8
0
  6
Continuous
 62
     7
370
    25
100
AcDbLine
 10
1.7125827082
 20
0.9329206953
 30
0.0
 11
1.7121859797
 21
0.9316125224
 31
0.0
  0
LINE
  5
241
330
1F
100
AcDbEntity
  8
0
  6
Continuous
 62
     7
370
    25
100
AcDbLine
 10
1.7129794367
 20
0.934228898
 30
0.0
 11
1.7125827082
 21
0.9329206953
 31
0.0
  0
LINE
  5
242
330
1F
100
AcDbEntity
  8
0
  6
Continuous
 62
     7
370
    25
100
AcDbLine
 10
0.8541656741
 20
1.3439770909
 30
0.0
 11
0.8553444155
 21
1.345482708
 31
0.0
  0
SPLINE
  5
243
330
1F
100
AcDbEntity
  8
0
  6
Continuous
 62
     7
370
    25
100
AcDbSpline
210
0.0
220
0.0
230
1.0
 70
     8
 71
     3
 72
    19
 73
    15
 74
     0
 42
0.000000001
 43
0.00000001
 40
0.0
 40
0.0
 40
0.0
 40
0.0
 40
0.0523996267400347
 40
0.1058108733915969
 40
0.1864597719432398
 40
0.2692596597988484
 40
0.3882826248065561
 40
0.5106830264858039
 40
0.6310399781891669
 40
0.6934715674705824
 40
0.7558869423175835
 40
0.8391778220209873
 40
0.9247207141916426
 40
0.9999999999999999
 40
0.9999999999999999
 40
0.9999999999999999
 40
0.9999999999999999
 10
0.8541656740729623
 20
1.343977090919267
 30
0.0
 10
0.854132765089901
 20
1.344002776784452
 30
0.0
 10
0.8540663117875246
 20
1.344054644402565
 30
0.0
 10
0.8534559720136071
 20
1.344539243794876
 30
0.0
 10
0.852303318518901
 20
1.34549811904873
 30
0.0
 10
0.8502846173400779
 20
1.347342671814344
 30
0.0
 10
0.8475887653086328
 20
1.350186917017346
 30
0.0
 10
0.8444876847702959
 20
1.354259571503643
 30
0.0
 10
0.8420519551670979
 20
1.358443280301262
 30
0.0
 10
0.8403492286104152
 20
1.362233006735168
 30
0.0
 10
0.8390880285953827
 20
1.365685086544247
 30
0.0
 10
0.8379933724353509
 20
1.369800708272042
 30
0.0
 10
0.8372483570585793
 20
1.374404255888662
 30
0.0
 10
0.8371584473398362
 20
1.377519074836957
 30
0.0
 10
0.8371163614814096
 20
1.378977091068279
 30
0.0
  0
LINE
  5
244
330
1F
100
AcDbEntity
  8
0
  6
Continuous
 62
     7
370
    25
100
AcDbLine
 10
0.8371163615
 20
1.3789770911
 30
0.0
 11
0.8401163825
 21
1.3789770911
 31
0.0
  0
LINE
  5
245
330
1F
100
AcDbEntity
  8
0
  6
Continuous
 62
     7
370
    25
100
AcDbLine
 10
0.8541656741
 20
1.4139770912
 30
0.0
 11
0.8553444155
 21
1.4124714742
 31
0.0
  0
SPLINE
  5
246
330
1F
100
AcDbEntity
  8
0
  6
Continuous
 62
     7
370
    25
100
AcDbSpline
210
0.0
220
0.0
230
1.0
 70
     8
 71
     3
 72
    18
 73
    14
 74
     0
 42
0.000000001
 43
0.00000001
 40
0.0
 40
0.0
 40
0.0
 40
0.0
 40
0.1052034989297656
 40
0.1910783650301858
 40
0.2770169123962045
 40
0.3653783519322502
 40
0.4537970831304787
 40
0.5609308466548392
 40
0.6680717085076058
 40
0.7596634795725056
 40
0.8511040149209347
 40
0.9256045231722204
 40
1.0
 40
1.0
 40
1.0
 40
1.0
 10
0.8371163614814096
 20
1.378977091068279
 30
0.0
 10
0.83719690588532
 20
1.381016901371448
 30
0.0
 10
0.8373431965806705
 20
1.384721755503358
 30
0.0
 10
0.8383905297547009
 20
1.389849858665863
 30
0.0
 10
0.8397727188417877
 20
1.394356002995023
 30
0.0
 10
0.8415548668794538
 20
1.398498223703933
 30
0.0
 10
0.8437538887040147
 20
1.402495041555947
 30
0.0
 10
0.8463098915615624
 20
1.406164212193281
 30
0.0
 10
0.8489114640109191
 20
1.409207823673496
 30
0.0
 10
0.8512119235559029
 20
1.411484065051004
 30
0.0
 10
0.8528864176002066
 20
1.412951496714278
 30
0.0
 10
0.8539551111288793
 20
1.413816173297077
 30
0.0
 10
0.8540955194396694
 20
1.41392347714131
 30
0.0
 10
0.8541656740729623
 20
1.41397709121729
 30
0.0
  0
LINE
  5
247
330
1F
100
AcDbEntity
  8
0
  6
Continuous
 62
     7
370
    25
100
AcDbLine
 10
-1.0850327603
 20
1.4139770912
 30
0.0
 11
-1.0862114421
 21
1.4124714742
 31
0.0
  0
LINE
  5
248
330
1F
100
AcDbEntity
  8
0
  6
Continuous
 62
     7
370
    25
100
AcDbLine
 10
-1.0679835073
 20
1.3789770911
 30
0.0
 11
-1.0709835283
 21
1.3789770911
 31
0.0
  0
SPLINE
  5
249
330
1F
100
AcDbEntity
  8
0
  6
Continuous
 62
     7
370
    25
100
AcDbSpline
210
0.0
220
0.0
230
1.0
 70
     8
 71
     3
 72
    19
 73
    15
 74
     0
 42
0.000000001
 43
0.00000001
 40
0.0
 40
0.0
 40
0.0
 40
0.0
 40
0.0523997636264506
 40
0.1058107056721821
 40
0.1864601935827671
 40
0.2692601191178312
 40
0.3882827069974991
 40
0.5106831643770696
 40
0.6310405874878023
 40
0.6934714713231037
 40
0.7558868745732512
 40
0.839177542253997
 40
0.92472078052426
 40
1.0
 40
1.0
 40
1.0
 40
1.0
 10
-1.085032760279912
 20
1.41397709121729
 30
0.0
 10
-1.084999787569889
 20
1.413951405879235
 30
0.0
 10
-1.084933205862758
 20
1.413899539543263
 30
0.0
 10
-1.084323158758365
 20
1.413414932484178
 30
0.0
 10
-1.083170222902011
 20
1.412456069048533
 30
0.0
 10
-1.081151605472681
 20
1.410611514257805
 30
0.0
 10
-1.078455786221939
 20
1.407767260786018
 30
0.0
 10
-1.075354752718707
 20
1.403694590722341
 30
0.0
 10
-1.072918842096895
 20
1.399510947415609
 30
0.0
 10
-1.071216352007389
 20
1.395721150580803
 30
0.0
 10
-1.069955078034873
 20
1.392269108912912
 30
0.0
 10
-1.06886059406382
 20
1.388153450467348
 30
0.0
 10
-1.068115307362478
 20
1.383549942373537
 30
0.0
 10
-1.068025530740163
 20
1.380435109838366
 30
0.0
 10
-1.067983507293004
 20
1.378977091068279
 30
0.0
  0
LINE
  5
24A
330
1F
100
AcDbEntity
  8
0
  6
Continuous
 62
     7
370
    25
100
AcDbLine
 10
-1.0850327603
 20
1.3439770909
 30
0.0
 11
-1.0862114421
 21
1.345482708
 31
0.0
  0
SPLINE
  5
24B
330
1F
100
AcDbEntity
  8
0
  6
Continuous
 62
     7
370
    25
100
AcDbSpline
210
0.0
220
0.0
230
1.0
 70
     8
 71
     3
 72
    18
 73
    14
 74
     0
 42
0.000000001
 43
0.00000001
 40
0.0
 40
0.0
 40
0.0
 40
0.0
 40
0.1052034179282473
 40
0.1910780847982945
 40
0.2770163419091295
 40
0.365377416817238
 40
0.4537965470092835
 40
0.5609302993401527
 40
0.6680711499986864
 40
0.7596637373590583
 40
0.8511035877487223
 40
0.9256045309451678
 40
0.9999999999999999
 40
0.9999999999999999
 40
0.9999999999999999
 40
0.9999999999999999
 10
-1.067983507293004
 20
1.378977091068279
 30
0.0
 10
-1.068064033212362
 20
1.376937281598321
 30
0.0
 10
-1.068210290232813
 20
1.373232431560667
 30
0.0
 10
-1.06925755294976
 20
1.368104325080684
 30
0.0
 10
-1.070639692537888
 20
1.363598183501191
 30
0.0
 10
-1.072421748018819
 20
1.359455936148875
 30
0.0
 10
-1.0746208761188
 20
1.355459154676701
 30
0.0
 10
-1.077176868090385
 20
1.351789969752133
 30
0.0
 10
-1.079778378654069
 20
1.348746341707463
 30
0.0
 10
-1.08207908921673
 20
1.346470138792633
 30
0.0
 10
-1.083753301115872
 20
1.345002673504958
 30
0.0
 10
-1.084822242698931
 20
1.344138012226156
 30
0.0
 10
-1.08496262089961
 20
1.344030706017303
 30
0.0
 10
-1.085032760279912
 20
1.343977090919267
 30
0.0
  0
LWPOLYLINE
  5
24C
330
1F
100
AcDbEntity
  8
0
  6
Continuous
 62
     7
370
    25
100
AcDbPolyline
 90
       17
 70
   128
 43
0.0
 10
0.6622804411
 20
-0.2205660036
 10
0.6619418868
 20
-0.2212277343
 10
0.661097885
 20
-0.2222510269
 10
0.6599687346
 20
-0.223061054
 10
0.658603073
 20
-0.2236221721
 10
0.65706122
 20
-0.2239101818
 10
0.6554104098
 20
-0.2239122083
 10
0.6537226447
 20
-0.223628371
 10
0.652071596
 20
-0.2230709484
 10
0.6505297431
 20
-0.2222643783
 10
0.6491643199
 20
-0.2212438276
 10
0.648034931
 20
-0.2200539997
 10
0.6471911677
 20
-0.2187467506
 10
0.6466695078
 20
-0.21737942
 10
0.6464930781
 20
-0.2160116127
 10
0.6466695078
 20
-0.2147030523
 10
0.6468526133
 20
-0.2141728094
  0
LWPOLYLINE
  5
24D
330
1F
100
AcDbEntity
  8
0
  6
Continuous
 62
     7
370
    25
100
AcDbPolyline
 90
       15
 70
   128
 43
0.0
 10
1.9226399668
 20
-0.2160116127
 10
1.9224635371
 20
-0.21737942
 10
1.9219418772
 20
-0.2187467506
 10
1.9210978755
 20
-0.2200539997
 10
1.9199687251
 20
-0.2212438276
 10
1.9186030634
 20
-0.2222643783
 10
1.9170612105
 20
-0.2230709484
 10
1.9154104003
 20
-0.223628371
 10
1.9137226351
 20
-0.2239122083
 10
1.9120715865
 20
-0.2239101818
 10
1.9105297335
 20
-0.2236221721
 10
1.9091643103
 20
-0.223061054
 10
1.9080349215
 20
-0.2222510269
 10
1.9071911582
 20
-0.2212277343
 10
1.9068526038
 20
-0.2205660036
  0
LWPOLYLINE
  5
24E
330
1F
100
AcDbEntity
  8
0
  6
Continuous
 62
     7
370
    25
100
AcDbPolyline
 90
        3
 70
   128
 43
0.0
 10
1.9222804316
 20
-0.2141728094
 10
1.9224635371
 20
-0.2147030523
 10
1.9226399668
 20
-0.2160116127
  0
LWPOLYLINE
  5
24F
330
1F
100
AcDbEntity
  8
0
  6
Continuous
 62
     7
370
    25
100
AcDbPolyline
 90
       17
 70
   128
 43
0.0
 10
1.2929164179
 20
-0.2173694065
 10
1.2927340277
 20
-0.2187075307
 10
1.2921944865
 20
-0.2199872425
 10
1.2913218745
 20
-0.2211525133
 10
1.2901536234
 20
-0.2221524408
 10
1.2887414702
 20
-0.2229432752
 10
1.2871466883
 20
-0.2234905651
 10
1.2854393729
 20
-0.2237703493
 10
1.283693672
 20
-0.2237703493
 10
1.2819861182
 20
-0.2234905651
 10
1.2803915747
 20
-0.2229432752
 10
1.2789791831
 20
-0.2221524408
 10
1.2778111704
 20
-0.2211525133
 10
1.27693832
 20
-0.2199872425
 10
1.2763990172
 20
-0.2187075307
 10
1.2762163886
 20
-0.2173694065
 10
1.2762163886
 20
-0.2173694065
  0
LINE
  5
250
330
1F
100
AcDbEntity
  8
0
  6
Continuous
 62
     7
370
    25
100
AcDbLine
 10
-1.7763935319
 20
0.2980783293
 30
0.0
 11
-1.7763935319
 21
0.3133182833
 31
0.0
  0
LINE
  5
251
330
1F
100
AcDbEntity
  8
0
  6
Continuous
 62
     7
370
    25
100
AcDbLine
 10
-1.7763935319
 20
0.1207657168
 30
0.0
 11
-1.7763935319
 21
0.13600579
 31
0.0
  0
LINE
  5
252
330
1F
100
AcDbEntity
  8
0
  6
Continuous
 62
     7
370
    25
100
AcDbLine
 10
-1.2544735066
 20
-0.6283273389
 30
0.0
 11
-1.2544735066
 21
-0.6435675314
 31
0.0
  0
LINE
  5
253
330
1F
100
AcDbEntity
  8
0
  6
Continuous
 62
     7
370
    25
100
AcDbLine
 10
-1.7763935319
 20
-0.928693979
 30
0.0
 11
-1.7763935319
 21
-0.913454025
 31
0.0
  0
LINE
  5
254
330
1F
100
AcDbEntity
  8
0
  6
Continuous
 62
     7
370
    25
100
AcDbLine
 10
-1.2544735066
 20
-0.913454025
 30
0.0
 11
-1.2544735066
 21
-0.928693979
 31
0.0
  0
LINE
  5
255
330
1F
100
AcDbEntity
  8
0
  6
Continuous
 62
     7
370
    25
100
AcDbLine
 10
-1.2544735066
 20
0.13600579
 30
0.0
 11
-1.2544735066
 21
0.1207657168
 31
0.0
  0
LINE
  5
256
330
1F
100
AcDbEntity
  8
0
  6
Continuous
 62
     7
370
    25
100
AcDbLine
 10
-1.2544735066
 20
-0.1346290996
 30
0.0
 11
-1.2544735066
 21
-0.1498691728
 31
0.0
  0
LINE
  5
257
330
1F
100
AcDbEntity
  8
0
  6
Continuous
 62
     7
370
    25
100
AcDbLine
 10
-1.2544735066
 20
0.3133182833
 30
0.0
 11
-1.2544735066
 21
0.2980783293
 31
0.0
  0
LINE
  5
258
330
1F
100
AcDbEntity
  8
0
  6
Continuous
 62
     7
370
    25
100
AcDbLine
 10
-1.7763935319
 20
-0.1498691728
 30
0.0
 11
-1.7763935319
 21
-0.1346290996
 31
0.0
  0
LINE
  5
259
330
1F
100
AcDbEntity
  8
0
  6
Continuous
 62
     7
370
    25
100
AcDbLine
 10
-1.7763935319
 20
-0.6435675314
 30
0.0
 11
-1.7763935319
 21
-0.6283273389
 31
0.0
  0
LINE
  5
25A
330
1F
100
AcDbEntity
  8
0
  6
Continuous
 62
     7
370
    25
100
AcDbLine
 10
-1.7564335308
 20
0.2743966887
 30
0.0
 11
-1.7754335246
 21
0.2743966887
 31
0.0
  0
LINE
  5
25B
330
1F
100
AcDbEntity
  8
0
  6
Continuous
 62
     7
370
    25
100
AcDbLine
 10
-1.7754335246
 20
0.2743966887
 30
0.0
 11
-1.7754335246
 21
0.5621270845
 31
0.0
  0
LINE
  5
25C
330
1F
100
AcDbEntity
  8
0
  6
Continuous
 62
     7
370
    25
100
AcDbLine
 10
-1.7564335308
 20
0.2743966887
 30
0.0
 11
-1.7564335308
 21
0.5621270845
 31
0.0
  0
LINE
  5
25D
330
1F
100
AcDbEntity
  8
0
  6
Continuous
 62
     7
370
    25
100
AcDbLine
 10
-1.7564335308
 20
0.5964770625
 30
0.0
 11
-1.7754335246
 21
0.5964770625
 31
0.0
  0
LINE
  5
25E
330
1F
100
AcDbEntity
  8
0
  6
Continuous
 62
     7
370
    25
100
AcDbLine
 10
-1.7754335246
 20
0.5964770625
 30
0.0
 11
-1.7754335246
 21
0.5958270738
 31
0.0
  0
LINE
  5
25F
330
1F
100
AcDbEntity
  8
0
  6
Continuous
 62
     7
370
    25
100
AcDbLine
 10
-1.7564335308
 20
0.5964770625
 30
0.0
 11
-1.7564335308
 21
0.5958270738
 31
0.0
  0
LINE
  5
260
330
1F
100
AcDbEntity
  8
0
  6
Continuous
 62
     7
370
    25
100
AcDbLine
 10
-1.7564335308
 20
-0.3213275364
 30
0.0
 11
-1.7754335246
 21
-0.3213275364
 31
0.0
  0
LINE
  5
261
330
1F
100
AcDbEntity
  8
0
  6
Continuous
 62
     7
370
    25
100
AcDbLine
 10
-1.7754335246
 20
-0.3213275364
 30
0.0
 11
-1.7754335246
 21
0.2743966887
 31
0.0
  0
LINE
  5
262
330
1F
100
AcDbEntity
  8
0
  6
Continuous
 62
     7
370
    25
100
AcDbLine
 10
-1.7564335308
 20
-0.3213275364
 30
0.0
 11
-1.7564335308
 21
0.2743966887
 31
0.0
  0
LINE
  5
263
330
1F
100
AcDbEntity
  8
0
  6
Continuous
 62
     7
370
    25
100
AcDbLine
 10
-1.7564335308
 20
-0.9978422811
 30
0.0
 11
-1.7754335246
 21
-0.9978422811
 31
0.0
  0
LINE
  5
264
330
1F
100
AcDbEntity
  8
0
  6
Continuous
 62
     7
370
    25
100
AcDbLine
 10
-1.7754335246
 20
-0.3213275364
 30
0.0
 11
-1.7754335246
 21
-0.9978422811
 31
0.0
  0
LINE
  5
265
330
1F
100
AcDbEntity
  8
0
  6
Continuous
 62
     7
370
    25
100
AcDbLine
 10
-1.7564335308
 20
-0.3213275364
 30
0.0
 11
-1.7564335308
 21
-0.9978422811
 31
0.0
  0
LINE
  5
266
330
1F
100
AcDbEntity
  8
0
  6
Continuous
 62
     7
370
    25
100
AcDbLine
 10
-1.7754335246
 20
-0.9978422811
 30
0.0
 11
-1.7754335246
 21
-1.0786597421
 31
0.0
  0
LINE
  5
267
330
1F
100
AcDbEntity
  8
0
  6
Continuous
 62
     7
370
    25
100
AcDbLine
 10
-1.7564335308
 20
-0.9978422811
 30
0.0
 11
-1.7564335308
 21
-1.0786597421
 31
0.0
  0
LINE
  5
268
330
1F
100
AcDbEntity
  8
0
  6
Continuous
 62
     7
370
    25
100
AcDbLine
 10
-1.255433499
 20
0.5964770625
 30
0.0
 11
-1.2744335524
 21
0.5964770625
 31
0.0
  0
LINE
  5
269
330
1F
100
AcDbEntity
  8
0
  6
Continuous
 62
     7
370
    25
100
AcDbLine
 10
-1.255433499
 20
0.2743966887
 30
0.0
 11
-1.2744335524
 21
0.2743966887
 31
0.0
  0
LINE
  5
26A
330
1F
100
AcDbEntity
  8
0
  6
Continuous
 62
     7
370
    25
100
AcDbLine
 10
-1.255433499
 20
0.2743966887
 30
0.0
 11
-1.255433499
 21
0.5621270845
 31
0.0
  0
LINE
  5
26B
330
1F
100
AcDbEntity
  8
0
  6
Continuous
 62
     7
370
    25
100
AcDbLine
 10
-1.255433499
 20
0.5958270738
 30
0.0
 11
-1.255433499
 21
0.5964770625
 31
0.0
  0
LINE
  5
26C
330
1F
100
AcDbEntity
  8
0
  6
Continuous
 62
     7
370
    25
100
AcDbLine
 10
-1.2744335524
 20
0.2743966887
 30
0.0
 11
-1.2744335524
 21
0.5621270845
 31
0.0
  0
LINE
  5
26D
330
1F
100
AcDbEntity
  8
0
  6
Continuous
 62
     7
370
    25
100
AcDbLine
 10
-1.2744335524
 20
0.5958270738
 30
0.0
 11
-1.2744335524
 21
0.5964770625
 31
0.0
  0
LINE
  5
26E
330
1F
100
AcDbEntity
  8
0
  6
Continuous
 62
     7
370
    25
100
AcDbLine
 10
-1.255433499
 20
-0.3213275364
 30
0.0
 11
-1.2744335524
 21
-0.3213275364
 31
0.0
  0
LINE
  5
26F
330
1F
100
AcDbEntity
  8
0
  6
Continuous
 62
     7
370
    25
100
AcDbLine
 10
-1.255433499
 20
-0.3213275364
 30
0.0
 11
-1.255433499
 21
0.2743966887
 31
0.0
  0
LINE
  5
270
330
1F
100
AcDbEntity
  8
0
  6
Continuous
 62
     7
370
    25
100
AcDbLine
 10
-1.2744335524
 20
-0.3213275364
 30
0.0
 11
-1.2744335524
 21
0.2743966887
 31
0.0
  0
LINE
  5
271
330
1F
100
AcDbEntity
  8
0
  6
Continuous
 62
     7
370
    25
100
AcDbLine
 10
-1.255433499
 20
-0.9978422811
 30
0.0
 11
-1.2744335524
 21
-0.9978422811
 31
0.0
  0
LINE
  5
272
330
1F
100
AcDbEntity
  8
0
  6
Continuous
 62
     7
370
    25
100
AcDbLine
 10
-1.255433499
 20
-0.3213275364
 30
0.0
 11
-1.255433499
 21
-0.9978422811
 31
0.0
  0
LINE
  5
273
330
1F
100
AcDbEntity
  8
0
  6
Continuous
 62
     7
370
    25
100
AcDbLine
 10
-1.2744335524
 20
-0.3213275364
 30
0.0
 11
-1.2744335524
 21
-0.9978422811
 31
0.0
  0
LINE
  5
274
330
1F
100
AcDbEntity
  8
0
  6
Continuous
 62
     7
370
    25
100
AcDbLine
 10
-1.255433499
 20
-0.9978422811
 30
0.0
 11
-1.255433499
 21
-1.0786597421
 31
0.0
  0
LINE
  5
275
330
1F
100
AcDbEntity
  8
0
  6
Continuous
 62
     7
370
    25
100
AcDbLine
 10
-1.2744335524
 20
-0.9978422811
 30
0.0
 11
-1.2744335524
 21
-1.0786597421
 31
0.0
  0
LINE
  5
276
330
1F
100
AcDbEntity
  8
0
  6
Continuous
 62
     7
370
    25
100
AcDbLine
 10
-1.2234335534
 20
0.5614770958
 30
0.0
 11
-1.2524335376
 21
0.5614770958
 31
0.0
  0
LINE
  5
277
330
1F
100
AcDbEntity
  8
0
  6
Continuous
 62
     7
370
    25
100
AcDbLine
 10
-1.2542983285
 20
0.5621270845
 30
0.0
 11
-1.2215687028
 21
0.5621270845
 31
0.0
  0
ARC
  5
278
330
1F
100
AcDbEntity
  8
0
  6
Continuous
 62
     7
370
    25
100
AcDbCircle
 10
-1.2524335252
 20
0.5644770911
 30
0.0
 40
0.0030000000000001
100
AcDbArc
 50
231.5667936592
 51
270.0
  0
ARC
  5
279
330
1F
100
AcDbEntity
  8
0
  6
Continuous
 62
     7
370
    25
100
AcDbCircle
 10
-1.2234335252
 20
0.5644770911
 30
0.0
 40
0.0030000000000002
100
AcDbArc
 50
270.0
 51
308.4332063409
  0
ARC
  5
27A
330
1F
100
AcDbEntity
  8
0
  6
Continuous
 62
     7
370
    25
100
AcDbCircle
 10
-1.2524335252
 20
0.5934770911
 30
0.0
 40
0.0029999999999999
100
AcDbArc
 50
90.0
 51
128.4332063408
  0
LINE
  5
27B
330
1F
100
AcDbEntity
  8
0
  6
Continuous
 62
     7
370
    25
100
AcDbLine
 10
-1.2215687028
 20
0.5958270738
 30
0.0
 11
-1.2542983285
 21
0.5958270738
 31
0.0
  0
LINE
  5
27C
330
1F
100
AcDbEntity
  8
0
  6
Continuous
 62
     7
370
    25
100
AcDbLine
 10
-1.2524335376
 20
0.5964770625
 30
0.0
 11
-1.2234335534
 21
0.5964770625
 31
0.0
  0
ARC
  5
27D
330
1F
100
AcDbEntity
  8
0
  6
Continuous
 62
     7
370
    25
100
AcDbCircle
 10
-1.2234335252
 20
0.5934770911
 30
0.0
 40
0.0030000000000002
100
AcDbArc
 50
51.5667936591
 51
90.0
  0
ARC
  5
27E
330
1F
100
AcDbEntity
  8
0
  6
Continuous
 62
     7
370
    25
100
AcDbCircle
 10
-1.7784335252
 20
0.5644770911
 30
0.0
 40
0.0030000000000001
100
AcDbArc
 50
270.0
 51
308.4332063408
  0
ARC
  5
27F
330
1F
100
AcDbEntity
  8
0
  6
Continuous
 62
     7
370
    25
100
AcDbCircle
 10
-1.8074335252
 20
0.5644770911
 30
0.0
 40
0.0030000000000002
100
AcDbArc
 50
231.5667936591
 51
270.0
  0
LINE
  5
280
330
1F
100
AcDbEntity
  8
0
  6
Continuous
 62
     7
370
    25
100
AcDbLine
 10
-1.8092983282
 20
0.5621270845
 30
0.0
 11
-1.7765687249
 21
0.5621270845
 31
0.0
  0
LINE
  5
281
330
1F
100
AcDbEntity
  8
0
  6
Continuous
 62
     7
370
    25
100
AcDbLine
 10
-1.7784335307
 20
0.5614770958
 30
0.0
 11
-1.8074335224
 21
0.5614770958
 31
0.0
  0
LINE
  5
282
330
1F
100
AcDbEntity
  8
0
  6
Continuous
 62
     7
370
    25
100
AcDbLine
 10
-1.8074335224
 20
0.5964770625
 30
0.0
 11
-1.7784335307
 21
0.5964770625
 31
0.0
  0
LINE
  5
283
330
1F
100
AcDbEntity
  8
0
  6
Continuous
 62
     7
370
    25
100
AcDbLine
 10
-1.7765687249
 20
0.5958270738
 30
0.0
 11
-1.8092983282
 21
0.5958270738
 31
0.0
  0
ARC
  5
284
330
1F
100
AcDbEntity
  8
0
  6
Continuous
 62
     7
370
    25
100
AcDbCircle
 10
-1.8074335252
 20
0.5934770911
 30
0.0
 40
0.0030000000000002
100
AcDbArc
 50
90.0
 51
128.4332063409
  0
ARC
  5
285
330
1F
100
AcDbEntity
  8
0
  6
Continuous
 62
     7
370
    25
100
AcDbCircle
 10
-1.7784335252
 20
0.5934770911
 30
0.0
 40
0.0029999999999999
100
AcDbArc
 50
51.5667936592
 51
90.0
  0
LINE
  5
286
330
1F
100
AcDbEntity
  8
0
  6
Continuous
 62
     7
370
    25
100
AcDbLine
 10
-1.8659835263
 20
1.3958270913
 30
0.0
 11
-1.8659835263
 21
1.4084270904
 31
0.0
  0
ARC
  5
287
330
1F
100
AcDbEntity
  8
0
  6
Continuous
 62
     7
370
    25
100
AcDbCircle
 10
-1.8509835252
 20
1.4084270911
 30
0.0
 40
0.0149999999999999
100
AcDbArc
 50
90.0
 51
180.0
  0
LINE
  5
288
330
1F
100
AcDbEntity
  8
0
  6
Continuous
 62
     7
370
    25
100
AcDbLine
 10
-1.850983522
 20
1.423427091
 30
0.0
 11
-1.1798835389
 21
1.423427091
 31
0.0
  0
ARC
  5
289
330
1F
100
AcDbEntity
  8
0
  6
Continuous
 62
     7
370
    25
100
AcDbCircle
 10
-1.1798835252
 20
1.4084270911
 30
0.0
 40
0.0150000000000001
100
AcDbArc
 50
359.9999999994
 51
90.0
  0
LINE
  5
28A
330
1F
100
AcDbEntity
  8
0
  6
Continuous
 62
     7
370
    25
100
AcDbLine
 10
-1.1648835532
 20
1.3958270913
 30
0.0
 11
-1.1648835532
 21
1.4084270904
 31
0.0
  0
ARC
  5
28B
330
1F
100
AcDbEntity
  8
0
  6
Continuous
 62
     7
370
    25
100
AcDbCircle
 10
-1.1154335252
 20
1.3789770911
 30
0.0
 40
0.0494500000000001
100
AcDbArc
 50
199.9224668649
 51
250.0775331349
  0
LINE
  5
28C
330
1F
100
AcDbEntity
  8
0
  6
Continuous
 62
     7
370
    25
100
AcDbLine
 10
-1.0985835186
 20
1.3295270922
 30
0.0
 11
-1.085983514
 21
1.3295270922
 31
0.0
  0
ARC
  5
28D
330
1F
100
AcDbEntity
  8
0
  6
Continuous
 62
     7
370
    25
100
AcDbCircle
 10
-1.0859835252
 20
1.3145270911
 30
0.0
 40
0.0150000000000001
100
AcDbArc
 50
0.0
 51
90.0
  0
LINE
  5
28E
330
1F
100
AcDbEntity
  8
0
  6
Continuous
 62
     7
370
    25
100
AcDbLine
 10
-1.0709835283
 20
1.3145270879
 30
0.0
 11
-1.0709835283
 21
0.6434271047
 31
0.0
  0
ARC
  5
28F
330
1F
100
AcDbEntity
  8
0
  6
Continuous
 62
     7
370
    25
100
AcDbCircle
 10
-1.0859835252
 20
0.6434270911
 30
0.0
 40
0.0150000000000001
100
AcDbArc
 50
270.0
 51
0.0
  0
LINE
  5
290
330
1F
100
AcDbEntity
  8
0
  6
Continuous
 62
     7
370
    25
100
AcDbLine
 10
-1.0985835186
 20
0.628427119
 30
0.0
 11
-1.085983514
 21
0.628427119
 31
0.0
  0
ARC
  5
291
330
1F
100
AcDbEntity
  8
0
  6
Continuous
 62
     7
370
    25
100
AcDbCircle
 10
-1.1154335252
 20
0.5789770911
 30
0.0
 40
0.0494500000000001
100
AcDbArc
 50
109.9224668651
 51
160.0775331351
  0
ARC
  5
292
330
1F
100
AcDbEntity
  8
0
  6
Continuous
 62
     7
370
    25
100
AcDbCircle
 10
-1.1798835252
 20
0.5495270911
 30
0.0
 40
0.0150000000000001
100
AcDbArc
 50
270.0
 51
0.0000000006
  0
LINE
  5
293
330
1F
100
AcDbEntity
  8
0
  6
Continuous
 62
     7
370
    25
100
AcDbLine
 10
-1.8659835263
 20
0.5621270845
 30
0.0
 11
-1.8659835263
 21
0.5495270798
 31
0.0
  0
ARC
  5
294
330
1F
100
AcDbEntity
  8
0
  6
Continuous
 62
     7
370
    25
100
AcDbCircle
 10
-1.9448835252
 20
0.6434270911
 30
0.0
 40
0.0150000000000001
100
AcDbArc
 50
180.0
 51
270.0
  0
ARC
  5
295
330
1F
100
AcDbEntity
  8
0
  6
Continuous
 62
     7
370
    25
100
AcDbCircle
 10
-1.9448835252
 20
1.3145270911
 30
0.0
 40
0.0150000000000001
100
AcDbArc
 50
90.0
 51
180.0
  0
LINE
  5
296
330
1F
100
AcDbEntity
  8
0
  6
Continuous
 62
     7
370
    25
100
AcDbLine
 10
-1.9322835255
 20
1.3295270922
 30
0.0
 11
-1.9448835246
 21
1.3295270922
 31
0.0
  0
ARC
  5
297
330
1F
100
AcDbEntity
  8
0
  6
Continuous
 62
     7
370
    25
100
AcDbCircle
 10
-1.9154335252
 20
1.3789770911
 30
0.0
 40
0.04945
100
AcDbArc
 50
289.9224668649
 51
340.0775331351
  0
LINE
  5
298
330
1F
100
AcDbEntity
  8
0
  6
Continuous
 62
     7
370
    25
100
AcDbLine
 10
-1.9598835252
 20
1.3145270879
 30
0.0
 11
-1.9598835252
 21
0.6434271047
 31
0.0
  0
LINE
  5
299
330
1F
100
AcDbEntity
  8
0
  6
Continuous
 62
     7
370
    25
100
AcDbLine
 10
-1.850983522
 20
0.5345270941
 30
0.0
 11
-1.7754335246
 21
0.5345270941
 31
0.0
  0
LINE
  5
29A
330
1F
100
AcDbEntity
  8
0
  6
Continuous
 62
     7
370
    25
100
AcDbLine
 10
-1.7564335308
 20
0.5345270941
 30
0.0
 11
-1.2744335524
 21
0.5345270941
 31
0.0
  0
LINE
  5
29B
330
1F
100
AcDbEntity
  8
0
  6
Continuous
 62
     7
370
    25
100
AcDbLine
 10
-1.255433499
 20
0.5345270941
 30
0.0
 11
-1.1798835389
 21
0.5345270941
 31
0.0
  0
LINE
  5
29C
330
1F
100
AcDbEntity
  8
0
  6
Continuous
 62
     7
370
    25
100
AcDbLine
 10
-1.1648835532
 20
0.5621270845
 30
0.0
 11
-1.1648835532
 21
0.5495270798
 31
0.0
  0
ARC
  5
29D
330
1F
100
AcDbEntity
  8
0
  6
Continuous
 62
     7
370
    25
100
AcDbCircle
 10
-1.8509835252
 20
0.5495270911
 30
0.0
 40
0.0150000000000001
100
AcDbArc
 50
180.0
 51
270.0
  0
ARC
  5
29E
330
1F
100
AcDbEntity
  8
0
  6
Continuous
 62
     7
370
    25
100
AcDbCircle
 10
-1.9154335252
 20
0.5789770911
 30
0.0
 40
0.0494499999999999
100
AcDbArc
 50
19.9224668649
 51
70.0775331351
  0
LINE
  5
29F
330
1F
100
AcDbEntity
  8
0
  6
Continuous
 62
     7
370
    25
100
AcDbLine
 10
-1.9322835255
 20
0.628427119
 30
0.0
 11
-1.9448835246
 21
0.628427119
 31
0.0
  0
LINE
  5
2A0
330
1F
100
AcDbEntity
  8
0
  6
Continuous
 62
     7
370
    25
100
AcDbLine
 10
0.9340165862
 20
1.3958270913
 30
0.0
 11
0.9340165862
 21
1.4084270904
 31
0.0
  0
ARC
  5
2A1
330
1F
100
AcDbEntity
  8
0
  6
Continuous
 62
     7
370
    25
100
AcDbCircle
 10
0.9490164748
 20
1.4084270911
 30
0.0
 40
0.0150000000000001
100
AcDbArc
 50
90.0
 51
180.0
  0
LINE
  5
2A2
330
1F
100
AcDbEntity
  8
0
  6
Continuous
 62
     7
370
    25
100
AcDbLine
 10
0.9490164527
 20
1.423427091
 30
0.0
 11
1.6201165923
 21
1.423427091
 31
0.0
  0
ARC
  5
2A3
330
1F
100
AcDbEntity
  8
0
  6
Continuous
 62
     7
370
    25
100
AcDbCircle
 10
1.6201164748
 20
1.4084270911
 30
0.0
 40
0.0150000000000001
100
AcDbArc
 50
359.9999999994
 51
90.0
  0
LINE
  5
2A4
330
1F
100
AcDbEntity
  8
0
  6
Continuous
 62
     7
370
    25
100
AcDbLine
 10
1.6351164588
 20
1.3958270913
 30
0.0
 11
1.6351164588
 21
1.4084270904
 31
0.0
  0
ARC
  5
2A5
330
1F
100
AcDbEntity
  8
0
  6
Continuous
 62
     7
370
    25
100
AcDbCircle
 10
1.6845664748
 20
1.3789770911
 30
0.0
 40
0.0494499999999999
100
AcDbArc
 50
199.9224668649
 51
232.4316961271
  0
ARC
  5
2A6
330
1F
100
AcDbEntity
  8
0
  6
Continuous
 62
     7
370
    25
100
AcDbCircle
 10
1.7140164748
 20
1.3145270911
 30
0.0
 40
0.0150000000000001
100
AcDbArc
 50
0.0
 51
87.3252255129
  0
LINE
  5
2A7
330
1F
100
AcDbEntity
  8
0
  6
Continuous
 62
     7
370
    25
100
AcDbLine
 10
1.729016424
 20
1.3145270879
 30
0.0
 11
1.729016424
 21
0.9958270798
 31
0.0
  0
LINE
  5
2A8
330
1F
100
AcDbEntity
  8
0
  6
Continuous
 62
     7
370
    25
100
AcDbLine
 10
1.729016424
 20
0.9621270904
 30
0.0
 11
1.729016424
 21
0.6434271047
 31
0.0
  0
ARC
  5
2A9
330
1F
100
AcDbEntity
  8
0
  6
Continuous
 62
     7
370
    25
100
AcDbCircle
 10
1.7140164748
 20
0.6434270911
 30
0.0
 40
0.0150000000000001
100
AcDbArc
 50
272.6747744871
 51
0.0
  0
ARC
  5
2AA
330
1F
100
AcDbEntity
  8
0
  6
Continuous
 62
     7
370
    25
100
AcDbCircle
 10
1.6845664748
 20
0.5789770911
 30
0.0
 40
0.0494500000000001
100
AcDbArc
 50
127.5683038729
 51
160.0775331351
  0
LINE
  5
2AB
330
1F
100
AcDbEntity
  8
0
  6
Continuous
 62
     7
370
    25
100
AcDbLine
 10
1.6351164588
 20
0.5621270845
 30
0.0
 11
1.6351164588
 21
0.5495270798
 31
0.0
  0
ARC
  5
2AC
330
1F
100
AcDbEntity
  8
0
  6
Continuous
 62
     7
370
    25
100
AcDbCircle
 10
1.6201164748
 20
0.5495270911
 30
0.0
 40
0.0150000000000001
100
AcDbArc
 50
270.0
 51
0.0000000006
  0
ARC
  5
2AD
330
1F
100
AcDbEntity
  8
0
  6
Continuous
 62
     7
370
    25
100
AcDbCircle
 10
0.8551164748
 20
1.3145270911
 30
0.0
 40
0.0150000000000001
100
AcDbArc
 50
90.0
 51
180.0
  0
LINE
  5
2AE
330
1F
100
AcDbEntity
  8
0
  6
Continuous
 62
     7
370
    25
100
AcDbLine
 10
0.8677164324
 20
1.3295270922
 30
0.0
 11
0.8551164874
 21
1.3295270922
 31
0.0
  0
ARC
  5
2AF
330
1F
100
AcDbEntity
  8
0
  6
Continuous
 62
     7
370
    25
100
AcDbCircle
 10
0.8845664748
 20
1.3789770911
 30
0.0
 40
0.04945
100
AcDbArc
 50
289.9224668649
 51
340.0775331351
  0
ARC
  5
2B0
330
1F
100
AcDbEntity
  8
0
  6
Continuous
 62
     7
370
    25
100
AcDbCircle
 10
0.9490164748
 20
0.5495270911
 30
0.0
 40
0.0150000000000001
100
AcDbArc
 50
180.0
 51
270.0
  0
LINE
  5
2B1
330
1F
100
AcDbEntity
  8
0
  6
Continuous
 62
     7
370
    25
100
AcDbLine
 10
0.9490164527
 20
0.5345270941
 30
0.0
 11
1.6201165923
 21
0.5345270941
 31
0.0
  0
ARC
  5
2B2
330
1F
100
AcDbEntity
  8
0
  6
Continuous
 62
     7
370
    25
100
AcDbCircle
 10
0.8551164748
 20
0.6434270911
 30
0.0
 40
0.0150000000000001
100
AcDbArc
 50
180.0
 51
270.0
  0
LINE
  5
2B3
330
1F
100
AcDbEntity
  8
0
  6
Continuous
 62
     7
370
    25
100
AcDbLine
 10
0.9340165862
 20
0.5621270845
 30
0.0
 11
0.9340165862
 21
0.5495270798
 31
0.0
  0
ARC
  5
2B4
330
1F
100
AcDbEntity
  8
0
  6
Continuous
 62
     7
370
    25
100
AcDbCircle
 10
0.8845664748
 20
0.5789770911
 30
0.0
 40
0.04945
100
AcDbArc
 50
19.9224668649
 51
70.0775331351
  0
LINE
  5
2B5
330
1F
100
AcDbEntity
  8
0
  6
Continuous
 62
     7
370
    25
100
AcDbLine
 10
0.8677164324
 20
0.628427119
 30
0.0
 11
0.8551164874
 21
0.628427119
 31
0.0
  0
LINE
  5
2B6
330
1F
100
AcDbEntity
  8
0
  6
Continuous
 62
     7
370
    25
100
AcDbLine
 10
0.8401163825
 20
1.3145270879
 30
0.0
 11
0.8401163825
 21
0.6434271047
 31
0.0
  0
CIRCLE
  5
2B7
330
1F
100
AcDbEntity
  8
0
  6
Continuous
 62
     7
370
    25
100
AcDbCircle
 10
-1.9154335252
 20
1.3789770911
 30
0.0
 40
0.0444500000000001
  0
CIRCLE
  5
2B8
330
1F
100
AcDbEntity
  8
0
  6
Continuous
 62
     7
370
    25
100
AcDbCircle
 10
0.8845664748
 20
1.3789770911
 30
0.0
 40
0.0444500000000001
  0
CIRCLE
  5
2B9
330
1F
100
AcDbEntity
  8
0
  6
Continuous
 62
     7
370
    25
100
AcDbCircle
 10
-1.9154335252
 20
0.5789770911
 30
0.0
 40
0.0444499999999999
  0
CIRCLE
  5
2BA
330
1F
100
AcDbEntity
  8
0
  6
Continuous
 62
     7
370
    25
100
AcDbCircle
 10
0.8845664748
 20
0.5789770911
 30
0.0
 40
0.0444499999999999
  0
CIRCLE
  5
2BB
330
1F
100
AcDbEntity
  8
0
  6
Continuous
 62
     7
370
    25
100
AcDbCircle
 10
-1.1154335252
 20
1.3789770911
 30
0.0
 40
0.0444500000000001
  0
CIRCLE
  5
2BC
330
1F
100
AcDbEntity
  8
0
  6
Continuous
 62
     7
370
    25
100
AcDbCircle
 10
1.6845664748
 20
1.3789770911
 30
0.0
 40
0.0444500000000001
  0
CIRCLE
  5
2BD
330
1F
100
AcDbEntity
  8
0
  6
Continuous
 62
     7
370
    25
100
AcDbCircle
 10
1.6845664748
 20
0.5789770911
 30
0.0
 40
0.0444499999999999
  0
CIRCLE
  5
2BE
330
1F
100
AcDbEntity
  8
0
  6
Continuous
 62
     7
370
    25
100
AcDbCircle
 10
-1.1154335252
 20
0.5789770911
 30
0.0
 40
0.0444499999999999
  0
LINE
  5
2BF
330
1F
100
AcDbEntity
  8
0
  6
Continuous
 62
     7
370
    25
100
AcDbLine
 10
-1.1562936894
 20
1.3964770911
 30
0.0
 11
-1.1648835532
 21
1.3964770911
 31
0.0
  0
LINE
  5
2C0
330
1F
100
AcDbEntity
  8
0
  6
Continuous
 62
     7
370
    25
100
AcDbLine
 10
-1.8659835263
 20
1.3964770911
 30
0.0
 11
-1.8745733678
 21
1.3964770911
 31
0.0
  0
LINE
  5
2C1
330
1F
100
AcDbEntity
  8
0
  6
Continuous
 62
     7
370
    25
100
AcDbLine
 10
-1.1562936894
 20
1.361477091
 30
0.0
 11
-1.1616834394
 21
1.361477091
 31
0.0
  0
LINE
  5
2C2
330
1F
100
AcDbEntity
  8
0
  6
Continuous
 62
     7
370
    25
100
AcDbLine
 10
-1.8691836327
 20
1.361477091
 30
0.0
 11
-1.8745733678
 21
1.361477091
 31
0.0
  0
LINE
  5
2C3
330
1F
100
AcDbEntity
  8
0
  6
Continuous
 62
     7
370
    25
100
AcDbLine
 10
1.6437062033
 20
1.3964770911
 30
0.0
 11
1.6351164588
 21
1.3964770911
 31
0.0
  0
LINE
  5
2C4
330
1F
100
AcDbEntity
  8
0
  6
Continuous
 62
     7
370
    25
100
AcDbLine
 10
0.9340165862
 20
1.3964770911
 30
0.0
 11
0.9254266032
 21
1.3964770911
 31
0.0
  0
LINE
  5
2C5
330
1F
100
AcDbEntity
  8
0
  6
Continuous
 62
     7
370
    25
100
AcDbLine
 10
1.6437062033
 20
1.361477091
 30
0.0
 11
1.6383165129
 21
1.361477091
 31
0.0
  0
LINE
  5
2C6
330
1F
100
AcDbEntity
  8
0
  6
Continuous
 62
     7
370
    25
100
AcDbLine
 10
0.9308162936
 20
1.361477091
 30
0.0
 11
0.9254266032
 21
1.361477091
 31
0.0
  0
LINE
  5
2C7
330
1F
100
AcDbEntity
  8
0
  6
Continuous
 62
     7
370
    25
100
AcDbLine
 10
0.8670665034
 20
1.3381169336
 30
0.0
 11
0.8670665034
 21
1.3295270922
 31
0.0
  0
LINE
  5
2C8
330
1F
100
AcDbEntity
  8
0
  6
Continuous
 62
     7
370
    25
100
AcDbLine
 10
0.8670665034
 20
0.628427119
 30
0.0
 11
0.8670665034
 21
0.6198372552
 31
0.0
  0
LINE
  5
2C9
330
1F
100
AcDbEntity
  8
0
  6
Continuous
 62
     7
370
    25
100
AcDbLine
 10
0.9020665892
 20
1.3381169336
 30
0.0
 11
0.9020665892
 21
1.3327271985
 31
0.0
  0
LINE
  5
2CA
330
1F
100
AcDbEntity
  8
0
  6
Continuous
 62
     7
370
    25
100
AcDbLine
 10
0.9020665892
 20
0.6252270052
 30
0.0
 11
0.9020665892
 21
0.6198372552
 31
0.0
  0
LINE
  5
2CB
330
1F
100
AcDbEntity
  8
0
  6
Continuous
 62
     7
370
    25
100
AcDbLine
 10
-1.8979335251
 20
1.3381169336
 30
0.0
 11
-1.8979335251
 21
1.3327271985
 31
0.0
  0
LINE
  5
2CC
330
1F
100
AcDbEntity
  8
0
  6
Continuous
 62
     7
370
    25
100
AcDbLine
 10
-1.8979335251
 20
0.6252270052
 30
0.0
 11
-1.8979335251
 21
0.6198372552
 31
0.0
  0
LINE
  5
2CD
330
1F
100
AcDbEntity
  8
0
  6
Continuous
 62
     7
370
    25
100
AcDbLine
 10
-1.9329335253
 20
1.3381169336
 30
0.0
 11
-1.9329335253
 21
1.3295270922
 31
0.0
  0
LINE
  5
2CE
330
1F
100
AcDbEntity
  8
0
  6
Continuous
 62
     7
370
    25
100
AcDbLine
 10
-1.9329335253
 20
0.628427119
 30
0.0
 11
-1.9329335253
 21
0.6198372552
 31
0.0
  0
LINE
  5
2CF
330
1F
100
AcDbEntity
  8
0
  6
Continuous
 62
     7
370
    25
100
AcDbLine
 10
-1.8745733678
 20
0.5964770625
 30
0.0
 11
-1.8691836327
 21
0.5964770625
 31
0.0
  0
LINE
  5
2D0
330
1F
100
AcDbEntity
  8
0
  6
Continuous
 62
     7
370
    25
100
AcDbLine
 10
-1.1616834394
 20
0.5964770625
 30
0.0
 11
-1.1562936894
 21
0.5964770625
 31
0.0
  0
LINE
  5
2D1
330
1F
100
AcDbEntity
  8
0
  6
Continuous
 62
     7
370
    25
100
AcDbLine
 10
-1.8745733678
 20
0.5614770958
 30
0.0
 11
-1.8659835263
 21
0.5614770958
 31
0.0
  0
LINE
  5
2D2
330
1F
100
AcDbEntity
  8
0
  6
Continuous
 62
     7
370
    25
100
AcDbLine
 10
-1.1648835532
 20
0.5614770958
 30
0.0
 11
-1.1562936894
 21
0.5614770958
 31
0.0
  0
LINE
  5
2D3
330
1F
100
AcDbEntity
  8
0
  6
Continuous
 62
     7
370
    25
100
AcDbLine
 10
0.9254266032
 20
0.5964770625
 30
0.0
 11
0.9308162936
 21
0.5964770625
 31
0.0
  0
LINE
  5
2D4
330
1F
100
AcDbEntity
  8
0
  6
Continuous
 62
     7
370
    25
100
AcDbLine
 10
1.6383165129
 20
0.5964770625
 30
0.0
 11
1.6437062033
 21
0.5964770625
 31
0.0
  0
LINE
  5
2D5
330
1F
100
AcDbEntity
  8
0
  6
Continuous
 62
     7
370
    25
100
AcDbLine
 10
0.9254266032
 20
0.5614770958
 30
0.0
 11
0.9340165862
 21
0.5614770958
 31
0.0
  0
LINE
  5
2D6
330
1F
100
AcDbEntity
  8
0
  6
Continuous
 62
     7
370
    25
100
AcDbLine
 10
1.6351164588
 20
0.5614770958
 30
0.0
 11
1.6437062033
 21
0.5614770958
 31
0.0
  0
LINE
  5
2D7
330
1F
100
AcDbEntity
  8
0
  6
Continuous
 62
     7
370
    25
100
AcDbLine
 10
-1.1329334966
 20
0.6198372552
 30
0.0
 11
-1.1329334966
 21
0.6252270052
 31
0.0
  0
LINE
  5
2D8
330
1F
100
AcDbEntity
  8
0
  6
Continuous
 62
     7
370
    25
100
AcDbLine
 10
-1.1329334966
 20
1.3327271985
 30
0.0
 11
-1.1329334966
 21
1.3381169336
 31
0.0
  0
LINE
  5
2D9
330
1F
100
AcDbEntity
  8
0
  6
Continuous
 62
     7
370
    25
100
AcDbLine
 10
-1.09793353
 20
0.6198372552
 30
0.0
 11
-1.09793353
 21
0.628427119
 31
0.0
  0
LINE
  5
2DA
330
1F
100
AcDbEntity
  8
0
  6
Continuous
 62
     7
370
    25
100
AcDbLine
 10
-1.09793353
 20
1.3295270922
 30
0.0
 11
-1.09793353
 21
1.3381169336
 31
0.0
  0
SPLINE
  5
2DB
330
1F
100
AcDbEntity
  8
0
  6
Continuous
 62
     7
370
    25
100
AcDbSpline
210
0.0
220
0.0
230
1.0
 70
    11
 71
     3
 72
    23
 73
    19
 74
     0
 42
0.000000001
 43
0.00000001
 40
0.0
 40
0.0
 40
0.0
 40
0.0
 40
0.0626084869349707
 40
0.1248817510234802
 40
0.1871567131385106
 40
0.2498976717316611
 40
0.3121420013480102
 40
0.3748967749971589
 40
0.4370991431879852
 40
0.499838795674046
 40
0.5620920047035544
 40
0.6249099247073289
 40
0.687099099672012
 40
0.7498687862342597
 40
0.8121131158506076
 40
0.8748678894997562
 40
0.9376152940523813
 40
1.0
 40
1.0
 40
1.0
 40
1.0
 10
0.8845664270942025
 20
1.379227091080153
 30
0.0
 10
0.8845334847350909
 20
1.379223605576692
 30
0.0
 10
0.8844677763992069
 20
1.379216653232101
 30
0.0
 10
0.8843856649792049
 20
1.379157588583709
 30
0.0
 10
0.8843281166989735
 20
1.379076097587062
 30
0.0
 10
0.8843107969970724
 20
1.378977316149922
 30
0.0
 10
0.8843280859087254
 20
1.378878501533439
 30
0.0
 10
0.8843854611516145
 20
1.378796416021834
 30
0.0
 10
0.8844675756530952
 20
1.378738772856689
 30
0.0
 10
0.8845661872401166
 20
1.378721267292337
 30
0.0
 10
0.8846650253029748
 20
1.378738707095107
 30
0.0
 10
0.8847472857462874
 20
1.378795915978727
 30
0.0
 10
0.8848046211266815
 20
1.37887830399646
 30
0.0
 10
0.8848223912050316
 20
1.378976764794721
 30
0.0
 10
0.8848049874563902
 20
1.379075820713556
 30
0.0
 10
0.8847474476939644
 20
1.379157526405021
 30
0.0
 10
0.8846652452815386
 20
1.379217367432179
 30
0.0
 10
0.8845993027779734
 20
1.379223856133383
 30
0.0
 10
0.8845664270942025
 20
1.379227091080153
 30
0.0
  0
SPLINE
  5
2DC
330
1F
100
AcDbEntity
  8
0
  6
Continuous
 62
     7
370
    25
100
AcDbSpline
210
0.0
220
0.0
230
1.0
 70
    11
 71
     3
 72
    55
 73
    51
 74
     0
 42
0.000000001
 43
0.00000001
 40
0.0
 40
0.0
 40
0.0
 40
0.0
 40
0.0208249871916362
 40
0.0416749668598278
 40
0.0624997849056561
 40
0.08332663020986
 40
0.1041753912080488
 40
0.124999593626619
 40
0.1458265665946637
 40
0.1666752163101398
 40
0.1874998024045123
 40
0.2083266936554279
 40
0.2291751307908337
 40
0.2499997616609687
 40
0.2708267874965437
 40
0.2916751358650251
 40
0.3124998401686365
 40
0.3333267118739864
 40
0.3541751441935782
 40
0.3750001501684848
 40
0.39582665078772
 40
0.4166751957604549
 40
0.4374999977380472
 40
0.4583266650955277
 40
0.4791756435553796
 40
0.4999997823268825
 40
0.5208273620629598
 40
0.5416755878157365
 40
0.5624995932972702
 40
0.5833272082736561
 40
0.6041752557650687
 40
0.6250001033056493
 40
0.645827076273694
 40
0.6666752492408503
 40
0.6874998353352227
 40
0.7083270024983426
 40
0.7291752722283076
 40
0.7499999030984426
 40
0.7708269289340175
 40
0.791675277302499
 40
0.8124999816061104
 40
0.8333268533114604
 40
0.8541752856310522
 40
0.8749997257350027
 40
0.895826871475776
 40
0.9166754164485109
 40
0.9375002184261033
 40
0.9583268857835837
 40
0.9791732686824197
 40
1.0
 40
1.0
 40
1.0
 40
1.0
 10
0.8845664270942025
 20
1.423227091336499
 30
0.0
 10
0.8826364145562974
 20
1.423154262337887
 30
0.0
 10
0.8787740732344952
 20
1.42300851693715
 30
0.0
 10
0.873080793589342
 20
1.421832975351224
 30
0.0
 10
0.8675842724991781
 20
1.419977728605322
 30
0.0
 10
0.8623777735505159
 20
1.417408026179981
 30
0.0
 10
0.8575511587774421
 20
1.414183937269436
 30
0.0
 10
0.8531876932559824
 20
1.410355545688475
 30
0.0
 10
0.8493597123720716
 20
1.405992007727864
 30
0.0
 10
0.8461345899135083
 20
1.40116547390751
 30
0.0
 10
0.843568097727656
 20
1.395958932284335
 30
0.0
 10
0.8417015516130179
 20
1.390462517826051
 30
0.0
 10
0.8405689184568746
 20
1.384769232628097
 30
0.0
 10
0.8401902387412331
 20
1.37897686838365
 30
0.0
 10
0.8405688938942916
 20
1.373184516716585
 30
0.0
 10
0.8417014305929821
 20
1.367491184603815
 30
0.0
 10
0.8435683421194565
 20
1.361994898931186
 30
0.0
 10
0.8461346780701201
 20
1.356788303892088
 30
0.0
 10
0.84935982731736
 20
1.351961768721631
 30
0.0
 10
0.8531880165513467
 20
1.34759835237707
 30
0.0
 10
0.8575514244115604
 20
1.343770106374117
 30
0.0
 10
0.8623781114754675
 20
1.340545271466805
 30
0.0
 10
0.8675846194773328
 20
1.337978789139359
 30
0.0
 10
0.8730809979096928
 20
1.336111937761109
 30
0.0
 10
0.8787743400647531
 20
1.334979630754894
 30
0.0
 10
0.884566743437785
 20
1.334600897751248
 30
0.0
 10
0.8903590923967223
 20
1.334979598648814
 30
0.0
 10
0.896052399043385
 20
1.336112120984049
 30
0.0
 10
0.9015486801416687
 20
1.337979017209942
 30
0.0
 10
0.9067552560327291
 20
1.340545342128688
 30
0.0
 10
0.9115817292923437
 20
1.34377058728511
 30
0.0
 10
0.9159453895651123
 20
1.347598500687026
 30
0.0
 10
0.919773393592258
 20
1.35196212917933
 30
0.0
 10
0.9229982556532995
 20
1.356788771547533
 30
0.0
 10
0.9255646808217105
 20
1.361995295700477
 30
0.0
 10
0.9274316888212305
 20
1.367491583634266
 30
0.0
 10
0.9285638338748127
 20
1.373184988009139
 30
0.0
 10
0.9289426430743258
 20
1.378977307648105
 30
0.0
 10
0.9285639526078632
 20
1.384769666863938
 30
0.0
 10
0.9274314266785221
 20
1.39046299787008
 30
0.0
 10
0.9255645074221918
 20
1.395959280417173
 30
0.0
 10
0.9229981916335966
 20
1.401165889067075
 30
0.0
 10
0.9197729986216795
 20
1.405992329188418
 30
0.0
 10
0.9159450841743179
 20
1.410355948971383
 30
0.0
 10
0.9115814263856502
 20
1.414184159578437
 30
0.0
 10
0.9067547569489175
 20
1.41740827488825
 30
0.0
 10
0.9015482309361172
 20
1.419977815787168
 30
0.0
 10
0.8960520854067971
 20
1.421833105804476
 30
0.0
 10
0.8903587552229436
 20
1.42300836177197
 30
0.0
 10
0.886496596050779
 20
1.423154204406416
 30
0.0
 10
0.8845664270942025
 20
1.423227091336499
 30
0.0
  0
SPLINE
  5
2DD
330
1F
100
AcDbEntity
  8
0
  6
Continuous
 62
     7
370
    25
100
AcDbSpline
210
0.0
220
0.0
230
1.0
 70
    11
 71
     3
 72
    23
 73
    19
 74
     0
 42
0.000000001
 43
0.00000001
 40
0.0
 40
0.0
 40
0.0
 40
0.0
 40
0.0625952066247915
 40
0.1249355498433352
 40
0.1871829251221508
 40
0.2499353710682802
 40
0.3121827463470953
 40
0.3749351922932238
 40
0.4371825675720365
 40
0.4999350135181689
 40
0.5621823887969823
 40
0.6249348347431133
 40
0.6871822100219303
 40
0.7499346559680587
 40
0.8121820312468736
 40
0.8749344771930022
 40
0.9375922823807428
 40
1.0
 40
1.0
 40
1.0
 40
1.0
 10
-1.915433525222082
 20
1.379227091068279
 30
0.0
 10
-1.915466486409217
 20
1.379226962929706
 30
0.0
 10
-1.915532158601385
 20
1.379215060055192
 30
0.0
 10
-1.915614409559835
 20
1.379158075425607
 30
0.0
 10
-1.91567181476523
 20
1.379075942709644
 30
0.0
 10
-1.915689347507121
 20
1.378977358574392
 30
0.0
 10
-1.915671945909103
 20
1.37887849904448
 30
0.0
 10
-1.915614601160052
 20
1.378796385094036
 30
0.0
 10
-1.915532400870041
 20
1.378738787495424
 30
0.0
 10
-1.91543378635121
 20
1.378721272489609
 30
0.0
 10
-1.915334934849896
 20
1.378738669497119
 30
0.0
 10
-1.915252819060123
 20
1.378796014934173
 30
0.0
 10
-1.915195220765545
 20
1.378878217071915
 30
0.0
 10
-1.91517771039233
 20
1.378976823486845
 30
0.0
 10
-1.91519508962758
 20
1.379075705447265
 30
0.0
 10
-1.915252627603791
 20
1.379157886833454
 30
0.0
 10
-1.915334690402617
 20
1.379215850531154
 30
0.0
 10
-1.915400662762317
 20
1.379227218823043
 30
0.0
 10
-1.915433525222082
 20
1.379227091068279
 30
0.0
  0
SPLINE
  5
2DE
330
1F
100
AcDbEntity
  8
0
  6
Continuous
 62
     7
370
    25
100
AcDbSpline
210
0.0
220
0.0
230
1.0
 70
    11
 71
     3
 72
    38
 73
    34
 74
     0
 42
0.000000001
 43
0.00000001
 40
0.0
 40
0.0
 40
0.0
 40
0.0
 40
0.0625
 40
0.0625
 40
0.125
 40
0.125
 40
0.1875
 40
0.1875
 40
0.25
 40
0.25
 40
0.3125
 40
0.3125
 40
0.375
 40
0.375
 40
0.4375
 40
0.4375
 40
0.5
 40
0.5
 40
0.5625
 40
0.5625
 40
0.625
 40
0.625
 40
0.6875
 40
0.6875
 40
0.75
 40
0.75
 40
0.8125
 40
0.8125
 40
0.875
 40
0.875
 40
0.9375
 40
0.9375
 40
1.0
 40
1.0
 40
1.0
 40
1.0
 10
-1.915433525222082
 20
1.423227091068279
 30
0.0
 10
-1.921225821230986
 20
1.423227091068279
 30
0.0
 10
-1.927015883375363
 20
1.422075376099865
 30
0.0
 10
-1.93771865083311
 20
1.417642144663941
 30
0.0
 10
-1.94262722850305
 20
1.41436233792232
 30
0.0
 10
-1.950818772076123
 20
1.406170794349247
 30
0.0
 10
-1.954098578817744
 20
1.401262216679308
 30
0.0
 10
-1.958531810253668
 20
1.39055944922156
 30
0.0
 10
-1.959683525222081
 20
1.384769387077183
 30
0.0
 10
-1.959683525222081
 20
1.373184795059374
 30
0.0
 10
-1.958531810253668
 20
1.367394732914997
 30
0.0
 10
-1.954098578817744
 20
1.35669196545725
 30
0.0
 10
-1.950818772076123
 20
1.35178338778731
 30
0.0
 10
-1.94262722850305
 20
1.343591844214238
 30
0.0
 10
-1.937718650833111
 20
1.340312037472616
 30
0.0
 10
-1.927015883375363
 20
1.335878806036692
 30
0.0
 10
-1.921225821230987
 20
1.334727091068278
 30
0.0
 10
-1.909641229213177
 20
1.334727091068278
 30
0.0
 10
-1.9038511670688
 20
1.335878806036692
 30
0.0
 10
-1.893148399611052
 20
1.340312037472616
 30
0.0
 10
-1.888239821941113
 20
1.343591844214238
 30
0.0
 10
-1.880048278368041
 20
1.35178338778731
 30
0.0
 10
-1.876768471626419
 20
1.35669196545725
 30
0.0
 10
-1.872335240190495
 20
1.367394732914997
 30
0.0
 10
-1.871183525222082
 20
1.373184795059374
 30
0.0
 10
-1.871183525222082
 20
1.384769387077183
 30
0.0
 10
-1.872335240190495
 20
1.39055944922156
 30
0.0
 10
-1.876768471626419
 20
1.401262216679308
 30
0.0
 10
-1.880048278368041
 20
1.406170794349247
 30
0.0
 10
-1.888239821941113
 20
1.41436233792232
 30
0.0
 10
-1.893148399611052
 20
1.417642144663941
 30
0.0
 10
-1.9038511670688
 20
1.422075376099865
 30
0.0
 10
-1.909641229213177
 20
1.423227091068279
 30
0.0
 10
-1.915433525222082
 20
1.423227091068279
 30
0.0
  0
SPLINE
  5
2DF
330
1F
100
AcDbEntity
  8
0
  6
Continuous
 62
     7
370
    25
100
AcDbSpline
210
0.0
220
0.0
230
1.0
 70
    11
 71
     3
 72
    23
 73
    19
 74
     0
 42
0.000000001
 43
0.00000001
 40
0.0
 40
0.0
 40
0.0
 40
0.0
 40
0.0625952066247718
 40
0.1249355498433274
 40
0.1871829251221563
 40
0.2499353710682914
 40
0.312182746349966
 40
0.37493519229371
 40
0.4371825675751411
 40
0.4999350135182419
 40
0.5621823887998504
 40
0.6249348347435121
 40
0.6871822100244043
 40
0.7499346559680954
 40
0.8121820312472607
 40
0.8749344771931123
 40
0.9375922823809872
 40
0.9999999999999999
 40
0.9999999999999999
 40
0.9999999999999999
 40
0.9999999999999999
 10
-1.915433525222082
 20
0.5792270910682786
 30
0.0
 10
-1.915466486409218
 20
0.5792269629297058
 30
0.0
 10
-1.915532158601385
 20
0.579215060055192
 30
0.0
 10
-1.915614409559835
 20
0.5791580754256069
 30
0.0
 10
-1.91567181476523
 20
0.5790759427096446
 30
0.0
 10
-1.915689347507121
 20
0.5789773585743905
 30
0.0
 10
-1.915671945909105
 20
0.5788784990444771
 30
0.0
 10
-1.915614601160049
 20
0.5787963850940343
 30
0.0
 10
-1.915532400870039
 20
0.5787387874954255
 30
0.0
 10
-1.915433786351207
 20
0.5787212724896087
 30
0.0
 10
-1.915334934849894
 20
0.5787386694971175
 30
0.0
 10
-1.915252819060121
 20
0.5787960149341747
 30
0.0
 10
-1.915195220765546
 20
0.5788782170719169
 30
0.0
 10
-1.91517771039233
 20
0.5789768234868464
 30
0.0
 10
-1.91519508962758
 20
0.5790757054472644
 30
0.0
 10
-1.915252627603791
 20
0.5791578868334548
 30
0.0
 10
-1.915334690402617
 20
0.5792158505311531
 30
0.0
 10
-1.915400662762317
 20
0.5792272188230427
 30
0.0
 10
-1.915433525222082
 20
0.5792270910682785
 30
0.0
  0
SPLINE
  5
2E0
330
1F
100
AcDbEntity
  8
0
  6
Continuous
 62
     7
370
    25
100
AcDbSpline
210
0.0
220
0.0
230
1.0
 70
    11
 71
     3
 72
    38
 73
    34
 74
     0
 42
0.000000001
 43
0.00000001
 40
0.0
 40
0.0
 40
0.0
 40
0.0
 40
0.0625
 40
0.0625
 40
0.125
 40
0.125
 40
0.1875
 40
0.1875
 40
0.25
 40
0.25
 40
0.3125
 40
0.3125
 40
0.375
 40
0.375
 40
0.4375
 40
0.4375
 40
0.5
 40
0.5
 40
0.5625
 40
0.5625
 40
0.625
 40
0.625
 40
0.6875
 40
0.6875
 40
0.75
 40
0.75
 40
0.8125
 40
0.8125
 40
0.875
 40
0.875
 40
0.9375
 40
0.9375
 40
1.0
 40
1.0
 40
1.0
 40
1.0
 10
-1.915433525222082
 20
0.6232270910682784
 30
0.0
 10
-1.921225821230986
 20
0.6232270910682787
 30
0.0
 10
-1.927015883375374
 20
0.6220753760998603
 30
0.0
 10
-1.937718650833094
 20
0.617642144663948
 30
0.0
 10
-1.942627228503013
 20
0.6143623379223546
 30
0.0
 10
-1.95081877207615
 20
0.6061707943492212
 30
0.0
 10
-1.954098578817832
 20
0.6012622166790966
 30
0.0
 10
-1.958531810253583
 20
0.5905594492217652
 30
0.0
 10
-1.959683525222081
 20
0.5847693870774637
 30
0.0
 10
-1.959683525222081
 20
0.5731847950590934
 30
0.0
 10
-1.958531810253584
 20
0.5673947329147941
 30
0.0
 10
-1.954098578817831
 20
0.5566919654574591
 30
0.0
 10
-1.95081877207615
 20
0.5517833877873362
 30
0.0
 10
-1.942627228503014
 20
0.543591844214202
 30
0.0
 10
-1.937718650833094
 20
0.5403120374726094
 30
0.0
 10
-1.927015883375375
 20
0.535878806036697
 30
0.0
 10
-1.921225821230986
 20
0.5347270910682782
 30
0.0
 10
-1.909641229213177
 20
0.5347270910682786
 30
0.0
 10
-1.903851167068789
 20
0.5358788060366968
 30
0.0
 10
-1.893148399611068
 20
0.5403120374726096
 30
0.0
 10
-1.888239821941149
 20
0.5435918442142018
 30
0.0
 10
-1.880048278368013
 20
0.5517833877873362
 30
0.0
 10
-1.876768471626332
 20
0.5566919654574589
 30
0.0
 10
-1.87233524019058
 20
0.5673947329147939
 30
0.0
 10
-1.871183525222082
 20
0.5731847950590934
 30
0.0
 10
-1.871183525222082
 20
0.584769387077464
 30
0.0
 10
-1.87233524019058
 20
0.5905594492217647
 30
0.0
 10
-1.876768471626332
 20
0.6012622166790964
 30
0.0
 10
-1.880048278368013
 20
0.6061707943492205
 30
0.0
 10
-1.888239821941149
 20
0.6143623379223548
 30
0.0
 10
-1.893148399611068
 20
0.6176421446639473
 30
0.0
 10
-1.903851167068789
 20
0.6220753760998603
 30
0.0
 10
-1.909641229213177
 20
0.6232270910682782
 30
0.0
 10
-1.915433525222082
 20
0.6232270910682784
 30
0.0
  0
SPLINE
  5
2E1
330
1F
100
AcDbEntity
  8
0
  6
Continuous
 62
     7
370
    25
100
AcDbSpline
210
0.0
220
0.0
230
1.0
 70
    11
 71
     3
 72
    23
 73
    19
 74
     0
 42
0.000000001
 43
0.00000001
 40
0.0
 40
0.0
 40
0.0
 40
0.0
 40
0.0626122272081517
 40
0.1248804032232557
 40
0.1871397180427179
 40
0.2499031551177415
 40
0.3121511551941383
 40
0.3749061021766623
 40
0.437090963494425
 40
0.4998312672912521
 40
0.5620792673676488
 40
0.6248973355595969
 40
0.6871023932948509
 40
0.7498571086080029
 40
0.8121051086843997
 40
0.8748600556669238
 40
0.9376162652324933
 40
1.0
 40
1.0
 40
1.0
 40
1.0
 10
0.8845664270942025
 20
0.5792271206321824
 30
0.0
 10
0.8845334854929255
 20
0.5792236175707708
 30
0.0
 10
0.8844677833028943
 20
0.5792166306971025
 30
0.0
 10
0.8843856718018722
 20
0.5791575932714694
 30
0.0
 10
0.8843281021956105
 20
0.579076107845393
 30
0.0
 10
0.8843107996580873
 20
0.5789773120626405
 30
0.0
 10
0.8843280858143342
 20
0.5788784872357862
 30
0.0
 10
0.8843854467481757
 20
0.5787963877692488
 30
0.0
 10
0.8844675939370797
 20
0.5787388063386987
 30
0.0
 10
0.884566179126438
 20
0.5787212768264747
 30
0.0
 10
0.8846650302566877
 20
0.5787386719752794
 30
0.0
 10
0.884747296111699
 20
0.5787958985062402
 30
0.0
 10
0.8848046088099001
 20
0.5788783022613038
 30
0.0
 10
0.8848223933132443
 20
0.5789767608954859
 30
0.0
 10
0.8848049887595545
 20
0.5790758171719586
 30
0.0
 10
0.8847474408234332
 20
0.5791575220974727
 30
0.0
 10
0.8846652542832606
 20
0.5792173988169014
 30
0.0
 10
0.8845993040576857
 20
0.5792238864638424
 30
0.0
 10
0.8845664270942025
 20
0.5792271206321824
 30
0.0
  0
SPLINE
  5
2E2
330
1F
100
AcDbEntity
  8
0
  6
Continuous
 62
     7
370
    25
100
AcDbSpline
210
0.0
220
0.0
230
1.0
 70
    11
 71
     3
 72
    55
 73
    51
 74
     0
 42
0.000000001
 43
0.00000001
 40
0.0
 40
0.0
 40
0.0
 40
0.0
 40
0.0208249906300686
 40
0.0416749449512636
 40
0.0624997810533728
 40
0.0833266508865977
 40
0.1041753829004764
 40
0.1249996833914492
 40
0.145826606770629
 40
0.166675279595776
 40
0.1874998484625885
 40
0.2083267849627769
 40
0.2291752245546056
 40
0.2499998010451726
 40
0.2708267323621493
 40
0.291675171953978
 40
0.3124998738951852
 40
0.3333267464122855
 40
0.3541752408611556
 40
0.3750001468490742
 40
0.3958267278570594
 40
0.4166752214990633
 40
0.4374999827844312
 40
0.4583266509536539
 40
0.4791756380729725
 40
0.4999997864134058
 40
0.520827373967107
 40
0.5416756031484639
 40
0.5624996266869197
 40
0.5833271713265655
 40
0.6041753090249261
 40
0.625000113169308
 40
0.6458270365484878
 40
0.6666752326258063
 40
0.6874998014926188
 40
0.7083270139044335
 40
0.729175286090828
 40
0.7499998625813951
 40
0.7708270079735565
 40
0.7916752371549134
 40
0.8124999390961207
 40
0.833326811613221
 40
0.854175306062091
 40
0.8749996461762927
 40
0.8958268723033762
 40
0.9166753659453801
 40
0.9375002220972916
 40
0.9583268902665143
 40
0.9791732687464804
 40
1.0
 40
1.0
 40
1.0
 40
1.0
 10
0.8845664270942025
 20
0.6232270905914414
 30
0.0
 10
0.8826364154826026
 20
0.6231542526002989
 30
0.0
 10
0.8787740786826709
 20
0.6230084893044039
 30
0.0
 10
0.8730807863499329
 20
0.6218330165626311
 30
0.0
 10
0.8675842708677018
 20
0.6199777363423014
 30
0.0
 10
0.8623777840813175
 20
0.6174080159148982
 30
0.0
 10
0.8575511379982211
 20
0.6141839543167471
 30
0.0
 10
0.8531877148627006
 20
0.6103555120056847
 30
0.0
 10
0.8493597011121835
 20
0.6059919970342216
 30
0.0
 10
0.8461345957330794
 20
0.6011654548760639
 30
0.0
 10
0.8435680924710985
 20
0.59595891472415
 30
0.0
 10
0.841701554250552
 20
0.5904624940708596
 30
0.0
 10
0.8405689195249954
 20
0.5847692107709661
 30
0.0
 10
0.8401902376645806
 20
0.5789768600146319
 30
0.0
 10
0.8405688986062722
 20
0.5731845146179222
 30
0.0
 10
0.8417014265985049
 20
0.5674911818740165
 30
0.0
 10
0.8435683411326015
 20
0.5619948874567469
 30
0.0
 10
0.8461346865255231
 20
0.5567882933924151
 30
0.0
 10
0.8493598061185782
 20
0.5519617396374916
 30
0.0
 10
0.8531880430357383
 20
0.5475983619967577
 30
0.0
 10
0.8575514032587858
 20
0.5437700738218096
 30
0.0
 10
0.8623781151975644
 20
0.5405452715229291
 30
0.0
 10
0.8675846249669273
 20
0.5379788185742811
 30
0.0
 10
0.8730809986778824
 20
0.5361119609714771
 30
0.0
 10
0.8787743401480993
 20
0.5349796578904464
 30
0.0
 10
0.8845667434795347
 20
0.5346008508211333
 30
0.0
 10
0.8903590906863282
 20
0.5349796206719493
 30
0.0
 10
0.8960524041891674
 20
0.5361121200031373
 30
0.0
 10
0.9015486622820558
 20
0.5379790613963618
 30
0.0
 10
0.9067552840321355
 20
0.5405453033870302
 30
0.0
 10
0.911581707690745
 20
0.5437706233355375
 30
0.0
 10
0.9159453911976073
 20
0.5475985023213272
 30
0.0
 10
0.9197734009463864
 20
0.5519621208834473
 30
0.0
 10
0.9229982508622506
 20
0.5567887654362038
 30
0.0
 10
0.925564685866837
 20
0.5619952897736724
 30
0.0
 10
0.9274316860023192
 20
0.567491583427602
 30
0.0
 10
0.9285638337457826
 20
0.5731849861492448
 30
0.0
 10
0.9289426418796202
 20
0.5789773116359662
 30
0.0
 10
0.9285639586229902
 20
0.5847696666934452
 30
0.0
 10
0.9274314208407896
 20
0.5904629946108604
 30
0.0
 10
0.925564509370337
 20
0.5959592682467914
 30
0.0
 10
0.9229981828784276
 20
0.601165875587178
 30
0.0
 10
0.9197730200570055
 20
0.6059923347840928
 30
0.0
 10
0.9159450570438009
 20
0.610355914233282
 30
0.0
 10
0.9115814498880223
 20
0.6141841730467366
 30
0.0
 10
0.9067547371426244
 20
0.6174082381252999
 30
0.0
 10
0.9015482419923265
 20
0.619977836009832
 30
0.0
 10
0.8960520846308716
 20
0.6218331152000873
 30
0.0
 10
0.8903587548357875
 20
0.6230083641422723
 30
0.0
 10
0.8864965960562546
 20
0.6231542046944065
 30
0.0
 10
0.8845664270942025
 20
0.6232270905914414
 30
0.0
  0
SPLINE
  5
2E3
330
1F
100
AcDbEntity
  8
0
  6
Continuous
 62
     7
370
    25
100
AcDbSpline
210
0.0
220
0.0
230
1.0
 70
    11
 71
     3
 72
    23
 73
    19
 74
     0
 42
0.000000001
 43
0.00000001
 40
0.0
 40
0.0
 40
0.0
 40
0.0
 40
0.0625952066302144
 40
0.1249355498441531
 40
0.1871829251311748
 40
0.2499353710688984
 40
0.3121827463513666
 40
0.3749351922933027
 40
0.4371825675692276
 40
0.499935013517679
 40
0.5621823887918236
 40
0.6249348347427807
 40
0.6871822100166508
 40
0.7499346559675435
 40
0.8121820312442
 40
0.8749344771930412
 40
0.9375922823811008
 40
1.0
 40
1.0
 40
1.0
 40
1.0
 10
-1.115433525222082
 20
0.5792270910682785
 30
0.0
 10
-1.115466486409221
 20
0.5792269629297063
 30
0.0
 10
-1.11553215860139
 20
0.5792150600551955
 30
0.0
 10
-1.11561440955984
 20
0.5791580754256018
 30
0.0
 10
-1.115671814765231
 20
0.5790759427096392
 30
0.0
 10
-1.115689347507122
 20
0.5789773585743851
 30
0.0
 10
-1.115671945909099
 20
0.5788784990444791
 30
0.0
 10
-1.115614601160052
 20
0.578796385094035
 30
0.0
 10
-1.115532400870041
 20
0.5787387874954282
 30
0.0
 10
-1.115433786351213
 20
0.5787212724896083
 30
0.0
 10
-1.115334934849898
 20
0.578738669497117
 30
0.0
 10
-1.115252819060126
 20
0.5787960149341693
 30
0.0
 10
-1.115195220765547
 20
0.5788782170719124
 30
0.0
 10
-1.115177710392331
 20
0.5789768234868411
 30
0.0
 10
-1.115195089627576
 20
0.5790757054472646
 30
0.0
 10
-1.11525262760379
 20
0.5791578868334533
 30
0.0
 10
-1.115334690402617
 20
0.5792158505311538
 30
0.0
 10
-1.115400662762317
 20
0.5792272188230421
 30
0.0
 10
-1.115433525222082
 20
0.5792270910682785
 30
0.0
  0
SPLINE
  5
2E4
330
1F
100
AcDbEntity
  8
0
  6
Continuous
 62
     7
370
    25
100
AcDbSpline
210
0.0
220
0.0
230
1.0
 70
    11
 71
     3
 72
    38
 73
    34
 74
     0
 42
0.000000001
 43
0.00000001
 40
0.0
 40
0.0
 40
0.0
 40
0.0
 40
0.0625
 40
0.0625
 40
0.125
 40
0.125
 40
0.1875
 40
0.1875
 40
0.25
 40
0.25
 40
0.3125
 40
0.3125
 40
0.375
 40
0.375
 40
0.4375
 40
0.4375
 40
0.5
 40
0.5
 40
0.5625
 40
0.5625
 40
0.625
 40
0.625
 40
0.6875
 40
0.6875
 40
0.75
 40
0.75
 40
0.8125
 40
0.8125
 40
0.875
 40
0.875
 40
0.9375
 40
0.9375
 40
1.0
 40
1.0
 40
1.0
 40
1.0
 10
-1.115433525222082
 20
0.6232270910682787
 30
0.0
 10
-1.121225821231269
 20
0.6232270910682789
 30
0.0
 10
-1.127015883375578
 20
0.6220753760997753
 30
0.0
 10
-1.137718650832884
 20
0.6176421446640357
 30
0.0
 10
-1.142627228502987
 20
0.6143623379223826
 30
0.0
 10
-1.150818772076186
 20
0.6061707943491845
 30
0.0
 10
-1.154098578817838
 20
0.6012622166790811
 30
0.0
 10
-1.158531810253578
 20
0.5905594492217756
 30
0.0
 10
-1.159683525222082
 20
0.5847693870774635
 30
0.0
 10
-1.159683525222082
 20
0.5731847950590931
 30
0.0
 10
-1.158531810253578
 20
0.5673947329147819
 30
0.0
 10
-1.154098578817838
 20
0.5566919654574762
 30
0.0
 10
-1.150818772076185
 20
0.551783387787373
 30
0.0
 10
-1.142627228502987
 20
0.5435918442141747
 30
0.0
 10
-1.137718650832884
 20
0.5403120374725221
 30
0.0
 10
-1.127015883375577
 20
0.5358788060367816
 30
0.0
 10
-1.121225821231268
 20
0.5347270910682786
 30
0.0
 10
-1.109641229212894
 20
0.5347270910682784
 30
0.0
 10
-1.103851167068585
 20
0.5358788060367818
 30
0.0
 10
-1.093148399611279
 20
0.5403120374725219
 30
0.0
 10
-1.088239821941176
 20
0.5435918442141745
 30
0.0
 10
-1.080048278367978
 20
0.551783387787373
 30
0.0
 10
-1.076768471626324
 20
0.5566919654574762
 30
0.0
 10
-1.072335240190585
 20
0.5673947329147822
 30
0.0
 10
-1.071183525222082
 20
0.5731847950590938
 30
0.0
 10
-1.071183525222081
 20
0.5847693870774637
 30
0.0
 10
-1.072335240190585
 20
0.5905594492217756
 30
0.0
 10
-1.076768471626325
 20
0.6012622166790811
 30
0.0
 10
-1.080048278367978
 20
0.6061707943491843
 30
0.0
 10
-1.088239821941176
 20
0.6143623379223826
 30
0.0
 10
-1.093148399611279
 20
0.6176421446640354
 30
0.0
 10
-1.103851167068585
 20
0.6220753760997753
 30
0.0
 10
-1.109641229212894
 20
0.6232270910682784
 30
0.0
 10
-1.115433525222082
 20
0.6232270910682787
 30
0.0
  0
SPLINE
  5
2E5
330
1F
100
AcDbEntity
  8
0
  6
Continuous
 62
     7
370
    25
100
AcDbSpline
210
0.0
220
0.0
230
1.0
 70
    11
 71
     3
 72
    23
 73
    19
 74
     0
 42
0.000000001
 43
0.00000001
 40
0.0
 40
0.0
 40
0.0
 40
0.0
 40
0.0626071582756869
 40
0.1248702932118677
 40
0.1871245676697871
 40
0.2498829235707658
 40
0.3121258842016338
 40
0.3748757506974499
 40
0.4370555776812429
 40
0.4997908021768386
 40
0.5620337628077066
 40
0.6248467454028084
 40
0.6871325219465515
 40
0.7498534254846417
 40
0.8120963861155097
 40
0.8748462526113259
 40
0.9374714253250019
 40
1.0
 40
1.0
 40
1.0
 40
1.0
 10
1.684566379410487
 20
0.5792271206321824
 30
0.0
 10
1.684533437809403
 20
0.579223617570664
 30
0.0
 10
1.684467735619755
 20
0.5792166306967825
 30
0.0
 10
1.684385624115866
 20
0.5791575932727424
 30
0.0
 10
1.68432805452051
 20
0.5790761078406026
 30
0.0
 10
1.68431075194203
 20
0.578977312080623
 30
0.0
 10
1.684328038250593
 20
0.5788784871690766
 30
0.0
 10
1.684385398614268
 20
0.5787963880195699
 30
0.0
 10
1.684467547922372
 20
0.5787388054106739
 30
0.0
 10
1.684566125171007
 20
0.578721280313762
 30
0.0
 10
1.684665005858325
 20
0.5787386590278318
 30
0.0
 10
1.684747198603766
 20
0.5787959733654158
 30
0.0
 10
1.684804923291507
 20
0.5788781903088076
 30
0.0
 10
1.684822245034873
 20
0.5789767996427106
 30
0.0
 10
1.684804972860226
 20
0.5790758192062562
 30
0.0
 10
1.684747402907728
 20
0.5791574351074948
 30
0.0
 10
1.684665342664613
 20
0.5792174998007433
 30
0.0
 10
1.684599350183427
 20
0.5792239153389482
 30
0.0
 10
1.684566379410487
 20
0.5792271206321824
 30
0.0
  0
SPLINE
  5
2E6
330
1F
100
AcDbEntity
  8
0
  6
Continuous
 62
     7
370
    25
100
AcDbSpline
210
0.0
220
0.0
230
1.0
 70
    11
 71
     3
 72
    55
 73
    51
 74
     0
 42
0.000000001
 43
0.00000001
 40
0.0
 40
0.0
 40
0.0
 40
0.0
 40
0.0208249908447606
 40
0.0416749453809049
 40
0.0624997816977045
 40
0.0833266517456408
 40
0.1041753839744562
 40
0.1249996846801138
 40
0.1458266082740056
 40
0.1666752813140888
 40
0.1874998503955888
 40
0.2083267871104893
 40
0.2291752269172518
 40
0.2499998036225065
 40
0.2708267912136948
 40
0.2916752310204573
 40
0.3124996572668239
 40
0.3333269094723711
 40
0.354174927384263
 40
0.3749998335868728
 40
0.3958270599286713
 40
0.4166748402696202
 40
0.4374996017696777
 40
0.458327082720164
 40
0.4791752284086425
 40
0.499999376963759
 40
0.5208269647321789
 40
0.5416751941284674
 40
0.562500030445267
 40
0.5833268056247818
 40
0.604174943538073
 40
0.6249997478971449
 40
0.6458266714910367
 40
0.6666748677832864
 40
0.6874998163451383
 40
0.7083267530600388
 40
0.7291751928668012
 40
0.7499997135414278
 40
0.7708268591483035
 40
0.7916750885445919
 40
0.8124995147909587
 40
0.8333267669965058
 40
0.8541752616603102
 40
0.874999601989197
 40
0.8958268283309956
 40
0.9166753221879338
 40
0.9374994088864054
 40
0.9583268898368918
 40
0.9791732685317704
 40
1.0
 40
1.0
 40
1.0
 40
1.0
 10
1.684566379410487
 20
0.6232270905914414
 30
0.0
 10
1.682636367798899
 20
0.6231542526002993
 30
0.0
 10
1.678774030998992
 20
0.623008489304405
 30
0.0
 10
1.673080738666065
 20
0.6218330165626256
 30
0.0
 10
1.667584223184553
 20
0.6199777363423224
 30
0.0
 10
1.662377736395488
 20
0.6174080159148194
 30
0.0
 10
1.6575510903224
 20
0.6141839543170404
 30
0.0
 10
1.653187667149564
 20
0.61035551200459
 30
0.0
 10
1.649359653538339
 20
0.6059919970383087
 30
0.0
 10
1.646134547639043
 20
0.6011654548607992
 30
0.0
 10
1.643568046316767
 20
0.5959589147810469
 30
0.0
 10
1.641701500855676
 20
0.5904624938583898
 30
0.0
 10
1.640568893169773
 20
0.5847692115644403
 30
0.0
 10
1.640190110142458
 20
0.5789768518616103
 30
0.0
 10
1.640569148813238
 20
0.5731845152713788
 30
0.0
 10
1.641701688779974
 20
0.567491243459503
 30
0.0
 10
1.643568159385194
 20
0.5619947610133156
 30
0.0
 10
1.646134984881613
 20
0.5567884405199748
 30
0.0
 10
1.649359712976984
 20
0.5519616673522687
 30
0.0
 10
1.653188015097058
 20
0.5475982799617278
 30
0.0
 10
1.657551552407948
 20
0.5437702283507782
 30
0.0
 10
1.66237809197637
 20
0.5405451958498884
 30
0.0
 10
1.667584646385882
 20
0.537978772266575
 30
0.0
 10
1.67308105111358
 20
0.5361120403063442
 30
0.0
 10
1.678774364984053
 20
0.5349796252617558
 30
0.0
 10
1.684566696274933
 20
0.5346008608317638
 30
0.0
 10
1.690359046568479
 20
0.5349796081380642
 30
0.0
 10
1.696052415771363
 20
0.5361121748655799
 30
0.0
 10
1.701548743921739
 20
0.5379789438897582
 30
0.0
 10
1.706755277479757
 20
0.5405453817577697
 30
0.0
 10
1.711581666704439
 20
0.5437706122035779
 30
0.0
 10
1.715945335024095
 20
0.5475985082236123
 30
0.0
 10
1.719773380544732
 20
0.5519621083934863
 30
0.0
 10
1.722998122059469
 20
0.5567888388235736
 30
0.0
 10
1.725565031054875
 20
0.5619951675405099
 30
0.0
 10
1.727431444177138
 20
0.5674916768977716
 30
0.0
 10
1.728564220377794
 20
0.5731849344329385
 30
0.0
 10
1.728942471150729
 20
0.5789773269486391
 30
0.0
 10
1.728563967668979
 20
0.5847696727857532
 30
0.0
 10
1.727431274034412
 20
0.5904629349508812
 30
0.0
 10
1.72556482777758
 20
0.5959593853652216
 30
0.0
 10
1.722998061261839
 20
0.6011658035739982
 30
0.0
 10
1.71977299772655
 20
0.6059923469033779
 30
0.0
 10
1.715945001385048
 20
0.6103559084328614
 30
0.0
 10
1.711581408765984
 20
0.614184184141644
 30
0.0
 10
1.706754730624272
 20
0.6174081598242371
 30
0.0
 10
1.701548323635781
 20
0.6199779532672227
 30
0.0
 10
1.696052096183318
 20
0.6218330606580096
 30
0.0
 10
1.690358710845266
 20
0.6230083739508194
 30
0.0
 10
1.686496549603217
 20
0.6231542079628944
 30
0.0
 10
1.684566379410487
 20
0.6232270905914412
 30
0.0
  0
SPLINE
  5
2E7
330
1F
100
AcDbEntity
  8
0
  6
Continuous
 62
     7
370
    25
100
AcDbSpline
210
0.0
220
0.0
230
1.0
 70
    11
 71
     3
 72
    23
 73
    19
 74
     0
 42
0.000000001
 43
0.00000001
 40
0.0
 40
0.0
 40
0.0
 40
0.0
 40
0.062603417552013
 40
0.1248716394004182
 40
0.1871415591378559
 40
0.2498774376218739
 40
0.3121167273409308
 40
0.3748664197623479
 40
0.437063751453481
 40
0.4997983239361644
 40
0.5620464923494182
 40
0.6248593260125271
 40
0.6871292457499648
 40
0.7498651242339841
 40
0.8121044139530399
 40
0.8748541063744568
 40
0.9374704510920698
 40
1.0
 40
1.0
 40
1.0
 40
1.0
 10
1.684566379410487
 20
1.379227091080153
 30
0.0
 10
1.684533437051567
 20
1.379223605576585
 30
0.0
 10
1.684467728716066
 20
1.379216653231781
 30
0.0
 10
1.6843856172932
 20
1.379157588584983
 30
0.0
 10
1.684328069023872
 20
1.379076097582269
 30
0.0
 10
1.684310749281033
 20
1.378977316167903
 30
0.0
 10
1.684328038344972
 20
1.378878501466707
 30
0.0
 10
1.684385413017667
 20
1.378796416272285
 30
0.0
 10
1.684467529638863
 20
1.378738771928005
 30
0.0
 10
1.684566133284741
 20
1.378721270781071
 30
0.0
 10
1.684665000906199
 20
1.378738694141291
 30
0.0
 10
1.684747188261153
 20
1.378795990853085
 30
0.0
 10
1.684804935578063
 20
1.378878192021364
 30
0.0
 10
1.684822242947225
 20
1.37897680353539
 30
0.0
 10
1.684804971545464
 20
1.379075822746758
 30
0.0
 10
1.68474740980348
 20
1.379157439408007
 30
0.0
 10
1.684665333625894
 20
1.379217468395927
 30
0.0
 10
1.684599348894231
 20
1.379223885002172
 30
0.0
 10
1.684566379410487
 20
1.379227091080153
 30
0.0
  0
SPLINE
  5
2E8
330
1F
100
AcDbEntity
  8
0
  6
Continuous
 62
     7
370
    25
100
AcDbSpline
210
0.0
220
0.0
230
1.0
 70
    11
 71
     3
 72
    55
 73
    51
 74
     0
 42
0.000000001
 43
0.00000001
 40
0.0
 40
0.0
 40
0.0
 40
0.0
 40
0.0208249874062671
 40
0.0416749672893471
 40
0.0624997855498045
 40
0.0833266310686585
 40
0.1041753922817232
 40
0.1249995949149161
 40
0.1458265680976123
 40
0.1666752180279631
 40
0.1874998043369623
 40
0.2083266958025284
 40
0.2291751331528068
 40
0.249999764237569
 40
0.2708268463470367
 40
0.2916751949303899
 40
0.3124996235391525
 40
0.3333268749328735
 40
0.3541748307140417
 40
0.3749998369035793
 40
0.3958269828590057
 40
0.4166748145324373
 40
0.4374996167246586
 40
0.45832709686331
 40
0.4791752338919766
 40
0.4999993728781015
 40
0.5208269528288364
 40
0.5416751787964834
 40
0.5624999970569409
 40
0.5833268425757948
 40
0.6041748902820759
 40
0.6249997380372859
 40
0.6458267112199819
 40
0.6666748844020082
 40
0.6874998501910157
 40
0.7083267416565817
 40
0.7291751790068601
 40
0.7499997540611449
 40
0.7708267801113717
 40
0.791675128694725
 40
0.8124995573034874
 40
0.8333268086972084
 40
0.8541752412316727
 40
0.8749996815502484
 40
0.8958268275056749
 40
0.9166753726932835
 40
0.937499405215432
 40
0.9583268853540834
 40
0.9791732684677708
 40
1.0
 40
1.0
 40
1.0
 40
1.0
 10
1.684566379410487
 20
1.423227091336499
 30
0.0
 10
1.682636366872594
 20
1.423154262337888
 30
0.0
 10
1.678774025550818
 20
1.423008516937152
 30
0.0
 10
1.673080745905474
 20
1.421832975351218
 30
0.0
 10
1.667584224816029
 20
1.419977728605343
 30
0.0
 10
1.662377725864686
 20
1.417408026179903
 30
0.0
 10
1.65755111110162
 20
1.41418393726973
 30
0.0
 10
1.653187645542845
 20
1.41035554568738
 30
0.0
 10
1.649359664798224
 20
1.405992007731951
 30
0.0
 10
1.646134541819476
 20
1.401165473892246
 30
0.0
 10
1.643568051573315
 20
1.395958932341231
 30
0.0
 10
1.641701498218191
 20
1.390462517613586
 30
0.0
 10
1.640568892101543
 20
1.384769233421556
 30
0.0
 10
1.640190111219217
 20
1.378976860230697
 30
0.0
 10
1.640569144100346
 20
1.373184517369903
 30
0.0
 10
1.641701692774119
 20
1.367491246189133
 30
0.0
 10
1.643568160371894
 20
1.361994772487664
 30
0.0
 10
1.646134976425757
 20
1.356788451019704
 30
0.0
 10
1.649359734175063
 20
1.351961696435624
 30
0.0
 10
1.653187988612403
 20
1.347598270341211
 30
0.0
 10
1.657551573560485
 20
1.343770260903054
 30
0.0
 10
1.662378088253761
 20
1.340545195793408
 30
0.0
 10
1.667584640896241
 20
1.337978742831403
 30
0.0
 10
1.673081050345243
 20
1.336112017095739
 30
0.0
 10
1.67877436490083
 20
1.334979598127108
 30
0.0
 10
1.684566696233169
 20
1.334600907761893
 30
0.0
 10
1.690359048278874
 20
1.334979586114961
 30
0.0
 10
1.696052410625594
 20
1.336112175846661
 30
0.0
 10
1.701548761782111
 20
1.33797889970279
 30
0.0
 10
1.706755249480235
 20
1.3405454204987
 30
0.0
 10
1.711581688306185
 20
1.343770576153021
 30
0.0
 10
1.715945333391526
 20
1.347598506589366
 30
0.0
 10
1.719773373190683
 20
1.351962116689337
 30
0.0
 10
1.722998126850625
 20
1.356788844934793
 30
0.0
 10
1.725565026009718
 20
1.361995173467294
 30
0.0
 10
1.727431446996352
 20
1.367491677104503
 30
0.0
 10
1.728564220507077
 20
1.373184936292754
 30
0.0
 10
1.728942472346346
 20
1.378977322960669
 30
0.0
 10
1.728563961653791
 20
1.3847696729562
 30
0.0
 10
1.727431279871469
 20
1.390462938209864
 30
0.0
 10
1.725564825829405
 20
1.395959397535596
 30
0.0
 10
1.722998070017476
 20
1.401165817054148
 30
0.0
 10
1.719772976291328
 20
1.405992341307751
 30
0.0
 10
1.715945028515606
 20
1.410355943170985
 30
0.0
 10
1.711581385263477
 20
1.414184170673205
 30
0.0
 10
1.706754750430683
 20
1.417408196586741
 30
0.0
 10
1.701548312578802
 20
1.419977933043864
 30
0.0
 10
1.696052096959341
 20
1.421833051262405
 30
0.0
 10
1.690358711232397
 20
1.423008371580492
 30
0.0
 10
1.686496549597733
 20
1.423154207674895
 30
0.0
 10
1.684566379410487
 20
1.423227091336499
 30
0.0
  0
SPLINE
  5
2E9
330
1F
100
AcDbEntity
  8
0
  6
Continuous
 62
     7
370
    25
100
AcDbSpline
210
0.0
220
0.0
230
1.0
 70
    11
 71
     3
 72
    23
 73
    19
 74
     0
 42
0.000000001
 43
0.00000001
 40
0.0
 40
0.0
 40
0.0
 40
0.0
 40
0.0625952066251126
 40
0.1249355498434142
 40
0.1871829251192876
 40
0.2499353710677705
 40
0.3121827463415291
 40
0.3749351922927858
 40
0.4371825675695593
 40
0.4999350135181392
 40
0.5621823887998161
 40
0.6249348347435622
 40
0.6871822100249969
 40
0.7499346559681009
 40
0.8121820312497204
 40
0.8749344771933794
 40
0.9375922823831764
 40
0.9999999999999999
 40
0.9999999999999999
 40
0.9999999999999999
 40
0.9999999999999999
 10
-1.115433525222082
 20
1.379227091068279
 30
0.0
 10
-1.115466486409218
 20
1.379226962929706
 30
0.0
 10
-1.115532158601385
 20
1.379215060055192
 30
0.0
 10
-1.115614409559834
 20
1.379158075425609
 30
0.0
 10
-1.115671814765227
 20
1.379075942709644
 30
0.0
 10
-1.115689347507121
 20
1.378977358574396
 30
0.0
 10
-1.115671945909105
 20
1.378878499044482
 30
0.0
 10
-1.115614601160054
 20
1.378796385094039
 30
0.0
 10
-1.115532400870043
 20
1.378738787495422
 30
0.0
 10
-1.115433786351209
 20
1.37872127248961
 30
0.0
 10
-1.115334934849894
 20
1.378738669497117
 30
0.0
 10
-1.115252819060121
 20
1.378796014934175
 30
0.0
 10
-1.115195220765546
 20
1.378878217071917
 30
0.0
 10
-1.11517771039233
 20
1.378976823486848
 30
0.0
 10
-1.115195089627579
 20
1.379075705447267
 30
0.0
 10
-1.115252627603792
 20
1.379157886833456
 30
0.0
 10
-1.115334690402619
 20
1.379215850531152
 30
0.0
 10
-1.115400662762318
 20
1.379227218823043
 30
0.0
 10
-1.115433525222082
 20
1.379227091068279
 30
0.0
  0
SPLINE
  5
2EA
330
1F
100
AcDbEntity
  8
0
  6
Continuous
 62
     7
370
    25
100
AcDbSpline
210
0.0
220
0.0
230
1.0
 70
    11
 71
     3
 72
    38
 73
    34
 74
     0
 42
0.000000001
 43
0.00000001
 40
0.0
 40
0.0
 40
0.0
 40
0.0
 40
0.0625
 40
0.0625
 40
0.1250000000000001
 40
0.1250000000000001
 40
0.1875000000000001
 40
0.1875000000000001
 40
0.2500000000000001
 40
0.2500000000000001
 40
0.3125
 40
0.3125
 40
0.375
 40
0.375
 40
0.4374999999999999
 40
0.4374999999999999
 40
0.4999999999999999
 40
0.4999999999999999
 40
0.5624999999999999
 40
0.5624999999999999
 40
0.6249999999999999
 40
0.6249999999999999
 40
0.6875
 40
0.6875
 40
0.75
 40
0.75
 40
0.8125
 40
0.8125
 40
0.875
 40
0.875
 40
0.9375000000000001
 40
0.9375000000000001
 40
1.0
 40
1.0
 40
1.0
 40
1.0
 10
-1.115433525222082
 20
1.423227091068279
 30
0.0
 10
-1.121225821231269
 20
1.423227091068279
 30
0.0
 10
-1.127015883375567
 20
1.42207537609978
 30
0.0
 10
-1.137718650832899
 20
1.417642144664029
 30
0.0
 10
-1.142627228503023
 20
1.414362337922347
 30
0.0
 10
-1.150818772076158
 20
1.406170794349211
 30
0.0
 10
-1.154098578817751
 20
1.401262216679292
 30
0.0
 10
-1.158531810253663
 20
1.390559449221572
 30
0.0
 10
-1.159683525222082
 20
1.384769387077183
 30
0.0
 10
-1.159683525222082
 20
1.373184795059374
 30
0.0
 10
-1.158531810253663
 20
1.367394732914986
 30
0.0
 10
-1.154098578817751
 20
1.356691965457265
 30
0.0
 10
-1.150818772076158
 20
1.351783387787346
 30
0.0
 10
-1.142627228503024
 20
1.34359184421421
 30
0.0
 10
-1.137718650832899
 20
1.340312037472528
 30
0.0
 10
-1.127015883375567
 20
1.335878806036777
 30
0.0
 10
-1.121225821231268
 20
1.334727091068278
 30
0.0
 10
-1.109641229212895
 20
1.334727091068278
 30
0.0
 10
-1.103851167068596
 20
1.335878806036777
 30
0.0
 10
-1.093148399611264
 20
1.340312037472528
 30
0.0
 10
-1.088239821941139
 20
1.34359184421421
 30
0.0
 10
-1.080048278368006
 20
1.351783387787346
 30
0.0
 10
-1.076768471626413
 20
1.356691965457265
 30
0.0
 10
-1.072335240190501
 20
1.367394732914985
 30
0.0
 10
-1.071183525222081
 20
1.373184795059374
 30
0.0
 10
-1.071183525222082
 20
1.384769387077183
 30
0.0
 10
-1.0723352401905
 20
1.390559449221572
 30
0.0
 10
-1.076768471626413
 20
1.401262216679292
 30
0.0
 10
-1.080048278368006
 20
1.406170794349211
 30
0.0
 10
-1.088239821941139
 20
1.414362337922347
 30
0.0
 10
-1.093148399611263
 20
1.417642144664028
 30
0.0
 10
-1.103851167068598
 20
1.422075376099781
 30
0.0
 10
-1.109641229212895
 20
1.423227091068279
 30
0.0
 10
-1.115433525222082
 20
1.423227091068279
 30
0.0
  0
LINE
  5
2EB
330
1F
100
AcDbEntity
  8
0
  6
Continuous
 62
     8
370
    25
100
AcDbLine
 10
-1.2744335524
 20
0.3957693884
 30
0.0
 11
-1.7564335308
 21
0.3957693884
 31
0.0
  0
LINE
  5
2EC
330
1F
100
AcDbEntity
  8
0
  6
Continuous
 62
     8
370
    25
100
AcDbLine
 10
-1.2744335524
 20
0.3686945746
 30
0.0
 11
-1.7564335308
 21
0.3686945746
 31
0.0
  0
LINE
  5
2ED
330
1F
100
AcDbEntity
  8
0
  6
Continuous
 62
     8
370
    25
100
AcDbLine
 10
-1.2744335524
 20
-0.2270296505
 30
0.0
 11
-1.7564335308
 21
-0.2270296505
 31
0.0
  0
LINE
  5
2EE
330
1F
100
AcDbEntity
  8
0
  6
Continuous
 62
     8
370
    25
100
AcDbLine
 10
-1.2744335524
 20
-0.6483282735
 30
0.0
 11
-1.7564335308
 21
-0.6483282735
 31
0.0
  0
LINE
  5
2EF
330
1F
100
AcDbEntity
  8
0
  6
Continuous
 62
     8
370
    25
100
AcDbLine
 10
-1.2744335524
 20
-0.9937610319
 30
0.0
 11
-1.7564335308
 21
-0.9937610319
 31
0.0
  0
ENDSEC
  0
SECTION
  2
OBJECTS
  0
DICTIONARY
  5
C
330
0
100
AcDbDictionary
281
     1
  3
ACAD_GROUP
350
D
  3
ACAD_LAYOUT
350
1A
  3
ACAD_MLINESTYLE
350
17
  3
ACAD_PLOTSETTINGS
350
19
  3
ACAD_PLOTSTYLENAME
350
E
  3
ACAD_SCALELIST
350
47
  0
DICTIONARY
  5
D
102
{ACAD_REACTORS
330
C
102
}
330
C
100
AcDbDictionary
281
     1
  0
DICTIONARY
  5
1A
102
{ACAD_REACTORS
330
C
102
}
330
C
100
AcDbDictionary
281
     1
  3
Layout1
350
1E
  3
Layout2
350
26
  3
Model
350
22
  0
DICTIONARY
  5
17
102
{ACAD_REACTORS
330
C
102
}
330
C
100
AcDbDictionary
281
     1
  3
Standard
350
18
  0
DICTIONARY
  5
19
102
{ACAD_REACTORS
330
C
102
}
330
C
100
AcDbDictionary
281
     1
  0
ACDBDICTIONARYWDFLT
  5
E
102
{ACAD_REACTORS
330
C
102
}
330
C
100
AcDbDictionary
281
     1
  3
Normal
350
F
100
AcDbDictionaryWithDefault
340
F
  0
DICTIONARY
  5
47
102
{ACAD_REACTORS
330
C
102
}
330
C
100
AcDbDictionary
281
     1
  3
A0
350
48
  3
A1
350
49
  3
A2
350
4A
  3
A3
350
4B
  3
A4
350
4C
  3
A5
350
4D
  3
A6
350
4E
  3
A7
350
4F
  3
A8
350
50
  3
A9
350
51
  3
B0
350
52
  3
B1
350
53
  3
B2
350
54
  3
B3
350
55
  3
B4
350
56
  3
B5
350
57
  3
B6
350
58
  3
B7
350
59
  3
B8
350
5A
  3
B9
350
5B
  3
C0
350
5C
  3
C1
350
5D
  3
C2
350
5E
  3
C3
350
5F
  3
C4
350
60
  3
C5
350
61
  3
C6
350
62
  3
C7
350
63
  3
C8
350
64
  3
C9
350
65
  3
D0
350
66
  3
D1
350
67
  3
D2
350
68
  0
LAYOUT
  5
1E
102
{ACAD_REACTORS
330
1A
102
}
330
1A
100
AcDbPlotSettings
  1

  2
none_device
  4

  6

 40
0.0
 41
0.0
 42
0.0
 43
0.0
 44
0.0
 45
0.0
 46
0.0
 47
0.0
 48
0.0
 49
0.0
140
0.0
141
0.0
142
1.0
143
1.0
 70
   688
 72
     1
 73
     0
 74
     5
  7

 75
    16
147
1.0
148
0.0
149
0.0
100
AcDbLayout
  1
Layout1
 70
     1
 71
     1
 10
0.0
 20
0.0
 11
420.0
 21
297.0
 12
0.0
 22
0.0
 32
0.0
 14
1.0000000000E+20
 24
1.0000000000E+20
 34
1.0000000000E+20
 15
-1.0000000000E+20
 25
-1.0000000000E+20
 35
-1.0000000000E+20
146
0.0
 13
0.0
 23
0.0
 33
0.0
 16
1.0
 26
0.0
 36
0.0
 17
0.0
 27
1.0
 37
0.0
 76
     0
330
1B
  0
LAYOUT
  5
26
102
{ACAD_REACTORS
330
1A
102
}
330
1A
100
AcDbPlotSettings
  1

  2
none_device
  4

  6

 40
0.0
 41
0.0
 42
0.0
 43
0.0
 44
0.0
 45
0.0
 46
0.0
 47
0.0
 48
0.0
 49
0.0
140
0.0
141
0.0
142
1.0
143
1.0
 70
   688
 72
     1
 73
     0
 74
     5
  7

 75
    16
147
1.0
148
0.0
149
0.0
100
AcDbLayout
  1
Layout2
 70
     1
 71
     2
 10
0.0
 20
0.0
 11
0.0
 21
0.0
 12
0.0
 22
0.0
 32
0.0
 14
0.0
 24
0.0
 34
0.0
 15
0.0
 25
0.0
 35
0.0
146
0.0
 13
0.0
 23
0.0
 33
0.0
 16
1.0
 26
0.0
 36
0.0
 17
0.0
 27
1.0
 37
0.0
 76
     0
330
23
  0
LAYOUT
  5
22
102
{ACAD_REACTORS
330
1A
102
}
330
1A
100
AcDbPlotSettings
  1

  2
none_device
  4
Letter_(8.50_x_11.00_Inches)
  6

 40
6.35
 41
6.35
 42
6.35000508
 43
6.35000508
 44
215.9
 45
279.4
 46
0.0
 47
0.0
 48
0.0
 49
0.0
140
0.0
141
0.0
142
1.0
143
1.0
 70
  1712
 72
     1
 73
     0
 74
     0
  7

 75
     0
147
1.0
148
0.0
149
0.0
100
AcDbLayout
  1
Model
 70
     1
 71
     0
 10
0.0
 20
0.0
 11
0.4318
 21
0.2794
 12
0.0
 22
0.0
 32
0.0
 14
0.0
 24
0.0
 34
0.0
 15
0.4318
 25
0.2794
 35
0.0
146
0.0
 13
0.0
 23
0.0
 33
0.0
 16
1.0
 26
0.0
 36
0.0
 17
0.0
 27
1.0
 37
0.0
 76
     0
330
1F
331
29
  0
MLINESTYLE
  5
18
102
{ACAD_REACTORS
330
17
102
}
330
17
100
AcDbMlineStyle
  2
Standard
 70
     0
  3

 62
   256
 51
90.0
 52
90.0
 71
     2
 49
0.5
 62
   256
  6
BYLAYER
 49
-0.5
 62
   256
  6
BYLAYER
  0
ACDBPLACEHOLDER
  5
F
102
{ACAD_REACTORS
330
E
102
}
330
E
  0
SCALE
  5
48
102
{ACAD_REACTORS
330
47
102
}
330
47
100
AcDbScale
 70
     0
300
1:1
140
1.0
141
1.0
290
     1
  0
SCALE
  5
49
102
{ACAD_REACTORS
330
47
102
}
330
47
100
AcDbScale
 70
     0
300
1:2
140
1.0
141
2.0
290
     0
  0
SCALE
  5
4A
102
{ACAD_REACTORS
330
47
102
}
330
47
100
AcDbScale
 70
     0
300
1:4
140
1.0
141
4.0
290
     0
  0
SCALE
  5
4B
102
{ACAD_REACTORS
330
47
102
}
330
47
100
AcDbScale
 70
     0
300
1:5
140
1.0
141
5.0
290
     0
  0
SCALE
  5
4C
102
{ACAD_REACTORS
330
47
102
}
330
47
100
AcDbScale
 70
     0
300
1:8
140
1.0
141
8.0
290
     0
  0
SCALE
  5
4D
102
{ACAD_REACTORS
330
47
102
}
330
47
100
AcDbScale
 70
     0
300
1:10
140
1.0
141
10.0
290
     0
  0
SCALE
  5
4E
102
{ACAD_REACTORS
330
47
102
}
330
47
100
AcDbScale
 70
     0
300
1:16
140
1.0
141
16.0
290
     0
  0
SCALE
  5
4F
102
{ACAD_REACTORS
330
47
102
}
330
47
100
AcDbScale
 70
     0
300
1:20
140
1.0
141
20.0
290
     0
  0
SCALE
  5
50
102
{ACAD_REACTORS
330
47
102
}
330
47
100
AcDbScale
 70
     0
300
1:30
140
1.0
141
30.0
290
     0
  0
SCALE
  5
51
102
{ACAD_REACTORS
330
47
102
}
330
47
100
AcDbScale
 70
     0
300
1:40
140
1.0
141
40.0
290
     0
  0
SCALE
  5
52
102
{ACAD_REACTORS
330
47
102
}
330
47
100
AcDbScale
 70
     0
300
1:50
140
1.0
141
50.0
290
     0
  0
SCALE
  5
53
102
{ACAD_REACTORS
330
47
102
}
330
47
100
AcDbScale
 70
     0
300
1:100
140
1.0
141
100.0
290
     0
  0
SCALE
  5
54
102
{ACAD_REACTORS
330
47
102
}
330
47
100
AcDbScale
 70
     0
300
2:1
140
2.0
141
1.0
290
     0
  0
SCALE
  5
55
102
{ACAD_REACTORS
330
47
102
}
330
47
100
AcDbScale
 70
     0
300
4:1
140
4.0
141
1.0
290
     0
  0
SCALE
  5
56
102
{ACAD_REACTORS
330
47
102
}
330
47
100
AcDbScale
 70
     0
300
8:1
140
8.0
141
1.0
290
     0
  0
SCALE
  5
57
102
{ACAD_REACTORS
330
47
102
}
330
47
100
AcDbScale
 70
     0
300
10:1
140
10.0
141
1.0
290
     0
  0
SCALE
  5
58
102
{ACAD_REACTORS
330
47
102
}
330
47
100
AcDbScale
 70
     0
300
100:1
140
100.0
141
1.0
290
     0
  0
SCALE
  5
59
102
{ACAD_REACTORS
330
47
102
}
330
47
100
AcDbScale
 70
     0
300
1/128" = 1'-0"
140
0.0078125
141
12.0
290
     0
  0
SCALE
  5
5A
102
{ACAD_REACTORS
330
47
102
}
330
47
100
AcDbScale
 70
     0
300
1/64" = 1'-0"
140
0.015625
141
12.0
290
     0
  0
SCALE
  5
5B
102
{ACAD_REACTORS
330
47
102
}
330
47
100
AcDbScale
 70
     0
300
1/32" = 1'-0"
140
0.03125
141
12.0
290
     0
  0
SCALE
  5
5C
102
{ACAD_REACTORS
330
47
102
}
330
47
100
AcDbScale
 70
     0
300
1/16" = 1'-0"
140
0.0625
141
12.0
290
     0
  0
SCALE
  5
5D
102
{ACAD_REACTORS
330
47
102
}
330
47
100
AcDbScale
 70
     0
300
3/32" = 1'-0"
140
0.09375
141
12.0
290
     0
  0
SCALE
  5
5E
102
{ACAD_REACTORS
330
47
102
}
330
47
100
AcDbScale
 70
     0
300
1/8" = 1'-0"
140
0.125
141
12.0
290
     0
  0
SCALE
  5
5F
102
{ACAD_REACTORS
330
47
102
}
330
47
100
AcDbScale
 70
     0
300
3/16" = 1'-0"
140
0.1875
141
12.0
290
     0
  0
SCALE
  5
60
102
{ACAD_REACTORS
330
47
102
}
330
47
100
AcDbScale
 70
     0
300
1/4" = 1'-0"
140
0.25
141
12.0
290
     0
  0
SCALE
  5
61
102
{ACAD_REACTORS
330
47
102
}
330
47
100
AcDbScale
 70
     0
300
3/8" = 1'-0"
140
0.375
141
12.0
290
     0
  0
SCALE
  5
62
102
{ACAD_REACTORS
330
47
102
}
330
47
100
AcDbScale
 70
     0
300
1/2" = 1'-0"
140
0.5
141
12.0
290
     0
  0
SCALE
  5
63
102
{ACAD_REACTORS
330
47
102
}
330
47
100
AcDbScale
 70
     0
300
3/4" = 1'-0"
140
0.75
141
12.0
290
     0
  0
SCALE
  5
64
102
{ACAD_REACTORS
330
47
102
}
330
47
100
AcDbScale
 70
     0
300
1" = 1'-0"
140
1.0
141
12.0
290
     0
  0
SCALE
  5
65
102
{ACAD_REACTORS
330
47
102
}
330
47
100
AcDbScale
 70
     0
300
1-1/2" = 1'-0"
140
1.5
141
12.0
290
     0
  0
SCALE
  5
66
102
{ACAD_REACTORS
330
47
102
}
330
47
100
AcDbScale
 70
     0
300
3" = 1'-0"
140
3.0
141
12.0
290
     0
  0
SCALE
  5
67
102
{ACAD_REACTORS
330
47
102
}
330
47
100
AcDbScale
 70
     0
300
6" = 1'-0"
140
6.0
141
12.0
290
     0
  0
SCALE
  5
68
102
{ACAD_REACTORS
330
47
102
}
330
47
100
AcDbScale
 70
     0
300
1'-0" = 1'-0"
140
12.0
141
12.0
290
     0
  0
ENDSEC
  0
EOF
