  0
SECTION
  2
HEADER
  9
$ACADVER
  1
AC1015
  9
$ACADMAINTVER
 70
     6
  9
$DWGCODEPAGE
  3
ANSI_1250
  9
$INSBASE
 10
0.0
 20
0.0
 30
0.0
  9
$EXTMIN
 10
0.0
 20
0.0
 30
0.0
  9
$EXTMAX
 10
0.4318
 20
0.2794
 30
0.0
  9
$LIMMIN
 10
0.0
 20
0.0
  9
$LIMMAX
 10
0.4318
 20
0.2794
  9
$ORTHOMODE
 70
     0
  9
$REGENMODE
 70
     1
  9
$FILLMODE
 70
     1
  9
$QTEXTMODE
 70
     0
  9
$MIRRTEXT
 70
     1
  9
$LTSCALE
 40
1.0
  9
$ATTMODE
 70
     1
  9
$TEXTSIZE
 40
0.0035
  9
$TRACEWID
 40
1.0
  9
$TEXTSTYLE
  7
Standard
  9
$CLAYER
  8
0
  9
$CELTYPE
  6
ByLayer
  9
$CECOLOR
 62
   256
  9
$CELTSCALE
 40
1.0
  9
$DISPSILH
 70
     0
  9
$DIMSCALE
 40
1.0
  9
$DIMASZ
 40
0.003302
  9
$DIMEXO
 40
0.001
  9
$DIMDLI
 40
3.75
  9
$DIMRND
 40
0.0
  9
$DIMDLE
 40
0.0
  9
$DIMEXE
 40
0.001
  9
$DIMTP
 40
0.0
  9
$DIMTM
 40
0.0
  9
$DIMTXT
 40
0.0035
  9
$DIMCEN
 40
2.5
  9
$DIMTSZ
 40
0.0
  9
$DIMTOL
 70
     0
  9
$DIMLIM
 70
     0
  9
$DIMTIH
 70
     1
  9
$DIMTOH
 70
     1
  9
$DIMSE1
 70
     0
  9
$DIMSE2
 70
     0
  9
$DIMTAD
 70
     1
  9
$DIMZIN
 70
     0
  9
$DIMBLK
  1

  9
$DIMASO
 70
     1
  9
$DIMSHO
 70
     1
  9
$DIMPOST
  1

  9
$DIMAPOST
  1

  9
$DIMALT
 70
     0
  9
$DIMALTD
 70
     3
  9
$DIMALTF
 40
39.3700787402
  9
$DIMLFAC
 40
1.0
  9
$DIMTOFL
 70
     1
  9
$DIMTVP
 40
0.0
  9
$DIMTIX
 70
     0
  9
$DIMSOXD
 70
     0
  9
$DIMSAH
 70
     0
  9
$DIMBLK1
  1

  9
$DIMBLK2
  1

  9
$DIMSTYLE
  2
ISO-25
  9
$DIMCLRD
 70
     0
  9
$DIMCLRE
 70
     0
  9
$DIMCLRT
 70
     0
  9
$DIMTFAC
 40
1.0
  9
$DIMGAP
 40
0.001524
  9
$DIMJUST
 70
     0
  9
$DIMSD1
 70
     0
  9
$DIMSD2
 70
     0
  9
$DIMTOLJ
 70
     0
  9
$DIMTZIN
 70
     0
  9
$DIMALTZ
 70
     0
  9
$DIMALTTZ
 70
     0
  9
$DIMUPT
 70
     0
  9
$DIMDEC
 70
     2
  9
$DIMTDEC
 70
     2
  9
$DIMALTU
 70
     2
  9
$DIMALTTD
 70
     3
  9
$DIMTXSTY
  7
Standard
  9
$DIMAUNIT
 70
     0
  9
$DIMADEC
 70
     2
  9
$DIMALTRND
 40
0.0
  9
$DIMAZIN
 70
     0
  9
$DIMDSEP
 70
    44
  9
$DIMATFIT
 70
     3
  9
$DIMFRAC
 70
     0
  9
$DIMLDRBLK
  1

  9
$DIMLUNIT
 70
     2
  9
$DIMLWD
 70
    -2
  9
$DIMLWE
 70
    -2
  9
$DIMTMOVE
 70
     0
  9
$LUNITS
 70
     2
  9
$LUPREC
 70
     2
  9
$SKETCHINC
 40
1.0
  9
$FILLETRAD
 40
10.0
  9
$AUNITS
 70
     0
  9
$AUPREC
 70
     2
  9
$MENU
  1
.
  9
$ELEVATION
 40
0.0
  9
$PELEVATION
 40
0.0
  9
$THICKNESS
 40
0.0
  9
$LIMCHECK
 70
     0
  9
$CHAMFERA
 40
0.0
  9
$CHAMFERB
 40
0.0
  9
$CHAMFERC
 40
0.0
  9
$CHAMFERD
 40
0.0
  9
$SKPOLY
 70
     0
  9
$TDCREATE
 40
2458715.516121389
  9
$TDUCREATE
 40
2458715.432788055
  9
$TDUPDATE
 40
2458715.51612191
  9
$TDUUPDATE
 40
2458715.432788576
  9
$TDINDWG
 40
0.0000000116
  9
$TDUSRTIMER
 40
0.0000000116
  9
$USRTIMER
 70
     1
  9
$ANGBASE
 50
0.0
  9
$ANGDIR
 70
     0
  9
$PDMODE
 70
     0
  9
$PDSIZE
 40
-1.0
  9
$PLINEWID
 40
0.0
  9
$SPLFRAME
 70
     0
  9
$SPLINETYPE
 70
     6
  9
$SPLINESEGS
 70
     8
  9
$HANDSEED
  5
1B4
  9
$SURFTAB1
 70
     6
  9
$SURFTAB2
 70
     6
  9
$SURFTYPE
 70
     6
  9
$SURFU
 70
     6
  9
$SURFV
 70
     6
  9
$UCSBASE
  2

  9
$UCSNAME
  2

  9
$UCSORG
 10
0.0
 20
0.0
 30
0.0
  9
$UCSXDIR
 10
1.0
 20
0.0
 30
0.0
  9
$UCSYDIR
 10
0.0
 20
1.0
 30
0.0
  9
$UCSORTHOREF
  2

  9
$UCSORTHOVIEW
 70
     0
  9
$UCSORGTOP
 10
0.0
 20
0.0
 30
0.0
  9
$UCSORGBOTTOM
 10
0.0
 20
0.0
 30
0.0
  9
$UCSORGLEFT
 10
0.0
 20
0.0
 30
0.0
  9
$UCSORGRIGHT
 10
0.0
 20
0.0
 30
0.0
  9
$UCSORGFRONT
 10
0.0
 20
0.0
 30
0.0
  9
$UCSORGBACK
 10
0.0
 20
0.0
 30
0.0
  9
$PUCSBASE
  2

  9
$PUCSNAME
  2

  9
$PUCSORG
 10
0.0
 20
0.0
 30
0.0
  9
$PUCSXDIR
 10
1.0
 20
0.0
 30
0.0
  9
$PUCSYDIR
 10
0.0
 20
1.0
 30
0.0
  9
$PUCSORTHOREF
  2

  9
$PUCSORTHOVIEW
 70
     0
  9
$PUCSORGTOP
 10
0.0
 20
0.0
 30
0.0
  9
$PUCSORGBOTTOM
 10
0.0
 20
0.0
 30
0.0
  9
$PUCSORGLEFT
 10
0.0
 20
0.0
 30
0.0
  9
$PUCSORGRIGHT
 10
0.0
 20
0.0
 30
0.0
  9
$PUCSORGFRONT
 10
0.0
 20
0.0
 30
0.0
  9
$PUCSORGBACK
 10
0.0
 20
0.0
 30
0.0
  9
$USERI1
 70
     0
  9
$USERI2
 70
     0
  9
$USERI3
 70
     0
  9
$USERI4
 70
     0
  9
$USERI5
 70
     0
  9
$USERR1
 40
0.0
  9
$USERR2
 40
0.0
  9
$USERR3
 40
0.0
  9
$USERR4
 40
0.0
  9
$USERR5
 40
0.0
  9
$WORLDVIEW
 70
     1
  9
$SHADEDGE
 70
     3
  9
$SHADEDIF
 70
    70
  9
$TILEMODE
 70
     1
  9
$MAXACTVP
 70
    64
  9
$PINSBASE
 10
0.0
 20
0.0
 30
0.0
  9
$PLIMCHECK
 70
     0
  9
$PEXTMIN
 10
1.0000000000E+20
 20
1.0000000000E+20
 30
1.0000000000E+20
  9
$PEXTMAX
 10
-1.0000000000E+20
 20
-1.0000000000E+20
 30
-1.0000000000E+20
  9
$PLIMMIN
 10
0.0
 20
0.0
  9
$PLIMMAX
 10
420.0
 20
297.0
  9
$UNITMODE
 70
     0
  9
$VISRETAIN
 70
     1
  9
$PLINEGEN
 70
     0
  9
$PSLTSCALE
 70
     1
  9
$TREEDEPTH
 70
  3020
  9
$CMLSTYLE
  2
Standard
  9
$CMLJUST
 70
     0
  9
$CMLSCALE
 40
20.0
  9
$PROXYGRAPHICS
 70
     1
  9
$MEASUREMENT
 70
     1
  9
$CELWEIGHT
370
    -1
  9
$ENDCAPS
280
     0
  9
$JOINSTYLE
280
     0
  9
$LWDISPLAY
290
     1
  9
$INSUNITS
 70
     4
  9
$HYPERLINKBASE
  1

  9
$STYLESHEET
  1

  9
$XEDIT
290
     1
  9
$CEPSNTYPE
380
     0
  9
$PSTYLEMODE
290
     1
  9
$FINGERPRINTGUID
  2
{48C07709-1B6D-4487-9767-517A01F4F19B}
  9
$VERSIONGUID
  2
{FAEB1C32-E019-11D5-929B-00C0DF256EC4}
  9
$EXTNAMES
290
     1
  9
$PSVPSCALE
 40
0.0
  9
$OLESTARTUP
290
     0
  0
ENDSEC
  0
SECTION
  2
CLASSES
  0
CLASS
  1
ACDBDICTIONARYWDFLT
  2
AcDbDictionaryWithDefault
  3
ObjectDBX Classes
 90
        0
280
     0
281
     0
  0
CLASS
  1
VISUALSTYLE
  2
AcDbVisualStyle
  3
ObjectDBX Classes
 90
     4095
280
     0
281
     0
  0
CLASS
  1
MATERIAL
  2
AcDbMaterial
  3
ObjectDBX Classes
 90
     1153
280
     0
281
     0
  0
CLASS
  1
SCALE
  2
AcDbScale
  3
ObjectDBX Classes
 90
     1153
280
     0
281
     0
  0
CLASS
  1
TABLESTYLE
  2
AcDbTableStyle
  3
ObjectDBX Classes
 90
     4095
280
     0
281
     0
  0
CLASS
  1
MLEADERSTYLE
  2
AcDbMLeaderStyle
  3
ACDB_MLEADERSTYLE_CLASS
 90
     4095
280
     0
281
     0
  0
CLASS
  1
SUN
  2
AcDbSun
  3
SCENEOE
 90
     1153
280
     0
281
     0
  0
CLASS
  1
ACDBPLACEHOLDER
  2
AcDbPlaceHolder
  3
ObjectDBX Classes
 90
        0
280
     0
281
     0
  0
CLASS
  1
LAYOUT
  2
AcDbLayout
  3
ObjectDBX Classes
 90
        0
280
     0
281
     0
  0
ENDSEC
  0
SECTION
  2
TABLES
  0
TABLE
  2
VPORT
  5
8
330
0
100
AcDbSymbolTable
 70
     1
  0
VPORT
  5
29
330
8
100
AcDbSymbolTableRecord
100
AcDbViewportTableRecord
  2
*Active
 70
     0
 10
0.0
 20
0.0
 11
1.0
 21
1.0
 12
0.2159
 22
0.1397
 13
0.0
 23
0.0
 14
10.0
 24
10.0
 15
10.0
 25
10.0
 16
0.0
 26
0.0
 36
1.0
 17
0.0
 27
0.0
 37
0.0
 40
0.2794
 41
1.5454545455
 42
50.0
 43
0.0
 44
0.0
 50
0.0
 51
0.0
 71
     0
 72
  2000
 73
     1
 74
     3
 75
     0
 76
     0
 77
     0
 78
     0
281
     0
 65
     1
110
0.0
120
0.0
130
0.0
111
1.0
121
0.0
131
0.0
112
0.0
122
1.0
132
0.0
 79
     0
146
0.0
  0
ENDTAB
  0
TABLE
  2
LTYPE
  5
5
330
0
100
AcDbSymbolTable
 70
     6
  0
LTYPE
  5
14
330
5
100
AcDbSymbolTableRecord
100
AcDbLinetypeTableRecord
  2
ByBlock
 70
     0
  3

 72
    65
 73
     0
 40
0.0
  0
LTYPE
  5
15
330
5
100
AcDbSymbolTableRecord
100
AcDbLinetypeTableRecord
  2
ByLayer
 70
     0
  3

 72
    65
 73
     0
 40
0.0
  0
LTYPE
  5
16
330
5
100
AcDbSymbolTableRecord
100
AcDbLinetypeTableRecord
  2
Continuous
 70
     0
  3
Solid line
 72
    65
 73
     0
 40
0.0
  0
LTYPE
  5
6E
330
5
100
AcDbSymbolTableRecord
100
AcDbLinetypeTableRecord
  2
HIDDEN
 70
     0
  3
Hidden __ __ __ __ __ __ __ __ __ __ __ __ __ __
 72
    65
 73
     2
 40
0.001905
 49
0.00127
 74
     0
 49
-0.000635
 74
     0
  0
LTYPE
  5
6F
330
5
100
AcDbSymbolTableRecord
100
AcDbLinetypeTableRecord
  2
PHANTOM
 70
     0
  3
Phantom ______  __  __  ______  __  __  ______
 72
    65
 73
     6
 40
0.0127
 49
0.00635
 74
     0
 49
-0.00127
 74
     0
 49
0.00127
 74
     0
 49
-0.00127
 74
     0
 49
0.00127
 74
     0
 49
-0.00127
 74
     0
  0
LTYPE
  5
70
330
5
100
AcDbSymbolTableRecord
100
AcDbLinetypeTableRecord
  2
CENTER
 70
     0
  3
Center ____ _ ____ _ ____ _ ____ _ ____ _ ____
 72
    65
 73
     4
 40
0.01016
 49
0.00635
 74
     0
 49
-0.00127
 74
     0
 49
0.00127
 74
     0
 49
-0.00127
 74
     0
  0
LTYPE
  5
71
330
5
100
AcDbSymbolTableRecord
100
AcDbLinetypeTableRecord
  2
CENTERX2
 70
     0
  3
Center (2x) ________  __  ________  __  _____
 72
    65
 73
     4
 40
0.02032
 49
0.0127
 74
     0
 49
-0.00254
 74
     0
 49
0.00254
 74
     0
 49
-0.00254
 74
     0
  0
LTYPE
  5
72
330
5
100
AcDbSymbolTableRecord
100
AcDbLinetypeTableRecord
  2
DOT2
 70
     0
  3
Dot (.5x) ........................................
 72
    65
 73
     2
 40
0.000635
 49
0.0
 74
     0
 49
-0.000635
 74
     0
  0
ENDTAB
  0
TABLE
  2
LAYER
  5
2
330
0
100
AcDbSymbolTable
 70
     1
  0
LAYER
  5
10
330
2
100
AcDbSymbolTableRecord
100
AcDbLayerTableRecord
  2
0
 70
     0
 62
     7
  6
Continuous
370
    -3
390
F
  0
ENDTAB
  0
TABLE
  2
STYLE
  5
3
330
0
100
AcDbSymbolTable
 70
     1
  0
STYLE
  5
11
330
3
100
AcDbSymbolTableRecord
100
AcDbTextStyleTableRecord
  2
Standard
 70
     0
 40
0.0
 41
1.0
 50
0.0
 71
     0
 42
0.0035
  3
txt
  4

  0
ENDTAB
  0
TABLE
  2
VIEW
  5
6
330
0
100
AcDbSymbolTable
 70
     0
  0
ENDTAB
  0
TABLE
  2
UCS
  5
7
330
0
100
AcDbSymbolTable
 70
     0
  0
ENDTAB
  0
TABLE
  2
APPID
  5
9
330
0
100
AcDbSymbolTable
 70
     1
  0
APPID
  5
12
330
9
100
AcDbSymbolTableRecord
100
AcDbRegAppTableRecord
  2
ACAD
 70
     0
  0
ENDTAB
  0
TABLE
  2
DIMSTYLE
  5
A
330
0
100
AcDbSymbolTable
 70
     1
100
AcDbDimStyleTable
  0
DIMSTYLE
105
27
330
A
100
AcDbSymbolTableRecord
100
AcDbDimStyleTableRecord
  2
ISO-25
 70
     0
 41
2.5
 42
0.625
 43
3.75
 44
1.25
 73
     0
 74
     0
 77
     1
 78
     8
140
2.5
141
2.5
143
0.0393700787
147
0.625
171
     3
172
     1
178
     0
271
     2
272
     2
274
     3
278
    44
283
     0
284
     8
340
11
  0
ENDTAB
  0
TABLE
  2
BLOCK_RECORD
  5
1
330
0
100
AcDbSymbolTable
 70
     1
  0
BLOCK_RECORD
  5
1F
330
1
100
AcDbSymbolTableRecord
100
AcDbBlockTableRecord
  2
*Model_Space
340
22
  0
BLOCK_RECORD
  5
1B
330
1
100
AcDbSymbolTableRecord
100
AcDbBlockTableRecord
  2
*Paper_Space
340
1E
  0
BLOCK_RECORD
  5
23
330
1
100
AcDbSymbolTableRecord
100
AcDbBlockTableRecord
  2
*Paper_Space0
340
26
  0
ENDTAB
  0
ENDSEC
  0
SECTION
  2
BLOCKS
  0
BLOCK
  5
20
330
1F
100
AcDbEntity
  8
0
100
AcDbBlockBegin
  2
*Model_Space
 70
     0
 10
0.0
 20
0.0
 30
0.0
  3
*Model_Space
  1

  0
ENDBLK
  5
21
330
1F
100
AcDbEntity
  8
0
100
AcDbBlockEnd
  0
BLOCK
  5
1C
330
1B
100
AcDbEntity
 67
     1
  8
0
100
AcDbBlockBegin
  2
*Paper_Space
 70
     0
 10
0.0
 20
0.0
 30
0.0
  3
*Paper_Space
  1

  0
ENDBLK
  5
1D
330
1B
100
AcDbEntity
 67
     1
  8
0
100
AcDbBlockEnd
  0
BLOCK
  5
24
330
23
100
AcDbEntity
  8
0
100
AcDbBlockBegin
  2
*Paper_Space0
 70
     0
 10
0.0
 20
0.0
 30
0.0
  3
*Paper_Space0
  1

  0
ENDBLK
  5
25
330
23
100
AcDbEntity
  8
0
100
AcDbBlockEnd
  0
ENDSEC
  0
SECTION
  2
ENTITIES
  0
LINE
  5
73
330
1F
100
AcDbEntity
  8
0
  6
Continuous
 62
     7
370
    25
100
AcDbLine
 10
-0.8900050163
 20
0.9908849572
 30
0.0
 11
-0.8900017977
 21
0.9908849572
 31
0.0
  0
LINE
  5
74
330
1F
100
AcDbEntity
  8
0
  6
Continuous
 62
     7
370
    25
100
AcDbLine
 10
-0.9783332586
 20
1.0005349574
 30
0.0
 11
-0.9783442259
 21
1.0005349574
 31
0.0
  0
LINE
  5
75
330
1F
100
AcDbEntity
  8
0
  6
Continuous
 62
     7
370
    25
100
AcDbLine
 10
-0.9402985811
 20
1.0383317206
 30
0.0
 11
-1.3072312116
 21
1.6738779243
 31
0.0
  0
LINE
  5
76
330
1F
100
AcDbEntity
  8
0
  6
Continuous
 62
     7
370
    25
100
AcDbLine
 10
-1.3363955259
 20
1.6569918092
 30
0.0
 11
-0.9694867372
 21
1.0214871537
 31
0.0
  0
LINE
  5
77
330
1F
100
AcDbEntity
  8
0
  6
Continuous
 62
     7
370
    25
100
AcDbLine
 10
-0.9694836378
 20
0.9670881942
 30
0.0
 11
-1.3364162683
 21
0.3315419849
 31
0.0
  0
LINE
  5
78
330
1F
100
AcDbEntity
  8
0
  6
Continuous
 62
     7
370
    25
100
AcDbLine
 10
-1.3072102308
 20
0.3147282299
 30
0.0
 11
-0.9403016805
 21
0.9502327625
 31
0.0
  0
ARC
  5
79
330
1F
100
AcDbEntity
  8
0
  6
Continuous
 62
     7
370
    25
100
AcDbCircle
 10
-0.9790747652
 20
0.9845849573
 30
0.0
 40
0.0003000000000002
100
AcDbArc
 50
270.0
 51
360.0
  0
ARC
  5
7A
330
1F
100
AcDbEntity
  8
0
  6
Continuous
 62
     7
370
    25
100
AcDbCircle
 10
-0.9790747652
 20
1.0039849573
 30
0.0
 40
0.0003000000000002
100
AcDbArc
 50
0.0
 51
90.0
  0
LINE
  5
7B
330
1F
100
AcDbEntity
  8
0
  6
Continuous
 62
     7
370
    25
100
AcDbLine
 10
-0.9790747404
 20
1.0042849571
 30
0.0
 11
-0.9796602964
 21
1.0042849571
 31
0.0
  0
LINE
  5
7C
330
1F
100
AcDbEntity
  8
0
  6
Continuous
 62
     7
370
    25
100
AcDbLine
 10
-0.9796602964
 20
0.9842849575
 30
0.0
 11
-0.9790747404
 21
0.9842849575
 31
0.0
  0
ARC
  5
7D
330
1F
100
AcDbEntity
  8
0
  6
Continuous
 62
     7
370
    25
100
AcDbCircle
 10
-0.9796602319
 20
1.0039849573
 30
0.0
 40
0.0003
100
AcDbArc
 50
90.0
 51
132.0412668333
  0
ARC
  5
7E
330
1F
100
AcDbEntity
  8
0
  6
Continuous
 62
     7
370
    25
100
AcDbCircle
 10
-0.9796602319
 20
0.9845849573
 30
0.0
 40
0.0003
100
AcDbArc
 50
227.9587331668
 51
270.0
  0
ARC
  5
7F
330
1F
100
AcDbEntity
  8
0
  6
Continuous
 62
     7
370
    25
100
AcDbCircle
 10
-0.9709136541
 20
0.9942849573
 30
0.0
 40
0.0133611111111112
100
AcDbArc
 50
132.0412668333
 51
168.5602836457
  0
ARC
  5
80
330
1F
100
AcDbEntity
  8
0
  6
Continuous
 62
     7
370
    25
100
AcDbCircle
 10
-0.9709136541
 20
0.9942849573
 30
0.0
 40
0.0133611111111112
100
AcDbArc
 50
191.4397163543
 51
227.9587331667
  0
LINE
  5
81
330
1F
100
AcDbEntity
  8
0
  6
Continuous
 62
     7
370
    25
100
AcDbLine
 10
-0.9783442259
 20
1.0005349574
 30
0.0
 11
-0.9787748098
 21
1.0005349574
 31
0.0
  0
LINE
  5
82
330
1F
100
AcDbEntity
  8
0
  6
Continuous
 62
     7
370
    25
100
AcDbLine
 10
-0.9787748098
 20
0.9880349572
 30
0.0
 11
-0.9783332586
 21
0.9880349572
 31
0.0
  0
LINE
  5
83
330
1F
100
AcDbEntity
  8
0
  6
Continuous
 62
     7
370
    25
100
AcDbLine
 10
-0.8986724853
 20
0.9641349573
 30
0.0
 11
1.0300830104
 21
0.9641349573
 31
0.0
  0
LINE
  5
84
330
1F
100
AcDbEntity
  8
0
  6
Continuous
 62
     7
370
    25
100
AcDbLine
 10
1.0300229214
 20
1.0244349573
 30
0.0
 11
-0.8987325668
 21
1.0244349573
 31
0.0
  0
LINE
  5
85
330
1F
100
AcDbEntity
  8
0
  6
Continuous
 62
     7
370
    25
100
AcDbLine
 10
1.0825252351
 20
0.2354174551
 30
0.0
 11
1.0825252351
 21
0.9531524885
 31
0.0
  0
LINE
  5
86
330
1F
100
AcDbEntity
  8
0
  6
Continuous
 62
     7
370
    25
100
AcDbLine
 10
1.0488252346
 20
0.9531462859
 30
0.0
 11
1.0488252346
 21
0.2354236539
 31
0.0
  0
LINE
  5
87
330
1F
100
AcDbEntity
  8
0
  6
Continuous
 62
     7
370
    25
100
AcDbLine
 10
1.1068077036
 20
0.977434957
 30
0.0
 11
1.824542737
 21
0.977434957
 31
0.0
  0
LINE
  5
88
330
1F
100
AcDbEntity
  8
0
  6
Continuous
 62
     7
370
    25
100
AcDbLine
 10
1.8245365381
 20
1.0111349575
 30
0.0
 11
1.1068139062
 21
1.0111349575
 31
0.0
  0
LINE
  5
89
330
1F
100
AcDbEntity
  8
0
  6
Continuous
 62
     7
370
    25
100
AcDbLine
 10
-0.8864947796
 20
1.0012849575
 30
0.0
 11
-0.8868748188
 21
1.0012849575
 31
0.0
  0
LINE
  5
8A
330
1F
100
AcDbEntity
  8
0
  6
Continuous
 62
     7
370
    25
100
AcDbLine
 10
-0.8868748188
 20
0.9872849571
 30
0.0
 11
-0.8864947796
 21
0.9872849571
 31
0.0
  0
ARC
  5
8B
330
1F
100
AcDbEntity
  8
0
  6
Continuous
 62
     7
370
    25
100
AcDbCircle
 10
-0.8890556607
 20
0.9942849573
 30
0.0
 40
0.0074537363702097
100
AcDbArc
 50
28.00594401
 51
69.9053469508
  0
ARC
  5
8C
330
1F
100
AcDbEntity
  8
0
  6
Continuous
 62
     7
370
    25
100
AcDbCircle
 10
-0.8890556607
 20
0.9942849573
 30
0.0
 40
0.0074537363702099
100
AcDbArc
 50
290.0946530492
 51
331.99405599
  0
ARC
  5
8D
330
1F
100
AcDbEntity
  8
0
  6
Continuous
 62
     7
370
    25
100
AcDbCircle
 10
-0.8872747652
 20
0.9986849573
 30
0.0
 40
0.0004
100
AcDbArc
 50
300.7583952151
 51
0.0
  0
ARC
  5
8E
330
1F
100
AcDbEntity
  8
0
  6
Continuous
 62
     7
370
    25
100
AcDbCircle
 10
-0.8872747652
 20
0.9898849573
 30
0.0
 40
0.0004
100
AcDbArc
 50
0.0
 51
90.0
  0
LINE
  5
8F
330
1F
100
AcDbEntity
  8
0
  6
Continuous
 62
     7
370
    25
100
AcDbLine
 10
1.0178452343
 20
0.9872849571
 30
0.0
 11
1.0182252363
 21
0.9872849571
 31
0.0
  0
LINE
  5
90
330
1F
100
AcDbEntity
  8
0
  6
Continuous
 62
     7
370
    25
100
AcDbLine
 10
1.0182252363
 20
1.0012849575
 30
0.0
 11
1.0178452343
 21
1.0012849575
 31
0.0
  0
ARC
  5
91
330
1F
100
AcDbEntity
  8
0
  6
Continuous
 62
     7
370
    25
100
AcDbCircle
 10
1.0204061303
 20
0.9942849573
 30
0.0
 40
0.0074537363702099
100
AcDbArc
 50
208.00594401
 51
249.9053469508
  0
ARC
  5
92
330
1F
100
AcDbEntity
  8
0
  6
Continuous
 62
     7
370
    25
100
AcDbCircle
 10
1.0204061303
 20
0.9942849573
 30
0.0
 40
0.0074537363702099
100
AcDbArc
 50
110.0946530492
 51
151.99405599
  0
ARC
  5
93
330
1F
100
AcDbEntity
  8
0
  6
Continuous
 62
     7
370
    25
100
AcDbCircle
 10
1.0186252348
 20
0.9898849573
 30
0.0
 40
0.0004000000000002
100
AcDbArc
 50
120.7583952139
 51
180.0
  0
ARC
  5
94
330
1F
100
AcDbEntity
  8
0
  6
Continuous
 62
     7
370
    25
100
AcDbCircle
 10
1.0186252348
 20
0.9986849573
 30
0.0
 40
0.0004000000000002
100
AcDbArc
 50
180.0
 51
270.0
  0
ARC
  5
95
330
1F
100
AcDbEntity
  8
0
  6
Continuous
 62
     7
370
    25
100
AcDbCircle
 10
1.8891941687
 20
0.6392849573
 30
0.0
 40
0.00745373637021
100
AcDbArc
 50
296.8981884162
 51
3.1652796272
  0
ARC
  5
96
330
1F
100
AcDbEntity
  8
0
  6
Continuous
 62
     7
370
    25
100
AcDbCircle
 10
1.8891941687
 20
0.6392849573
 30
0.0
 40
0.00745373637021
100
AcDbArc
 50
3.1652796272
 51
63.1018115838
  0
LINE
  5
97
330
1F
100
AcDbEntity
  8
0
  6
Continuous
 62
     7
370
    25
100
AcDbLine
 10
1.8911390066
 20
0.6462849673
 30
0.0
 11
1.890850401
 21
0.6462849673
 31
0.0
  0
LINE
  5
98
330
1F
100
AcDbEntity
  8
0
  6
Continuous
 62
     7
370
    25
100
AcDbLine
 10
1.890850401
 20
0.6322849687
 30
0.0
 11
1.8911390066
 21
0.6322849687
 31
0.0
  0
ARC
  5
99
330
1F
100
AcDbEntity
  8
0
  6
Continuous
 62
     7
370
    25
100
AcDbCircle
 10
1.8891941687
 20
0.5492849573
 30
0.0
 40
0.0074537363702098
100
AcDbArc
 50
296.8981884162
 51
3.2602941586
  0
ARC
  5
9A
330
1F
100
AcDbEntity
  8
0
  6
Continuous
 62
     7
370
    25
100
AcDbCircle
 10
1.8891941687
 20
0.5492849573
 30
0.0
 40
0.0074537363702098
100
AcDbArc
 50
3.2602941586
 51
63.1018115838
  0
LINE
  5
9B
330
1F
100
AcDbEntity
  8
0
  6
Continuous
 62
     7
370
    25
100
AcDbLine
 10
1.8911390066
 20
0.5562849637
 30
0.0
 11
1.890850401
 21
0.5562849637
 31
0.0
  0
LINE
  5
9C
330
1F
100
AcDbEntity
  8
0
  6
Continuous
 62
     7
370
    25
100
AcDbLine
 10
1.890850401
 20
0.5422849651
 30
0.0
 11
1.8911390066
 21
0.5422849651
 31
0.0
  0
LINE
  5
9D
330
1F
100
AcDbEntity
  8
0
  6
Continuous
 62
     7
370
    25
100
AcDbLine
 10
1.895825243
 20
0.2269465622
 30
0.0
 11
1.895825243
 21
0.5359142121
 31
0.0
  0
LINE
  5
9E
330
1F
100
AcDbEntity
  8
0
  6
Continuous
 62
     7
370
    25
100
AcDbLine
 10
1.895825243
 20
0.6527354416
 30
0.0
 11
1.895825243
 21
0.9616233591
 31
0.0
  0
LINE
  5
9F
330
1F
100
AcDbEntity
  8
0
  6
Continuous
 62
     7
370
    25
100
AcDbLine
 10
1.8355252505
 20
0.9616030153
 30
0.0
 11
1.8355252505
 21
0.2269668873
 31
0.0
  0
LINE
  5
A0
330
1F
100
AcDbEntity
  8
0
  6
Continuous
 62
     7
370
    25
100
AcDbLine
 10
2.3656751871
 20
0.611134946
 30
0.0
 11
2.2253753901
 21
0.611134946
 31
0.0
  0
LINE
  5
A1
330
1F
100
AcDbEntity
  8
0
  6
Continuous
 62
     7
370
    25
100
AcDbLine
 10
2.2253753901
 20
0.5774349567
 30
0.0
 11
2.3656751871
 21
0.5774349567
 31
0.0
  0
LINE
  5
A2
330
1F
100
AcDbEntity
  8
0
  6
Continuous
 62
     7
370
    25
100
AcDbLine
 10
1.890850401
 20
0.5774349567
 30
0.0
 11
2.2253753901
 21
0.5774349567
 31
0.0
  0
LINE
  5
A3
330
1F
100
AcDbEntity
  8
0
  6
Continuous
 62
     7
370
    25
100
AcDbLine
 10
2.2253753901
 20
0.611134946
 30
0.0
 11
1.890850401
 21
0.611134946
 31
0.0
  0
LINE
  5
A4
330
1F
100
AcDbEntity
  8
0
  6
Continuous
 62
     7
370
    25
100
AcDbLine
 10
1.7266352535
 20
-1.2981461588
 30
0.0
 11
1.725675261
 21
-1.2981461588
 31
0.0
  0
LINE
  5
A5
330
1F
100
AcDbEntity
  8
0
  6
Continuous
 62
     7
370
    25
100
AcDbLine
 10
1.725675261
 20
-1.3133861128
 30
0.0
 11
1.7266352535
 21
-1.3133861128
 31
0.0
  0
LINE
  5
A6
330
1F
100
AcDbEntity
  8
0
  6
Continuous
 62
     7
370
    25
100
AcDbLine
 10
1.2047152281
 20
-1.3133861128
 30
0.0
 11
1.2056752354
 21
-1.3133861128
 31
0.0
  0
LINE
  5
A7
330
1F
100
AcDbEntity
  8
0
  6
Continuous
 62
     7
370
    25
100
AcDbLine
 10
1.2056752354
 20
-1.2981461588
 30
0.0
 11
1.2047152281
 21
-1.2981461588
 31
0.0
  0
LINE
  5
A8
330
1F
100
AcDbEntity
  8
0
  6
Continuous
 62
     7
370
    25
100
AcDbLine
 10
1.7266352535
 20
-0.0713738505
 30
0.0
 11
1.725675261
 21
-0.0713738505
 31
0.0
  0
LINE
  5
A9
330
1F
100
AcDbEntity
  8
0
  6
Continuous
 62
     7
370
    25
100
AcDbLine
 10
1.725675261
 20
-0.0866138045
 30
0.0
 11
1.7266352535
 21
-0.0866138045
 31
0.0
  0
LINE
  5
AA
330
1F
100
AcDbEntity
  8
0
  6
Continuous
 62
     7
370
    25
100
AcDbLine
 10
1.7266352535
 20
-0.5193212334
 30
0.0
 11
1.725675261
 21
-0.5193212334
 31
0.0
  0
LINE
  5
AB
330
1F
100
AcDbEntity
  8
0
  6
Continuous
 62
     7
370
    25
100
AcDbLine
 10
1.725675261
 20
-0.5345613066
 30
0.0
 11
1.7266352535
 21
-0.5345613066
 31
0.0
  0
LINE
  5
AC
330
1F
100
AcDbEntity
  8
0
  6
Continuous
 62
     7
370
    25
100
AcDbLine
 10
1.7266352535
 20
-1.0130194727
 30
0.0
 11
1.725675261
 21
-1.0130194727
 31
0.0
  0
LINE
  5
AD
330
1F
100
AcDbEntity
  8
0
  6
Continuous
 62
     7
370
    25
100
AcDbLine
 10
1.725675261
 20
-1.0282596651
 30
0.0
 11
1.7266352535
 21
-1.0282596651
 31
0.0
  0
LINE
  5
AE
330
1F
100
AcDbEntity
  8
0
  6
Continuous
 62
     7
370
    25
100
AcDbLine
 10
1.2047152281
 20
-1.0282596651
 30
0.0
 11
1.2056752354
 21
-1.0282596651
 31
0.0
  0
LINE
  5
AF
330
1F
100
AcDbEntity
  8
0
  6
Continuous
 62
     7
370
    25
100
AcDbLine
 10
1.2056752354
 20
-1.0130194727
 30
0.0
 11
1.2047152281
 21
-1.0130194727
 31
0.0
  0
LINE
  5
B0
330
1F
100
AcDbEntity
  8
0
  6
Continuous
 62
     7
370
    25
100
AcDbLine
 10
1.2047152281
 20
-0.5345613066
 30
0.0
 11
1.2056752354
 21
-0.5345613066
 31
0.0
  0
LINE
  5
B1
330
1F
100
AcDbEntity
  8
0
  6
Continuous
 62
     7
370
    25
100
AcDbLine
 10
1.2056752354
 20
-0.5193212334
 30
0.0
 11
1.2047152281
 21
-0.5193212334
 31
0.0
  0
LINE
  5
B2
330
1F
100
AcDbEntity
  8
0
  6
Continuous
 62
     7
370
    25
100
AcDbLine
 10
1.2047152281
 20
-0.0866138045
 30
0.0
 11
1.2056752354
 21
-0.0866138045
 31
0.0
  0
LINE
  5
B3
330
1F
100
AcDbEntity
  8
0
  6
Continuous
 62
     7
370
    25
100
AcDbLine
 10
1.2056752354
 20
-0.0713738505
 30
0.0
 11
1.2047152281
 21
-0.0713738505
 31
0.0
  0
LINE
  5
B4
330
1F
100
AcDbEntity
  8
0
  6
Continuous
 62
     7
370
    25
100
AcDbLine
 10
1.2047152281
 20
-0.263926417
 30
0.0
 11
1.2056752354
 21
-0.263926417
 31
0.0
  0
LINE
  5
B5
330
1F
100
AcDbEntity
  8
0
  6
Continuous
 62
     7
370
    25
100
AcDbLine
 10
1.2056752354
 20
-0.2486863438
 30
0.0
 11
1.2047152281
 21
-0.2486863438
 31
0.0
  0
LINE
  5
B6
330
1F
100
AcDbEntity
  8
0
  6
Continuous
 62
     7
370
    25
100
AcDbLine
 10
1.7266352535
 20
-0.2486863438
 30
0.0
 11
1.725675261
 21
-0.2486863438
 31
0.0
  0
LINE
  5
B7
330
1F
100
AcDbEntity
  8
0
  6
Continuous
 62
     7
370
    25
100
AcDbLine
 10
1.725675261
 20
-0.263926417
 30
0.0
 11
1.7266352535
 21
-0.263926417
 31
0.0
  0
LINE
  5
B8
330
1F
100
AcDbEntity
  8
0
  6
Continuous
 62
     7
370
    25
100
AcDbLine
 10
1.2056752354
 20
-1.4633518759
 30
0.0
 11
1.2246752292
 21
-1.4633518759
 31
0.0
  0
LINE
  5
B9
330
1F
100
AcDbEntity
  8
0
  6
Continuous
 62
     7
370
    25
100
AcDbLine
 10
1.2246752292
 20
-1.4233519141
 30
0.0
 11
1.7066752076
 21
-1.4233519141
 31
0.0
  0
LINE
  5
BA
330
1F
100
AcDbEntity
  8
0
  6
Continuous
 62
     7
370
    25
100
AcDbLine
 10
1.7066752076
 20
-1.4633518759
 30
0.0
 11
1.725675261
 21
-1.4633518759
 31
0.0
  0
LINE
  5
BB
330
1F
100
AcDbEntity
  8
0
  6
Continuous
 62
     7
370
    25
100
AcDbLine
 10
1.1068077036
 20
0.1774349507
 30
0.0
 11
1.824542737
 21
0.1774349507
 31
0.0
  0
LINE
  5
BC
330
1F
100
AcDbEntity
  8
0
  6
Continuous
 62
     7
370
    25
100
AcDbLine
 10
1.8245364785
 20
0.21113494
 30
0.0
 11
1.1068139769
 21
0.21113494
 31
0.0
  0
SPLINE
  5
BD
330
1F
100
AcDbEntity
  8
0
  6
Continuous
 62
     7
370
    25
100
AcDbSpline
210
0.0
220
0.0
230
1.0
 70
    11
 71
     3
 72
    54
 73
    50
 74
     0
 42
0.000000001
 43
0.00000001
 40
0.0
 40
0.0
 40
0.0
 40
0.0
 40
0.0220504332557066
 40
0.0432284008335644
 40
0.0635353446817924
 40
0.0829700068166592
 40
0.1015318454494856
 40
0.1192217839781846
 40
0.1441070395963383
 40
0.16703089017079
 40
0.1879940712441399
 40
0.2069950878698728
 40
0.2240329525622588
 40
0.2391073196305066
 40
0.2522180905663005
 40
0.2641570388946431
 40
0.2882087131914888
 40
0.3125532466370167
 40
0.3371900648635811
 40
0.3621184279347547
 40
0.3873056166383039
 40
0.4125301172150882
 40
0.4377550975930227
 40
0.4629801362689111
 40
0.4882047226498583
 40
0.5134304303327967
 40
0.5386548880083101
 40
0.5638800060655327
 40
0.5891050615970508
 40
0.6143296473929203
 40
0.639432732653879
 40
0.6638668330038742
 40
0.6875687329371898
 40
0.7105375880819497
 40
0.7254492982662291
 40
0.7400345582638947
 40
0.755466418944728
 40
0.7732406004867448
 40
0.7933621489767476
 40
0.8158304839994337
 40
0.8342283843908194
 40
0.8539463656852911
 40
0.8749850376798993
 40
0.8973431555621133
 40
0.9210200437964353
 40
0.9460168462128029
 40
0.9634241801248495
 40
0.9814183209538142
 40
1.0
 40
1.0
 40
1.0
 40
1.0
 10
1.857077753569524
 20
0.1510624583807997
 30
0.0
 10
1.859089657394327
 20
0.150744290591563
 30
0.0
 10
1.863033860393362
 20
0.1501205439029624
 30
0.0
 10
1.868919629179679
 20
0.1502165197868914
 30
0.0
 10
1.874496090752237
 20
0.1509894739448044
 30
0.0
 10
1.879701183296834
 20
0.1523949696114497
 30
0.0
 10
1.884475810657066
 20
0.1543184232554874
 30
0.0
 10
1.889439283668757
 20
0.1570158950098046
 30
0.0
 10
1.894340566017423
 20
0.1605911019615936
 30
0.0
 10
1.898860612292594
 20
0.1650717895978112
 30
0.0
 10
1.902386595921062
 20
0.1696979216347294
 30
0.0
 10
1.905036305162131
 20
0.1742526358807202
 30
0.0
 10
1.906933910189568
 20
0.1785778564974691
 30
0.0
 10
1.908214617120926
 20
0.1825536306559977
 30
0.0
 10
1.909036141767904
 20
0.1861661394812567
 30
0.0
 10
1.909693605605404
 20
0.1906499897221847
 30
0.0
 10
1.909875442057022
 20
0.1962349807377914
 30
0.0
 10
1.90906075045619
 20
0.2029467989021596
 30
0.0
 10
1.907215489834689
 20
0.2095370681219622
 30
0.0
 10
1.904328706142849
 20
0.215829166065878
 30
0.0
 10
1.900463822620009
 20
0.2216378109569081
 30
0.0
 10
1.895714768030617
 20
0.226787695654971
 30
0.0
 10
1.890203702645433
 20
0.2311171959443765
 30
0.0
 10
1.884084209983875
 20
0.2345331194415669
 30
0.0
 10
1.877498121842695
 20
0.2369306819776874
 30
0.0
 10
1.870617901139726
 20
0.238262765389435
 30
0.0
 10
1.863612799723884
 20
0.23849493640824
 30
0.0
 10
1.85666072261469
 20
0.2376092936843753
 30
0.0
 10
1.84993204711708
 20
0.235649009764405
 30
0.0
 10
1.843611886194517
 20
0.2326455142705885
 30
0.0
 10
1.837901495348278
 20
0.2287311363086638
 30
0.0
 10
1.832968857216569
 20
0.2240771700208244
 30
0.0
 10
1.828923007679837
 20
0.2188860026464673
 30
0.0
 10
1.826106326506316
 20
0.2139303777232301
 30
0.0
 10
1.824231841484226
 20
0.2094623236167771
 30
0.0
 10
1.822989923691399
 20
0.2055030077094526
 30
0.0
 10
1.822068928530193
 20
0.2011859131561961
 30
0.0
 10
1.821543982561283
 20
0.1962854473254775
 30
0.0
 10
1.821617472691409
 20
0.1907039186872477
 30
0.0
 10
1.822446072912217
 20
0.1851209671129153
 30
0.0
 10
1.823963856496053
 20
0.1797314993792351
 30
0.0
 10
1.82606832671968
 20
0.174682472828475
 30
0.0
 10
1.828986893419461
 20
0.1696269625360167
 30
0.0
 10
1.832784697453071
 20
0.164718103937233
 30
0.0
 10
1.837520368685188
 20
0.1601574464371675
 30
0.0
 10
1.842524041554297
 20
0.156629950820883
 30
0.0
 10
1.847471773056427
 20
0.154054463638826
 30
0.0
 10
1.852118823792158
 20
0.152221929790211
 30
0.0
 10
1.855407169454261
 20
0.1514530657508624
 30
0.0
 10
1.857077753569524
 20
0.1510624583807997
 30
0.0
  0
LINE
  5
BE
330
1F
100
AcDbEntity
  8
0
  6
Continuous
 62
     7
370
    25
100
AcDbLine
 10
0.2056752205
 20
-2.4633518759
 30
0.0
 11
0.2056752205
 21
-1.1959506575
 31
0.0
  0
ARC
  5
BF
330
1F
100
AcDbEntity
  8
0
  6
Continuous
 62
     7
370
    25
100
AcDbCircle
 10
-1.3343247652
 20
0.3014646342
 30
0.0
 40
1.500000000000001
100
AcDbArc
 50
152.4914989346
 51
273.3640804246
  0
LINE
  5
C0
330
1F
100
AcDbEntity
  8
0
  6
Continuous
 62
     7
370
    25
100
AcDbLine
 10
1.8656752467
 20
2.4942849573
 30
0.0
 11
-0.0700222492
 21
2.4942849573
 31
0.0
  0
ARC
  5
C1
330
1F
100
AcDbEntity
  8
0
  6
Continuous
 62
     7
370
    25
100
AcDbCircle
 10
2.3656752348
 20
0.5942849573
 30
0.0
 40
1.500000000000054
100
AcDbArc
 50
296.3359347495
 51
63.6640652505
  0
ARC
  5
C2
330
1F
100
AcDbEntity
  8
0
  6
Continuous
 62
     7
370
    25
100
AcDbCircle
 10
1.8656752348
 20
0.1942849573
 30
0.0
 40
1.50000000000004
100
AcDbArc
 50
304.9829978692
 51
320.9836817587
  0
LINE
  5
C3
330
1F
100
AcDbEntity
  8
0
  6
Continuous
 62
     7
370
    25
100
AcDbLine
 10
2.7256752014
 20
-1.0346983973
 30
0.0
 11
2.7256752014
 21
-2.4633518759
 31
0.0
  0
LINE
  5
C4
330
1F
100
AcDbEntity
  8
0
  6
Continuous
 62
     7
370
    25
100
AcDbLine
 10
1.725675261
 20
-3.4633518759
 30
0.0
 11
1.2056752354
 21
-3.4633518759
 31
0.0
  0
ARC
  5
C5
330
1F
100
AcDbEntity
  8
0
  6
Continuous
 62
     7
370
    25
100
AcDbCircle
 10
1.2056752348
 20
-2.4633518174
 30
0.0
 40
1.000000000000025
100
AcDbArc
 50
180.0
 51
270.0
  0
ARC
  5
C6
330
1F
100
AcDbEntity
  8
0
  6
Continuous
 62
     7
370
    25
100
AcDbCircle
 10
1.8656752348
 20
0.9942849573
 30
0.0
 40
1.5
100
AcDbArc
 50
39.0163182413
 51
90.0
  0
ARC
  5
C7
330
1F
100
AcDbEntity
  8
0
  6
Continuous
 62
     7
370
    25
100
AcDbCircle
 10
1.7256752348
 20
-2.4633518174
 30
0.0
 40
1.000000000000028
100
AcDbArc
 50
270.0
 51
360.0
  0
LINE
  5
C8
330
1F
100
AcDbEntity
  8
0
  6
Continuous
 62
     7
370
    25
100
AcDbLine
 10
-1.2463038206
 20
-1.1959506575
 30
0.0
 11
0.2056752205
 21
-1.1959506575
 31
0.0
  0
ARC
  5
C9
330
1F
100
AcDbEntity
  8
0
  6
Continuous
 62
     7
370
    25
100
AcDbCircle
 10
-1.3343247652
 20
1.6871052803
 30
0.0
 40
1.5
100
AcDbArc
 50
32.5557359385
 51
207.5085010654
  0
CIRCLE
  5
CA
330
1F
100
AcDbEntity
  8
0
  6
Continuous
 62
     7
370
    25
100
AcDbCircle
 10
-0.9343247652
 20
0.9942849573
 30
0.0
 40
0.0444500000000001
  0
CIRCLE
  5
CB
330
1F
100
AcDbEntity
  8
0
  6
Continuous
 62
     7
370
    25
100
AcDbCircle
 10
-1.3343247652
 20
1.6871052803
 30
0.0
 40
0.0301500000000002
  0
CIRCLE
  5
CC
330
1F
100
AcDbEntity
  8
0
  6
Continuous
 62
     7
370
    25
100
AcDbCircle
 10
-1.3343247652
 20
0.3014646342
 30
0.0
 40
0.0301499999999998
  0
SPLINE
  5
CD
330
1F
100
AcDbEntity
  8
0
  6
Continuous
 62
     7
370
    25
100
AcDbSpline
210
0.0
220
0.0
230
1.0
 70
    11
 71
     3
 72
    23
 73
    19
 74
     0
 42
0.000000001
 43
0.00000001
 40
0.0
 40
0.0
 40
0.0
 40
0.0
 40
0.0625485542003552
 40
0.1249598521194555
 40
0.1873200456760251
 40
0.2499666029652425
 40
0.3122939058758899
 40
0.3749926389417789
 40
0.4372951913029602
 40
0.4999741580713706
 40
0.562324024482155
 40
0.6249659083335521
 40
0.6873261018901217
 40
0.7499406044615257
 40
0.8123079094848384
 40
0.8749643884493784
 40
0.9375600111115632
 40
1.0
 40
1.0
 40
1.0
 40
1.0
 10
-0.9339350700121721
 20
0.9940599572784026
 30
0.0
 10
-0.9339108156182104
 20
0.9941143675291222
 30
0.0
 10
-0.933862360054026
 20
0.994223068632939
 30
0.0
 10
-0.9338805758117051
 20
0.994404454546606
 30
0.0
 10
-0.9339561179378272
 20
0.9945674556210422
 30
0.0
 10
-0.9340943718975475
 20
0.9946836059793795
 30
0.0
 10
-0.9342640101895509
 20
0.9947453723245592
 30
0.0
 10
-0.9344437346160769
 20
0.9947298727928691
 30
0.0
 10
-0.9346073082479688
 20
0.9946533761761291
 30
0.0
 10
-0.9347235588733979
 20
0.9945155046835359
 30
0.0
 10
-0.9347851704909728
 20
0.9943456976259335
 30
0.0
 10
-0.9347695866125899
 20
0.9941660354298718
 30
0.0
 10
-0.9346932522459458
 20
0.9940023963407119
 30
0.0
 10
-0.9345553336693279
 20
0.9938863052568987
 30
0.0
 10
-0.9343853785676749
 20
0.9938244259540265
 30
0.0
 10
-0.9342063399719399
 20
0.9938405881073065
 30
0.0
 10
-0.9340393031352517
 20
0.993914826346525
 30
0.0
 10
-0.9339697855433221
 20
0.994011620461491
 30
0.0
 10
-0.9339350700121721
 20
0.9940599572784026
 30
0.0
  0
SPLINE
  5
CE
330
1F
100
AcDbEntity
  8
0
  6
Continuous
 62
     7
370
    25
100
AcDbSpline
210
0.0
220
0.0
230
1.0
 70
    11
 71
     3
 72
    55
 73
    51
 74
     0
 42
0.000000001
 43
0.00000001
 40
0.0
 40
0.0
 40
0.0
 40
0.0
 40
0.0208253177539957
 40
0.0416754496667401
 40
0.0625000867289087
 40
0.0833270985106657
 40
0.1041754471885965
 40
0.1250000732803073
 40
0.1458270891526159
 40
0.1666753480539364
 40
0.1874999258501237
 40
0.2083271844386124
 40
0.2291754031213616
 40
0.2499999750271217
 40
0.2708268885532463
 40
0.2916754323075942
 40
0.3124999607702444
 40
0.333326967898283
 40
0.3541752676659348
 40
0.3749997212673233
 40
0.3958269479587005
 40
0.4166753673265595
 40
0.4375003577182073
 40
0.4583272331775414
 40
0.4791755735226052
 40
0.5000000897044752
 40
0.5208271346684687
 40
0.5416753677995212
 40
0.5625000881568618
 40
0.583327127914114
 40
0.6041755045380963
 40
0.6250001306298072
 40
0.6458270092453977
 40
0.6666756459977392
 40
0.6875002237939265
 40
0.7083272007800311
 40
0.7291757406039506
 40
0.7500003125097107
 40
0.7708268429681958
 40
0.7916753867225437
 40
0.8124999151851938
 40
0.8333273485318691
 40
0.8541752220786708
 40
0.8750000946005524
 40
0.8958269168116297
 40
0.9166753361794888
 40
0.9374999714420592
 40
0.9583271680650638
 40
0.9791736398942871
 40
1.0
 40
1.0
 40
1.0
 40
1.0
 10
-0.8958299398165545
 20
0.9720599573103004
 30
0.0
 10
-0.8949238932075178
 20
0.9737755477258154
 30
0.0
 10
-0.8931107204004237
 20
0.977208772748124
 30
0.0
 10
-0.8912738844347451
 20
0.9827520500586688
 30
0.0
 10
-0.890127153766863
 20
0.988465516196668
 30
0.0
 10
-0.8897476248104089
 20
0.9942854841849358
 30
0.0
 10
-0.8901283668256278
 20
1.000103675489559
 30
0.0
 10
-0.8912670517453821
 20
1.005822508809123
 30
0.0
 10
-0.8931403964970158
 20
1.011344283523636
 30
0.0
 10
-0.8957194579793054
 20
1.016574021481031
 30
0.0
 10
-0.8989597153960583
 20
1.021421786392803
 30
0.0
 10
-0.9028037289763996
 20
1.025806267106821
 30
0.0
 10
-0.9071877823546716
 20
1.029650982408457
 30
0.0
 10
-0.9120365566372354
 20
1.032889661202834
 30
0.0
 10
-0.9172657450119194
 20
1.035469521443585
 30
0.0
 10
-0.9227874352512778
 20
1.037343742281901
 30
0.0
 10
-0.9285065299602778
 20
1.038480384740047
 30
0.0
 10
-0.9343249254167164
 20
1.038862700516274
 30
0.0
 10
-0.9401435171857796
 20
1.038481244086398
 30
0.0
 10
-0.945862228058359
 20
1.037342719479857
 30
0.0
 10
-0.9513840678705306
 20
1.035469360296348
 30
0.0
 10
-0.9566138245993142
 20
1.032890203056575
 30
0.0
 10
-0.961461646291189
 20
1.02965000071965
 30
0.0
 10
-0.9658461747812331
 20
1.025806016533575
 30
0.0
 10
-0.9696908404393648
 20
1.021421951252088
 30
0.0
 10
-0.9729294522799711
 20
1.016573117679519
 30
0.0
 10
-0.9755093577740023
 20
1.011343969869892
 30
0.0
 10
-0.9773834104731113
 20
1.005822225244855
 30
0.0
 10
-0.9785202551037654
 20
1.000103190770771
 30
0.0
 10
-0.978902662375961
 20
0.9942847566213804
 30
0.0
 10
-0.9785209755812684
 20
0.9884661509562924
 30
0.0
 10
-0.977382479168524
 20
0.9827474627421542
 30
0.0
 10
-0.9755093278657282
 20
0.9772255344705838
 30
0.0
 10
-0.9729299023054089
 20
0.9719959558694804
 30
0.0
 10
-0.9696897027597317
 20
0.9671481653226177
 30
0.0
 10
-0.9658457992892712
 20
0.962763568540175
 30
0.0
 10
-0.9614616307581932
 20
0.9589189722784139
 30
0.0
 10
-0.9566128831159496
 20
0.9556802817498284
 30
0.0
 10
-0.9513837588267774
 20
0.9531003649720904
 30
0.0
 10
-0.9458620932574241
 20
0.951226176580874
 30
0.0
 10
-0.9401429614851607
 20
0.9500895214346605
 30
0.0
 10
-0.9343245664269616
 20
0.9497072121794377
 30
0.0
 10
-0.9285059280421238
 20
0.9500886888796336
 30
0.0
 10
-0.9227872899716677
 20
0.9512271750294241
 30
0.0
 10
-0.9172652868409389
 20
0.9531005046309824
 30
0.0
 10
-0.9120362799765444
 20
0.9556799917920165
 30
0.0
 10
-0.9071858796152784
 20
0.9589187797368068
 30
0.0
 10
-0.9028113510052828
 20
0.9627682721721686
 30
0.0
 10
-0.8989294288115103
 20
0.9671308838933588
 30
0.0
 10
-0.8968627703515578
 20
0.9704174615496839
 30
0.0
 10
-0.8958299398165545
 20
0.9720599573103004
 30
0.0
  0
SPLINE
  5
CF
330
1F
100
AcDbEntity
  8
0
  6
Continuous
 62
     7
370
    25
100
AcDbSpline
210
0.0
220
0.0
230
1.0
 70
    11
 71
     3
 72
    24
 73
    20
 74
     0
 42
0.000000001
 43
0.00000001
 40
0.0
 40
0.0
 40
0.0
 40
0.0
 40
0.0626148224093703
 40
0.1248457272704244
 40
0.1869149655130556
 40
0.2497995208953956
 40
0.3119964187665183
 40
0.3746844835983102
 40
0.4367537218409415
 40
0.4996863175879324
 40
0.561784301315696
 40
0.6247304649508627
 40
0.6867997031934939
 40
0.7496842585758339
 40
0.8116202613275316
 40
0.8745618385097776
 40
0.9374009512327925
 40
0.9680064605804327
 40
1.0
 40
1.0
 40
1.0
 40
1.0
 10
-1.334194922421535
 20
0.3013896640387587
 30
0.0
 10
-1.334186901507678
 20
0.3014078407375586
 30
0.0
 10
-1.33417090885953
 20
0.3014440826862492
 30
0.0
 10
-1.334176661269873
 20
0.3015044225278441
 30
0.0
 10
-1.334201862694454
 20
0.3015586887755567
 30
0.0
 10
-1.334247827986951
 20
0.3015974605202845
 30
0.0
 10
-1.334304409089054
 20
0.301618080837407
 30
0.0
 10
-1.334364198596558
 20
0.3016129647053317
 30
0.0
 10
-1.334418788364888
 20
0.3015875564376252
 30
0.0
 10
-1.334457417824042
 20
0.3015415870944714
 30
0.0
 10
-1.334478248092834
 20
0.301485001198346
 30
0.0
 10
-1.334473001786875
 20
0.3014251397560194
 30
0.0
 10
-1.334447596515331
 20
0.3013705120689323
 30
0.0
 10
-1.334401727740252
 20
0.301331836581812
 30
0.0
 10
-1.334345149116891
 20
0.3013111650048884
 30
0.0
 10
-1.334285135104238
 20
0.3013164093007507
 30
0.0
 10
-1.334239586303914
 20
0.3013373403787821
 30
0.0
 10
-1.334210867147354
 20
0.3013646504685032
 30
0.0
 10
-1.334200315319898
 20
0.301381203834198
 30
0.0
 10
-1.334194922421535
 20
0.3013896640387587
 30
0.0
  0
SPLINE
  5
D0
330
1F
100
AcDbEntity
  8
0
  6
Continuous
 62
     7
370
    25
100
AcDbSpline
210
0.0
220
0.0
230
1.0
 70
    11
 71
     3
 72
    39
 73
    35
 74
     0
 42
0.000000001
 43
0.00000001
 40
0.0
 40
0.0
 40
0.0
 40
0.0
 40
0.0312492701993183
 40
0.0625003083655146
 40
0.0937522711474517
 40
0.1250004248451301
 40
0.1562525984626337
 40
0.1875007481961136
 40
0.218752095644554
 40
0.2499999817918691
 40
0.2812528251400139
 40
0.3124998948370952
 40
0.3437531067552854
 40
0.3749999653948691
 40
0.4062529133629038
 40
0.4375009972079953
 40
0.4687525298293658
 40
0.5000008555950162
 40
0.5312527079090529
 40
0.5625006984640581
 40
0.5937526612459952
 40
0.6250005040870233
 40
0.6562526777045269
 40
0.6875004282366757
 40
0.7187524062459472
 40
0.7500002923932622
 40
0.781253135741407
 40
0.8125002766995264
 40
0.8437522288707792
 40
0.8750003825684576
 40
0.9062520397218471
 40
0.9375001235669386
 40
0.968749659444301
 40
1.0
 40
1.0
 40
1.0
 40
1.0
 10
-1.308214211438258
 20
0.2863896187392287
 30
0.0
 10
-1.307321587554935
 20
0.2881536251999057
 30
0.0
 10
-1.305536289286967
 20
0.2916817379221499
 30
0.0
 10
-1.304257161586236
 20
0.2975114385843436
 30
0.0
 10
-1.30403092360648
 20
0.3034482826890887
 30
0.0
 10
-1.30502052468213
 20
0.3093176364032799
 30
0.0
 10
-1.307099495402759
 20
0.3148905742736477
 30
0.0
 10
-1.310255706675746
 20
0.3199338661815271
 30
0.0
 10
-1.314309922615783
 20
0.324287292915348
 30
0.0
 10
-1.319155506168957
 20
0.3277390109622771
 30
0.0
 10
-1.324567361586158
 20
0.3302092543819082
 30
0.0
 10
-1.330365016574897
 20
0.3315439664583398
 30
0.0
 10
-1.336310215281984
 20
0.3317551821322395
 30
0.0
 10
-1.342177306373101
 20
0.3307696023244637
 30
0.0
 10
-1.347750846630472
 20
0.328689670216684
 30
0.0
 10
-1.352794193404926
 20
0.3255339418776117
 30
0.0
 10
-1.357147407153858
 20
0.3214793106282243
 30
0.0
 10
-1.360599185491381
 20
0.3166338613589291
 30
0.0
 10
-1.363069468674528
 20
0.3112219722703694
 30
0.0
 10
-1.364404063321807
 20
0.3054243828986508
 30
0.0
 10
-1.364615412959396
 20
0.2994791572901459
 30
0.0
 10
-1.363629814361217
 20
0.2936121100224157
 30
0.0
 10
-1.361549684771433
 20
0.2880386708349504
 30
0.0
 10
-1.358394166156055
 20
0.2829952515639066
 30
0.0
 10
-1.354339495982699
 20
0.2786420830693829
 30
0.0
 10
-1.349494007672095
 20
0.2751902634353153
 30
0.0
 10
-1.344082088992993
 20
0.2727200535569014
 30
0.0
 10
-1.338284615800849
 20
0.2713852964020994
 30
0.0
 10
-1.332339117749088
 20
0.27117393106418
 30
0.0
 10
-1.326473175193318
 20
0.2721601342086953
 30
0.0
 10
-1.320895657698239
 20
0.2742377900426704
 30
0.0
 10
-1.315867382424742
 20
0.2774020100384574
 30
0.0
 10
-1.311458553263044
 20
0.2814245015774657
 30
0.0
 10
-1.309295667995482
 20
0.2847345654797505
 30
0.0
 10
-1.308214211438258
 20
0.2863896187392287
 30
0.0
  0
SPLINE
  5
D1
330
1F
100
AcDbEntity
  8
0
  6
Continuous
 62
     7
370
    25
100
AcDbSpline
210
0.0
220
0.0
230
1.0
 70
    11
 71
     3
 72
    24
 73
    20
 74
     0
 42
0.000000001
 43
0.00000001
 40
0.0
 40
0.0
 40
0.0
 40
0.0
 40
0.062675124231651
 40
0.1249062276748007
 40
0.1869756639836407
 40
0.2498604200339095
 40
0.3120365771907506
 40
0.3747248420634597
 40
0.4367942783722997
 40
0.4997270749405188
 40
0.5618252568262198
 40
0.6247082471618217
 40
0.6867776834706619
 40
0.7496624395209306
 40
0.811619660197862
 40
0.8745614382299965
 40
0.9374007514759304
 40
0.968006358487363
 40
1.0
 40
1.0
 40
1.0
 40
1.0
 10
-1.334194922421535
 20
1.687030285224062
 30
0.0
 10
-1.334186900856099
 20
1.687048481754865
 30
0.0
 10
-1.334170914553862
 20
1.687084745903476
 30
0.0
 10
-1.334176658788051
 20
1.68714510417147
 30
0.0
 10
-1.334201865138434
 20
1.687199364318601
 30
0.0
 10
-1.334247815509462
 20
1.687238157310428
 30
0.0
 10
-1.334304422509682
 20
1.687258682723135
 30
0.0
 10
-1.334364196731412
 20
1.687253590874255
 30
0.0
 10
-1.334418789158606
 20
1.687228176250096
 30
0.0
 10
-1.33445741652411
 20
1.687182208726988
 30
0.0
 10
-1.334478245434472
 20
1.687125641034869
 30
0.0
 10
-1.334472993391809
 20
1.687065803349629
 30
0.0
 10
-1.334447598250025
 20
1.687011187495858
 30
0.0
 10
-1.334401715394414
 20
1.686972533438339
 30
0.0
 10
-1.334345162573891
 20
1.686951766716508
 30
0.0
 10
-1.334285133249404
 20
1.686957035686087
 30
0.0
 10
-1.334239586525192
 20
1.686977960943732
 30
0.0
 10
-1.33421086710681
 20
1.687005271767469
 30
0.0
 10
-1.334200315306185
 20
1.687021825057944
 30
0.0
 10
-1.334194922421535
 20
1.687030285224062
 30
0.0
  0
SPLINE
  5
D2
330
1F
100
AcDbEntity
  8
0
  6
Continuous
 62
     7
370
    25
100
AcDbSpline
210
0.0
220
0.0
230
1.0
 70
    11
 71
     3
 72
    39
 73
    35
 74
     0
 42
0.000000001
 43
0.00000001
 40
0.0
 40
0.0
 40
0.0
 40
0.0
 40
0.0312489833003156
 40
0.0625003284180559
 40
0.0937522911999079
 40
0.125000134040851
 40
0.1562523076582695
 40
0.1875007248253742
 40
0.2187518420726201
 40
0.2499997282198502
 40
0.2812525715679099
 40
0.3124997125259443
 40
0.3437529244440495
 40
0.3749998347155533
 40
0.406252671968083
 40
0.4375007558130894
 40
0.4687525036289885
 40
0.5000005730789151
 40
0.5312527122972196
 40
0.5625003958993361
 40
0.5937523586811881
 40
0.6250005123787815
 40
0.6562526859962001
 40
0.6875001690888486
 40
0.7187523772928042
 40
0.7500002634400341
 40
0.7812531067880939
 40
0.8125001764850902
 40
0.8437521286562581
 40
0.8750002307239009
 40
0.9062519985968062
 40
0.9375000824418126
 40
0.9687494031283098
 40
0.9999999999999999
 40
0.9999999999999999
 40
0.9999999999999999
 40
0.9999999999999999
 10
-1.308214211438258
 20
1.672030299529176
 30
0.0
 10
-1.307321585449707
 20
1.673794285410877
 30
0.0
 10
-1.305536266007382
 20
1.677322390497419
 30
0.0
 10
-1.304257171163023
 20
1.683152102090519
 30
0.0
 10
-1.304030918479178
 20
1.689088943234376
 30
0.0
 10
-1.305020530777535
 20
1.694958278467115
 30
0.0
 10
-1.307099514412342
 20
1.700531201811096
 30
0.0
 10
-1.31025566695717
 20
1.705574538779467
 30
0.0
 10
-1.314309947481343
 20
1.709927910224285
 30
0.0
 10
-1.3191555013867
 20
1.713379640213978
 30
0.0
 10
-1.324567371860014
 20
1.715849857530733
 30
0.0
 10
-1.330365005678837
 20
1.717184660822317
 30
0.0
 10
-1.336310225030531
 20
1.71739588330107
 30
0.0
 10
-1.342177286367615
 20
1.716410188097034
 30
0.0
 10
-1.347750857378057
 20
1.714330368650866
 30
0.0
 10
-1.352794216222934
 20
1.711174621814692
 30
0.0
 10
-1.357147364681006
 20
1.707119935917685
 30
0.0
 10
-1.360599225165719
 20
1.7022745266627
 30
0.0
 10
-1.363069439544788
 20
1.696862621138931
 30
0.0
 10
-1.364404074496901
 20
1.691065047415804
 30
0.0
 10
-1.364615407354678
 20
1.685119817536261
 30
0.0
 10
-1.363629820579246
 20
1.679252752162934
 30
0.0
 10
-1.36154970375153
 20
1.673679298354357
 30
0.0
 10
-1.358394126446662
 20
1.668635924167236
 30
0.0
 10
-1.354339520845406
 20
1.664282700376478
 30
0.0
 10
-1.349494002889949
 20
1.660830892687133
 30
0.0
 10
-1.344082099268864
 20
1.658360656706818
 30
0.0
 10
-1.338284604896931
 20
1.657025990760304
 30
0.0
 10
-1.332339127527427
 20
1.656814632250433
 30
0.0
 10
-1.326473155074881
 20
1.657800719910264
 30
0.0
 10
-1.320895668852646
 20
1.659878488734886
 30
0.0
 10
-1.315867403644383
 20
1.663042688965672
 30
0.0
 10
-1.311458516807863
 20
1.667065130669768
 30
0.0
 10
-1.309295661282568
 20
1.670375220713142
 30
0.0
 10
-1.308214211438258
 20
1.672030299529176
 30
0.0
  0
LWPOLYLINE
  5
D3
330
1F
100
AcDbEntity
  8
0
  6
Continuous
 62
     7
370
    25
100
AcDbPolyline
 90
        9
 70
   128
 43
0.0
 10
-0.1237948179
 20
0.9916349574
 10
-0.123604083
 20
0.9919652125
 10
-0.1234129905
 20
0.99229632
 10
-0.1232214212
 20
0.9926279965
 10
-0.1230298519
 20
0.9929599573
 10
-0.1228381634
 20
0.993291918
 10
-0.122646594
 20
0.9936235944
 10
-0.1224555015
 20
0.9939547021
 10
-0.1222647667
 20
0.9942849573
  0
LWPOLYLINE
  5
D4
330
1F
100
AcDbEntity
  8
0
  6
Continuous
 62
     7
370
    25
100
AcDbPolyline
 90
        9
 70
   128
 43
0.0
 10
-0.1222647667
 20
0.9942849573
 10
-0.1224555015
 20
0.9946152125
 10
-0.122646594
 20
0.9949463201
 10
-0.1228381634
 20
0.9952779965
 10
-0.1230298519
 20
0.9956099572
 10
-0.1232214212
 20
0.9959419181
 10
-0.1234129905
 20
0.9962735945
 10
-0.123604083
 20
0.9966047021
 10
-0.1237948179
 20
0.9969349572
  0
LINE
  5
D5
330
1F
100
AcDbEntity
  8
0
  6
Continuous
 62
     7
370
    25
100
AcDbLine
 10
-0.1237948179
 20
0.9969349572
 30
0.0
 11
-0.1268548012
 21
0.9969349572
 31
0.0
  0
LWPOLYLINE
  5
D6
330
1F
100
AcDbEntity
  8
0
  6
Continuous
 62
     7
370
    25
100
AcDbPolyline
 90
        9
 70
   128
 43
0.0
 10
-0.1268548012
 20
0.9969349572
 10
-0.1270454168
 20
0.9966047021
 10
-0.1272366285
 20
0.9962735945
 10
-0.1274280786
 20
0.9959419181
 10
-0.1276197672
 20
0.9956099572
 10
-0.1278113365
 20
0.9952779965
 10
-0.1280029058
 20
0.9949463201
 10
-0.1281939983
 20
0.9946152125
 10
-0.1283847332
 20
0.9942849573
  0
LWPOLYLINE
  5
D7
330
1F
100
AcDbEntity
  8
0
  6
Continuous
 62
     7
370
    25
100
AcDbPolyline
 90
        9
 70
   128
 43
0.0
 10
-0.1283847332
 20
0.9942849573
 10
-0.1281939983
 20
0.9939547021
 10
-0.1280029058
 20
0.9936235944
 10
-0.1278113365
 20
0.993291918
 10
-0.1276197672
 20
0.9929599573
 10
-0.1274280786
 20
0.9926279965
 10
-0.1272366285
 20
0.99229632
 10
-0.1270454168
 20
0.9919652125
 10
-0.1268548012
 20
0.9916349574
  0
LINE
  5
D8
330
1F
100
AcDbEntity
  8
0
  6
Continuous
 62
     7
370
    25
100
AcDbLine
 10
-0.1268548012
 20
0.9916349574
 30
0.0
 11
-0.1237948179
 21
0.9916349574
 31
0.0
  0
CIRCLE
  5
D9
330
1F
100
AcDbEntity
  8
0
  6
Continuous
 62
     7
370
    25
100
AcDbCircle
 10
-0.1253247652
 20
0.9942849573
 30
0.0
 40
0.0099227988090174
  0
CIRCLE
  5
DA
330
1F
100
AcDbEntity
  8
0
  6
Continuous
 62
     7
370
    25
100
AcDbCircle
 10
-0.1253247652
 20
0.9942849573
 30
0.0
 40
0.01
  0
LWPOLYLINE
  5
DB
330
1F
100
AcDbEntity
  8
0
  6
Continuous
 62
     7
370
    25
100
AcDbPolyline
 90
        9
 70
   128
 43
0.0
 10
0.2582052112
 20
0.9916349574
 10
0.2583958864
 20
0.9919652125
 10
0.2585870385
 20
0.99229632
 10
0.2587785483
 20
0.9926279965
 10
0.2589701772
 20
0.9929599573
 10
0.2591618657
 20
0.993291918
 10
0.2593533755
 20
0.9936235944
 10
0.2595445276
 20
0.9939547021
 10
0.2597352028
 20
0.9942849573
  0
LWPOLYLINE
  5
DC
330
1F
100
AcDbEntity
  8
0
  6
Continuous
 62
     7
370
    25
100
AcDbPolyline
 90
        9
 70
   128
 43
0.0
 10
0.2597352028
 20
0.9942849573
 10
0.2595445276
 20
0.9946152125
 10
0.2593533755
 20
0.9949463201
 10
0.2591618657
 20
0.9952779965
 10
0.2589701772
 20
0.9956099572
 10
0.2587785483
 20
0.9959419181
 10
0.2585870385
 20
0.9962735945
 10
0.2583958864
 20
0.9966047021
 10
0.2582052112
 20
0.9969349572
  0
LINE
  5
DD
330
1F
100
AcDbEntity
  8
0
  6
Continuous
 62
     7
370
    25
100
AcDbLine
 10
0.2582052112
 20
0.9969349572
 30
0.0
 11
0.2551452279
 21
0.9969349572
 31
0.0
  0
LWPOLYLINE
  5
DE
330
1F
100
AcDbEntity
  8
0
  6
Continuous
 62
     7
370
    25
100
AcDbPolyline
 90
        9
 70
   128
 43
0.0
 10
0.2551452279
 20
0.9969349572
 10
0.2549546123
 20
0.9966047021
 10
0.2547634006
 20
0.9962735945
 10
0.2545719505
 20
0.9959419181
 10
0.2543802619
 20
0.9956099572
 10
0.254188633
 20
0.9952779965
 10
0.2539971233
 20
0.9949463201
 10
0.2538059712
 20
0.9946152125
 10
0.2536152959
 20
0.9942849573
  0
LWPOLYLINE
  5
DF
330
1F
100
AcDbEntity
  8
0
  6
Continuous
 62
     7
370
    25
100
AcDbPolyline
 90
        9
 70
   128
 43
0.0
 10
0.2536152959
 20
0.9942849573
 10
0.2538059712
 20
0.9939547021
 10
0.2539971233
 20
0.9936235944
 10
0.254188633
 20
0.993291918
 10
0.2543802619
 20
0.9929599573
 10
0.2545719505
 20
0.9926279965
 10
0.2547634006
 20
0.99229632
 10
0.2549546123
 20
0.9919652125
 10
0.2551452279
 20
0.9916349574
  0
LINE
  5
E0
330
1F
100
AcDbEntity
  8
0
  6
Continuous
 62
     7
370
    25
100
AcDbLine
 10
0.2551452279
 20
0.9916349574
 30
0.0
 11
0.2582052112
 21
0.9916349574
 31
0.0
  0
CIRCLE
  5
E1
330
1F
100
AcDbEntity
  8
0
  6
Continuous
 62
     7
370
    25
100
AcDbCircle
 10
0.2566752348
 20
0.9942849573
 30
0.0
 40
0.0099227988090174
  0
CIRCLE
  5
E2
330
1F
100
AcDbEntity
  8
0
  6
Continuous
 62
     7
370
    25
100
AcDbCircle
 10
0.2566752348
 20
0.9942849573
 30
0.0
 40
0.01
  0
LINE
  5
E3
330
1F
100
AcDbEntity
  8
0
  6
Continuous
 62
     7
370
    25
100
AcDbLine
 10
-0.9787748098
 20
1.0039849566
 30
0.0
 11
-0.9787748098
 21
0.984584957
 31
0.0
  0
ARC
  5
E4
330
1F
100
AcDbEntity
  8
0
  6
Continuous
 62
     7
370
    25
100
AcDbCircle
 10
-0.9741724197
 20
0.9929599573
 30
0.0
 40
0.00983687009827
100
AcDbArc
 50
172.2588827196
 51
187.7411172804
  0
ARC
  5
E5
330
1F
100
AcDbEntity
  8
0
  6
Continuous
 62
     7
370
    25
100
AcDbCircle
 10
-0.9741724197
 20
0.9956099572
 30
0.0
 40
0.0098368700982459
100
AcDbArc
 50
172.2588827196
 51
187.7411172804
  0
LINE
  5
E6
330
1F
100
AcDbEntity
  8
0
  6
Continuous
 62
     7
370
    25
100
AcDbLine
 10
-0.9839196443
 20
0.9969349572
 30
0.0
 11
-0.9840092897
 21
0.9969349572
 31
0.0
  0
LINE
  5
E7
330
1F
100
AcDbEntity
  8
0
  6
Continuous
 62
     7
370
    25
100
AcDbLine
 10
-0.9840092897
 20
0.9916349574
 30
0.0
 11
-0.9839196443
 21
0.9916349574
 31
0.0
  0
LINE
  5
E8
330
1F
100
AcDbEntity
  8
0
  6
Continuous
 62
     7
370
    25
100
AcDbLine
 10
-0.5057947874
 20
0.9969349572
 30
0.0
 11
-0.5088547706
 21
0.9969349572
 31
0.0
  0
LWPOLYLINE
  5
E9
330
1F
100
AcDbEntity
  8
0
  6
Continuous
 62
     7
370
    25
100
AcDbPolyline
 90
        9
 70
   128
 43
0.0
 10
-0.5103847027
 20
0.9942849573
 10
-0.510194087
 20
0.9939547021
 10
-0.5100028753
 20
0.9936235944
 10
-0.5098114252
 20
0.993291918
 10
-0.5096197366
 20
0.9929599573
 10
-0.5094280481
 20
0.9926279965
 10
-0.509236598
 20
0.99229632
 10
-0.5090453863
 20
0.9919652125
 10
-0.5088547706
 20
0.9916349574
  0
CIRCLE
  5
EA
330
1F
100
AcDbEntity
  8
0
  6
Continuous
 62
     7
370
    25
100
AcDbCircle
 10
-0.5073247652
 20
0.9942849573
 30
0.0
 40
0.0099227988090174
  0
LWPOLYLINE
  5
EB
330
1F
100
AcDbEntity
  8
0
  6
Continuous
 62
     7
370
    25
100
AcDbPolyline
 90
        9
 70
   128
 43
0.0
 10
-0.5057947874
 20
0.9916349574
 10
-0.5056041717
 20
0.9919652125
 10
-0.50541296
 20
0.99229632
 10
-0.5052215099
 20
0.9926279965
 10
-0.5050298214
 20
0.9929599573
 10
-0.5048381328
 20
0.993291918
 10
-0.5046466827
 20
0.9936235944
 10
-0.504455471
 20
0.9939547021
 10
-0.5042648554
 20
0.9942849573
  0
LINE
  5
EC
330
1F
100
AcDbEntity
  8
0
  6
Continuous
 62
     7
370
    25
100
AcDbLine
 10
-0.5088547706
 20
0.9916349574
 30
0.0
 11
-0.5057947874
 21
0.9916349574
 31
0.0
  0
LWPOLYLINE
  5
ED
330
1F
100
AcDbEntity
  8
0
  6
Continuous
 62
     7
370
    25
100
AcDbPolyline
 90
        9
 70
   128
 43
0.0
 10
-0.5088547706
 20
0.9969349572
 10
-0.5090453863
 20
0.9966047021
 10
-0.509236598
 20
0.9962735945
 10
-0.5094280481
 20
0.9959419181
 10
-0.5096197366
 20
0.9956099572
 10
-0.5098114252
 20
0.9952779965
 10
-0.5100028753
 20
0.9949463201
 10
-0.510194087
 20
0.9946152125
 10
-0.5103847027
 20
0.9942849573
  0
LWPOLYLINE
  5
EE
330
1F
100
AcDbEntity
  8
0
  6
Continuous
 62
     7
370
    25
100
AcDbPolyline
 90
        9
 70
   128
 43
0.0
 10
-0.5042648554
 20
0.9942849573
 10
-0.504455471
 20
0.9946152125
 10
-0.5046466827
 20
0.9949463201
 10
-0.5048381328
 20
0.9952779965
 10
-0.5050298214
 20
0.9956099572
 10
-0.5052215099
 20
0.9959419181
 10
-0.50541296
 20
0.9962735945
 10
-0.5056041717
 20
0.9966047021
 10
-0.5057947874
 20
0.9969349572
  0
CIRCLE
  5
EF
330
1F
100
AcDbEntity
  8
0
  6
Continuous
 62
     7
370
    25
100
AcDbCircle
 10
-0.5073247652
 20
0.9942849573
 30
0.0
 40
0.01
  0
LWPOLYLINE
  5
F0
330
1F
100
AcDbEntity
  8
0
  6
Continuous
 62
     7
370
    25
100
AcDbPolyline
 90
        9
 70
   128
 43
0.0
 10
0.6402052105
 20
0.9916349574
 10
0.6403958857
 20
0.9919652125
 10
0.6405870378
 20
0.99229632
 10
0.6407785476
 20
0.9926279965
 10
0.6409702063
 20
0.9929599573
 10
0.641161865
 20
0.993291918
 10
0.6413533449
 20
0.9936235944
 10
0.6415445268
 20
0.9939547021
 10
0.6417352021
 20
0.9942849573
  0
LWPOLYLINE
  5
F1
330
1F
100
AcDbEntity
  8
0
  6
Continuous
 62
     7
370
    25
100
AcDbPolyline
 90
        9
 70
   128
 43
0.0
 10
0.6417352021
 20
0.9942849573
 10
0.6415445268
 20
0.9946152125
 10
0.6413533449
 20
0.9949463201
 10
0.641161865
 20
0.9952779965
 10
0.6409702063
 20
0.9956099572
 10
0.6407785476
 20
0.9959419181
 10
0.6405870378
 20
0.9962735945
 10
0.6403958857
 20
0.9966047021
 10
0.6402052105
 20
0.9969349572
  0
LINE
  5
F2
330
1F
100
AcDbEntity
  8
0
  6
Continuous
 62
     7
370
    25
100
AcDbLine
 10
0.6402052105
 20
0.9969349572
 30
0.0
 11
0.637145257
 21
0.9969349572
 31
0.0
  0
LWPOLYLINE
  5
F3
330
1F
100
AcDbEntity
  8
0
  6
Continuous
 62
     7
370
    25
100
AcDbPolyline
 90
        9
 70
   128
 43
0.0
 10
0.637145257
 20
0.9969349572
 10
0.6369545818
 20
0.9966047021
 10
0.6367634297
 20
0.9962735945
 10
0.6365719199
 20
0.9959419181
 10
0.6363802612
 20
0.9956099572
 10
0.6361886025
 20
0.9952779965
 10
0.6359971226
 20
0.9949463201
 10
0.6358059407
 20
0.9946152125
 10
0.6356152654
 20
0.9942849573
  0
LWPOLYLINE
  5
F4
330
1F
100
AcDbEntity
  8
0
  6
Continuous
 62
     7
370
    25
100
AcDbPolyline
 90
        9
 70
   128
 43
0.0
 10
0.6356152654
 20
0.9942849573
 10
0.6358059407
 20
0.9939547021
 10
0.6359971226
 20
0.9936235944
 10
0.6361886025
 20
0.993291918
 10
0.6363802612
 20
0.9929599573
 10
0.6365719199
 20
0.9926279965
 10
0.6367634297
 20
0.99229632
 10
0.6369545818
 20
0.9919652125
 10
0.637145257
 20
0.9916349574
  0
LINE
  5
F5
330
1F
100
AcDbEntity
  8
0
  6
Continuous
 62
     7
370
    25
100
AcDbLine
 10
0.637145257
 20
0.9916349574
 30
0.0
 11
0.6402052105
 21
0.9916349574
 31
0.0
  0
CIRCLE
  5
F6
330
1F
100
AcDbEntity
  8
0
  6
Continuous
 62
     7
370
    25
100
AcDbCircle
 10
0.6386752348
 20
0.9942849573
 30
0.0
 40
0.0099227988090174
  0
CIRCLE
  5
F7
330
1F
100
AcDbEntity
  8
0
  6
Continuous
 62
     7
370
    25
100
AcDbCircle
 10
0.6386752348
 20
0.9942849573
 30
0.0
 40
0.01
  0
LINE
  5
F8
330
1F
100
AcDbEntity
  8
0
  6
Continuous
 62
     7
370
    25
100
AcDbLine
 10
1.0352744594
 20
0.9592849571
 30
0.0
 11
1.0364531748
 21
0.9607905742
 31
0.0
  0
SPLINE
  5
F9
330
1F
100
AcDbEntity
  8
0
  6
Continuous
 62
     7
370
    25
100
AcDbSpline
210
0.0
220
0.0
230
1.0
 70
     8
 71
     3
 72
    19
 73
    15
 74
     0
 42
0.000000001
 43
0.00000001
 40
0.0
 40
0.0
 40
0.0
 40
0.0
 40
0.0523997769198984
 40
0.1058107286490547
 40
0.1864600679820887
 40
0.2692600237697906
 40
0.38828286437771
 40
0.5106829407847094
 40
0.6310407126596789
 40
0.6934716247393969
 40
0.7558868935932503
 40
0.8391775058817246
 40
0.9247207898308004
 40
0.9999999999999999
 40
0.9999999999999999
 40
0.9999999999999999
 40
0.9999999999999999
 10
1.035274459447304
 20
0.959284957125526
 30
0.0
 10
1.035241483479091
 20
0.9593106424932909
 30
0.0
 10
1.035174895195139
 20
0.9593625088873594
 30
0.0
 10
1.034564840395442
 20
0.9598471149479872
 30
0.0
 10
1.033411954276384
 20
0.9608059806571416
 30
0.0
 10
1.031393325145484
 20
0.9626505378084484
 30
0.0
 10
1.028697447871759
 20
0.9654947727534948
 30
0.0
 10
1.025596515415941
 20
0.9695674771504244
 30
0.0
 10
1.023160529009578
 20
0.9737510949848605
 30
0.0
 10
1.021458031148732
 20
0.9775408932665235
 30
0.0
 10
1.020196794364083
 20
0.9809929431009023
 30
0.0
 10
1.019102327722748
 20
0.9851086008642864
 30
0.0
 10
1.018357007306115
 20
0.989712103955368
 30
0.0
 10
1.018267250445124
 20
0.9928269382097212
 30
0.0
 10
1.018225236262719
 20
0.9942849572745371
 30
0.0
  0
LINE
  5
FA
330
1F
100
AcDbEntity
  8
0
  6
Continuous
 62
     7
370
    25
100
AcDbLine
 10
1.0182252363
 20
0.9942849573
 30
0.0
 11
1.0212252349
 21
0.9942849573
 31
0.0
  0
LINE
  5
FB
330
1F
100
AcDbEntity
  8
0
  6
Continuous
 62
     7
370
    25
100
AcDbLine
 10
1.0352744594
 20
1.0292849574
 30
0.0
 11
1.0364531748
 21
1.0277793404
 31
0.0
  0
SPLINE
  5
FC
330
1F
100
AcDbEntity
  8
0
  6
Continuous
 62
     7
370
    25
100
AcDbSpline
210
0.0
220
0.0
230
1.0
 70
     8
 71
     3
 72
    18
 73
    14
 74
     0
 42
0.000000001
 43
0.00000001
 40
0.0
 40
0.0
 40
0.0
 40
0.0
 40
0.1052034139682931
 40
0.1910779896241573
 40
0.2770162858071885
 40
0.3653775868600706
 40
0.4537964914466665
 40
0.5609301934044109
 40
0.66807129950794
 40
0.759663632952071
 40
0.8511034875055464
 40
0.9256045655400683
 40
1.0
 40
1.0
 40
1.0
 40
1.0
 10
1.018225236262719
 20
0.9942849572745371
 30
0.0
 10
1.018305763184841
 20
0.9963247660616097
 30
0.0
 10
1.018452021959241
 20
1.000029613153064
 30
0.0
 10
1.019499236739643
 20
1.005157726898998
 30
0.0
 10
1.020881384124317
 20
1.009663871312953
 30
0.0
 10
1.022663500612937
 20
1.01380609881374
 30
0.0
 10
1.024862568985379
 20
1.017802900106372
 30
0.0
 10
1.027418554869223
 20
1.021472084633772
 30
0.0
 10
1.030020123290706
 20
1.024515697443405
 30
0.0
 10
1.032320774628411
 20
1.026791913801503
 30
0.0
 10
1.03399497874002
 20
1.028259375463745
 30
0.0
 10
1.03506398732892
 20
1.029124035467236
 30
0.0
 10
1.035204335267268
 20
1.029231342149835
 30
0.0
 10
1.035274459447304
 20
1.029284957423549
 30
0.0
  0
LINE
  5
FD
330
1F
100
AcDbEntity
  8
0
  6
Continuous
 62
     7
370
    25
100
AcDbLine
 10
-0.9039240122
 20
1.0292849574
 30
0.0
 11
-0.9051027536
 21
1.0277793404
 31
0.0
  0
LINE
  5
FE
330
1F
100
AcDbEntity
  8
0
  6
Continuous
 62
     7
370
    25
100
AcDbLine
 10
-0.8868748188
 20
0.9942849573
 30
0.0
 11
-0.8898747205
 21
0.9942849573
 31
0.0
  0
SPLINE
  5
FF
330
1F
100
AcDbEntity
  8
0
  6
Continuous
 62
     7
370
    25
100
AcDbSpline
210
0.0
220
0.0
230
1.0
 70
     8
 71
     3
 72
    19
 73
    15
 74
     0
 42
0.000000001
 43
0.00000001
 40
0.0
 40
0.0
 40
0.0
 40
0.0
 40
0.0523997683363635
 40
0.1058107151828971
 40
0.1864602103426001
 40
0.2692601433200726
 40
0.3882831731894386
 40
0.5106827469782489
 40
0.6310405975515251
 40
0.693471486998379
 40
0.7558868958586876
 40
0.8391773211122905
 40
0.924720874291671
 40
0.9999999999999999
 40
0.9999999999999999
 40
0.9999999999999999
 40
0.9999999999999999
 10
-0.9039240121584734
 20
1.029284957423549
 30
0.0
 10
-0.903891039400874
 20
1.029259272098973
 30
0.0
 10
-0.9038244575976729
 20
1.029207405790221
 30
0.0
 10
-0.903214411349556
 20
1.02872279848853
 30
0.0
 10
-0.9020614705013862
 20
1.027763936467196
 30
0.0
 10
-0.9000428735115341
 20
1.025919372195842
 30
0.0
 10
-0.8973469294313566
 20
1.023075157464104
 30
0.0
 10
-0.8942461158008849
 20
1.019002420925552
 30
0.0
 10
-0.8918100795416032
 20
1.014818825104745
 30
0.0
 10
-0.8901076123405461
 20
1.011029014812249
 30
0.0
 10
-0.8888463053894146
 20
1.007576984500936
 30
0.0
 10
-0.8877519775866903
 20
1.003461294490286
 30
0.0
 10
-0.8870064241602037
 20
0.9988578244404884
 30
0.0
 10
-0.8869167800744838
 20
0.9957429784989926
 30
0.0
 10
-0.8868748187762102
 20
0.994284957274538
 30
0.0
  0
LINE
  5
100
330
1F
100
AcDbEntity
  8
0
  6
Continuous
 62
     7
370
    25
100
AcDbLine
 10
-0.9039240122
 20
0.9592849571
 30
0.0
 11
-0.9051027536
 21
0.9607905742
 31
0.0
  0
SPLINE
  5
101
330
1F
100
AcDbEntity
  8
0
  6
Continuous
 62
     7
370
    25
100
AcDbSpline
210
0.0
220
0.0
230
1.0
 70
     8
 71
     3
 72
    18
 73
    14
 74
     0
 42
0.000000001
 43
0.00000001
 40
0.0
 40
0.0
 40
0.0
 40
0.0
 40
0.1052033512746091
 40
0.191077830629783
 40
0.277016371750164
 40
0.3653778048644869
 40
0.4537965296368289
 40
0.5609302853751761
 40
0.6680711394414136
 40
0.7596637297149639
 40
0.8511035830129482
 40
0.925604528578958
 40
0.9999999999999999
 40
0.9999999999999999
 40
0.9999999999999999
 40
0.9999999999999999
 10
-0.8868748187762102
 20
0.994284957274538
 30
0.0
 10
-0.8869553292921338
 20
0.9922451493622333
 30
0.0
 10
-0.8871015582338845
 20
0.988540304734544
 30
0.0
 10
-0.88814871652707
 20
0.983412176036875
 30
0.0
 10
-0.8895309469225582
 20
0.9789060472621047
 30
0.0
 10
-0.8913130841447662
 20
0.974763824253337
 30
0.0
 10
-0.8935121046215279
 20
0.9707670063910967
 30
0.0
 10
-0.8960681277710868
 20
0.967097838734319
 30
0.0
 10
-0.8986696287758636
 20
0.9640542072886813
 30
0.0
 10
-0.9009703415364799
 20
0.9617780051558624
 30
0.0
 10
-0.9026445529009063
 20
0.960310539677941
 30
0.0
 10
-0.9037134945988144
 20
0.9594458784400013
 30
0.0
 10
-0.9038538727852753
 20
0.9593385722260899
 30
0.0
 10
-0.9039240121584734
 20
0.959284957125526
 30
0.0
  0
LINE
  5
102
330
1F
100
AcDbEntity
  8
0
  6
Continuous
 62
     7
370
    25
100
AcDbLine
 10
-0.8868748188
 20
1.0000980637
 30
0.0
 11
-0.8868748188
 21
0.9872849571
 31
0.0
  0
LINE
  5
103
330
1F
100
AcDbEntity
  8
0
  6
Continuous
 62
     7
370
    25
100
AcDbLine
 10
-0.8868748188
 20
1.0012849575
 30
0.0
 11
-0.8868748188
 21
1.0000980637
 31
0.0
  0
LINE
  5
104
330
1F
100
AcDbEntity
  8
0
  6
Continuous
 62
     7
370
    25
100
AcDbLine
 10
-0.8864947796
 20
1.0000980637
 30
0.0
 11
-0.8864947796
 21
0.9872849571
 31
0.0
  0
LINE
  5
105
330
1F
100
AcDbEntity
  8
0
  6
Continuous
 62
     7
370
    25
100
AcDbLine
 10
-0.8864947796
 20
1.0012849575
 30
0.0
 11
-0.8864947796
 21
1.0000980637
 31
0.0
  0
LINE
  5
106
330
1F
100
AcDbEntity
  8
0
  6
Continuous
 62
     7
370
    25
100
AcDbLine
 10
-0.8824748039
 20
0.9971915105
 30
0.0
 11
-0.8824748039
 21
0.9907849572
 31
0.0
  0
LINE
  5
107
330
1F
100
AcDbEntity
  8
0
  6
Continuous
 62
     7
370
    25
100
AcDbLine
 10
-0.8824748039
 20
0.9977849574
 30
0.0
 11
-0.8824748039
 21
0.9971915105
 31
0.0
  0
LINE
  5
108
330
1F
100
AcDbEntity
  8
0
  6
Continuous
 62
     7
370
    25
100
AcDbLine
 10
1.0178452343
 20
0.9872849571
 30
0.0
 11
1.0178452343
 21
1.0012849575
 31
0.0
  0
LINE
  5
109
330
1F
100
AcDbEntity
  8
0
  6
Continuous
 62
     7
370
    25
100
AcDbLine
 10
1.0182252363
 20
0.9872849571
 30
0.0
 11
1.0182252363
 21
1.0012849575
 31
0.0
  0
LINE
  5
10A
330
1F
100
AcDbEntity
  8
0
  6
Continuous
 62
     7
370
    25
100
AcDbLine
 10
1.0138252363
 20
0.9907849572
 30
0.0
 11
1.0138252363
 21
0.9977849574
 31
0.0
  0
LWPOLYLINE
  5
10B
330
1F
100
AcDbEntity
  8
0
  6
Continuous
 62
     7
370
    25
100
AcDbPolyline
 90
       20
 70
   128
 43
0.0
 10
1.8939990759
 20
0.6427723762
 10
1.8932727933
 20
0.6424871679
 10
1.8926461697
 20
0.6418549415
 10
1.8921870351
 20
0.6409442421
 10
1.8919450999
 20
0.6398537155
 10
1.8919467092
 20
0.6387015577
 10
1.8921916247
 20
0.6376126107
 10
1.8926532626
 20
0.6367048915
 10
1.8932816744
 20
0.6360767778
 10
1.8940086723
 20
0.6357963081
 10
1.8947555781
 20
0.6358938809
 10
1.8954413891
 20
0.6363589462
 10
1.8959917784
 20
0.6371410783
 10
1.8963471413
 20
0.6381555494
 10
1.8964689732
 20
0.6392923888
 10
1.8963440419
 20
0.6404284235
 10
1.8959858775
 20
0.64144057
 10
1.8954332829
 20
0.642219096
 10
1.8947462201
 20
0.6426796611
 10
1.8939990759
 20
0.6427723762
  0
LWPOLYLINE
  5
10C
330
1F
100
AcDbEntity
  8
0
  6
Continuous
 62
     7
370
    25
100
AcDbPolyline
 90
       17
 70
   128
 43
0.0
 10
1.890753305
 20
0.6462598141
 10
1.8897531986
 20
0.6459529992
 10
1.8888226509
 20
0.6453118321
 10
1.8880082131
 20
0.6443684693
 10
1.8873507738
 20
0.6431701776
 10
1.8868832946
 20
0.641777068
 10
1.8866292
 20
0.6402589973
 10
1.8866012454
 20
0.6386920806
 10
1.8868008614
 20
0.6371549066
 10
1.8872179747
 20
0.6357245144
 10
1.8878317237
 20
0.6344726976
 10
1.8886113525
 20
0.6334621605
 10
1.8895176411
 20
0.6327435967
 10
1.8905052901
 20
0.632353067
 10
1.8915247083
 20
0.6323101219
 10
1.892524755
 20
0.632616907
 10
1.8925662995
 20
0.6326376196
  0
LWPOLYLINE
  5
10D
330
1F
100
AcDbEntity
  8
0
  6
Continuous
 62
     7
370
    25
100
AcDbPolyline
 90
        3
 70
   128
 43
0.0
 10
1.8925662995
 20
0.6459322866
 10
1.8917727232
 20
0.646216869
 10
1.890753305
 20
0.6462598141
  0
LWPOLYLINE
  5
10E
330
1F
100
AcDbEntity
  8
0
  6
Continuous
 62
     7
370
    25
100
AcDbPolyline
 90
       16
 70
   128
 43
0.0
 10
1.890850401
 20
0.6462849673
 10
1.8904646993
 20
0.6462598141
 10
1.8894646526
 20
0.6459529992
 10
1.8885340452
 20
0.6453118321
 10
1.8877196074
 20
0.6443684693
 10
1.8870621681
 20
0.6431701776
 10
1.8865946889
 20
0.641777068
 10
1.8863405943
 20
0.6402589973
 10
1.8863126397
 20
0.6386920806
 10
1.8865122557
 20
0.6371549066
 10
1.8869294286
 20
0.6357245144
 10
1.8875431776
 20
0.6344726976
 10
1.8883227468
 20
0.6334621605
 10
1.889229095
 20
0.6327435967
 10
1.8902166844
 20
0.632353067
 10
1.890850401
 20
0.6322849687
  0
LINE
  5
10F
330
1F
100
AcDbEntity
  8
0
  6
Continuous
 62
     7
370
    25
100
AcDbLine
 10
1.8923205495
 20
0.6390404698
 30
0.0
 11
1.8931184769
 21
0.6416537162
 31
0.0
  0
LINE
  5
110
330
1F
100
AcDbEntity
  8
0
  6
Continuous
 62
     7
370
    25
100
AcDbLine
 10
1.8933940292
 20
0.6366716918
 30
0.0
 11
1.8923205495
 21
0.6390404698
 31
0.0
  0
LINE
  5
111
330
1F
100
AcDbEntity
  8
0
  6
Continuous
 62
     7
370
    25
100
AcDbLine
 10
1.895265317
 20
0.63691619
 30
0.0
 11
1.8933940292
 21
0.6366716918
 31
0.0
  0
LINE
  5
112
330
1F
100
AcDbEntity
  8
0
  6
Continuous
 62
     7
370
    25
100
AcDbLine
 10
1.8960632444
 20
0.6395294663
 30
0.0
 11
1.895265317
 21
0.63691619
 31
0.0
  0
LINE
  5
113
330
1F
100
AcDbEntity
  8
0
  6
Continuous
 62
     7
370
    25
100
AcDbLine
 10
1.8949898243
 20
0.6418982144
 30
0.0
 11
1.8960632444
 21
0.6395294663
 31
0.0
  0
LINE
  5
114
330
1F
100
AcDbEntity
  8
0
  6
Continuous
 62
     7
370
    25
100
AcDbLine
 10
1.8931184769
 20
0.6416537162
 30
0.0
 11
1.8949898243
 21
0.6418982144
 31
0.0
  0
LINE
  5
115
330
1F
100
AcDbEntity
  8
0
  6
Continuous
 62
     7
370
    25
100
AcDbLine
 10
1.8932907939
 20
0.63691619
 30
0.0
 11
1.895265317
 21
0.63691619
 31
0.0
  0
LINE
  5
116
330
1F
100
AcDbEntity
  8
0
  6
Continuous
 62
     7
370
    25
100
AcDbLine
 10
1.8932907939
 20
0.63691619
 30
0.0
 11
1.8932836414
 21
0.6369152363
 31
0.0
  0
ARC
  5
117
330
1F
100
AcDbEntity
  8
0
  6
Continuous
 62
     7
370
    25
100
AcDbCircle
 10
1.8915689531
 20
0.6398635463
 30
0.0
 40
0.002157637949465
100
AcDbArc
 50
23.2089570599
 51
46.6245976538
  0
ARC
  5
118
330
1F
100
AcDbEntity
  8
0
  6
Continuous
 62
     7
370
    25
100
AcDbCircle
 10
1.8901974751
 20
0.6392789406
 30
0.0
 40
0.003648513466129
100
AcDbArc
 50
343.1739000615
 51
23.1589565388
  0
ARC
  5
119
330
1F
100
AcDbEntity
  8
0
  6
Continuous
 62
     7
370
    25
100
AcDbCircle
 10
1.891292111
 20
0.6388951564
 30
0.0
 40
0.0024901601613725
100
AcDbArc
 50
317.973904537
 51
344.3357359755
  0
LINE
  5
11A
330
1F
100
AcDbEntity
  8
0
  6
Continuous
 62
     7
370
    25
100
AcDbLine
 10
1.8940887213
 20
0.6395294663
 30
0.0
 11
1.8960632444
 21
0.6395294663
 31
0.0
  0
LINE
  5
11B
330
1F
100
AcDbEntity
  8
0
  6
Continuous
 62
     7
370
    25
100
AcDbLine
 10
1.8935519815
 20
0.6407138404
 30
0.0
 11
1.8940887213
 21
0.6395294663
 31
0.0
  0
LINE
  5
11C
330
1F
100
AcDbEntity
  8
0
  6
Continuous
 62
     7
370
    25
100
AcDbLine
 10
1.8931256891
 20
0.6416546699
 30
0.0
 11
1.8935519815
 21
0.6407138404
 31
0.0
  0
LINE
  5
11D
330
1F
100
AcDbEntity
  8
0
  6
Continuous
 62
     7
370
    25
100
AcDbLine
 10
1.8936897874
 20
0.6382228132
 30
0.0
 11
1.8932907939
 21
0.63691619
 31
0.0
  0
LINE
  5
11E
330
1F
100
AcDbEntity
  8
0
  6
Continuous
 62
     7
370
    25
100
AcDbLine
 10
1.8940887213
 20
0.6395294663
 30
0.0
 11
1.8936897874
 21
0.6382228132
 31
0.0
  0
LWPOLYLINE
  5
11F
330
1F
100
AcDbEntity
  8
0
  6
Continuous
 62
     7
370
    25
100
AcDbPolyline
 90
       20
 70
   128
 43
0.0
 10
1.8939932943
 20
0.5527716275
 10
1.8932675481
 20
0.5524835881
 10
1.8926419378
 20
0.5518489178
 10
1.8921842933
 20
0.5509364005
 10
1.8919442058
 20
0.5498449501
 10
1.8919476629
 20
0.5486927923
 10
1.8921943665
 20
0.5476047989
 10
1.8926575542
 20
0.5466988977
 10
1.8932869792
 20
0.5460732277
 10
1.8940144539
 20
0.5457955893
 10
1.8947611809
 20
0.5458961125
 10
1.8954462171
 20
0.5463638302
 10
1.8959953547
 20
0.5471481081
 10
1.896348989
 20
0.5481639501
 10
1.8964689136
 20
0.5493012663
 10
1.8963421345
 20
0.5504368242
 10
1.8959823013
 20
0.55144757
 10
1.8954284549
 20
0.5522239204
 10
1.8947406173
 20
0.5526818331
 10
1.8939932943
 20
0.5527716275
  0
LWPOLYLINE
  5
120
330
1F
100
AcDbEntity
  8
0
  6
Continuous
 62
     7
370
    25
100
AcDbPolyline
 90
       17
 70
   128
 43
0.0
 10
1.8907417417
 20
0.5562582906
 10
1.8897422314
 20
0.5559475716
 10
1.888812697
 20
0.5553027984
 10
1.8879998088
 20
0.5543562468
 10
1.8873443365
 20
0.553155392
 10
1.8868791819
 20
0.5517604645
 10
1.8866275907
 20
0.5502414104
 10
1.8866022587
 20
0.5486743744
 10
1.8868043781
 20
0.5471379753
 10
1.8872238755
 20
0.545709252
 10
1.8878397107
 20
0.5444597896
 10
1.8886209488
 20
0.5434523221
 10
1.8895284891
 20
0.5427373048
 10
1.8905167341
 20
0.5423506197
 10
1.891536212
 20
0.5423116382
 10
1.8925357819
 20
0.5426223274
 10
1.8925662995
 20
0.542637616
  0
LWPOLYLINE
  5
121
330
1F
100
AcDbEntity
  8
0
  6
Continuous
 62
     7
370
    25
100
AcDbPolyline
 90
        3
 70
   128
 43
0.0
 10
1.8925662995
 20
0.555932283
 10
1.8917612195
 20
0.5562193092
 10
1.8907417417
 20
0.5562582906
  0
LWPOLYLINE
  5
122
330
1F
100
AcDbEntity
  8
0
  6
Continuous
 62
     7
370
    25
100
AcDbPolyline
 90
       16
 70
   128
 43
0.0
 10
1.890850401
 20
0.5562849637
 10
1.8904531956
 20
0.5562582906
 10
1.8894536257
 20
0.5559475716
 10
1.8885240913
 20
0.5553027984
 10
1.8877112031
 20
0.5543562468
 10
1.8870557905
 20
0.553155392
 10
1.8865905762
 20
0.5517604645
 10
1.8863390446
 20
0.5502414104
 10
1.886313653
 20
0.5486743744
 10
1.8865157724
 20
0.5471379753
 10
1.8869352699
 20
0.545709252
 10
1.887551105
 20
0.5444597896
 10
1.8883323431
 20
0.5434523221
 10
1.8892398834
 20
0.5427373048
 10
1.8902281881
 20
0.5423506197
 10
1.890850401
 20
0.5422849651
  0
LINE
  5
123
330
1F
100
AcDbEntity
  8
0
  6
Continuous
 62
     7
370
    25
100
AcDbLine
 10
1.8923209667
 20
0.5490331646
 30
0.0
 11
1.8931146026
 21
0.5516495403
 31
0.0
  0
LINE
  5
124
330
1F
100
AcDbEntity
  8
0
  6
Continuous
 62
     7
370
    25
100
AcDbLine
 10
1.8933983207
 20
0.5466685887
 30
0.0
 11
1.8923209667
 21
0.5490331646
 31
0.0
  0
LINE
  5
125
330
1F
100
AcDbEntity
  8
0
  6
Continuous
 62
     7
370
    25
100
AcDbLine
 10
1.8952692509
 20
0.5469203886
 30
0.0
 11
1.8933983207
 21
0.5466685887
 31
0.0
  0
LINE
  5
126
330
1F
100
AcDbEntity
  8
0
  6
Continuous
 62
     7
370
    25
100
AcDbLine
 10
1.8960628271
 20
0.5495367642
 30
0.0
 11
1.8952692509
 21
0.5469203886
 31
0.0
  0
LINE
  5
127
330
1F
100
AcDbEntity
  8
0
  6
Continuous
 62
     7
370
    25
100
AcDbLine
 10
1.8949855328
 20
0.5519013401
 30
0.0
 11
1.8960628271
 21
0.5495367642
 31
0.0
  0
LINE
  5
128
330
1F
100
AcDbEntity
  8
0
  6
Continuous
 62
     7
370
    25
100
AcDbLine
 10
1.8931146026
 20
0.5516495403
 30
0.0
 11
1.8949855328
 21
0.5519013401
 31
0.0
  0
LINE
  5
129
330
1F
100
AcDbEntity
  8
0
  6
Continuous
 62
     7
370
    25
100
AcDbLine
 10
1.8932947278
 20
0.5469203886
 30
0.0
 11
1.8952692509
 21
0.5469203886
 31
0.0
  0
LINE
  5
12A
330
1F
100
AcDbEntity
  8
0
  6
Continuous
 62
     7
370
    25
100
AcDbLine
 10
1.8932947278
 20
0.5469203886
 30
0.0
 11
1.8932842374
 21
0.5469189879
 31
0.0
  0
ARC
  5
12B
330
1F
100
AcDbEntity
  8
0
  6
Continuous
 62
     7
370
    25
100
AcDbCircle
 10
1.891571981
 20
0.5498657728
 30
0.0
 40
0.0021539005879825
100
AcDbArc
 50
23.338052573
 51
46.7046793669
  0
ARC
  5
12C
330
1F
100
AcDbEntity
  8
0
  6
Continuous
 62
     7
370
    25
100
AcDbCircle
 10
1.8901992706
 20
0.5492789277
 30
0.0
 40
0.0036467858371192
100
AcDbArc
 50
343.2602355413
 51
23.2598867671
  0
ARC
  5
12D
330
1F
100
AcDbEntity
  8
0
  6
Continuous
 62
     7
370
    25
100
AcDbCircle
 10
1.8912848061
 20
0.5488994209
 30
0.0
 40
0.0024984604498317
100
AcDbArc
 50
318.0476853674
 51
344.4244300251
  0
LINE
  5
12E
330
1F
100
AcDbEntity
  8
0
  6
Continuous
 62
     7
370
    25
100
AcDbLine
 10
1.8940883041
 20
0.5495367642
 30
0.0
 11
1.8960628271
 21
0.5495367642
 31
0.0
  0
LINE
  5
12F
330
1F
100
AcDbEntity
  8
0
  6
Continuous
 62
     7
370
    25
100
AcDbLine
 10
1.8935496569
 20
0.5507190522
 30
0.0
 11
1.8940883041
 21
0.5495367642
 31
0.0
  0
LINE
  5
130
330
1F
100
AcDbEntity
  8
0
  6
Continuous
 62
     7
370
    25
100
AcDbLine
 10
1.8931250334
 20
0.551650941
 30
0.0
 11
1.8935496569
 21
0.5507190522
 31
0.0
  0
LINE
  5
131
330
1F
100
AcDbEntity
  8
0
  6
Continuous
 62
     7
370
    25
100
AcDbLine
 10
1.8936915159
 20
0.5482285615
 30
0.0
 11
1.8932947278
 21
0.5469203886
 31
0.0
  0
LINE
  5
132
330
1F
100
AcDbEntity
  8
0
  6
Continuous
 62
     7
370
    25
100
AcDbLine
 10
1.8940883041
 20
0.5495367642
 30
0.0
 11
1.8936915159
 21
0.5482285615
 31
0.0
  0
LINE
  5
133
330
1F
100
AcDbEntity
  8
0
  6
Continuous
 62
     7
370
    25
100
AcDbLine
 10
1.8715681196
 20
0.5483877059
 30
0.0
 11
1.8715681196
 21
0.6401821967
 31
0.0
  0
SPLINE
  5
134
330
1F
100
AcDbEntity
  8
0
  6
Continuous
 62
     7
370
    25
100
AcDbSpline
210
0.0
220
0.0
230
1.0
 70
     8
 71
     3
 72
    15
 73
    11
 74
     0
 42
0.000000001
 43
0.00000001
 40
0.0
 40
0.0
 40
0.0
 40
0.0
 40
0.1067431571085955
 40
0.2135027916250222
 40
0.3526474619199096
 40
0.4918726017457943
 40
0.6325771006907807
 40
0.7733163689808793
 40
0.8866691647751277
 40
1.0
 40
1.0
 40
1.0
 40
1.0
 10
1.890851712252537
 20
0.6542849536982589
 30
0.0
 10
1.890169900567931
 20
0.6542479607760179
 30
0.0
 10
1.888806171950854
 20
0.6541739692211233
 30
0.0
 10
1.88637986093633
 20
0.6535371410854902
 30
0.0
 10
1.883645845606334
 20
0.652374391591525
 30
0.0
 10
1.880668629674331
 20
0.6505603389236472
 30
0.0
 10
1.877784534879324
 20
0.648245918360759
 30
0.0
 10
1.875280160560864
 20
0.6456623719887518
 30
0.0
 10
1.87317190439726
 20
0.6429647115352333
 30
0.0
 10
1.872102679972169
 20
0.6411096417542845
 30
0.0
 10
1.871568119551579
 20
0.6401821967211776
 30
0.0
  0
SPLINE
  5
135
330
1F
100
AcDbEntity
  8
0
  6
Continuous
 62
     7
370
    25
100
AcDbSpline
210
0.0
220
0.0
230
1.0
 70
     8
 71
     3
 72
    14
 73
    10
 74
     0
 42
0.000000001
 43
0.00000001
 40
0.0
 40
0.0
 40
0.0
 40
0.0
 40
0.1065096227291275
 40
0.2130418618302353
 40
0.3723112924842242
 40
0.5315281404882561
 40
0.6897145611714909
 40
0.8477785342787191
 40
0.9999999999999999
 40
0.9999999999999999
 40
0.9999999999999999
 40
0.9999999999999999
 10
1.900844490553776
 20
0.6401821967211776
 30
0.0
 10
1.900745759721933
 20
0.641054398631123
 30
0.0
 10
1.900548277093633
 20
0.6427989876553393
 30
0.0
 10
1.900019906901332
 20
0.6455559525285461
 30
0.0
 10
1.899163135169611
 20
0.6483499901771055
 30
0.0
 10
1.897790312026054
 20
0.6509276037153422
 30
0.0
 10
1.895926454486081
 20
0.6528317755140478
 30
0.0
 10
1.893641833737073
 20
0.6540594913598026
 30
0.0
 10
1.89177000423421
 20
0.6542107489517197
 30
0.0
 10
1.890851712252537
 20
0.6542849536982589
 30
0.0
  0
LINE
  5
136
330
1F
100
AcDbEntity
  8
0
  6
Continuous
 62
     7
370
    25
100
AcDbLine
 10
1.9008444906
 20
0.5483877059
 30
0.0
 11
1.9008444906
 21
0.5774349567
 31
0.0
  0
LINE
  5
137
330
1F
100
AcDbEntity
  8
0
  6
Continuous
 62
     7
370
    25
100
AcDbLine
 10
1.9008444906
 20
0.611134946
 30
0.0
 11
1.9008444906
 21
0.6401821967
 31
0.0
  0
SPLINE
  5
138
330
1F
100
AcDbEntity
  8
0
  6
Continuous
 62
     7
370
    25
100
AcDbSpline
210
0.0
220
0.0
230
1.0
 70
     8
 71
     3
 72
    15
 73
    11
 74
     0
 42
0.000000001
 43
0.00000001
 40
0.0
 40
0.0
 40
0.0
 40
0.0
 40
0.1067295896682726
 40
0.2134707569822639
 40
0.352549176919953
 40
0.4917080263548985
 40
0.6324050347002804
 40
0.773134858552667
 40
0.8865782757621338
 40
1.0
 40
1.0
 40
1.0
 40
1.0
 10
1.890846705462376
 20
0.5342849489298873
 30
0.0
 10
1.891496668565932
 20
0.5343218870973994
 30
0.0
 10
1.892796665278725
 20
0.5343957674393445
 30
0.0
 10
1.894684226046958
 20
0.5350318164272455
 30
0.0
 10
1.89645322624048
 20
0.5361936927063529
 30
0.0
 10
1.89800017093754
 20
0.5380065883478213
 30
0.0
 10
1.899182256286375
 20
0.540319850539188
 30
0.0
 10
1.899987982675907
 20
0.5429037996988126
 30
0.0
 10
1.900526793990126
 20
0.5456026907488754
 30
0.0
 10
1.90073859845018
 20
0.5474594267016473
 30
0.0
 10
1.900844490553776
 20
0.5483877059069686
 30
0.0
  0
SPLINE
  5
139
330
1F
100
AcDbEntity
  8
0
  6
Continuous
 62
     7
370
    25
100
AcDbSpline
210
0.0
220
0.0
230
1.0
 70
     8
 71
     3
 72
    14
 73
    10
 74
     0
 42
0.000000001
 43
0.00000001
 40
0.0
 40
0.0
 40
0.0
 40
0.0
 40
0.1064183823592219
 40
0.2128553058722556
 40
0.3723282604700712
 40
0.5317427646794981
 40
0.6898543609881865
 40
0.8478365314593138
 40
0.9999999999999999
 40
0.9999999999999999
 40
0.9999999999999999
 40
0.9999999999999999
 10
1.871568119551579
 20
0.5483877059069686
 30
0.0
 10
1.872067932983929
 20
0.5475162948692989
 30
0.0
 10
1.873067646930556
 20
0.545773320969005
 30
0.0
 10
1.875176145373185
 20
0.5430162919088
 30
0.0
 10
1.877868181531885
 20
0.5402200388925522
 30
0.0
 10
1.881160470109317
 20
0.5376416810436311
 30
0.0
 10
1.884545941832771
 20
0.5357383972863486
 30
0.0
 10
1.887865253361261
 20
0.5345106073124448
 30
0.0
 10
1.889865396451625
 20
0.5343592216656701
 30
0.0
 10
1.890846705462376
 20
0.5342849489298873
 30
0.0
  0
SPLINE
  5
13A
330
1F
100
AcDbEntity
  8
0
  6
Continuous
 62
     7
370
    25
100
AcDbSpline
210
0.0
220
0.0
230
1.0
 70
     8
 71
     3
 72
    15
 73
    11
 74
     0
 42
0.000000001
 43
0.00000001
 40
0.0
 40
0.0
 40
0.0
 40
0.0
 40
0.109708310192419
 40
0.2208691464250729
 40
0.3789110035903432
 40
0.5416200526178491
 40
0.6711439488956364
 40
0.8042156713547913
 40
0.9011893795393637
 40
0.9999999999999999
 40
0.9999999999999999
 40
0.9999999999999999
 40
0.9999999999999999
 10
1.870591199423711
 20
0.5483877059069686
 30
0.0
 10
1.871057662867869
 20
0.5475151589517724
 30
0.0
 10
1.871996765681222
 20
0.5457585126150273
 30
0.0
 10
1.873961003633817
 20
0.5430116994798306
 30
0.0
 10
1.876481192773914
 20
0.5402018523964593
 30
0.0
 10
1.879379495964506
 20
0.5377763994099591
 30
0.0
 10
1.882226250661137
 20
0.535998564709057
 30
0.0
 10
1.884637250905887
 20
0.5349550984975289
 30
0.0
 10
1.886781325196966
 20
0.5343825373519614
 30
0.0
 10
1.887971474684476
 20
0.5343176812376345
 30
0.0
 10
1.888572132613103
 20
0.5342849489298872
 30
0.0
  0
LINE
  5
13B
330
1F
100
AcDbEntity
  8
0
  6
Continuous
 62
     7
370
    25
100
AcDbLine
 10
1.8715681196
 20
0.5483877059
 30
0.0
 11
1.8705911994
 21
0.5483877059
 31
0.0
  0
LINE
  5
13C
330
1F
100
AcDbEntity
  8
0
  6
Continuous
 62
     7
370
    25
100
AcDbLine
 10
1.890850401
 20
0.5342849489
 30
0.0
 11
1.8885721326
 21
0.5342849489
 31
0.0
  0
SPLINE
  5
13D
330
1F
100
AcDbEntity
  8
0
  6
Continuous
 62
     7
370
    25
100
AcDbSpline
210
0.0
220
0.0
230
1.0
 70
     8
 71
     3
 72
    15
 73
    11
 74
     0
 42
0.000000001
 43
0.00000001
 40
0.0
 40
0.0
 40
0.0
 40
0.0
 40
0.1112028124324124
 40
0.2224285614576463
 40
0.3333245313001625
 40
0.4442649756491305
 40
0.5773458517418544
 40
0.7104876165325912
 40
0.8552518239962069
 40
1.0
 40
1.0
 40
1.0
 40
1.0
 10
1.888572132613103
 20
0.6542849536982589
 30
0.0
 10
1.887893725699407
 20
0.6542427452003976
 30
0.0
 10
1.886536771944413
 20
0.6541583194987877
 30
0.0
 10
1.884344735983646
 20
0.6535039530705853
 30
0.0
 10
1.882111770844483
 20
0.6524847077668101
 30
0.0
 10
1.879737578792817
 20
0.6510209231435389
 30
0.0
 10
1.87728740467846
 20
0.6490755480066774
 30
0.0
 10
1.874798185207233
 20
0.6465582265921541
 30
0.0
 10
1.872472692737456
 20
0.6436168091495593
 30
0.0
 10
1.871218340708794
 20
0.6413270252658043
 30
0.0
 10
1.870591199423711
 20
0.6401821967211776
 30
0.0
  0
LINE
  5
13E
330
1F
100
AcDbEntity
  8
0
  6
Continuous
 62
     7
370
    25
100
AcDbLine
 10
1.890850401
 20
0.6542849537
 30
0.0
 11
1.8885721326
 21
0.6542849537
 31
0.0
  0
LINE
  5
13F
330
1F
100
AcDbEntity
  8
0
  6
Continuous
 62
     7
370
    25
100
AcDbLine
 10
1.8715681196
 20
0.6401821967
 30
0.0
 11
1.8705911994
 21
0.6401821967
 31
0.0
  0
LINE
  5
140
330
1F
100
AcDbEntity
  8
0
  6
Continuous
 62
     7
370
    25
100
AcDbLine
 10
1.8705911994
 20
0.5483877059
 30
0.0
 11
1.8705911994
 21
0.6401821967
 31
0.0
  0
ARC
  5
141
330
1F
100
AcDbEntity
  8
0
  6
Continuous
 62
     7
370
    25
100
AcDbCircle
 10
2.3656752348
 20
0.5942849573
 30
0.0
 40
0.01685
100
AcDbArc
 50
270.0
 51
90.0
  0
LWPOLYLINE
  5
142
330
1F
100
AcDbEntity
  8
0
  6
Continuous
 62
     7
370
    25
100
AcDbPolyline
 90
       12
 70
   128
 43
0.0
 10
2.214413023
 20
0.5942849513
 10
2.2145298481
 20
0.5967383381
 10
2.21487782
 20
0.5991394218
 10
2.2154495478
 20
0.6014370617
 10
2.2162327528
 20
0.6035822328
 10
2.217210865
 20
0.6055292781
 10
2.2183630228
 20
0.6072366532
 10
2.2196646691
 20
0.6086679991
 10
2.2210879088
 20
0.6097927984
 10
2.222602582
 20
0.6105870601
 10
2.224176383
 20
0.6110338863
 10
2.2253753901
 20
0.611134946
  0
LWPOLYLINE
  5
143
330
1F
100
AcDbEntity
  8
0
  6
Continuous
 62
     7
370
    25
100
AcDbPolyline
 90
       12
 70
   128
 43
0.0
 10
2.2253753901
 20
0.5774349567
 10
2.224176383
 20
0.5775360461
 10
2.222602582
 20
0.5779828425
 10
2.2210879088
 20
0.578777134
 10
2.2196646691
 20
0.5799019035
 10
2.2183630228
 20
0.5813332494
 10
2.217210865
 20
0.5830406245
 10
2.2162327528
 20
0.5849876698
 10
2.2154495478
 20
0.5871328708
 10
2.21487782
 20
0.5894304808
 10
2.2145298481
 20
0.5918315645
 10
2.214413023
 20
0.5942849513
  0
LWPOLYLINE
  5
144
330
1F
100
AcDbEntity
  8
0
  6
Continuous
 62
     7
370
    25
100
AcDbPolyline
 90
       24
 70
   128
 43
0.0
 10
2.2253753901
 20
0.611134946
 10
2.2249749661
 20
0.6111237105
 10
2.2233842373
 20
0.6108546551
 10
2.2218358279
 20
0.610232472
 10
2.2203628779
 20
0.6092703637
 10
2.2189968586
 20
0.6079888936
 10
2.2177666188
 20
0.606415331
 10
2.2166987419
 20
0.6045832332
 10
2.2158156395
 20
0.6025316413
 10
2.215136385
 20
0.6003043052
 10
2.2146752835
 20
0.59794867
 10
2.2144422293
 20
0.595514923
 10
2.2144422293
 20
0.5930549797
 10
2.2146752835
 20
0.5906212624
 10
2.215136385
 20
0.5882656272
 10
2.2158156395
 20
0.5860382613
 10
2.2166987419
 20
0.5839866694
 10
2.2177666188
 20
0.5821545716
 10
2.2189968586
 20
0.5805810388
 10
2.2203628779
 20
0.579299539
 10
2.2218358279
 20
0.5783374604
 10
2.2233842373
 20
0.5777152475
 10
2.2249749661
 20
0.5774461921
 10
2.2253753901
 20
0.5774349567
  0
LINE
  5
145
330
1F
100
AcDbEntity
  8
0
  6
Continuous
 62
     7
370
    25
100
AcDbLine
 10
1.7266352535
 20
-1.2981461588
 30
0.0
 11
1.7266352535
 21
-1.3133861128
 31
0.0
  0
LINE
  5
146
330
1F
100
AcDbEntity
  8
0
  6
Continuous
 62
     7
370
    25
100
AcDbLine
 10
1.2047152281
 20
-1.3133861128
 30
0.0
 11
1.2047152281
 21
-1.2981461588
 31
0.0
  0
LINE
  5
147
330
1F
100
AcDbEntity
  8
0
  6
Continuous
 62
     7
370
    25
100
AcDbLine
 10
1.7266352535
 20
-0.0713738505
 30
0.0
 11
1.7266352535
 21
-0.0866138045
 31
0.0
  0
LINE
  5
148
330
1F
100
AcDbEntity
  8
0
  6
Continuous
 62
     7
370
    25
100
AcDbLine
 10
1.7266352535
 20
-0.5193212334
 30
0.0
 11
1.7266352535
 21
-0.5345613066
 31
0.0
  0
LINE
  5
149
330
1F
100
AcDbEntity
  8
0
  6
Continuous
 62
     7
370
    25
100
AcDbLine
 10
1.7266352535
 20
-1.0130194727
 30
0.0
 11
1.7266352535
 21
-1.0282596651
 31
0.0
  0
LINE
  5
14A
330
1F
100
AcDbEntity
  8
0
  6
Continuous
 62
     7
370
    25
100
AcDbLine
 10
1.2047152281
 20
-1.0282596651
 30
0.0
 11
1.2047152281
 21
-1.0130194727
 31
0.0
  0
LINE
  5
14B
330
1F
100
AcDbEntity
  8
0
  6
Continuous
 62
     7
370
    25
100
AcDbLine
 10
1.2047152281
 20
-0.5345613066
 30
0.0
 11
1.2047152281
 21
-0.5193212334
 31
0.0
  0
LINE
  5
14C
330
1F
100
AcDbEntity
  8
0
  6
Continuous
 62
     7
370
    25
100
AcDbLine
 10
1.2047152281
 20
-0.0866138045
 30
0.0
 11
1.2047152281
 21
-0.0713738505
 31
0.0
  0
LINE
  5
14D
330
1F
100
AcDbEntity
  8
0
  6
Continuous
 62
     7
370
    25
100
AcDbLine
 10
1.2047152281
 20
-0.263926417
 30
0.0
 11
1.2047152281
 21
-0.2486863438
 31
0.0
  0
LINE
  5
14E
330
1F
100
AcDbEntity
  8
0
  6
Continuous
 62
     7
370
    25
100
AcDbLine
 10
1.7266352535
 20
-0.2486863438
 30
0.0
 11
1.7266352535
 21
-0.263926417
 31
0.0
  0
LINE
  5
14F
330
1F
100
AcDbEntity
  8
0
  6
Continuous
 62
     7
370
    25
100
AcDbLine
 10
1.2246752292
 20
-0.1102954451
 30
0.0
 11
1.2056752354
 21
-0.1102954451
 31
0.0
  0
LINE
  5
150
330
1F
100
AcDbEntity
  8
0
  6
Continuous
 62
     7
370
    25
100
AcDbLine
 10
1.2246752292
 20
-0.1102954451
 30
0.0
 11
1.2246752292
 21
0.1774349507
 31
0.0
  0
LINE
  5
151
330
1F
100
AcDbEntity
  8
0
  6
Continuous
 62
     7
370
    25
100
AcDbLine
 10
1.2056752354
 20
-0.1102954451
 30
0.0
 11
1.2056752354
 21
0.1774349507
 31
0.0
  0
LINE
  5
152
330
1F
100
AcDbEntity
  8
0
  6
Continuous
 62
     7
370
    25
100
AcDbLine
 10
1.2246752292
 20
0.2117849287
 30
0.0
 11
1.2056752354
 21
0.2117849287
 31
0.0
  0
LINE
  5
153
330
1F
100
AcDbEntity
  8
0
  6
Continuous
 62
     7
370
    25
100
AcDbLine
 10
1.2246752292
 20
0.2117849287
 30
0.0
 11
1.2246752292
 21
0.21113494
 31
0.0
  0
LINE
  5
154
330
1F
100
AcDbEntity
  8
0
  6
Continuous
 62
     7
370
    25
100
AcDbLine
 10
1.2056752354
 20
0.2117849287
 30
0.0
 11
1.2056752354
 21
0.21113494
 31
0.0
  0
LINE
  5
155
330
1F
100
AcDbEntity
  8
0
  6
Continuous
 62
     7
370
    25
100
AcDbLine
 10
1.2246752292
 20
-0.7060196701
 30
0.0
 11
1.2056752354
 21
-0.7060196701
 31
0.0
  0
LINE
  5
156
330
1F
100
AcDbEntity
  8
0
  6
Continuous
 62
     7
370
    25
100
AcDbLine
 10
1.2246752292
 20
-0.7060196701
 30
0.0
 11
1.2246752292
 21
-0.1102954451
 31
0.0
  0
LINE
  5
157
330
1F
100
AcDbEntity
  8
0
  6
Continuous
 62
     7
370
    25
100
AcDbLine
 10
1.2056752354
 20
-0.7060196701
 30
0.0
 11
1.2056752354
 21
-0.1102954451
 31
0.0
  0
LINE
  5
158
330
1F
100
AcDbEntity
  8
0
  6
Continuous
 62
     7
370
    25
100
AcDbLine
 10
1.2246752292
 20
-1.3825344149
 30
0.0
 11
1.2056752354
 21
-1.3825344149
 31
0.0
  0
LINE
  5
159
330
1F
100
AcDbEntity
  8
0
  6
Continuous
 62
     7
370
    25
100
AcDbLine
 10
1.2246752292
 20
-0.7060196701
 30
0.0
 11
1.2246752292
 21
-1.3825344149
 31
0.0
  0
LINE
  5
15A
330
1F
100
AcDbEntity
  8
0
  6
Continuous
 62
     7
370
    25
100
AcDbLine
 10
1.2056752354
 20
-0.7060196701
 30
0.0
 11
1.2056752354
 21
-1.3825344149
 31
0.0
  0
LINE
  5
15B
330
1F
100
AcDbEntity
  8
0
  6
Continuous
 62
     7
370
    25
100
AcDbLine
 10
1.2246752292
 20
-1.3825344149
 30
0.0
 11
1.2246752292
 21
-1.4633518759
 31
0.0
  0
LINE
  5
15C
330
1F
100
AcDbEntity
  8
0
  6
Continuous
 62
     7
370
    25
100
AcDbLine
 10
1.2056752354
 20
-1.3825344149
 30
0.0
 11
1.2056752354
 21
-1.4633518759
 31
0.0
  0
LINE
  5
15D
330
1F
100
AcDbEntity
  8
0
  6
Continuous
 62
     7
370
    25
100
AcDbLine
 10
1.725675261
 20
0.2117849287
 30
0.0
 11
1.7066752076
 21
0.2117849287
 31
0.0
  0
LINE
  5
15E
330
1F
100
AcDbEntity
  8
0
  6
Continuous
 62
     7
370
    25
100
AcDbLine
 10
1.725675261
 20
-0.1102954451
 30
0.0
 11
1.7066752076
 21
-0.1102954451
 31
0.0
  0
LINE
  5
15F
330
1F
100
AcDbEntity
  8
0
  6
Continuous
 62
     7
370
    25
100
AcDbLine
 10
1.725675261
 20
-0.1102954451
 30
0.0
 11
1.725675261
 21
0.1774349507
 31
0.0
  0
LINE
  5
160
330
1F
100
AcDbEntity
  8
0
  6
Continuous
 62
     7
370
    25
100
AcDbLine
 10
1.725675261
 20
0.21113494
 30
0.0
 11
1.725675261
 21
0.2117849287
 31
0.0
  0
LINE
  5
161
330
1F
100
AcDbEntity
  8
0
  6
Continuous
 62
     7
370
    25
100
AcDbLine
 10
1.7066752076
 20
-0.1102954451
 30
0.0
 11
1.7066752076
 21
0.1774349507
 31
0.0
  0
LINE
  5
162
330
1F
100
AcDbEntity
  8
0
  6
Continuous
 62
     7
370
    25
100
AcDbLine
 10
1.7066752076
 20
0.21113494
 30
0.0
 11
1.7066752076
 21
0.2117849287
 31
0.0
  0
LINE
  5
163
330
1F
100
AcDbEntity
  8
0
  6
Continuous
 62
     7
370
    25
100
AcDbLine
 10
1.725675261
 20
-0.7060196701
 30
0.0
 11
1.7066752076
 21
-0.7060196701
 31
0.0
  0
LINE
  5
164
330
1F
100
AcDbEntity
  8
0
  6
Continuous
 62
     7
370
    25
100
AcDbLine
 10
1.725675261
 20
-0.7060196701
 30
0.0
 11
1.725675261
 21
-0.1102954451
 31
0.0
  0
LINE
  5
165
330
1F
100
AcDbEntity
  8
0
  6
Continuous
 62
     7
370
    25
100
AcDbLine
 10
1.7066752076
 20
-0.7060196701
 30
0.0
 11
1.7066752076
 21
-0.1102954451
 31
0.0
  0
LINE
  5
166
330
1F
100
AcDbEntity
  8
0
  6
Continuous
 62
     7
370
    25
100
AcDbLine
 10
1.725675261
 20
-1.3825344149
 30
0.0
 11
1.7066752076
 21
-1.3825344149
 31
0.0
  0
LINE
  5
167
330
1F
100
AcDbEntity
  8
0
  6
Continuous
 62
     7
370
    25
100
AcDbLine
 10
1.725675261
 20
-0.7060196701
 30
0.0
 11
1.725675261
 21
-1.3825344149
 31
0.0
  0
LINE
  5
168
330
1F
100
AcDbEntity
  8
0
  6
Continuous
 62
     7
370
    25
100
AcDbLine
 10
1.7066752076
 20
-0.7060196701
 30
0.0
 11
1.7066752076
 21
-1.3825344149
 31
0.0
  0
LINE
  5
169
330
1F
100
AcDbEntity
  8
0
  6
Continuous
 62
     7
370
    25
100
AcDbLine
 10
1.725675261
 20
-1.3825344149
 30
0.0
 11
1.725675261
 21
-1.4633518759
 31
0.0
  0
LINE
  5
16A
330
1F
100
AcDbEntity
  8
0
  6
Continuous
 62
     7
370
    25
100
AcDbLine
 10
1.7066752076
 20
-1.3825344149
 30
0.0
 11
1.7066752076
 21
-1.4633518759
 31
0.0
  0
ARC
  5
16B
330
1F
100
AcDbEntity
  8
0
  6
Continuous
 62
     7
370
    25
100
AcDbCircle
 10
1.7576752348
 20
0.1797849573
 30
0.0
 40
0.0030000000000002
100
AcDbArc
 50
270.0
 51
308.4332063409
  0
LINE
  5
16C
330
1F
100
AcDbEntity
  8
0
  6
Continuous
 62
     7
370
    25
100
AcDbLine
 10
1.7576752067
 20
0.176784962
 30
0.0
 11
1.7286752224
 21
0.176784962
 31
0.0
  0
ARC
  5
16D
330
1F
100
AcDbEntity
  8
0
  6
Continuous
 62
     7
370
    25
100
AcDbCircle
 10
1.7286752348
 20
0.1797849573
 30
0.0
 40
0.0030000000000002
100
AcDbArc
 50
231.5667936591
 51
270.0
  0
LINE
  5
16E
330
1F
100
AcDbEntity
  8
0
  6
Continuous
 62
     7
370
    25
100
AcDbLine
 10
1.7268104315
 20
0.1774349507
 30
0.0
 11
1.7595400572
 21
0.1774349507
 31
0.0
  0
ARC
  5
16F
330
1F
100
AcDbEntity
  8
0
  6
Continuous
 62
     7
370
    25
100
AcDbCircle
 10
1.7286752348
 20
0.2087849573
 30
0.0
 40
0.0030000000000002
100
AcDbArc
 50
90.0
 51
128.4332063409
  0
LINE
  5
170
330
1F
100
AcDbEntity
  8
0
  6
Continuous
 62
     7
370
    25
100
AcDbLine
 10
1.7286752224
 20
0.2117849287
 30
0.0
 11
1.7576752067
 21
0.2117849287
 31
0.0
  0
LINE
  5
171
330
1F
100
AcDbEntity
  8
0
  6
Continuous
 62
     7
370
    25
100
AcDbLine
 10
1.7595400572
 20
0.21113494
 30
0.0
 11
1.7268104315
 21
0.21113494
 31
0.0
  0
ARC
  5
172
330
1F
100
AcDbEntity
  8
0
  6
Continuous
 62
     7
370
    25
100
AcDbCircle
 10
1.7576752348
 20
0.2087849573
 30
0.0
 40
0.0030000000000002
100
AcDbArc
 50
51.5667936591
 51
90.0
  0
LINE
  5
173
330
1F
100
AcDbEntity
  8
0
  6
Continuous
 62
     7
370
    25
100
AcDbLine
 10
1.1718104318
 20
0.1774349507
 30
0.0
 11
1.2045400352
 21
0.1774349507
 31
0.0
  0
LINE
  5
174
330
1F
100
AcDbEntity
  8
0
  6
Continuous
 62
     7
370
    25
100
AcDbLine
 10
1.2045400352
 20
0.21113494
 30
0.0
 11
1.1718104318
 21
0.21113494
 31
0.0
  0
ARC
  5
175
330
1F
100
AcDbEntity
  8
0
  6
Continuous
 62
     7
370
    25
100
AcDbCircle
 10
1.1736752348
 20
0.2087849573
 30
0.0
 40
0.003
100
AcDbArc
 50
90.0
 51
128.4332063408
  0
LINE
  5
176
330
1F
100
AcDbEntity
  8
0
  6
Continuous
 62
     7
370
    25
100
AcDbLine
 10
1.1736752376
 20
0.2117849287
 30
0.0
 11
1.2026752293
 21
0.2117849287
 31
0.0
  0
ARC
  5
177
330
1F
100
AcDbEntity
  8
0
  6
Continuous
 62
     7
370
    25
100
AcDbCircle
 10
1.2026752348
 20
0.2087849573
 30
0.0
 40
0.003
100
AcDbArc
 50
51.5667936592
 51
90.0
  0
ARC
  5
178
330
1F
100
AcDbEntity
  8
0
  6
Continuous
 62
     7
370
    25
100
AcDbCircle
 10
1.1736752348
 20
0.1797849573
 30
0.0
 40
0.003
100
AcDbArc
 50
231.5667936592
 51
270.0
  0
LINE
  5
179
330
1F
100
AcDbEntity
  8
0
  6
Continuous
 62
     7
370
    25
100
AcDbLine
 10
1.2026752293
 20
0.176784962
 30
0.0
 11
1.1736752376
 21
0.176784962
 31
0.0
  0
ARC
  5
17A
330
1F
100
AcDbEntity
  8
0
  6
Continuous
 62
     7
370
    25
100
AcDbCircle
 10
1.2026752348
 20
0.1797849573
 30
0.0
 40
0.003
100
AcDbArc
 50
270.0
 51
308.4332063408
  0
LINE
  5
17B
330
1F
100
AcDbEntity
  8
0
  6
Continuous
 62
     7
370
    25
100
AcDbLine
 10
1.1151252337
 20
1.0111349575
 30
0.0
 11
1.1151252337
 21
1.0237349566
 31
0.0
  0
ARC
  5
17C
330
1F
100
AcDbEntity
  8
0
  6
Continuous
 62
     7
370
    25
100
AcDbCircle
 10
1.1301252348
 20
1.0237349573
 30
0.0
 40
0.0149999999999999
100
AcDbArc
 50
90.0
 51
180.0
  0
LINE
  5
17D
330
1F
100
AcDbEntity
  8
0
  6
Continuous
 62
     7
370
    25
100
AcDbLine
 10
1.130125238
 20
1.0387349572
 30
0.0
 11
1.8012252212
 21
1.0387349572
 31
0.0
  0
ARC
  5
17E
330
1F
100
AcDbEntity
  8
0
  6
Continuous
 62
     7
370
    25
100
AcDbCircle
 10
1.8012252348
 20
1.0237349573
 30
0.0
 40
0.0150000000000001
100
AcDbArc
 50
359.9999999994
 51
90.0
  0
LINE
  5
17F
330
1F
100
AcDbEntity
  8
0
  6
Continuous
 62
     7
370
    25
100
AcDbLine
 10
1.8162252069
 20
1.0111349575
 30
0.0
 11
1.8162252069
 21
1.0237349566
 31
0.0
  0
ARC
  5
180
330
1F
100
AcDbEntity
  8
0
  6
Continuous
 62
     7
370
    25
100
AcDbCircle
 10
1.8656752348
 20
0.9942849573
 30
0.0
 40
0.0494500000000002
100
AcDbArc
 50
199.9224668649
 51
232.4316961271
  0
ARC
  5
181
330
1F
100
AcDbEntity
  8
0
  6
Continuous
 62
     7
370
    25
100
AcDbCircle
 10
1.8951252348
 20
0.9298349573
 30
0.0
 40
0.0150000000000001
100
AcDbArc
 50
0.0
 51
87.3252255129
  0
LINE
  5
182
330
1F
100
AcDbEntity
  8
0
  6
Continuous
 62
     7
370
    25
100
AcDbLine
 10
1.9101252318
 20
0.9298349541
 30
0.0
 11
1.9101252318
 21
0.611134946
 31
0.0
  0
LINE
  5
183
330
1F
100
AcDbEntity
  8
0
  6
Continuous
 62
     7
370
    25
100
AcDbLine
 10
1.9101252318
 20
0.5774349567
 30
0.0
 11
1.9101252318
 21
0.2587349709
 31
0.0
  0
ARC
  5
184
330
1F
100
AcDbEntity
  8
0
  6
Continuous
 62
     7
370
    25
100
AcDbCircle
 10
1.8951252348
 20
0.2587349573
 30
0.0
 40
0.0150000000000001
100
AcDbArc
 50
272.6747744871
 51
0.0
  0
ARC
  5
185
330
1F
100
AcDbEntity
  8
0
  6
Continuous
 62
     7
370
    25
100
AcDbCircle
 10
1.8656752348
 20
0.1942849573
 30
0.0
 40
0.0494500000000003
100
AcDbArc
 50
127.5683038729
 51
160.0775331351
  0
ARC
  5
186
330
1F
100
AcDbEntity
  8
0
  6
Continuous
 62
     7
370
    25
100
AcDbCircle
 10
1.1301252348
 20
0.1648349573
 30
0.0
 40
0.0150000000000001
100
AcDbArc
 50
180.0
 51
270.0
  0
ARC
  5
187
330
1F
100
AcDbEntity
  8
0
  6
Continuous
 62
     7
370
    25
100
AcDbCircle
 10
1.0362252348
 20
0.9298349573
 30
0.0
 40
0.0150000000000001
100
AcDbArc
 50
90.0
 51
180.0
  0
LINE
  5
188
330
1F
100
AcDbEntity
  8
0
  6
Continuous
 62
     7
370
    25
100
AcDbLine
 10
1.0488252346
 20
0.9448349584
 30
0.0
 11
1.0362252355
 21
0.9448349584
 31
0.0
  0
ARC
  5
189
330
1F
100
AcDbEntity
  8
0
  6
Continuous
 62
     7
370
    25
100
AcDbCircle
 10
1.0656752348
 20
0.9942849573
 30
0.0
 40
0.04945
100
AcDbArc
 50
289.9224668649
 51
340.0775331351
  0
ARC
  5
18A
330
1F
100
AcDbEntity
  8
0
  6
Continuous
 62
     7
370
    25
100
AcDbCircle
 10
1.0656752348
 20
0.1942849573
 30
0.0
 40
0.0494499999999999
100
AcDbArc
 50
19.9224668649
 51
70.0775331351
  0
LINE
  5
18B
330
1F
100
AcDbEntity
  8
0
  6
Continuous
 62
     7
370
    25
100
AcDbLine
 10
1.1151252337
 20
0.1774349507
 30
0.0
 11
1.1151252337
 21
0.164834946
 31
0.0
  0
LINE
  5
18C
330
1F
100
AcDbEntity
  8
0
  6
Continuous
 62
     7
370
    25
100
AcDbLine
 10
1.0212252349
 20
0.9298349541
 30
0.0
 11
1.0212252349
 21
0.2587349709
 31
0.0
  0
LINE
  5
18D
330
1F
100
AcDbEntity
  8
0
  6
Continuous
 62
     7
370
    25
100
AcDbLine
 10
1.8162252069
 20
0.1774349507
 30
0.0
 11
1.8162252069
 21
0.164834946
 31
0.0
  0
ARC
  5
18E
330
1F
100
AcDbEntity
  8
0
  6
Continuous
 62
     7
370
    25
100
AcDbCircle
 10
1.8012252348
 20
0.1648349573
 30
0.0
 40
0.0150000000000001
100
AcDbArc
 50
270.0
 51
0.0000000006
  0
ARC
  5
18F
330
1F
100
AcDbEntity
  8
0
  6
Continuous
 62
     7
370
    25
100
AcDbCircle
 10
1.0362252348
 20
0.2587349573
 30
0.0
 40
0.0150000000000001
100
AcDbArc
 50
180.0
 51
270.0
  0
LINE
  5
190
330
1F
100
AcDbEntity
  8
0
  6
Continuous
 62
     7
370
    25
100
AcDbLine
 10
1.0488252346
 20
0.2437349852
 30
0.0
 11
1.0362252355
 21
0.2437349852
 31
0.0
  0
LINE
  5
191
330
1F
100
AcDbEntity
  8
0
  6
Continuous
 62
     7
370
    25
100
AcDbLine
 10
1.130125238
 20
0.1498349603
 30
0.0
 11
1.2056752354
 21
0.1498349603
 31
0.0
  0
LINE
  5
192
330
1F
100
AcDbEntity
  8
0
  6
Continuous
 62
     7
370
    25
100
AcDbLine
 10
1.2246752292
 20
0.1498349603
 30
0.0
 11
1.7066752076
 21
0.1498349603
 31
0.0
  0
LINE
  5
193
330
1F
100
AcDbEntity
  8
0
  6
Continuous
 62
     7
370
    25
100
AcDbLine
 10
1.725675261
 20
0.1498349603
 30
0.0
 11
1.8012252212
 21
0.1498349603
 31
0.0
  0
CIRCLE
  5
194
330
1F
100
AcDbEntity
  8
0
  6
Continuous
 62
     7
370
    25
100
AcDbCircle
 10
1.0656752348
 20
0.9942849573
 30
0.0
 40
0.0444499999999999
  0
CIRCLE
  5
195
330
1F
100
AcDbEntity
  8
0
  6
Continuous
 62
     7
370
    25
100
AcDbCircle
 10
1.0656752348
 20
0.1942849573
 30
0.0
 40
0.04445
  0
CIRCLE
  5
196
330
1F
100
AcDbEntity
  8
0
  6
Continuous
 62
     7
370
    25
100
AcDbCircle
 10
1.8656752348
 20
0.9942849573
 30
0.0
 40
0.0444499999999999
  0
CIRCLE
  5
197
330
1F
100
AcDbEntity
  8
0
  6
Continuous
 62
     7
370
    25
100
AcDbCircle
 10
1.8656752348
 20
0.1942849573
 30
0.0
 40
0.04445
  0
LINE
  5
198
330
1F
100
AcDbEntity
  8
0
  6
Continuous
 62
     7
370
    25
100
AcDbLine
 10
1.8248150707
 20
0.9767849572
 30
0.0
 11
1.8194253207
 21
0.9767849572
 31
0.0
  0
LINE
  5
199
330
1F
100
AcDbEntity
  8
0
  6
Continuous
 62
     7
370
    25
100
AcDbLine
 10
1.1119251274
 20
0.9767849572
 30
0.0
 11
1.1065353923
 21
0.9767849572
 31
0.0
  0
LINE
  5
19A
330
1F
100
AcDbEntity
  8
0
  6
Continuous
 62
     7
370
    25
100
AcDbLine
 10
1.8248150707
 20
1.0117849573
 30
0.0
 11
1.8162252069
 21
1.0117849573
 31
0.0
  0
LINE
  5
19B
330
1F
100
AcDbEntity
  8
0
  6
Continuous
 62
     7
370
    25
100
AcDbLine
 10
1.1151252337
 20
1.0117849573
 30
0.0
 11
1.1065353923
 21
1.0117849573
 31
0.0
  0
LINE
  5
19C
330
1F
100
AcDbEntity
  8
0
  6
Continuous
 62
     7
370
    25
100
AcDbLine
 10
1.0481752347
 20
0.9534247998
 30
0.0
 11
1.0481752347
 21
0.9448349584
 31
0.0
  0
LINE
  5
19D
330
1F
100
AcDbEntity
  8
0
  6
Continuous
 62
     7
370
    25
100
AcDbLine
 10
1.0481752347
 20
0.2437349852
 30
0.0
 11
1.0481752347
 21
0.2351451214
 31
0.0
  0
LINE
  5
19E
330
1F
100
AcDbEntity
  8
0
  6
Continuous
 62
     7
370
    25
100
AcDbLine
 10
1.0831752349
 20
0.9534247998
 30
0.0
 11
1.0831752349
 21
0.9480350647
 31
0.0
  0
LINE
  5
19F
330
1F
100
AcDbEntity
  8
0
  6
Continuous
 62
     7
370
    25
100
AcDbLine
 10
1.0831752349
 20
0.2405348714
 30
0.0
 11
1.0831752349
 21
0.2351451214
 31
0.0
  0
LINE
  5
1A0
330
1F
100
AcDbEntity
  8
0
  6
Continuous
 62
     7
370
    25
100
AcDbLine
 10
1.1065353923
 20
0.2117849287
 30
0.0
 11
1.1119251274
 21
0.2117849287
 31
0.0
  0
LINE
  5
1A1
330
1F
100
AcDbEntity
  8
0
  6
Continuous
 62
     7
370
    25
100
AcDbLine
 10
1.8194253207
 20
0.2117849287
 30
0.0
 11
1.8248150707
 21
0.2117849287
 31
0.0
  0
LINE
  5
1A2
330
1F
100
AcDbEntity
  8
0
  6
Continuous
 62
     7
370
    25
100
AcDbLine
 10
1.1065353923
 20
0.176784962
 30
0.0
 11
1.1151252337
 21
0.176784962
 31
0.0
  0
LINE
  5
1A3
330
1F
100
AcDbEntity
  8
0
  6
Continuous
 62
     7
370
    25
100
AcDbLine
 10
1.8162252069
 20
0.176784962
 30
0.0
 11
1.8248150707
 21
0.176784962
 31
0.0
  0
SPLINE
  5
1A4
330
1F
100
AcDbEntity
  8
0
  6
Continuous
 62
     7
370
    25
100
AcDbSpline
210
0.0
220
0.0
230
1.0
 70
    11
 71
     3
 72
    23
 73
    19
 74
     0
 42
0.000000001
 43
0.00000001
 40
0.0
 40
0.0
 40
0.0
 40
0.0
 40
0.0625952066247915
 40
0.1249355498433352
 40
0.1871829251221508
 40
0.2499353710682802
 40
0.3121827463470953
 40
0.3749351922932238
 40
0.4371825675720365
 40
0.4999350135181689
 40
0.5621823887969823
 40
0.6249348347431133
 40
0.6871822100219303
 40
0.7499346559680587
 40
0.8121820312468736
 40
0.8749344771930022
 40
0.9375922823807428
 40
1.0
 40
1.0
 40
1.0
 40
1.0
 10
1.065675234820286
 20
0.9945349572745377
 30
0.0
 10
1.06564227363315
 20
0.9945348291359648
 30
0.0
 10
1.065576601440983
 20
0.994522926261451
 30
0.0
 10
1.065494350482533
 20
0.9944659416318662
 30
0.0
 10
1.065436945277138
 20
0.9943838089159034
 30
0.0
 10
1.065419412535247
 20
0.9942852247806508
 30
0.0
 10
1.065436814133265
 20
0.9941863652507388
 30
0.0
 10
1.065494158882316
 20
0.9941042513002953
 30
0.0
 10
1.065576359172327
 20
0.9940466537016834
 30
0.0
 10
1.065674973691158
 20
0.994029138695868
 30
0.0
 10
1.065773825192472
 20
0.9940465357033776
 30
0.0
 10
1.065855940982245
 20
0.9941038811404319
 30
0.0
 10
1.065913539276823
 20
0.9941860832781737
 30
0.0
 10
1.065931049650038
 20
0.9942846896931039
 30
0.0
 10
1.065913670414788
 20
0.9943835716535236
 30
0.0
 10
1.065856132438577
 20
0.9944657530397134
 30
0.0
 10
1.065774069639751
 20
0.9945237167374126
 30
0.0
 10
1.065708097280051
 20
0.994535085029302
 30
0.0
 10
1.065675234820286
 20
0.9945349572745377
 30
0.0
  0
SPLINE
  5
1A5
330
1F
100
AcDbEntity
  8
0
  6
Continuous
 62
     7
370
    25
100
AcDbSpline
210
0.0
220
0.0
230
1.0
 70
    11
 71
     3
 72
    38
 73
    34
 74
     0
 42
0.000000001
 43
0.00000001
 40
0.0
 40
0.0
 40
0.0
 40
0.0
 40
0.0625
 40
0.0625
 40
0.125
 40
0.125
 40
0.1875
 40
0.1875
 40
0.25
 40
0.25
 40
0.3125
 40
0.3125
 40
0.375
 40
0.375
 40
0.4375
 40
0.4375
 40
0.5
 40
0.5
 40
0.5625
 40
0.5625
 40
0.625
 40
0.625
 40
0.6875
 40
0.6875
 40
0.75
 40
0.75
 40
0.8125
 40
0.8125
 40
0.875
 40
0.875
 40
0.9375
 40
0.9375
 40
1.0
 40
1.0
 40
1.0
 40
1.0
 10
1.065675234820286
 20
1.038534957274537
 30
0.0
 10
1.059882938811382
 20
1.038534957274537
 30
0.0
 10
1.054092876667005
 20
1.037383242306124
 30
0.0
 10
1.043390109209257
 20
1.0329500108702
 30
0.0
 10
1.038481531539318
 20
1.029670204128579
 30
0.0
 10
1.030289987966245
 20
1.021478660555506
 30
0.0
 10
1.027010181224624
 20
1.016570082885567
 30
0.0
 10
1.0225769497887
 20
1.005867315427819
 30
0.0
 10
1.021425234820286
 20
1.000077253283442
 30
0.0
 10
1.021425234820286
 20
0.9884926612656328
 30
0.0
 10
1.0225769497887
 20
0.9827025991212561
 30
0.0
 10
1.027010181224624
 20
0.9719998316635086
 30
0.0
 10
1.030289987966245
 20
0.967091253993569
 30
0.0
 10
1.038481531539318
 20
0.9588997104204966
 30
0.0
 10
1.043390109209257
 20
0.9556199036788753
 30
0.0
 10
1.054092876667005
 20
0.951186672242951
 30
0.0
 10
1.059882938811382
 20
0.9500349572745375
 30
0.0
 10
1.071467530829191
 20
0.9500349572745375
 30
0.0
 10
1.077257592973568
 20
0.9511866722429507
 30
0.0
 10
1.087960360431315
 20
0.9556199036788753
 30
0.0
 10
1.092868938101255
 20
0.9588997104204964
 30
0.0
 10
1.101060481674327
 20
0.967091253993569
 30
0.0
 10
1.104340288415949
 20
0.9719998316635083
 30
0.0
 10
1.108773519851873
 20
0.9827025991212561
 30
0.0
 10
1.109925234820286
 20
0.9884926612656328
 30
0.0
 10
1.109925234820286
 20
1.000077253283442
 30
0.0
 10
1.108773519851873
 20
1.005867315427819
 30
0.0
 10
1.104340288415949
 20
1.016570082885567
 30
0.0
 10
1.101060481674327
 20
1.021478660555506
 30
0.0
 10
1.092868938101255
 20
1.029670204128578
 30
0.0
 10
1.087960360431315
 20
1.0329500108702
 30
0.0
 10
1.077257592973568
 20
1.037383242306124
 30
0.0
 10
1.071467530829191
 20
1.038534957274537
 30
0.0
 10
1.065675234820286
 20
1.038534957274537
 30
0.0
  0
SPLINE
  5
1A6
330
1F
100
AcDbEntity
  8
0
  6
Continuous
 62
     7
370
    25
100
AcDbSpline
210
0.0
220
0.0
230
1.0
 70
    11
 71
     3
 72
    23
 73
    19
 74
     0
 42
0.000000001
 43
0.00000001
 40
0.0
 40
0.0
 40
0.0
 40
0.0
 40
0.0625952066247718
 40
0.1249355498433274
 40
0.1871829251221563
 40
0.2499353710682914
 40
0.312182746349966
 40
0.37493519229371
 40
0.4371825675751411
 40
0.4999350135182419
 40
0.5621823887998504
 40
0.6249348347435121
 40
0.6871822100244043
 40
0.7499346559680954
 40
0.8121820312472607
 40
0.8749344771931123
 40
0.9375922823809872
 40
0.9999999999999999
 40
0.9999999999999999
 40
0.9999999999999999
 40
0.9999999999999999
 10
1.065675234820286
 20
0.1945349572745375
 30
0.0
 10
1.06564227363315
 20
0.1945348291359648
 30
0.0
 10
1.065576601440983
 20
0.1945229262614509
 30
0.0
 10
1.065494350482533
 20
0.194465941631866
 30
0.0
 10
1.065436945277138
 20
0.1943838089159035
 30
0.0
 10
1.065419412535247
 20
0.1942852247806494
 30
0.0
 10
1.065436814133263
 20
0.1941863652507361
 30
0.0
 10
1.065494158882318
 20
0.1941042513002932
 30
0.0
 10
1.065576359172329
 20
0.1940466537016846
 30
0.0
 10
1.065674973691161
 20
0.1940291386958677
 30
0.0
 10
1.065773825192474
 20
0.1940465357033764
 30
0.0
 10
1.065855940982247
 20
0.1941038811404337
 30
0.0
 10
1.065913539276822
 20
0.1941860832781758
 30
0.0
 10
1.065931049650038
 20
0.1942846896931054
 30
0.0
 10
1.065913670414788
 20
0.1943835716535234
 30
0.0
 10
1.065856132438577
 20
0.1944657530397139
 30
0.0
 10
1.065774069639751
 20
0.1945237167374121
 30
0.0
 10
1.065708097280051
 20
0.1945350850293018
 30
0.0
 10
1.065675234820286
 20
0.1945349572745375
 30
0.0
  0
SPLINE
  5
1A7
330
1F
100
AcDbEntity
  8
0
  6
Continuous
 62
     7
370
    25
100
AcDbSpline
210
0.0
220
0.0
230
1.0
 70
    11
 71
     3
 72
    38
 73
    34
 74
     0
 42
0.000000001
 43
0.00000001
 40
0.0
 40
0.0
 40
0.0
 40
0.0
 40
0.0625
 40
0.0625
 40
0.125
 40
0.125
 40
0.1875
 40
0.1875
 40
0.25
 40
0.25
 40
0.3125
 40
0.3125
 40
0.375
 40
0.375
 40
0.4375
 40
0.4375
 40
0.5
 40
0.5
 40
0.5625
 40
0.5625
 40
0.625
 40
0.625
 40
0.6875
 40
0.6875
 40
0.75
 40
0.75
 40
0.8125
 40
0.8125
 40
0.875
 40
0.875
 40
0.9375
 40
0.9375
 40
1.0
 40
1.0
 40
1.0
 40
1.0
 10
1.065675234820286
 20
0.2385349572745374
 30
0.0
 10
1.059882938811382
 20
0.2385349572745376
 30
0.0
 10
1.054092876666994
 20
0.2373832423061192
 30
0.0
 10
1.043390109209274
 20
0.232950010870207
 30
0.0
 10
1.038481531539354
 20
0.2296702041286136
 30
0.0
 10
1.030289987966218
 20
0.2214786605554802
 30
0.0
 10
1.027010181224536
 20
0.2165700828853557
 30
0.0
 10
1.022576949788785
 20
0.2058673154280242
 30
0.0
 10
1.021425234820286
 20
0.2000772532837227
 30
0.0
 10
1.021425234820286
 20
0.1884926612653523
 30
0.0
 10
1.022576949788784
 20
0.1827025991210531
 30
0.0
 10
1.027010181224537
 20
0.1719998316637181
 30
0.0
 10
1.030289987966218
 20
0.1670912539935952
 30
0.0
 10
1.038481531539354
 20
0.158899710420461
 30
0.0
 10
1.043390109209274
 20
0.1556199036788683
 30
0.0
 10
1.054092876666993
 20
0.151186672242956
 30
0.0
 10
1.059882938811382
 20
0.1500349572745373
 30
0.0
 10
1.071467530829191
 20
0.1500349572745376
 30
0.0
 10
1.077257592973579
 20
0.1511866722429557
 30
0.0
 10
1.0879603604313
 20
0.1556199036788685
 30
0.0
 10
1.092868938101218
 20
0.1588997104204607
 30
0.0
 10
1.101060481674355
 20
0.1670912539935952
 30
0.0
 10
1.104340288416036
 20
0.171999831663718
 30
0.0
 10
1.108773519851789
 20
0.182702599121053
 30
0.0
 10
1.109925234820286
 20
0.1884926612653524
 30
0.0
 10
1.109925234820286
 20
0.2000772532837229
 30
0.0
 10
1.108773519851788
 20
0.2058673154280237
 30
0.0
 10
1.104340288416036
 20
0.2165700828853555
 30
0.0
 10
1.101060481674355
 20
0.2214786605554795
 30
0.0
 10
1.092868938101218
 20
0.2296702041286138
 30
0.0
 10
1.0879603604313
 20
0.2329500108702062
 30
0.0
 10
1.077257592973579
 20
0.2373832423061193
 30
0.0
 10
1.071467530829191
 20
0.2385349572745373
 30
0.0
 10
1.065675234820286
 20
0.2385349572745374
 30
0.0
  0
SPLINE
  5
1A8
330
1F
100
AcDbEntity
  8
0
  6
Continuous
 62
     7
370
    25
100
AcDbSpline
210
0.0
220
0.0
230
1.0
 70
    11
 71
     3
 72
    23
 73
    19
 74
     0
 42
0.000000001
 43
0.00000001
 40
0.0
 40
0.0
 40
0.0
 40
0.0
 40
0.0625952066302144
 40
0.1249355498441531
 40
0.1871829251311748
 40
0.2499353710688984
 40
0.3121827463513666
 40
0.3749351922933027
 40
0.4371825675692276
 40
0.499935013517679
 40
0.5621823887918236
 40
0.6249348347427807
 40
0.6871822100166508
 40
0.7499346559675435
 40
0.8121820312442
 40
0.8749344771930412
 40
0.9375922823811008
 40
1.0
 40
1.0
 40
1.0
 40
1.0
 10
1.865675234820286
 20
0.1945349572745374
 30
0.0
 10
1.865642273633147
 20
0.1945348291359653
 30
0.0
 10
1.865576601440978
 20
0.1945229262614546
 30
0.0
 10
1.865494350482528
 20
0.1944659416318609
 30
0.0
 10
1.865436945277137
 20
0.1943838089158983
 30
0.0
 10
1.865419412535246
 20
0.1942852247806441
 30
0.0
 10
1.865436814133269
 20
0.1941863652507381
 30
0.0
 10
1.865494158882316
 20
0.194104251300294
 30
0.0
 10
1.865576359172327
 20
0.1940466537016872
 30
0.0
 10
1.865674973691154
 20
0.1940291386958673
 30
0.0
 10
1.865773825192469
 20
0.194046535703376
 30
0.0
 10
1.865855940982241
 20
0.1941038811404284
 30
0.0
 10
1.865913539276821
 20
0.1941860832781714
 30
0.0
 10
1.865931049650037
 20
0.1942846896931001
 30
0.0
 10
1.865913670414792
 20
0.1943835716535237
 30
0.0
 10
1.865856132438578
 20
0.1944657530397123
 30
0.0
 10
1.865774069639751
 20
0.1945237167374128
 30
0.0
 10
1.865708097280051
 20
0.194535085029301
 30
0.0
 10
1.865675234820286
 20
0.1945349572745375
 30
0.0
  0
SPLINE
  5
1A9
330
1F
100
AcDbEntity
  8
0
  6
Continuous
 62
     7
370
    25
100
AcDbSpline
210
0.0
220
0.0
230
1.0
 70
    11
 71
     3
 72
    38
 73
    34
 74
     0
 42
0.000000001
 43
0.00000001
 40
0.0
 40
0.0
 40
0.0
 40
0.0
 40
0.0625
 40
0.0625
 40
0.125
 40
0.125
 40
0.1875
 40
0.1875
 40
0.25
 40
0.25
 40
0.3125
 40
0.3125
 40
0.375
 40
0.375
 40
0.4375
 40
0.4375
 40
0.5
 40
0.5
 40
0.5625
 40
0.5625
 40
0.625
 40
0.625
 40
0.6875
 40
0.6875
 40
0.75
 40
0.75
 40
0.8125
 40
0.8125
 40
0.875
 40
0.875
 40
0.9375
 40
0.9375
 40
1.0
 40
1.0
 40
1.0
 40
1.0
 10
1.865675234820286
 20
0.2385349572745376
 30
0.0
 10
1.859882938811099
 20
0.2385349572745378
 30
0.0
 10
1.854092876666789
 20
0.2373832423060343
 30
0.0
 10
1.843390109209484
 20
0.2329500108702946
 30
0.0
 10
1.838481531539381
 20
0.2296702041286415
 30
0.0
 10
1.830289987966182
 20
0.2214786605554435
 30
0.0
 10
1.82701018122453
 20
0.21657008288534
 30
0.0
 10
1.822576949788789
 20
0.2058673154280345
 30
0.0
 10
1.821425234820286
 20
0.2000772532837226
 30
0.0
 10
1.821425234820286
 20
0.1884926612653522
 30
0.0
 10
1.82257694978879
 20
0.1827025991210409
 30
0.0
 10
1.82701018122453
 20
0.1719998316637353
 30
0.0
 10
1.830289987966183
 20
0.1670912539936319
 30
0.0
 10
1.83848153153938
 20
0.1588997104204338
 30
0.0
 10
1.843390109209484
 20
0.155619903678781
 30
0.0
 10
1.85409287666679
 20
0.1511866722430406
 30
0.0
 10
1.859882938811099
 20
0.1500349572745376
 30
0.0
 10
1.871467530829474
 20
0.1500349572745374
 30
0.0
 10
1.877257592973782
 20
0.1511866722430409
 30
0.0
 10
1.88796036043109
 20
0.1556199036787808
 30
0.0
 10
1.892868938101192
 20
0.1588997104204335
 30
0.0
 10
1.90106048167439
 20
0.1670912539936321
 30
0.0
 10
1.904340288416043
 20
0.1719998316637352
 30
0.0
 10
1.908773519851783
 20
0.1827025991210411
 30
0.0
 10
1.909925234820286
 20
0.1884926612653527
 30
0.0
 10
1.909925234820287
 20
0.2000772532837228
 30
0.0
 10
1.908773519851783
 20
0.2058673154280347
 30
0.0
 10
1.904340288416043
 20
0.2165700828853401
 30
0.0
 10
1.90106048167439
 20
0.2214786605554434
 30
0.0
 10
1.892868938101192
 20
0.2296702041286415
 30
0.0
 10
1.887960360431089
 20
0.2329500108702945
 30
0.0
 10
1.877257592973783
 20
0.2373832423060343
 30
0.0
 10
1.871467530829473
 20
0.2385349572745374
 30
0.0
 10
1.865675234820286
 20
0.2385349572745376
 30
0.0
  0
SPLINE
  5
1AA
330
1F
100
AcDbEntity
  8
0
  6
Continuous
 62
     7
370
    25
100
AcDbSpline
210
0.0
220
0.0
230
1.0
 70
    11
 71
     3
 72
    23
 73
    19
 74
     0
 42
0.000000001
 43
0.00000001
 40
0.0
 40
0.0
 40
0.0
 40
0.0
 40
0.0625952066251126
 40
0.1249355498434142
 40
0.1871829251192876
 40
0.2499353710677705
 40
0.3121827463415291
 40
0.3749351922927858
 40
0.4371825675695593
 40
0.4999350135181392
 40
0.5621823887998161
 40
0.6249348347435622
 40
0.6871822100249969
 40
0.7499346559681009
 40
0.8121820312497204
 40
0.8749344771933794
 40
0.9375922823831764
 40
0.9999999999999999
 40
0.9999999999999999
 40
0.9999999999999999
 40
0.9999999999999999
 10
1.865675234820286
 20
0.9945349572745376
 30
0.0
 10
1.86564227363315
 20
0.994534829135965
 30
0.0
 10
1.865576601440983
 20
0.9945229262614508
 30
0.0
 10
1.865494350482534
 20
0.9944659416318675
 30
0.0
 10
1.865436945277141
 20
0.9943838089159034
 30
0.0
 10
1.865419412535247
 20
0.9942852247806548
 30
0.0
 10
1.865436814133263
 20
0.9941863652507412
 30
0.0
 10
1.865494158882314
 20
0.9941042513002984
 30
0.0
 10
1.865576359172325
 20
0.9940466537016814
 30
0.0
 10
1.865674973691159
 20
0.9940291386958688
 30
0.0
 10
1.865773825192474
 20
0.9940465357033754
 30
0.0
 10
1.865855940982247
 20
0.9941038811404341
 30
0.0
 10
1.865913539276822
 20
0.9941860832781761
 30
0.0
 10
1.865931049650038
 20
0.9942846896931068
 30
0.0
 10
1.865913670414789
 20
0.9943835716535259
 30
0.0
 10
1.865856132438576
 20
0.9944657530397154
 30
0.0
 10
1.865774069639749
 20
0.9945237167374108
 30
0.0
 10
1.86570809728005
 20
0.9945350850293013
 30
0.0
 10
1.865675234820286
 20
0.9945349572745374
 30
0.0
  0
SPLINE
  5
1AB
330
1F
100
AcDbEntity
  8
0
  6
Continuous
 62
     7
370
    25
100
AcDbSpline
210
0.0
220
0.0
230
1.0
 70
    11
 71
     3
 72
    38
 73
    34
 74
     0
 42
0.000000001
 43
0.00000001
 40
0.0
 40
0.0
 40
0.0
 40
0.0
 40
0.0625
 40
0.0625
 40
0.1250000000000001
 40
0.1250000000000001
 40
0.1875000000000001
 40
0.1875000000000001
 40
0.2500000000000001
 40
0.2500000000000001
 40
0.3125
 40
0.3125
 40
0.375
 40
0.375
 40
0.4374999999999999
 40
0.4374999999999999
 40
0.4999999999999999
 40
0.4999999999999999
 40
0.5624999999999999
 40
0.5624999999999999
 40
0.6249999999999999
 40
0.6249999999999999
 40
0.6875
 40
0.6875
 40
0.75
 40
0.75
 40
0.8125
 40
0.8125
 40
0.875
 40
0.875
 40
0.9375000000000001
 40
0.9375000000000001
 40
1.0
 40
1.0
 40
1.0
 40
1.0
 10
1.865675234820286
 20
1.038534957274537
 30
0.0
 10
1.859882938811099
 20
1.038534957274537
 30
0.0
 10
1.854092876666801
 20
1.037383242306039
 30
0.0
 10
1.843390109209468
 20
1.032950010870288
 30
0.0
 10
1.838481531539344
 20
1.029670204128606
 30
0.0
 10
1.83028998796621
 20
1.02147866055547
 30
0.0
 10
1.827010181224617
 20
1.016570082885551
 30
0.0
 10
1.822576949788705
 20
1.005867315427831
 30
0.0
 10
1.821425234820286
 20
1.000077253283442
 30
0.0
 10
1.821425234820286
 20
0.9884926612656328
 30
0.0
 10
1.822576949788705
 20
0.9827025991212444
 30
0.0
 10
1.827010181224617
 20
0.9719998316635243
 30
0.0
 10
1.83028998796621
 20
0.9670912539936052
 30
0.0
 10
1.838481531539344
 20
0.9588997104204688
 30
0.0
 10
1.843390109209468
 20
0.9556199036787871
 30
0.0
 10
1.854092876666801
 20
0.951186672243036
 30
0.0
 10
1.859882938811099
 20
0.9500349572745375
 30
0.0
 10
1.871467530829473
 20
0.9500349572745375
 30
0.0
 10
1.877257592973772
 20
0.951186672243036
 30
0.0
 10
1.887960360431104
 20
0.9556199036787871
 30
0.0
 10
1.892868938101228
 20
0.9588997104204688
 30
0.0
 10
1.901060481674362
 20
0.967091253993605
 30
0.0
 10
1.904340288415955
 20
0.9719998316635243
 30
0.0
 10
1.908773519851867
 20
0.9827025991212444
 30
0.0
 10
1.909925234820287
 20
0.9884926612656331
 30
0.0
 10
1.909925234820286
 20
1.000077253283442
 30
0.0
 10
1.908773519851867
 20
1.005867315427831
 30
0.0
 10
1.904340288415955
 20
1.016570082885551
 30
0.0
 10
1.901060481674362
 20
1.02147866055547
 30
0.0
 10
1.892868938101229
 20
1.029670204128606
 30
0.0
 10
1.887960360431105
 20
1.032950010870287
 30
0.0
 10
1.87725759297377
 20
1.03738324230604
 30
0.0
 10
1.871467530829473
 20
1.038534957274537
 30
0.0
 10
1.865675234820286
 20
1.038534957274537
 30
0.0
  0
LINE
  5
1AC
330
1F
100
AcDbEntity
  8
0
  6
Continuous
 62
     8
370
    25
100
AcDbLine
 10
-0.9790747404
 20
0.9842849575
 30
0.0
 11
-0.9790747404
 21
1.0042849571
 31
0.0
  0
LINE
  5
1AD
330
1F
100
AcDbEntity
  8
0
  6
Continuous
 62
     8
370
    25
100
AcDbLine
 10
-0.9796602964
 20
1.0042849571
 30
0.0
 11
-0.9796602964
 21
0.9842849575
 31
0.0
  0
LINE
  5
1AE
330
1F
100
AcDbEntity
  8
0
  6
Continuous
 62
     8
370
    25
100
AcDbLine
 10
-0.9798610449
 20
0.9843621586
 30
0.0
 11
-0.9798610449
 21
1.004207756
 31
0.0
  0
LINE
  5
1AF
330
1F
100
AcDbEntity
  8
0
  6
Continuous
 62
     8
370
    25
100
AcDbLine
 10
1.7066752076
 20
0.0110772546
 30
0.0
 11
1.2246752292
 21
0.0110772546
 31
0.0
  0
LINE
  5
1B0
330
1F
100
AcDbEntity
  8
0
  6
Continuous
 62
     8
370
    25
100
AcDbLine
 10
1.7066752076
 20
-0.0159975592
 30
0.0
 11
1.2246752292
 21
-0.0159975592
 31
0.0
  0
LINE
  5
1B1
330
1F
100
AcDbEntity
  8
0
  6
Continuous
 62
     8
370
    25
100
AcDbLine
 10
1.7066752076
 20
-0.6117217842
 30
0.0
 11
1.2246752292
 21
-0.6117217842
 31
0.0
  0
LINE
  5
1B2
330
1F
100
AcDbEntity
  8
0
  6
Continuous
 62
     8
370
    25
100
AcDbLine
 10
1.7066752076
 20
-1.0330204073
 30
0.0
 11
1.2246752292
 21
-1.0330204073
 31
0.0
  0
LINE
  5
1B3
330
1F
100
AcDbEntity
  8
0
  6
Continuous
 62
     8
370
    25
100
AcDbLine
 10
1.7066752076
 20
-1.3784531657
 30
0.0
 11
1.2246752292
 21
-1.3784531657
 31
0.0
  0
ENDSEC
  0
SECTION
  2
OBJECTS
  0
DICTIONARY
  5
C
330
0
100
AcDbDictionary
281
     1
  3
ACAD_GROUP
350
D
  3
ACAD_LAYOUT
350
1A
  3
ACAD_MLINESTYLE
350
17
  3
ACAD_PLOTSETTINGS
350
19
  3
ACAD_PLOTSTYLENAME
350
E
  3
ACAD_SCALELIST
350
47
  0
DICTIONARY
  5
D
102
{ACAD_REACTORS
330
C
102
}
330
C
100
AcDbDictionary
281
     1
  0
DICTIONARY
  5
1A
102
{ACAD_REACTORS
330
C
102
}
330
C
100
AcDbDictionary
281
     1
  3
Layout1
350
1E
  3
Layout2
350
26
  3
Model
350
22
  0
DICTIONARY
  5
17
102
{ACAD_REACTORS
330
C
102
}
330
C
100
AcDbDictionary
281
     1
  3
Standard
350
18
  0
DICTIONARY
  5
19
102
{ACAD_REACTORS
330
C
102
}
330
C
100
AcDbDictionary
281
     1
  0
ACDBDICTIONARYWDFLT
  5
E
102
{ACAD_REACTORS
330
C
102
}
330
C
100
AcDbDictionary
281
     1
  3
Normal
350
F
100
AcDbDictionaryWithDefault
340
F
  0
DICTIONARY
  5
47
102
{ACAD_REACTORS
330
C
102
}
330
C
100
AcDbDictionary
281
     1
  3
A0
350
48
  3
A1
350
49
  3
A2
350
4A
  3
A3
350
4B
  3
A4
350
4C
  3
A5
350
4D
  3
A6
350
4E
  3
A7
350
4F
  3
A8
350
50
  3
A9
350
51
  3
B0
350
52
  3
B1
350
53
  3
B2
350
54
  3
B3
350
55
  3
B4
350
56
  3
B5
350
57
  3
B6
350
58
  3
B7
350
59
  3
B8
350
5A
  3
B9
350
5B
  3
C0
350
5C
  3
C1
350
5D
  3
C2
350
5E
  3
C3
350
5F
  3
C4
350
60
  3
C5
350
61
  3
C6
350
62
  3
C7
350
63
  3
C8
350
64
  3
C9
350
65
  3
D0
350
66
  3
D1
350
67
  3
D2
350
68
  0
LAYOUT
  5
1E
102
{ACAD_REACTORS
330
1A
102
}
330
1A
100
AcDbPlotSettings
  1

  2
none_device
  4

  6

 40
0.0
 41
0.0
 42
0.0
 43
0.0
 44
0.0
 45
0.0
 46
0.0
 47
0.0
 48
0.0
 49
0.0
140
0.0
141
0.0
142
1.0
143
1.0
 70
   688
 72
     1
 73
     0
 74
     5
  7

 75
    16
147
1.0
148
0.0
149
0.0
100
AcDbLayout
  1
Layout1
 70
     1
 71
     1
 10
0.0
 20
0.0
 11
420.0
 21
297.0
 12
0.0
 22
0.0
 32
0.0
 14
1.0000000000E+20
 24
1.0000000000E+20
 34
1.0000000000E+20
 15
-1.0000000000E+20
 25
-1.0000000000E+20
 35
-1.0000000000E+20
146
0.0
 13
0.0
 23
0.0
 33
0.0
 16
1.0
 26
0.0
 36
0.0
 17
0.0
 27
1.0
 37
0.0
 76
     0
330
1B
  0
LAYOUT
  5
26
102
{ACAD_REACTORS
330
1A
102
}
330
1A
100
AcDbPlotSettings
  1

  2
none_device
  4

  6

 40
0.0
 41
0.0
 42
0.0
 43
0.0
 44
0.0
 45
0.0
 46
0.0
 47
0.0
 48
0.0
 49
0.0
140
0.0
141
0.0
142
1.0
143
1.0
 70
   688
 72
     1
 73
     0
 74
     5
  7

 75
    16
147
1.0
148
0.0
149
0.0
100
AcDbLayout
  1
Layout2
 70
     1
 71
     2
 10
0.0
 20
0.0
 11
0.0
 21
0.0
 12
0.0
 22
0.0
 32
0.0
 14
0.0
 24
0.0
 34
0.0
 15
0.0
 25
0.0
 35
0.0
146
0.0
 13
0.0
 23
0.0
 33
0.0
 16
1.0
 26
0.0
 36
0.0
 17
0.0
 27
1.0
 37
0.0
 76
     0
330
23
  0
LAYOUT
  5
22
102
{ACAD_REACTORS
330
1A
102
}
330
1A
100
AcDbPlotSettings
  1

  2
none_device
  4
Letter_(8.50_x_11.00_Inches)
  6

 40
6.35
 41
6.35
 42
6.35000508
 43
6.35000508
 44
215.9
 45
279.4
 46
0.0
 47
0.0
 48
0.0
 49
0.0
140
0.0
141
0.0
142
1.0
143
1.0
 70
  1712
 72
     1
 73
     0
 74
     0
  7

 75
     0
147
1.0
148
0.0
149
0.0
100
AcDbLayout
  1
Model
 70
     1
 71
     0
 10
0.0
 20
0.0
 11
0.4318
 21
0.2794
 12
0.0
 22
0.0
 32
0.0
 14
0.0
 24
0.0
 34
0.0
 15
0.4318
 25
0.2794
 35
0.0
146
0.0
 13
0.0
 23
0.0
 33
0.0
 16
1.0
 26
0.0
 36
0.0
 17
0.0
 27
1.0
 37
0.0
 76
     0
330
1F
331
29
  0
MLINESTYLE
  5
18
102
{ACAD_REACTORS
330
17
102
}
330
17
100
AcDbMlineStyle
  2
Standard
 70
     0
  3

 62
   256
 51
90.0
 52
90.0
 71
     2
 49
0.5
 62
   256
  6
BYLAYER
 49
-0.5
 62
   256
  6
BYLAYER
  0
ACDBPLACEHOLDER
  5
F
102
{ACAD_REACTORS
330
E
102
}
330
E
  0
SCALE
  5
48
102
{ACAD_REACTORS
330
47
102
}
330
47
100
AcDbScale
 70
     0
300
1:1
140
1.0
141
1.0
290
     1
  0
SCALE
  5
49
102
{ACAD_REACTORS
330
47
102
}
330
47
100
AcDbScale
 70
     0
300
1:2
140
1.0
141
2.0
290
     0
  0
SCALE
  5
4A
102
{ACAD_REACTORS
330
47
102
}
330
47
100
AcDbScale
 70
     0
300
1:4
140
1.0
141
4.0
290
     0
  0
SCALE
  5
4B
102
{ACAD_REACTORS
330
47
102
}
330
47
100
AcDbScale
 70
     0
300
1:5
140
1.0
141
5.0
290
     0
  0
SCALE
  5
4C
102
{ACAD_REACTORS
330
47
102
}
330
47
100
AcDbScale
 70
     0
300
1:8
140
1.0
141
8.0
290
     0
  0
SCALE
  5
4D
102
{ACAD_REACTORS
330
47
102
}
330
47
100
AcDbScale
 70
     0
300
1:10
140
1.0
141
10.0
290
     0
  0
SCALE
  5
4E
102
{ACAD_REACTORS
330
47
102
}
330
47
100
AcDbScale
 70
     0
300
1:16
140
1.0
141
16.0
290
     0
  0
SCALE
  5
4F
102
{ACAD_REACTORS
330
47
102
}
330
47
100
AcDbScale
 70
     0
300
1:20
140
1.0
141
20.0
290
     0
  0
SCALE
  5
50
102
{ACAD_REACTORS
330
47
102
}
330
47
100
AcDbScale
 70
     0
300
1:30
140
1.0
141
30.0
290
     0
  0
SCALE
  5
51
102
{ACAD_REACTORS
330
47
102
}
330
47
100
AcDbScale
 70
     0
300
1:40
140
1.0
141
40.0
290
     0
  0
SCALE
  5
52
102
{ACAD_REACTORS
330
47
102
}
330
47
100
AcDbScale
 70
     0
300
1:50
140
1.0
141
50.0
290
     0
  0
SCALE
  5
53
102
{ACAD_REACTORS
330
47
102
}
330
47
100
AcDbScale
 70
     0
300
1:100
140
1.0
141
100.0
290
     0
  0
SCALE
  5
54
102
{ACAD_REACTORS
330
47
102
}
330
47
100
AcDbScale
 70
     0
300
2:1
140
2.0
141
1.0
290
     0
  0
SCALE
  5
55
102
{ACAD_REACTORS
330
47
102
}
330
47
100
AcDbScale
 70
     0
300
4:1
140
4.0
141
1.0
290
     0
  0
SCALE
  5
56
102
{ACAD_REACTORS
330
47
102
}
330
47
100
AcDbScale
 70
     0
300
8:1
140
8.0
141
1.0
290
     0
  0
SCALE
  5
57
102
{ACAD_REACTORS
330
47
102
}
330
47
100
AcDbScale
 70
     0
300
10:1
140
10.0
141
1.0
290
     0
  0
SCALE
  5
58
102
{ACAD_REACTORS
330
47
102
}
330
47
100
AcDbScale
 70
     0
300
100:1
140
100.0
141
1.0
290
     0
  0
SCALE
  5
59
102
{ACAD_REACTORS
330
47
102
}
330
47
100
AcDbScale
 70
     0
300
1/128" = 1'-0"
140
0.0078125
141
12.0
290
     0
  0
SCALE
  5
5A
102
{ACAD_REACTORS
330
47
102
}
330
47
100
AcDbScale
 70
     0
300
1/64" = 1'-0"
140
0.015625
141
12.0
290
     0
  0
SCALE
  5
5B
102
{ACAD_REACTORS
330
47
102
}
330
47
100
AcDbScale
 70
     0
300
1/32" = 1'-0"
140
0.03125
141
12.0
290
     0
  0
SCALE
  5
5C
102
{ACAD_REACTORS
330
47
102
}
330
47
100
AcDbScale
 70
     0
300
1/16" = 1'-0"
140
0.0625
141
12.0
290
     0
  0
SCALE
  5
5D
102
{ACAD_REACTORS
330
47
102
}
330
47
100
AcDbScale
 70
     0
300
3/32" = 1'-0"
140
0.09375
141
12.0
290
     0
  0
SCALE
  5
5E
102
{ACAD_REACTORS
330
47
102
}
330
47
100
AcDbScale
 70
     0
300
1/8" = 1'-0"
140
0.125
141
12.0
290
     0
  0
SCALE
  5
5F
102
{ACAD_REACTORS
330
47
102
}
330
47
100
AcDbScale
 70
     0
300
3/16" = 1'-0"
140
0.1875
141
12.0
290
     0
  0
SCALE
  5
60
102
{ACAD_REACTORS
330
47
102
}
330
47
100
AcDbScale
 70
     0
300
1/4" = 1'-0"
140
0.25
141
12.0
290
     0
  0
SCALE
  5
61
102
{ACAD_REACTORS
330
47
102
}
330
47
100
AcDbScale
 70
     0
300
3/8" = 1'-0"
140
0.375
141
12.0
290
     0
  0
SCALE
  5
62
102
{ACAD_REACTORS
330
47
102
}
330
47
100
AcDbScale
 70
     0
300
1/2" = 1'-0"
140
0.5
141
12.0
290
     0
  0
SCALE
  5
63
102
{ACAD_REACTORS
330
47
102
}
330
47
100
AcDbScale
 70
     0
300
3/4" = 1'-0"
140
0.75
141
12.0
290
     0
  0
SCALE
  5
64
102
{ACAD_REACTORS
330
47
102
}
330
47
100
AcDbScale
 70
     0
300
1" = 1'-0"
140
1.0
141
12.0
290
     0
  0
SCALE
  5
65
102
{ACAD_REACTORS
330
47
102
}
330
47
100
AcDbScale
 70
     0
300
1-1/2" = 1'-0"
140
1.5
141
12.0
290
     0
  0
SCALE
  5
66
102
{ACAD_REACTORS
330
47
102
}
330
47
100
AcDbScale
 70
     0
300
3" = 1'-0"
140
3.0
141
12.0
290
     0
  0
SCALE
  5
67
102
{ACAD_REACTORS
330
47
102
}
330
47
100
AcDbScale
 70
     0
300
6" = 1'-0"
140
6.0
141
12.0
290
     0
  0
SCALE
  5
68
102
{ACAD_REACTORS
330
47
102
}
330
47
100
AcDbScale
 70
     0
300
1'-0" = 1'-0"
140
12.0
141
12.0
290
     0
  0
ENDSEC
  0
EOF
