  0
SECTION
  2
HEADER
  9
$ACADVER
  1
AC1021
  9
$ACADMAINTVER
 70
    25
  9
$DWGCODEPAGE
  3
ANSI_1250
  9
$INSBASE
 10
0.0
 20
0.0
 30
0.0
  9
$EXTMIN
 10
0.0
 20
0.0
 30
0.0
  9
$EXTMAX
 10
0.21
 20
0.297
 30
0.0
  9
$LIMMIN
 10
0.0
 20
0.0
  9
$LIMMAX
 10
0.21
 20
0.297
  9
$ORTHOMODE
 70
     0
  9
$REGENMODE
 70
     1
  9
$FILLMODE
 70
     1
  9
$QTEXTMODE
 70
     0
  9
$MIRRTEXT
 70
     1
  9
$LTSCALE
 40
1.0
  9
$ATTMODE
 70
     1
  9
$TEXTSIZE
 40
0.0035
  9
$TRACEWID
 40
1.0
  9
$TEXTSTYLE
  7
Standard
  9
$CLAYER
  8
0
  9
$CELTYPE
  6
ByLayer
  9
$CECOLOR
 62
   256
  9
$CELTSCALE
 40
1.0
  9
$DISPSILH
 70
     0
  9
$DIMSCALE
 40
1.0
  9
$DIMASZ
 40
0.003302
  9
$DIMEXO
 40
0.001
  9
$DIMDLI
 40
3.75
  9
$DIMRND
 40
0.0
  9
$DIMDLE
 40
0.0
  9
$DIMEXE
 40
0.001
  9
$DIMTP
 40
0.0
  9
$DIMTM
 40
0.0
  9
$DIMTXT
 40
0.0035
  9
$DIMCEN
 40
2.5
  9
$DIMTSZ
 40
0.0
  9
$DIMTOL
 70
     0
  9
$DIMLIM
 70
     0
  9
$DIMTIH
 70
     1
  9
$DIMTOH
 70
     1
  9
$DIMSE1
 70
     0
  9
$DIMSE2
 70
     0
  9
$DIMTAD
 70
     1
  9
$DIMZIN
 70
     0
  9
$DIMBLK
  1

  9
$DIMASO
 70
     1
  9
$DIMSHO
 70
     1
  9
$DIMPOST
  1

  9
$DIMAPOST
  1

  9
$DIMALT
 70
     0
  9
$DIMALTD
 70
     3
  9
$DIMALTF
 40
39.3700787402
  9
$DIMLFAC
 40
50.0
  9
$DIMTOFL
 70
     1
  9
$DIMTVP
 40
0.0
  9
$DIMTIX
 70
     0
  9
$DIMSOXD
 70
     0
  9
$DIMSAH
 70
     0
  9
$DIMBLK1
  1

  9
$DIMBLK2
  1

  9
$DIMSTYLE
  2
ISO-25
  9
$DIMCLRD
 70
     0
  9
$DIMCLRE
 70
     0
  9
$DIMCLRT
 70
     0
  9
$DIMTFAC
 40
1.0
  9
$DIMGAP
 40
0.001524
  9
$DIMJUST
 70
     0
  9
$DIMSD1
 70
     0
  9
$DIMSD2
 70
     0
  9
$DIMTOLJ
 70
     0
  9
$DIMTZIN
 70
     0
  9
$DIMALTZ
 70
     0
  9
$DIMALTTZ
 70
     0
  9
$DIMUPT
 70
     0
  9
$DIMDEC
 70
     2
  9
$DIMTDEC
 70
     2
  9
$DIMALTU
 70
     2
  9
$DIMALTTD
 70
     3
  9
$DIMTXSTY
  7
Standard
  9
$DIMAUNIT
 70
     0
  9
$DIMADEC
 70
     2
  9
$DIMALTRND
 40
0.0
  9
$DIMAZIN
 70
     0
  9
$DIMDSEP
 70
    44
  9
$DIMATFIT
 70
     3
  9
$DIMFRAC
 70
     0
  9
$DIMLDRBLK
  1

  9
$DIMLUNIT
 70
     2
  9
$DIMLWD
 70
    -2
  9
$DIMLWE
 70
    -2
  9
$DIMTMOVE
 70
     0
  9
$DIMFXL
 40
1.0
  9
$DIMFXLON
 70
     0
  9
$DIMJOGANG
 40
0.7853981634
  9
$DIMTFILL
 70
     0
  9
$DIMTFILLCLR
 70
     0
  9
$DIMARCSYM
 70
     0
  9
$DIMLTYPE
  6

  9
$DIMLTEX1
  6

  9
$DIMLTEX2
  6

  9
$LUNITS
 70
     2
  9
$LUPREC
 70
     2
  9
$SKETCHINC
 40
1.0
  9
$FILLETRAD
 40
10.0
  9
$AUNITS
 70
     0
  9
$AUPREC
 70
     2
  9
$MENU
  1
.
  9
$ELEVATION
 40
0.0
  9
$PELEVATION
 40
0.0
  9
$THICKNESS
 40
0.0
  9
$LIMCHECK
 70
     0
  9
$CHAMFERA
 40
0.0
  9
$CHAMFERB
 40
0.0
  9
$CHAMFERC
 40
0.0
  9
$CHAMFERD
 40
0.0
  9
$SKPOLY
 70
     0
  9
$TDCREATE
 40
2458074.493156921
  9
$TDUCREATE
 40
2458074.451490255
  9
$TDUPDATE
 40
2458074.49315706
  9
$TDUUPDATE
 40
2458074.451490393
  9
$TDINDWG
 40
0.0000000116
  9
$TDUSRTIMER
 40
0.0000000116
  9
$USRTIMER
 70
     1
  9
$ANGBASE
 50
0.0
  9
$ANGDIR
 70
     0
  9
$PDMODE
 70
     0
  9
$PDSIZE
 40
-1.0
  9
$PLINEWID
 40
0.0
  9
$SPLFRAME
 70
     0
  9
$SPLINETYPE
 70
     6
  9
$SPLINESEGS
 70
     8
  9
$HANDSEED
  5
FB
  9
$SURFTAB1
 70
     6
  9
$SURFTAB2
 70
     6
  9
$SURFTYPE
 70
     6
  9
$SURFU
 70
     6
  9
$SURFV
 70
     6
  9
$UCSBASE
  2

  9
$UCSNAME
  2

  9
$UCSORG
 10
0.0
 20
0.0
 30
0.0
  9
$UCSXDIR
 10
1.0
 20
0.0
 30
0.0
  9
$UCSYDIR
 10
0.0
 20
1.0
 30
0.0
  9
$UCSORTHOREF
  2

  9
$UCSORTHOVIEW
 70
     0
  9
$UCSORGTOP
 10
0.0
 20
0.0
 30
0.0
  9
$UCSORGBOTTOM
 10
0.0
 20
0.0
 30
0.0
  9
$UCSORGLEFT
 10
0.0
 20
0.0
 30
0.0
  9
$UCSORGRIGHT
 10
0.0
 20
0.0
 30
0.0
  9
$UCSORGFRONT
 10
0.0
 20
0.0
 30
0.0
  9
$UCSORGBACK
 10
0.0
 20
0.0
 30
0.0
  9
$PUCSBASE
  2

  9
$PUCSNAME
  2

  9
$PUCSORG
 10
0.0
 20
0.0
 30
0.0
  9
$PUCSXDIR
 10
1.0
 20
0.0
 30
0.0
  9
$PUCSYDIR
 10
0.0
 20
1.0
 30
0.0
  9
$PUCSORTHOREF
  2

  9
$PUCSORTHOVIEW
 70
     0
  9
$PUCSORGTOP
 10
0.0
 20
0.0
 30
0.0
  9
$PUCSORGBOTTOM
 10
0.0
 20
0.0
 30
0.0
  9
$PUCSORGLEFT
 10
0.0
 20
0.0
 30
0.0
  9
$PUCSORGRIGHT
 10
0.0
 20
0.0
 30
0.0
  9
$PUCSORGFRONT
 10
0.0
 20
0.0
 30
0.0
  9
$PUCSORGBACK
 10
0.0
 20
0.0
 30
0.0
  9
$USERI1
 70
     0
  9
$USERI2
 70
     0
  9
$USERI3
 70
     0
  9
$USERI4
 70
     0
  9
$USERI5
 70
     0
  9
$USERR1
 40
0.0
  9
$USERR2
 40
0.0
  9
$USERR3
 40
0.0
  9
$USERR4
 40
0.0
  9
$USERR5
 40
0.0
  9
$WORLDVIEW
 70
     1
  9
$SHADEDGE
 70
     3
  9
$SHADEDIF
 70
    70
  9
$TILEMODE
 70
     1
  9
$MAXACTVP
 70
    64
  9
$PINSBASE
 10
0.0
 20
0.0
 30
0.0
  9
$PLIMCHECK
 70
     0
  9
$PEXTMIN
 10
1.0000000000E+20
 20
1.0000000000E+20
 30
1.0000000000E+20
  9
$PEXTMAX
 10
-1.0000000000E+20
 20
-1.0000000000E+20
 30
-1.0000000000E+20
  9
$PLIMMIN
 10
0.0
 20
0.0
  9
$PLIMMAX
 10
420.0
 20
297.0
  9
$UNITMODE
 70
     0
  9
$VISRETAIN
 70
     1
  9
$PLINEGEN
 70
     0
  9
$PSLTSCALE
 70
     1
  9
$TREEDEPTH
 70
  3020
  9
$CMLSTYLE
  2
Standard
  9
$CMLJUST
 70
     0
  9
$CMLSCALE
 40
20.0
  9
$PROXYGRAPHICS
 70
     1
  9
$MEASUREMENT
 70
     1
  9
$CELWEIGHT
370
    -1
  9
$ENDCAPS
280
     0
  9
$JOINSTYLE
280
     0
  9
$LWDISPLAY
290
     1
  9
$INSUNITS
 70
     4
  9
$HYPERLINKBASE
  1

  9
$STYLESHEET
  1

  9
$XEDIT
290
     1
  9
$CEPSNTYPE
380
     0
  9
$PSTYLEMODE
290
     1
  9
$FINGERPRINTGUID
  2
{8EDACFEC-4A31-45B1-AAE3-1809D1A33E3A}
  9
$VERSIONGUID
  2
{FAEB1C32-E019-11D5-929B-00C0DF256EC4}
  9
$EXTNAMES
290
     1
  9
$PSVPSCALE
 40
0.0
  9
$OLESTARTUP
290
     0
  9
$SORTENTS
280
   127
  9
$INDEXCTL
280
     0
  9
$HIDETEXT
280
     1
  9
$XCLIPFRAME
290
     0
  9
$HALOGAP
280
     0
  9
$OBSCOLOR
 70
   257
  9
$OBSLTYPE
280
     0
  9
$INTERSECTIONDISPLAY
280
     0
  9
$INTERSECTIONCOLOR
 70
   257
  9
$DIMASSOC
280
     2
  9
$PROJECTNAME
  1

  9
$CAMERADISPLAY
290
     0
  9
$LENSLENGTH
 40
50.0
  9
$CAMERAHEIGHT
 40
0.0
  9
$STEPSPERSEC
 40
2.0
  9
$STEPSIZE
 40
6.0
  9
$3DDWFPREC
 40
2.0
  9
$PSOLWIDTH
 40
5.0
  9
$PSOLHEIGHT
 40
80.0
  9
$LOFTANG1
 40
1.5707963268
  9
$LOFTANG2
 40
1.5707963268
  9
$LOFTMAG1
 40
0.0
  9
$LOFTMAG2
 40
0.0
  9
$LOFTPARAM
 70
     7
  9
$LOFTNORMALS
280
     1
  9
$LATITUDE
 40
37.795
  9
$LONGITUDE
 40
-122.394
  9
$NORTHDIRECTION
 40
0.0
  9
$TIMEZONE
 70
 -8000
  9
$LIGHTGLYPHDISPLAY
280
     1
  9
$TILEMODELIGHTSYNCH
280
     1
  9
$CMATERIAL
347
44
  9
$SOLIDHIST
280
     0
  9
$SHOWHIST
280
     1
  9
$DWFFRAME
280
     2
  9
$DGNFRAME
280
     2
  9
$REALWORLDSCALE
290
     1
  9
$INTERFERECOLOR
 62
   256
  9
$CSHADOW
280
     0
  9
$SHADOWPLANELOCATION
 40
0.0
  0
ENDSEC
  0
SECTION
  2
CLASSES
  0
CLASS
  1
ACDBDICTIONARYWDFLT
  2
AcDbDictionaryWithDefault
  3
ObjectDBX Classes
 90
        0
 91
        4
280
     0
281
     0
  0
CLASS
  1
VISUALSTYLE
  2
AcDbVisualStyle
  3
ObjectDBX Classes
 90
     4095
 91
        4
280
     0
281
     0
  0
CLASS
  1
MATERIAL
  2
AcDbMaterial
  3
ObjectDBX Classes
 90
     1153
 91
        4
280
     0
281
     0
  0
CLASS
  1
SCALE
  2
AcDbScale
  3
ObjectDBX Classes
 90
     1153
 91
        4
280
     0
281
     0
  0
CLASS
  1
TABLESTYLE
  2
AcDbTableStyle
  3
ObjectDBX Classes
 90
     4095
 91
        4
280
     0
281
     0
  0
CLASS
  1
MLEADERSTYLE
  2
AcDbMLeaderStyle
  3
ACDB_MLEADERSTYLE_CLASS
 90
     4095
 91
        4
280
     0
281
     0
  0
CLASS
  1
SUN
  2
AcDbSun
  3
SCENEOE
 90
     1153
 91
        4
280
     0
281
     0
  0
CLASS
  1
DICTIONARYVAR
  2
AcDbDictionaryVar
  3
ObjectDBX Classes
 90
        0
 91
        4
280
     0
281
     0
  0
CLASS
  1
CELLSTYLEMAP
  2
AcDbCellStyleMap
  3
ObjectDBX Classes
 90
     1152
 91
        4
280
     0
281
     0
  0
ENDSEC
  0
SECTION
  2
TABLES
  0
TABLE
  2
VPORT
  5
8
330
0
100
AcDbSymbolTable
 70
     1
  0
VPORT
  5
29
330
8
100
AcDbSymbolTableRecord
100
AcDbViewportTableRecord
  2
*Active
 70
     0
 10
0.0
 20
0.0
 11
1.0
 21
1.0
 12
0.105
 22
0.1485
 13
0.0
 23
0.0
 14
10.0
 24
10.0
 15
10.0
 25
10.0
 16
0.0
 26
0.0
 36
1.0
 17
0.0
 27
0.0
 37
0.0
 40
0.297
 41
0.7070707071
 42
50.0
 43
0.0
 44
0.0
 50
0.0
 51
0.0
 71
     0
 72
  2000
 73
     1
 74
     3
 75
     0
 76
     0
 77
     0
 78
     0
281
     0
 65
     1
110
0.0
120
0.0
130
0.0
111
1.0
121
0.0
131
0.0
112
0.0
122
1.0
132
0.0
 79
     0
146
0.0
 60
     3
 61
     5
292
     1
282
     1
141
0.0
142
0.0
 63
   250
361
6D
  0
ENDTAB
  0
TABLE
  2
LTYPE
  5
5
330
0
100
AcDbSymbolTable
 70
     6
  0
LTYPE
  5
14
330
5
100
AcDbSymbolTableRecord
100
AcDbLinetypeTableRecord
  2
ByBlock
 70
     0
  3

 72
    65
 73
     0
 40
0.0
  0
LTYPE
  5
15
330
5
100
AcDbSymbolTableRecord
100
AcDbLinetypeTableRecord
  2
ByLayer
 70
     0
  3

 72
    65
 73
     0
 40
0.0
  0
LTYPE
  5
16
330
5
100
AcDbSymbolTableRecord
100
AcDbLinetypeTableRecord
  2
Continuous
 70
     0
  3
Solid line
 72
    65
 73
     0
 40
0.0
  0
LTYPE
  5
6E
330
5
100
AcDbSymbolTableRecord
100
AcDbLinetypeTableRecord
  2
HIDDEN
 70
     0
  3
Hidden __ __ __ __ __ __ __ __ __ __ __ __ __ __
 72
    65
 73
     2
 40
0.001905
 49
0.00127
 74
     0
 49
-0.000635
 74
     0
  0
LTYPE
  5
6F
330
5
100
AcDbSymbolTableRecord
100
AcDbLinetypeTableRecord
  2
PHANTOM
 70
     0
  3
Phantom ______  __  __  ______  __  __  ______
 72
    65
 73
     6
 40
0.0127
 49
0.00635
 74
     0
 49
-0.00127
 74
     0
 49
0.00127
 74
     0
 49
-0.00127
 74
     0
 49
0.00127
 74
     0
 49
-0.00127
 74
     0
  0
LTYPE
  5
70
330
5
100
AcDbSymbolTableRecord
100
AcDbLinetypeTableRecord
  2
CENTER
 70
     0
  3
Center ____ _ ____ _ ____ _ ____ _ ____ _ ____
 72
    65
 73
     4
 40
0.01016
 49
0.00635
 74
     0
 49
-0.00127
 74
     0
 49
0.00127
 74
     0
 49
-0.00127
 74
     0
  0
LTYPE
  5
71
330
5
100
AcDbSymbolTableRecord
100
AcDbLinetypeTableRecord
  2
CENTERX2
 70
     0
  3
Center (2x) ________  __  ________  __  _____
 72
    65
 73
     4
 40
0.02032
 49
0.0127
 74
     0
 49
-0.00254
 74
     0
 49
0.00254
 74
     0
 49
-0.00254
 74
     0
  0
LTYPE
  5
72
330
5
100
AcDbSymbolTableRecord
100
AcDbLinetypeTableRecord
  2
DOT2
 70
     0
  3
Dot (.5x) ........................................
 72
    65
 73
     2
 40
0.000635
 49
0.0
 74
     0
 49
-0.000635
 74
     0
  0
ENDTAB
  0
TABLE
  2
LAYER
  5
2
330
0
100
AcDbSymbolTable
 70
     1
  0
LAYER
  5
10
330
2
100
AcDbSymbolTableRecord
100
AcDbLayerTableRecord
  2
0
 70
     0
 62
     7
  6
Continuous
370
    -3
390
F
347
46
  0
ENDTAB
  0
TABLE
  2
STYLE
  5
3
330
0
100
AcDbSymbolTable
 70
     1
  0
STYLE
  5
11
330
3
100
AcDbSymbolTableRecord
100
AcDbTextStyleTableRecord
  2
Standard
 70
     0
 40
0.0
 41
1.0
 50
0.0
 71
     0
 42
0.0035
  3
txt
  4

  0
ENDTAB
  0
TABLE
  2
VIEW
  5
6
330
0
100
AcDbSymbolTable
 70
     0
  0
ENDTAB
  0
TABLE
  2
UCS
  5
7
330
0
100
AcDbSymbolTable
 70
     0
  0
ENDTAB
  0
TABLE
  2
APPID
  5
9
330
0
100
AcDbSymbolTable
 70
     2
  0
APPID
  5
12
330
9
100
AcDbSymbolTableRecord
100
AcDbRegAppTableRecord
  2
ACAD
 70
     0
  0
APPID
  5
F5
330
9
100
AcDbSymbolTableRecord
100
AcDbRegAppTableRecord
  2
ACAD_MLEADERVER
 70
     0
  0
ENDTAB
  0
TABLE
  2
DIMSTYLE
  5
A
330
0
100
AcDbSymbolTable
 70
     1
100
AcDbDimStyleTable
  0
DIMSTYLE
105
27
330
A
100
AcDbSymbolTableRecord
100
AcDbDimStyleTableRecord
  2
ISO-25
 70
     0
 41
2.5
 42
0.625
 43
3.75
 44
1.25
 73
     0
 74
     0
 77
     1
 78
     8
140
2.5
141
2.5
143
0.0393700787
147
0.625
171
     3
172
     1
178
     0
271
     2
272
     2
274
     3
278
    44
283
     0
284
     8
340
11
  0
ENDTAB
  0
TABLE
  2
BLOCK_RECORD
  5
1
330
0
100
AcDbSymbolTable
 70
     1
  0
BLOCK_RECORD
  5
1F
330
1
100
AcDbSymbolTableRecord
100
AcDbBlockTableRecord
  2
*Model_Space
340
22
 70
     0
280
     1
281
     0
  0
BLOCK_RECORD
  5
1B
330
1
100
AcDbSymbolTableRecord
100
AcDbBlockTableRecord
  2
*Paper_Space
340
1E
 70
     0
280
     1
281
     0
  0
BLOCK_RECORD
  5
23
330
1
100
AcDbSymbolTableRecord
100
AcDbBlockTableRecord
  2
*Paper_Space0
340
26
 70
     0
280
     1
281
     0
  0
ENDTAB
  0
ENDSEC
  0
SECTION
  2
BLOCKS
  0
BLOCK
  5
20
330
1F
100
AcDbEntity
  8
0
100
AcDbBlockBegin
  2
*Model_Space
 70
     0
 10
0.0
 20
0.0
 30
0.0
  3
*Model_Space
  1

  0
ENDBLK
  5
21
330
1F
100
AcDbEntity
  8
0
100
AcDbBlockEnd
  0
BLOCK
  5
1C
330
1B
100
AcDbEntity
 67
     1
  8
0
100
AcDbBlockBegin
  2
*Paper_Space
 70
     0
 10
0.0
 20
0.0
 30
0.0
  3
*Paper_Space
  1

  0
ENDBLK
  5
1D
330
1B
100
AcDbEntity
 67
     1
  8
0
100
AcDbBlockEnd
  0
BLOCK
  5
24
330
23
100
AcDbEntity
  8
0
100
AcDbBlockBegin
  2
*Paper_Space0
 70
     0
 10
0.0
 20
0.0
 30
0.0
  3
*Paper_Space0
  1

  0
ENDBLK
  5
25
330
23
100
AcDbEntity
  8
0
100
AcDbBlockEnd
  0
ENDSEC
  0
SECTION
  2
ENTITIES
  0
LINE
  5
73
330
1F
100
AcDbEntity
  8
0
  6
Continuous
 62
     7
370
    25
100
AcDbLine
 10
0.0855150389
 20
0.1877286059
 30
0.0
 11
0.0853218888
 21
0.1877286059
 31
0.0
  0
LINE
  5
74
330
1F
100
AcDbEntity
  8
0
  6
Continuous
 62
     7
370
    25
100
AcDbLine
 10
0.0853218888
 20
0.159053892
 30
0.0
 11
0.0855150389
 21
0.159053892
 31
0.0
  0
LINE
  5
75
330
1F
100
AcDbEntity
  8
0
  6
Continuous
 62
     7
370
    25
100
AcDbLine
 10
0.1047108542
 20
0.216227646
 30
0.0
 11
0.1249172198
 21
0.216227646
 31
0.0
  0
ARC
  5
76
330
1F
100
AcDbEntity
  8
0
  6
Continuous
 62
     7
370
    25
100
AcDbCircle
 10
0.1249172199
 20
0.196227646
 30
0.0
 40
0.02
100
AcDbArc
 50
84.9884747955
 51
90.0
  0
LINE
  5
77
330
1F
100
AcDbEntity
  8
0
  6
Continuous
 62
     7
370
    25
100
AcDbLine
 10
0.1266643425
 20
0.2161511887
 30
0.0
 11
0.1555488681
 21
0.2136182655
 31
0.0
  0
ARC
  5
78
330
1F
100
AcDbEntity
  8
0
  6
Continuous
 62
     7
370
    25
100
AcDbCircle
 10
0.1538017451
 20
0.1936947227
 30
0.0
 40
0.02
100
AcDbArc
 50
360.0
 51
84.9884747955
  0
LINE
  5
79
330
1F
100
AcDbEntity
  8
0
  6
Continuous
 62
     7
370
    25
100
AcDbLine
 10
0.1738017463
 20
0.1936947227
 30
0.0
 11
0.1738017463
 21
0.1522858156
 31
0.0
  0
LINE
  5
7A
330
1F
100
AcDbEntity
  8
0
  6
Continuous
 62
     7
370
    25
100
AcDbLine
 10
0.1037546002
 20
0.1297300208
 30
0.0
 11
0.0747140263
 21
0.1283399213
 31
0.0
  0
ARC
  5
7B
330
1F
100
AcDbEntity
  8
0
  6
Continuous
 62
     7
370
    25
100
AcDbCircle
 10
0.073757771
 20
0.1483170492
 30
0.0
 40
0.02
100
AcDbArc
 50
180.0
 51
272.7405108838
  0
LINE
  5
7C
330
1F
100
AcDbEntity
  8
0
  6
Continuous
 62
     7
370
    25
100
AcDbLine
 10
0.0537577723
 20
0.1483170474
 30
0.0
 11
0.0537577723
 21
0.1976634914
 31
0.0
  0
ARC
  5
7D
330
1F
100
AcDbEntity
  8
0
  6
Continuous
 62
     7
370
    25
100
AcDbCircle
 10
0.073757771
 20
0.1976634914
 30
0.0
 40
0.02
100
AcDbArc
 50
87.2594891162
 51
180.0
  0
LINE
  5
7E
330
1F
100
AcDbEntity
  8
0
  6
Continuous
 62
     7
370
    25
100
AcDbLine
 10
0.0747140263
 20
0.2176406182
 30
0.0
 11
0.1037546002
 21
0.2162505198
 31
0.0
  0
ARC
  5
7F
330
1F
100
AcDbEntity
  8
0
  6
Continuous
 62
     7
370
    25
100
AcDbCircle
 10
0.1047108547
 20
0.236227646
 30
0.0
 40
0.02
100
AcDbArc
 50
267.2594891162
 51
270.0
  0
ARC
  5
80
330
1F
100
AcDbEntity
  8
0
  6
Continuous
 62
     7
370
    25
100
AcDbCircle
 10
0.1249172199
 20
0.1497528946
 30
0.0
 40
0.02
100
AcDbArc
 50
270.0
 51
275.0115252045
  0
LINE
  5
81
330
1F
100
AcDbEntity
  8
0
  6
Continuous
 62
     7
370
    25
100
AcDbLine
 10
0.1047108542
 20
0.1297528947
 30
0.0
 11
0.1037546002
 21
0.1297300208
 31
0.0
  0
LINE
  5
82
330
1F
100
AcDbEntity
  8
0
  6
Continuous
 62
     7
370
    25
100
AcDbLine
 10
0.1555488681
 20
0.1323622764
 30
0.0
 11
0.1266643425
 21
0.1298293508
 31
0.0
  0
ARC
  5
83
330
1F
100
AcDbEntity
  8
0
  6
Continuous
 62
     7
370
    25
100
AcDbCircle
 10
0.1538017451
 20
0.1522858179
 30
0.0
 40
0.02
100
AcDbArc
 50
275.0115252045
 51
0.0
  0
LINE
  5
84
330
1F
100
AcDbEntity
  8
0
  6
Continuous
 62
     7
370
    25
100
AcDbLine
 10
0.1249172198
 20
0.1297528947
 30
0.0
 11
0.1047108542
 21
0.1297528947
 31
0.0
  0
LINE
  5
85
330
1F
100
AcDbEntity
  8
0
  6
Continuous
 62
     7
370
    25
100
AcDbLine
 10
0.1297924541
 20
0.1794476462
 30
0.0
 11
0.1297924541
 21
0.1674476469
 31
0.0
  0
LINE
  5
86
330
1F
100
AcDbEntity
  8
0
  6
Continuous
 62
     7
370
    25
100
AcDbLine
 10
0.1254124542
 20
0.1674476469
 30
0.0
 11
0.1254124542
 21
0.1794476462
 31
0.0
  0
ARC
  5
87
330
1F
100
AcDbEntity
  8
0
  6
Continuous
 62
     7
370
    25
100
AcDbCircle
 10
0.1276024541
 20
0.1691410743
 30
0.0
 40
0.0030158257560123
100
AcDbArc
 50
233.1181194642
 51
316.5662047554
  0
ARC
  5
88
330
1F
100
AcDbEntity
  8
0
  6
Continuous
 62
     7
370
    25
100
AcDbCircle
 10
0.1276024541
 20
0.1777542177
 30
0.0
 40
0.0030158257560123
100
AcDbArc
 50
43.4337952446
 51
126.8818805358
  0
LINE
  5
89
330
1F
100
AcDbEntity
  8
0
  6
Continuous
 62
     7
370
    25
100
AcDbLine
 10
0.1162577711
 20
0.1854476465
 30
0.0
 11
0.1162577711
 21
0.173447646
 31
0.0
  0
LINE
  5
8A
330
1F
100
AcDbEntity
  8
0
  6
Continuous
 62
     7
370
    25
100
AcDbLine
 10
0.1162577711
 20
0.173447646
 30
0.0
 11
0.1137671368
 21
0.173447646
 31
0.0
  0
LINE
  5
8B
330
1F
100
AcDbEntity
  8
0
  6
Continuous
 62
     7
370
    25
100
AcDbLine
 10
0.1135975419
 20
0.1614476455
 30
0.0
 11
0.1026724921
 21
0.1614476455
 31
0.0
  0
ARC
  5
8C
330
1F
100
AcDbEntity
  8
0
  6
Continuous
 62
     7
370
    25
100
AcDbCircle
 10
0.102813638
 20
0.1621477761
 30
0.0
 40
0.0007142163705357
100
AcDbArc
 50
171.9618173968
 51
258.6019829763
  0
LINE
  5
8D
330
1F
100
AcDbEntity
  8
0
  6
Continuous
 62
     7
370
    25
100
AcDbLine
 10
0.1021064388
 20
0.1622476471
 30
0.0
 11
0.1021064388
 21
0.1627552117
 31
0.0
  0
ARC
  5
8E
330
1F
100
AcDbEntity
  8
0
  6
Continuous
 62
     7
370
    25
100
AcDbCircle
 10
0.1028485277
 20
0.162838809
 30
0.0
 40
0.0007467827341822
100
AcDbArc
 50
106.9945465644
 51
186.4273536209
  0
LWPOLYLINE
  5
8F
330
1F
100
AcDbEntity
  8
0
  6
Continuous
 62
     7
370
    25
100
AcDbPolyline
 90
      113
 70
   128
 43
0.0
 10
0.1026302575
 20
0.1635529817
 10
0.102817093
 20
0.1635762895
 10
0.1030034219
 20
0.1636066426
 10
0.1031891106
 20
0.1636440194
 10
0.1033740257
 20
0.1636883915
 10
0.103558036
 20
0.1637397302
 10
0.1037410115
 20
0.1637979973
 10
0.10392282
 20
0.1638631523
 10
0.1041033314
 20
0.1639351476
 10
0.1042824172
 20
0.164013933
 10
0.1044599508
 20
0.164099449
 10
0.1046358048
 20
0.1641916383
 10
0.1048098527
 20
0.1642904342
 10
0.1049819719
 20
0.1643957675
 10
0.1051520394
 20
0.1645075596
 10
0.1053199314
 20
0.1646257318
 10
0.105485531
 20
0.1647502006
 10
0.105648719
 20
0.1648808778
 10
0.1058093785
 20
0.1650176681
 10
0.1059673952
 20
0.165160476
 10
0.1061226558
 20
0.1653091992
 10
0.1062750505
 20
0.1654637302
 10
0.1064244698
 20
0.1656239594
 10
0.1065708076
 20
0.1657897724
 10
0.1067139577
 20
0.1659610499
 10
0.1068538212
 20
0.1661376727
 10
0.1069902943
 20
0.1663195122
 10
0.107123283
 20
0.1665064395
 10
0.1072526919
 20
0.1666983188
 10
0.1073784267
 20
0.1668950165
 10
0.107500398
 20
0.167096392
 10
0.1076185213
 20
0.1673022998
 10
0.1077327095
 20
0.1675125945
 10
0.1078428816
 20
0.1677271236
 10
0.1079489599
 20
0.1679457367
 10
0.1080508696
 20
0.1681682766
 10
0.1081485354
 20
0.1683945835
 10
0.1082418882
 20
0.1686244977
 10
0.1083308636
 20
0.1688578547
 10
0.1084153949
 20
0.1690944875
 10
0.1084954249
 20
0.1693342269
 10
0.1085708939
 20
0.1695769013
 10
0.1086417495
 20
0.1698223389
 10
0.1087079405
 20
0.1700703634
 10
0.1087694191
 20
0.1703208006
 10
0.1088261436
 20
0.1705734671
 10
0.1088780712
 20
0.1708281864
 10
0.108925166
 20
0.1710847748
 10
0.1089673935
 20
0.1713430489
 10
0.1090047251
 20
0.171602825
 10
0.1090371333
 20
0.1718639196
 10
0.1090645944
 20
0.1721261419
 10
0.1090870892
 20
0.1723893107
 10
0.1091046022
 20
0.1726532329
 10
0.1091171204
 20
0.1729177225
 10
0.1091246353
 20
0.1731825889
 10
0.1091271411
 20
0.173447646
 10
0.1091246353
 20
0.1737127031
 10
0.1091171204
 20
0.1739775694
 10
0.1091046022
 20
0.1742420591
 10
0.1090870892
 20
0.1745059813
 10
0.1090645944
 20
0.1747691501
 10
0.1090371333
 20
0.1750313724
 10
0.1090047251
 20
0.175292467
 10
0.1089673935
 20
0.1755522431
 10
0.108925166
 20
0.1758105172
 10
0.1088780712
 20
0.1760671056
 10
0.1088261436
 20
0.1763218249
 10
0.1087694191
 20
0.1765744913
 10
0.1087079405
 20
0.1768249286
 10
0.1086417495
 20
0.1770729531
 10
0.1085708939
 20
0.1773183907
 10
0.1084954249
 20
0.177561065
 10
0.1084153949
 20
0.1778008045
 10
0.1083308636
 20
0.1780374373
 10
0.1082418882
 20
0.178270793
 10
0.1081485354
 20
0.1785007072
 10
0.1080508696
 20
0.1787270153
 10
0.1079489599
 20
0.1789495552
 10
0.1078428816
 20
0.1791681672
 10
0.1077327095
 20
0.1793826974
 10
0.1076185213
 20
0.1795929921
 10
0.107500398
 20
0.1797989
 10
0.1073784267
 20
0.1800002743
 10
0.1072526919
 20
0.180196972
 10
0.107123283
 20
0.1803888536
 10
0.1069902943
 20
0.1805757798
 10
0.1068538212
 20
0.1807576192
 10
0.1067139577
 20
0.1809342421
 10
0.1065708076
 20
0.1811055208
 10
0.1064244698
 20
0.1812713338
 10
0.1062750505
 20
0.181431563
 10
0.1061226558
 20
0.181586094
 10
0.1059673952
 20
0.1817348159
 10
0.1058093785
 20
0.1818776239
 10
0.105648719
 20
0.1820144153
 10
0.105485531
 20
0.1821450914
 10
0.1053199314
 20
0.1822695602
 10
0.1051520394
 20
0.1823877335
 10
0.1049819719
 20
0.1824995256
 10
0.1048098527
 20
0.1826048566
 10
0.1046358048
 20
0.1827036525
 10
0.1044599508
 20
0.1827958418
 10
0.1042824172
 20
0.1828813601
 10
0.1041033314
 20
0.1829601444
 10
0.10392282
 20
0.1830321396
 10
0.1037410115
 20
0.1830972935
 10
0.103558036
 20
0.1831555618
 10
0.1033740257
 20
0.1832069004
 10
0.1031891106
 20
0.1832512737
 10
0.1030034219
 20
0.1832886494
 10
0.102817093
 20
0.1833190025
 10
0.1026302575
 20
0.1833423091
  0
ARC
  5
90
330
1F
100
AcDbEntity
  8
0
  6
Continuous
 62
     7
370
    25
100
AcDbCircle
 10
0.1028290318
 20
0.1840436807
 30
0.0
 40
0.0007289947555776
100
AcDbArc
 50
172.4012525589
 51
254.1768472558
  0
LINE
  5
91
330
1F
100
AcDbEntity
  8
0
  6
Continuous
 62
     7
370
    25
100
AcDbLine
 10
0.1021064388
 20
0.1841400791
 30
0.0
 11
0.1021064388
 21
0.184647646
 31
0.0
  0
ARC
  5
92
330
1F
100
AcDbEntity
  8
0
  6
Continuous
 62
     7
370
    25
100
AcDbCircle
 10
0.1028136385
 20
0.1847475157
 30
0.0
 40
0.0007142166301096
100
AcDbArc
 50
101.398050056
 51
188.0380690591
  0
LINE
  5
93
330
1F
100
AcDbEntity
  8
0
  6
Continuous
 62
     7
370
    25
100
AcDbLine
 10
0.1026724921
 20
0.1854476465
 30
0.0
 11
0.1162577711
 21
0.1854476465
 31
0.0
  0
LINE
  5
94
330
1F
100
AcDbEntity
  8
0
  6
Continuous
 62
     7
370
    25
100
AcDbLine
 10
0.1164273666
 20
0.1854476465
 30
0.0
 11
0.1164273666
 21
0.173447646
 31
0.0
  0
LINE
  5
95
330
1F
100
AcDbEntity
  8
0
  6
Continuous
 62
     7
370
    25
100
AcDbLine
 10
0.1164273666
 20
0.173447646
 30
0.0
 11
0.1162577711
 21
0.173447646
 31
0.0
  0
LINE
  5
96
330
1F
100
AcDbEntity
  8
0
  6
Continuous
 62
     7
370
    25
100
AcDbLine
 10
0.1164273666
 20
0.1854476465
 30
0.0
 11
0.1162577711
 21
0.1854476465
 31
0.0
  0
LINE
  5
97
330
1F
100
AcDbEntity
  8
0
  6
Continuous
 62
     7
370
    25
100
AcDbLine
 10
0.1137671368
 20
0.1614476455
 30
0.0
 11
0.1137671368
 21
0.173447646
 31
0.0
  0
LINE
  5
98
330
1F
100
AcDbEntity
  8
0
  6
Continuous
 62
     7
370
    25
100
AcDbLine
 10
0.1164273666
 20
0.1854476465
 30
0.0
 11
0.1273524164
 21
0.1854476465
 31
0.0
  0
ARC
  5
99
330
1F
100
AcDbEntity
  8
0
  6
Continuous
 62
     7
370
    25
100
AcDbCircle
 10
0.1272112693
 20
0.1847475151
 30
0.0
 40
0.0007142173261097
100
AcDbArc
 50
351.9619835934
 51
78.6018972916
  0
LINE
  5
9A
330
1F
100
AcDbEntity
  8
0
  6
Continuous
 62
     7
370
    25
100
AcDbLine
 10
0.1279184698
 20
0.184647646
 30
0.0
 11
0.1279184698
 21
0.1841400791
 31
0.0
  0
ARC
  5
9B
330
1F
100
AcDbEntity
  8
0
  6
Continuous
 62
     7
370
    25
100
AcDbCircle
 10
0.1271763793
 20
0.1840564829
 30
0.0
 40
0.0007467841878999
100
AcDbArc
 50
286.9945929884
 51
6.4272473728
  0
LWPOLYLINE
  5
9C
330
1F
100
AcDbEntity
  8
0
  6
Continuous
 62
     7
370
    25
100
AcDbPolyline
 90
      113
 70
   128
 43
0.0
 10
0.1273946505
 20
0.1833423091
 10
0.1272078149
 20
0.1833190025
 10
0.127021486
 20
0.1832886494
 10
0.1268357979
 20
0.1832512737
 10
0.1266508825
 20
0.1832069004
 10
0.1264668717
 20
0.1831555618
 10
0.126283897
 20
0.1830972935
 10
0.1261020889
 20
0.1830321396
 10
0.1259215771
 20
0.1829601444
 10
0.1257424905
 20
0.1828813601
 10
0.1255649571
 20
0.1827958418
 10
0.1253891035
 20
0.1827036525
 10
0.1252150549
 20
0.1826048566
 10
0.1250429358
 20
0.1824995256
 10
0.1248728691
 20
0.1823877335
 10
0.1247049763
 20
0.1822695602
 10
0.124539377
 20
0.1821450914
 10
0.1243761893
 20
0.1820144153
 10
0.1242155297
 20
0.1818776239
 10
0.1240575132
 20
0.1817348159
 10
0.1239022523
 20
0.181586094
 10
0.1237498579
 20
0.181431563
 10
0.1236004386
 20
0.1812713338
 10
0.1234541013
 20
0.1811055208
 10
0.1233109501
 20
0.1809342421
 10
0.1231710875
 20
0.1807576192
 10
0.1230346133
 20
0.1805757798
 10
0.1229016248
 20
0.1803888536
 10
0.1227722168
 20
0.180196972
 10
0.1226464819
 20
0.1800002743
 10
0.1225245097
 20
0.1797989
 10
0.1224063873
 20
0.1795929921
 10
0.1222921989
 20
0.1793826974
 10
0.1221820262
 20
0.1791681672
 10
0.1220759477
 20
0.1789495552
 10
0.1219740391
 20
0.1787270153
 10
0.1218763732
 20
0.1785007072
 10
0.1217830196
 20
0.178270793
 10
0.1216940451
 20
0.1780374373
 10
0.1216095131
 20
0.1778008045
 10
0.1215294839
 20
0.177561065
 10
0.1214540147
 20
0.1773183907
 10
0.1213831592
 20
0.1770729531
 10
0.1213169682
 20
0.1768249286
 10
0.1212554888
 20
0.1765744913
 10
0.121198765
 20
0.1763218249
 10
0.1211468371
 20
0.1760671056
 10
0.1210997423
 20
0.1758105172
 10
0.1210575141
 20
0.1755522431
 10
0.1210201828
 20
0.175292467
 10
0.1209877749
 20
0.1750313724
 10
0.1209603136
 20
0.1747691501
 10
0.1209378185
 20
0.1745059813
 10
0.1209203057
 20
0.1742420591
 10
0.1209077875
 20
0.1739775694
 10
0.1209002731
 20
0.1737127031
 10
0.1208977677
 20
0.173447646
 10
0.1209002731
 20
0.1731825889
 10
0.1209077875
 20
0.1729177225
 10
0.1209203057
 20
0.1726532329
 10
0.1209378185
 20
0.1723893107
 10
0.1209603136
 20
0.1721261419
 10
0.1209877749
 20
0.1718639196
 10
0.1210201828
 20
0.171602825
 10
0.1210575141
 20
0.1713430489
 10
0.1210997423
 20
0.1710847748
 10
0.1211468371
 20
0.1708281864
 10
0.121198765
 20
0.1705734671
 10
0.1212554888
 20
0.1703208006
 10
0.1213169682
 20
0.1700703634
 10
0.1213831592
 20
0.1698223389
 10
0.1214540147
 20
0.1695769013
 10
0.1215294839
 20
0.1693342269
 10
0.1216095131
 20
0.1690944875
 10
0.1216940451
 20
0.1688578547
 10
0.1217830196
 20
0.1686244977
 10
0.1218763732
 20
0.1683945835
 10
0.1219740391
 20
0.1681682766
 10
0.1220759477
 20
0.1679457367
 10
0.1221820262
 20
0.1677271236
 10
0.1222921989
 20
0.1675125945
 10
0.1224063873
 20
0.1673022998
 10
0.1225245097
 20
0.167096392
 10
0.1226464819
 20
0.1668950165
 10
0.1227722168
 20
0.1666983188
 10
0.1229016248
 20
0.1665064395
 10
0.1230346133
 20
0.1663195122
 10
0.1231710875
 20
0.1661376727
 10
0.1233109501
 20
0.1659610499
 10
0.1234541013
 20
0.1657897724
 10
0.1236004386
 20
0.1656239594
 10
0.1237498579
 20
0.1654637302
 10
0.1239022523
 20
0.1653091992
 10
0.1240575132
 20
0.165160476
 10
0.1242155297
 20
0.1650176681
 10
0.1243761893
 20
0.1648808778
 10
0.124539377
 20
0.1647502006
 10
0.1247049763
 20
0.1646257318
 10
0.1248728691
 20
0.1645075596
 10
0.1250429358
 20
0.1643957675
 10
0.1252150549
 20
0.1642904342
 10
0.1253891035
 20
0.1641916383
 10
0.1255649571
 20
0.164099449
 10
0.1257424905
 20
0.164013933
 10
0.1259215771
 20
0.1639351476
 10
0.1261020889
 20
0.1638631523
 10
0.126283897
 20
0.1637979973
 10
0.1264668717
 20
0.1637397302
 10
0.1266508825
 20
0.1636883915
 10
0.1268357979
 20
0.1636440194
 10
0.127021486
 20
0.1636066426
 10
0.1272078149
 20
0.1635762895
 10
0.1273946505
 20
0.1635529817
  0
ARC
  5
9D
330
1F
100
AcDbEntity
  8
0
  6
Continuous
 62
     7
370
    25
100
AcDbCircle
 10
0.1271958757
 20
0.1628516092
 30
0.0
 40
0.0007289956939916
100
AcDbArc
 50
352.4013293264
 51
74.1768303124
  0
LINE
  5
9E
330
1F
100
AcDbEntity
  8
0
  6
Continuous
 62
     7
370
    25
100
AcDbLine
 10
0.1279184698
 20
0.1627552117
 30
0.0
 11
0.1279184698
 21
0.1622476471
 31
0.0
  0
ARC
  5
9F
330
1F
100
AcDbEntity
  8
0
  6
Continuous
 62
     7
370
    25
100
AcDbCircle
 10
0.1272112697
 20
0.1621477767
 30
0.0
 40
0.0007142170665342
100
AcDbArc
 50
281.3980696762
 51
8.0381299507
  0
LINE
  5
A0
330
1F
100
AcDbEntity
  8
0
  6
Continuous
 62
     7
370
    25
100
AcDbLine
 10
0.1273524164
 20
0.1614476455
 30
0.0
 11
0.1137671368
 21
0.1614476455
 31
0.0
  0
LINE
  5
A1
330
1F
100
AcDbEntity
  8
0
  6
Continuous
 62
     7
370
    25
100
AcDbLine
 10
0.1135975419
 20
0.1614476455
 30
0.0
 11
0.1135975419
 21
0.173447646
 31
0.0
  0
LINE
  5
A2
330
1F
100
AcDbEntity
  8
0
  6
Continuous
 62
     7
370
    25
100
AcDbLine
 10
0.1135975419
 20
0.173447646
 30
0.0
 11
0.1137671368
 21
0.173447646
 31
0.0
  0
LINE
  5
A3
330
1F
100
AcDbEntity
  8
0
  6
Continuous
 62
     7
370
    25
100
AcDbLine
 10
0.1135975419
 20
0.1614476455
 30
0.0
 11
0.1137671368
 21
0.1614476455
 31
0.0
  0
LINE
  5
A4
330
1F
100
AcDbEntity
  8
0
  6
Continuous
 62
     7
370
    25
100
AcDbLine
 10
0.1021066963
 20
0.1846717895
 30
0.0
 11
0.0857323574
 21
0.1877085812
 31
0.0
  0
LINE
  5
A5
330
1F
100
AcDbEntity
  8
0
  6
Continuous
 62
     7
370
    25
100
AcDbLine
 10
0.1021064388
 20
0.1846360148
 30
0.0
 11
0.0855392073
 21
0.1877085812
 31
0.0
  0
ARC
  5
A6
330
1F
100
AcDbEntity
  8
0
  6
Continuous
 62
     7
370
    25
100
AcDbCircle
 10
0.1029154722
 20
0.1640809148
 30
0.0
 40
0.0006574796752246
100
AcDbArc
 50
98.0911459904
 51
236.028994663
  0
ARC
  5
A7
330
1F
100
AcDbEntity
  8
0
  6
Continuous
 62
     7
370
    25
100
AcDbCircle
 10
0.1027357986
 20
0.164084792
 30
0.0
 40
0.0006528980557011
100
AcDbArc
 50
318.4784813236
 51
82.3305392689
  0
LWPOLYLINE
  5
A8
330
1F
100
AcDbEntity
  8
0
  6
Continuous
 62
     7
370
    25
100
AcDbPolyline
 90
       79
 70
   128
 43
0.0
 10
0.0959814857
 20
0.1654890717
 10
0.0959056114
 20
0.1654855216
 10
0.0958302306
 20
0.1654748929
 10
0.0957558297
 20
0.1654572547
 10
0.0956828927
 20
0.1654327238
 10
0.0956118916
 20
0.1654014552
 10
0.0955432867
 20
0.1653636564
 10
0.0954775261
 20
0.165319568
 10
0.0954150318
 20
0.1652694786
 10
0.0953562115
 20
0.1652137125
 10
0.0953014468
 20
0.1651526321
 10
0.0952510928
 20
0.1650866307
 10
0.0952054762
 20
0.1650161398
 10
0.0951648902
 20
0.1649416149
 10
0.0951296018
 20
0.16486354
 10
0.0950998377
 20
0.1647824205
 10
0.0950757908
 20
0.1646987832
 10
0.0950576185
 20
0.1646131695
 10
0.0950454377
 20
0.1645261372
 10
0.095039327
 20
0.1644382466
 10
0.095039327
 20
0.1643500722
 10
0.0950454377
 20
0.1642621816
 10
0.0950576185
 20
0.1641751493
 10
0.0950757908
 20
0.1640895356
 10
0.0950998377
 20
0.1640058983
 10
0.0951296018
 20
0.1639247788
 10
0.0951648902
 20
0.1638467038
 10
0.0952054762
 20
0.163772179
 10
0.0952510928
 20
0.1637016881
 10
0.0953014468
 20
0.1636356891
 10
0.0953562115
 20
0.1635746063
 10
0.0954150318
 20
0.1635188402
 10
0.0954775261
 20
0.1634687508
 10
0.0955432867
 20
0.1634246648
 10
0.0956118916
 20
0.1633868635
 10
0.0956828927
 20
0.1633555973
 10
0.0957558297
 20
0.1633310641
 10
0.0958302306
 20
0.1633134282
 10
0.0959056114
 20
0.1633027995
 10
0.0959814857
 20
0.1632992495
 10
0.0960573577
 20
0.1633027995
 10
0.0961327409
 20
0.1633134282
 10
0.0962071418
 20
0.1633310641
 10
0.0962800788
 20
0.1633555973
 10
0.0963510798
 20
0.1633868635
 10
0.0964196824
 20
0.1634246648
 10
0.0964854454
 20
0.1634687508
 10
0.0965479373
 20
0.1635188402
 10
0.0966067575
 20
0.1635746063
 10
0.0966615223
 20
0.1636356891
 10
0.0967118763
 20
0.1637016881
 10
0.0967574953
 20
0.163772179
 10
0.0967980789
 20
0.1638467038
 10
0.0968333672
 20
0.1639247788
 10
0.0968631314
 20
0.1640058983
 10
0.0968871783
 20
0.1640895356
 10
0.0969053506
 20
0.1641751493
 10
0.0969175314
 20
0.1642621816
 10
0.096923642
 20
0.1643500722
 10
0.096923642
 20
0.1644382466
 10
0.0969175314
 20
0.1645261372
 10
0.0969053506
 20
0.1646131695
 10
0.0968871783
 20
0.1646987832
 10
0.0968631314
 20
0.1647824205
 10
0.0968333672
 20
0.16486354
 10
0.0967980789
 20
0.1649416149
 10
0.0967574953
 20
0.1650161398
 10
0.0967118763
 20
0.1650866307
 10
0.0966615223
 20
0.1651526321
 10
0.0966067575
 20
0.1652137125
 10
0.0965479373
 20
0.1652694786
 10
0.0964854454
 20
0.165319568
 10
0.0964196824
 20
0.1653636564
 10
0.0963510798
 20
0.1654014552
 10
0.0962800788
 20
0.1654327238
 10
0.0962071418
 20
0.1654572547
 10
0.0961327409
 20
0.1654748929
 10
0.0960573577
 20
0.1654855216
 10
0.0959814857
 20
0.1654890717
  0
LWPOLYLINE
  5
A9
330
1F
100
AcDbEntity
  8
0
  6
Continuous
 62
     7
370
    25
100
AcDbPolyline
 90
       71
 70
   128
 43
0.0
 10
0.088610742
 20
0.1826056302
 10
0.088678491
 20
0.1826091624
 10
0.088745694
 20
0.1826197339
 10
0.0888118099
 20
0.1826372565
 10
0.0888763093
 20
0.1826615918
 10
0.0889386677
 20
0.182692541
 10
0.0889983867
 20
0.1827298582
 10
0.0890549849
 20
0.1827732397
 10
0.0891080068
 20
0.1828223384
 10
0.0891570257
 20
0.1828767587
 10
0.0892016434
 20
0.1829360617
 10
0.0892415069
 20
0.1829997707
 10
0.0892762898
 20
0.1830673731
 10
0.0893057154
 20
0.1831383229
 10
0.089329543
 20
0.1832120491
 10
0.0893475841
 20
0.1832879604
 10
0.0893596934
 20
0.1833654428
 10
0.0893657731
 20
0.1834438742
 10
0.0893657731
 20
0.1835226227
 10
0.0893596934
 20
0.183601054
 10
0.0893475841
 20
0.1836785365
 10
0.089329543
 20
0.1837544478
 10
0.0893057154
 20
0.1838281751
 10
0.0892762898
 20
0.1838991249
 10
0.0892415069
 20
0.1839667261
 10
0.0892016434
 20
0.1840304352
 10
0.0891570257
 20
0.1840897382
 10
0.0891080068
 20
0.1841441584
 10
0.0890549849
 20
0.1841932572
 10
0.0889983867
 20
0.1842366386
 10
0.0889386677
 20
0.1842739559
 10
0.0888763093
 20
0.1843049062
 10
0.0888118099
 20
0.1843292404
 10
0.088745694
 20
0.184346763
 10
0.088678491
 20
0.1843573345
 10
0.088610742
 20
0.1843608666
 10
0.088542993
 20
0.1843573345
 10
0.0884757899
 20
0.184346763
 10
0.0884096741
 20
0.1843292404
 10
0.0883451747
 20
0.1843049062
 10
0.0882828163
 20
0.1842739559
 10
0.0882230972
 20
0.1842366386
 10
0.088166499
 20
0.1841932572
 10
0.0881134771
 20
0.1841441584
 10
0.0880644583
 20
0.1840897382
 10
0.0880198382
 20
0.1840304352
 10
0.087979977
 20
0.1839667261
 10
0.0879451941
 20
0.1838991249
 10
0.0879157685
 20
0.1838281751
 10
0.087891941
 20
0.1837544478
 10
0.0878738974
 20
0.1836785365
 10
0.0878617882
 20
0.183601054
 10
0.0878557109
 20
0.1835226227
 10
0.0878557109
 20
0.1834438742
 10
0.0878617882
 20
0.1833654428
 10
0.0878738974
 20
0.1832879604
 10
0.087891941
 20
0.1832120491
 10
0.0879157685
 20
0.1831383229
 10
0.0879451941
 20
0.1830673731
 10
0.087979977
 20
0.1829997707
 10
0.0880198382
 20
0.1829360617
 10
0.0880644583
 20
0.1828767587
 10
0.0881134771
 20
0.1828223384
 10
0.088166499
 20
0.1827732397
 10
0.0882230972
 20
0.1827298582
 10
0.0882828163
 20
0.182692541
 10
0.0883451747
 20
0.1826615918
 10
0.0884096741
 20
0.1826372565
 10
0.0884757899
 20
0.1826197339
 10
0.088542993
 20
0.1826091624
 10
0.088610742
 20
0.1826056302
  0
LWPOLYLINE
  5
AA
330
1F
100
AcDbEntity
  8
0
  6
Continuous
 62
     7
370
    25
100
AcDbPolyline
 90
       79
 70
   128
 43
0.0
 10
0.0959814857
 20
0.1812934256
 10
0.0960573577
 20
0.1812969757
 10
0.0961327409
 20
0.1813076044
 10
0.0962071418
 20
0.1813252414
 10
0.0962800788
 20
0.1813497735
 10
0.0963510798
 20
0.1813810409
 10
0.0964196824
 20
0.181418841
 10
0.0964854454
 20
0.1814629293
 10
0.0965479373
 20
0.1815130187
 10
0.0966067575
 20
0.1815687848
 10
0.0966615223
 20
0.1816298652
 10
0.0967118763
 20
0.1816958655
 10
0.0967574953
 20
0.1817663563
 10
0.0967980789
 20
0.1818408812
 10
0.0968333672
 20
0.1819189573
 10
0.0968631314
 20
0.1820000757
 10
0.0968871783
 20
0.1820837141
 10
0.0969053506
 20
0.1821693266
 10
0.0969175314
 20
0.1822563601
 10
0.096923642
 20
0.1823442496
 10
0.096923642
 20
0.1824324251
 10
0.0969175314
 20
0.1825203145
 10
0.0969053506
 20
0.182607348
 10
0.0968871783
 20
0.1826929606
 10
0.0968631314
 20
0.1827765978
 10
0.0968333672
 20
0.1828577174
 10
0.0967980789
 20
0.1829357923
 10
0.0967574953
 20
0.1830103172
 10
0.0967118763
 20
0.1830808092
 10
0.0966615223
 20
0.1831468094
 10
0.0966067575
 20
0.1832078899
 10
0.0965479373
 20
0.183263656
 10
0.0964854454
 20
0.1833137453
 10
0.0964196824
 20
0.1833578325
 10
0.0963510798
 20
0.1833956326
 10
0.0962800788
 20
0.1834269
 10
0.0962071418
 20
0.1834514321
 10
0.0961327409
 20
0.1834690703
 10
0.0960573577
 20
0.1834796978
 10
0.0959814857
 20
0.183483249
 10
0.0959056114
 20
0.1834796978
 10
0.0958302306
 20
0.1834690703
 10
0.0957558297
 20
0.1834514321
 10
0.0956828927
 20
0.1834269
 10
0.0956118916
 20
0.1833956326
 10
0.0955432867
 20
0.1833578325
 10
0.0954775261
 20
0.1833137453
 10
0.0954150318
 20
0.183263656
 10
0.0953562115
 20
0.1832078899
 10
0.0953014468
 20
0.1831468094
 10
0.0952510928
 20
0.1830808092
 10
0.0952054762
 20
0.1830103172
 10
0.0951648902
 20
0.1829357923
 10
0.0951296018
 20
0.1828577174
 10
0.0950998377
 20
0.1827765978
 10
0.0950757908
 20
0.1826929606
 10
0.0950576185
 20
0.182607348
 10
0.0950454377
 20
0.1825203145
 10
0.095039327
 20
0.1824324251
 10
0.095039327
 20
0.1823442496
 10
0.0950454377
 20
0.1822563601
 10
0.0950576185
 20
0.1821693266
 10
0.0950757908
 20
0.1820837141
 10
0.0950998377
 20
0.1820000757
 10
0.0951296018
 20
0.1819189573
 10
0.0951648902
 20
0.1818408812
 10
0.0952054762
 20
0.1817663563
 10
0.0952510928
 20
0.1816958655
 10
0.0953014468
 20
0.1816298652
 10
0.0953562115
 20
0.1815687848
 10
0.0954150318
 20
0.1815130187
 10
0.0954775261
 20
0.1814629293
 10
0.0955432867
 20
0.181418841
 10
0.0956118916
 20
0.1813810409
 10
0.0956828927
 20
0.1813497735
 10
0.0957558297
 20
0.1813252414
 10
0.0958302306
 20
0.1813076044
 10
0.0959056114
 20
0.1812969757
 10
0.0959814857
 20
0.1812934256
  0
LWPOLYLINE
  5
AB
330
1F
100
AcDbEntity
  8
0
  6
Continuous
 62
     7
370
    25
100
AcDbPolyline
 90
       71
 70
   128
 43
0.0
 10
0.088610742
 20
0.1641768659
 10
0.088542993
 20
0.1641733349
 10
0.0884757899
 20
0.1641627634
 10
0.0884096741
 20
0.1641452397
 10
0.0883451747
 20
0.1641209067
 10
0.0882828163
 20
0.1640899552
 10
0.0882230972
 20
0.1640526379
 10
0.088166499
 20
0.1640092576
 10
0.0881134771
 20
0.1639601577
 10
0.0880644583
 20
0.1639057387
 10
0.0880198382
 20
0.1638464344
 10
0.087979977
 20
0.1637827266
 10
0.0879451941
 20
0.1637151254
 10
0.0879157685
 20
0.1636441744
 10
0.087891941
 20
0.1635704482
 10
0.0878738974
 20
0.1634945358
 10
0.0878617882
 20
0.1634170545
 10
0.0878557109
 20
0.1633386219
 10
0.0878557109
 20
0.1632598747
 10
0.0878617882
 20
0.1631814421
 10
0.0878738974
 20
0.1631039608
 10
0.087891941
 20
0.1630280484
 10
0.0879157685
 20
0.1629543222
 10
0.0879451941
 20
0.1628833712
 10
0.087979977
 20
0.16281577
 10
0.0880198382
 20
0.1627520622
 10
0.0880644583
 20
0.1626927579
 10
0.0881134771
 20
0.1626383389
 10
0.088166499
 20
0.162589239
 10
0.0882230972
 20
0.1625458587
 10
0.0882828163
 20
0.1625085414
 10
0.0883451747
 20
0.1624775923
 10
0.0884096741
 20
0.1624532569
 10
0.0884757899
 20
0.1624357332
 10
0.088542993
 20
0.1624251617
 10
0.088610742
 20
0.1624216307
 10
0.088678491
 20
0.1624251617
 10
0.088745694
 20
0.1624357332
 10
0.0888118099
 20
0.1624532569
 10
0.0888763093
 20
0.1624775923
 10
0.0889386677
 20
0.1625085414
 10
0.0889983867
 20
0.1625458587
 10
0.0890549849
 20
0.162589239
 10
0.0891080068
 20
0.1626383389
 10
0.0891570257
 20
0.1626927579
 10
0.0892016434
 20
0.1627520622
 10
0.0892415069
 20
0.16281577
 10
0.0892762898
 20
0.1628833712
 10
0.0893057154
 20
0.1629543222
 10
0.089329543
 20
0.1630280484
 10
0.0893475841
 20
0.1631039608
 10
0.0893596934
 20
0.1631814421
 10
0.0893657731
 20
0.1632598747
 10
0.0893657731
 20
0.1633386219
 10
0.0893596934
 20
0.1634170545
 10
0.0893475841
 20
0.1634945358
 10
0.089329543
 20
0.1635704482
 10
0.0893057154
 20
0.1636441744
 10
0.0892762898
 20
0.1637151254
 10
0.0892415069
 20
0.1637827266
 10
0.0892016434
 20
0.1638464344
 10
0.0891570257
 20
0.1639057387
 10
0.0891080068
 20
0.1639601577
 10
0.0890549849
 20
0.1640092576
 10
0.0889983867
 20
0.1640526379
 10
0.0889386677
 20
0.1640899552
 10
0.0888763093
 20
0.1641209067
 10
0.0888118099
 20
0.1641452397
 10
0.088745694
 20
0.1641627634
 10
0.088678491
 20
0.1641733349
 10
0.088610742
 20
0.1641768659
  0
ARC
  5
AC
330
1F
100
AcDbEntity
  8
0
  6
Continuous
 62
     7
370
    25
100
AcDbCircle
 10
0.0854001415
 20
0.1605287987
 30
0.0
 40
0.0014615131707574
100
AcDbArc
 50
175.0900135887
 51
275.4600646228
  0
LINE
  5
AD
330
1F
100
AcDbEntity
  8
0
  6
Continuous
 62
     7
370
    25
100
AcDbLine
 10
0.0839439915
 20
0.1861286057
 30
0.0
 11
0.0839439915
 21
0.1606538904
 31
0.0
  0
ARC
  5
AE
330
1F
100
AcDbEntity
  8
0
  6
Continuous
 62
     7
370
    25
100
AcDbCircle
 10
0.0854001442
 20
0.1862536964
 30
0.0
 40
0.0014615157031385
100
AcDbArc
 50
84.5400483701
 51
184.90993826
  0
LINE
  5
AF
330
1F
100
AcDbEntity
  8
0
  6
Continuous
 62
     7
370
    25
100
AcDbLine
 10
0.1046124541
 20
0.1641789616
 30
0.0
 11
0.1046124541
 21
0.1827163304
 31
0.0
  0
LINE
  5
B0
330
1F
100
AcDbEntity
  8
0
  6
Continuous
 62
     7
370
    25
100
AcDbLine
 10
0.0855392073
 20
0.1590739168
 30
0.0
 11
0.1021109079
 21
0.1621473111
 31
0.0
  0
ARC
  5
B1
330
1F
100
AcDbEntity
  8
0
  6
Continuous
 62
     7
370
    25
100
AcDbCircle
 10
0.1027299006
 20
0.1827009715
 30
0.0
 40
0.0006569455364826
100
AcDbArc
 50
278.141232238
 51
62.3347052959
  0
ARC
  5
B2
330
1F
100
AcDbEntity
  8
0
  6
Continuous
 62
     7
370
    25
100
AcDbCircle
 10
0.1029051899
 20
0.1826949949
 30
0.0
 40
0.0006495774603216
100
AcDbArc
 50
103.2287848757
 51
262.7250272414
  0
LWPOLYLINE
  5
B3
330
1F
100
AcDbEntity
  8
0
  6
Continuous
 62
     7
370
    25
100
AcDbPolyline
 90
       70
 70
   128
 43
0.0
 10
0.1002728628
 20
0.1815246797
 10
0.1003404974
 20
0.1815282584
 10
0.1004075717
 20
0.1815389634
 10
0.1004735302
 20
0.1815567065
 10
0.1005378245
 20
0.1815813411
 10
0.1005999254
 20
0.1816126633
 10
0.1006593131
 20
0.1816504122
 10
0.1007155012
 20
0.1816942752
 10
0.10076802
 20
0.1817438901
 10
0.1008164357
 20
0.1817988456
 10
0.10086035
 20
0.1818586851
 10
0.1008993934
 20
0.1819229139
 10
0.1009332441
 20
0.1819909991
 10
0.1009616255
 20
0.1820623768
 10
0.1009842991
 20
0.1821364547
 10
0.1010010766
 20
0.1822126211
 10
0.1010118197
 20
0.182290243
 10
0.1010164403
 20
0.1823686779
 10
0.1010148977
 20
0.182447275
 10
0.1010072087
 20
0.1825253845
 10
0.1009934329
 20
0.1826023579
 10
0.1009736871
 20
0.1826775587
 10
0.1009481357
 20
0.1827503622
 10
0.1009169863
 20
0.1828201652
 10
0.1008805012
 20
0.1828863908
 10
0.1008389806
 20
0.1829484893
 10
0.1007927679
 20
0.183005947
 10
0.100742247
 20
0.1830582858
 10
0.1006878375
 20
0.1831050731
 10
0.10062999
 20
0.1831459225
 10
0.1005691813
 20
0.1831804932
 10
0.1005059193
 20
0.1832085002
 10
0.1004407262
 20
0.1832297111
 10
0.1003741406
 20
0.1832439495
 10
0.1003067158
 20
0.1832510985
 10
0.1002390121
 20
0.1832510985
 10
0.1001715874
 20
0.1832439495
 10
0.1001050018
 20
0.1832297111
 10
0.1000398086
 20
0.1832085002
 10
0.0999765443
 20
0.1831804932
 10
0.099915738
 20
0.1831459225
 10
0.0998578905
 20
0.1831050731
 10
0.099803481
 20
0.1830582858
 10
0.0997529601
 20
0.183005947
 10
0.0997067474
 20
0.1829484893
 10
0.0996652268
 20
0.1828863908
 10
0.0996287416
 20
0.1828201652
 10
0.0995975922
 20
0.1827503622
 10
0.0995720385
 20
0.1826775587
 10
0.0995522927
 20
0.1826023579
 10
0.0995385193
 20
0.1825253845
 10
0.0995308279
 20
0.182447275
 10
0.0995292877
 20
0.1823686779
 10
0.0995339083
 20
0.182290243
 10
0.0995446514
 20
0.1822126211
 10
0.0995614289
 20
0.1821364547
 10
0.0995841025
 20
0.1820623768
 10
0.0996124815
 20
0.1819909991
 10
0.0996463345
 20
0.1819229139
 10
0.099685378
 20
0.1818586851
 10
0.0997292899
 20
0.1817988456
 10
0.0997777056
 20
0.1817438901
 10
0.0998302268
 20
0.1816942752
 10
0.0998864125
 20
0.1816504122
 10
0.0999458026
 20
0.1816126633
 10
0.1000079011
 20
0.1815813411
 10
0.1000721978
 20
0.1815567065
 10
0.1001381539
 20
0.1815389634
 10
0.1002052282
 20
0.1815282584
 10
0.1002728628
 20
0.1815246797
  0
LWPOLYLINE
  5
B4
330
1F
100
AcDbEntity
  8
0
  6
Continuous
 62
     7
370
    25
100
AcDbPolyline
 90
       83
 70
   128
 43
0.0
 10
0.0921521806
 20
0.1827489973
 10
0.0922316002
 20
0.182752533
 10
0.0923105549
 20
0.1827631164
 10
0.0923885797
 20
0.1827806879
 10
0.092465217
 20
0.1828051437
 10
0.0925400184
 20
0.1828363384
 10
0.092612543
 20
0.1828740919
 10
0.0926823663
 20
0.1829181803
 10
0.0927490782
 20
0.182968346
 10
0.0928122853
 20
0.1830242945
 10
0.0928716205
 20
0.183085698
 10
0.0929267358
 20
0.1831521941
 10
0.092977302
 20
0.1832233954
 10
0.0930230283
 20
0.1832988823
 10
0.0930636429
 20
0.1833782113
 10
0.0930989097
 20
0.1834609187
 10
0.0931286191
 20
0.1835465182
 10
0.0931526016
 20
0.1836345065
 10
0.0931707095
 20
0.1837243689
 10
0.0931828426
 20
0.1838155771
 10
0.0931889271
 20
0.183907596
 10
0.0931889271
 20
0.1839998866
 10
0.0931828426
 20
0.1840919054
 10
0.0931707095
 20
0.1841831137
 10
0.0931526016
 20
0.184272976
 10
0.0931286191
 20
0.1843609656
 10
0.0930989097
 20
0.1844465638
 10
0.0930636429
 20
0.1845292712
 10
0.0930230283
 20
0.1846086014
 10
0.092977302
 20
0.1846840883
 10
0.0929267358
 20
0.1847552884
 10
0.0928716205
 20
0.1848217858
 10
0.0928122853
 20
0.1848831881
 10
0.0927490782
 20
0.1849391366
 10
0.0926823663
 20
0.1849893022
 10
0.092612543
 20
0.1850333918
 10
0.0925400184
 20
0.1850711442
 10
0.092465217
 20
0.1851023401
 10
0.0923885797
 20
0.1851267947
 10
0.0923105549
 20
0.1851443661
 10
0.0922316002
 20
0.1851549507
 10
0.0921521806
 20
0.1851584853
 10
0.0920727586
 20
0.1851549507
 10
0.0919938039
 20
0.1851443661
 10
0.091915779
 20
0.1851267947
 10
0.0918391417
 20
0.1851023401
 10
0.0917643403
 20
0.1850711442
 10
0.0916918157
 20
0.1850333918
 10
0.0916219925
 20
0.1849893022
 10
0.0915552806
 20
0.1849391366
 10
0.0914920734
 20
0.1848831881
 10
0.0914327382
 20
0.1848217858
 10
0.0913776253
 20
0.1847552884
 10
0.0913270568
 20
0.1846840883
 10
0.0912813305
 20
0.1846086014
 10
0.0912407159
 20
0.1845292712
 10
0.091205449
 20
0.1844465638
 10
0.0911757396
 20
0.1843609656
 10
0.0911517595
 20
0.184272976
 10
0.0911336492
 20
0.1841831137
 10
0.0911215161
 20
0.1840919054
 10
0.0911154317
 20
0.1839998866
 10
0.0911154317
 20
0.183907596
 10
0.0911215161
 20
0.1838155771
 10
0.0911336492
 20
0.1837243689
 10
0.0911517595
 20
0.1836345065
 10
0.0911757396
 20
0.1835465182
 10
0.091205449
 20
0.1834609187
 10
0.0912407159
 20
0.1833782113
 10
0.0912813305
 20
0.1832988823
 10
0.0913270568
 20
0.1832233954
 10
0.0913776253
 20
0.1831521941
 10
0.0914327382
 20
0.183085698
 10
0.0914920734
 20
0.1830242945
 10
0.0915552806
 20
0.182968346
 10
0.0916219925
 20
0.1829181803
 10
0.0916918157
 20
0.1828740919
 10
0.0917643403
 20
0.1828363384
 10
0.0918391417
 20
0.1828051437
 10
0.091915779
 20
0.1827806879
 10
0.0919938039
 20
0.1827631164
 10
0.0920727586
 20
0.182752533
 10
0.0921521806
 20
0.1827489973
  0
LWPOLYLINE
  5
B5
330
1F
100
AcDbEntity
  8
0
  6
Continuous
 62
     7
370
    25
100
AcDbPolyline
 90
       83
 70
   128
 43
0.0
 10
0.0921521806
 20
0.1640335
 10
0.0920727586
 20
0.1640299643
 10
0.0919938039
 20
0.1640193809
 10
0.091915779
 20
0.1640018094
 10
0.0918391417
 20
0.1639773525
 10
0.0917643403
 20
0.1639461578
 10
0.0916918157
 20
0.1639084042
 10
0.0916219925
 20
0.1638643158
 10
0.0915552806
 20
0.1638141502
 10
0.0914920734
 20
0.1637582029
 10
0.0914327382
 20
0.1636967982
 10
0.0913776253
 20
0.1636303032
 10
0.0913270568
 20
0.1635591019
 10
0.0912813305
 20
0.1634836138
 10
0.0912407159
 20
0.1634042848
 10
0.091205449
 20
0.1633215774
 10
0.0911757396
 20
0.163235978
 10
0.0911517595
 20
0.1631479896
 10
0.0911336492
 20
0.1630581272
 10
0.0911215161
 20
0.1629669202
 10
0.0911154317
 20
0.1628749002
 10
0.0911154317
 20
0.1627826107
 10
0.0911215161
 20
0.1626905907
 10
0.0911336492
 20
0.1625993837
 10
0.0911517595
 20
0.1625095213
 10
0.0911757396
 20
0.1624215306
 10
0.091205449
 20
0.1623359335
 10
0.0912407159
 20
0.1622532261
 10
0.0912813305
 20
0.1621738947
 10
0.0913270568
 20
0.162098409
 10
0.0913776253
 20
0.1620272077
 10
0.0914327382
 20
0.1619607104
 10
0.0914920734
 20
0.161899308
 10
0.0915552806
 20
0.1618433607
 10
0.0916219925
 20
0.1617931951
 10
0.0916918157
 20
0.1617491043
 10
0.0917643403
 20
0.1617113531
 10
0.0918391417
 20
0.1616801561
 10
0.091915779
 20
0.1616557015
 10
0.0919938039
 20
0.16163813
 10
0.0920727586
 20
0.1616275466
 10
0.0921521806
 20
0.1616240109
 10
0.0922316002
 20
0.1616275466
 10
0.0923105549
 20
0.16163813
 10
0.0923885797
 20
0.1616557015
 10
0.092465217
 20
0.1616801561
 10
0.0925400184
 20
0.1617113531
 10
0.092612543
 20
0.1617491043
 10
0.0926823663
 20
0.1617931951
 10
0.0927490782
 20
0.1618433607
 10
0.0928122853
 20
0.161899308
 10
0.0928716205
 20
0.1619607104
 10
0.0929267358
 20
0.1620272077
 10
0.092977302
 20
0.162098409
 10
0.0930230283
 20
0.1621738947
 10
0.0930636429
 20
0.1622532261
 10
0.0930989097
 20
0.1623359335
 10
0.0931286191
 20
0.1624215306
 10
0.0931526016
 20
0.1625095213
 10
0.0931707095
 20
0.1625993837
 10
0.0931828426
 20
0.1626905907
 10
0.0931889271
 20
0.1627826107
 10
0.0931889271
 20
0.1628749002
 10
0.0931828426
 20
0.1629669202
 10
0.0931707095
 20
0.1630581272
 10
0.0931526016
 20
0.1631479896
 10
0.0931286191
 20
0.163235978
 10
0.0930989097
 20
0.1633215774
 10
0.0930636429
 20
0.1634042848
 10
0.0930230283
 20
0.1634836138
 10
0.092977302
 20
0.1635591019
 10
0.0929267358
 20
0.1636303032
 10
0.0928716205
 20
0.1636967982
 10
0.0928122853
 20
0.1637582029
 10
0.0927490782
 20
0.1638141502
 10
0.0926823663
 20
0.1638643158
 10
0.092612543
 20
0.1639084042
 10
0.0925400184
 20
0.1639461578
 10
0.092465217
 20
0.1639773525
 10
0.0923885797
 20
0.1640018094
 10
0.0923105549
 20
0.1640193809
 10
0.0922316002
 20
0.1640299643
 10
0.0921521806
 20
0.1640335
  0
LWPOLYLINE
  5
B6
330
1F
100
AcDbEntity
  8
0
  6
Continuous
 62
     7
370
    25
100
AcDbPolyline
 90
       70
 70
   128
 43
0.0
 10
0.1002728628
 20
0.1652578176
 10
0.1002052282
 20
0.1652542389
 10
0.1001381539
 20
0.1652435339
 10
0.1000721978
 20
0.1652257908
 10
0.1000079011
 20
0.165201155
 10
0.0999458026
 20
0.165169834
 10
0.0998864125
 20
0.1651320852
 10
0.0998302268
 20
0.1650882209
 10
0.0997777056
 20
0.165038606
 10
0.0997292899
 20
0.1649836505
 10
0.099685378
 20
0.1649238122
 10
0.0996463345
 20
0.1648595823
 10
0.0996124815
 20
0.1647914971
 10
0.0995841025
 20
0.1647201193
 10
0.0995614289
 20
0.1646460427
 10
0.0995446514
 20
0.1645698751
 10
0.0995339083
 20
0.1644922531
 10
0.0995292877
 20
0.1644138182
 10
0.0995308279
 20
0.1643352211
 10
0.0995385193
 20
0.1642571128
 10
0.0995522927
 20
0.1641801394
 10
0.0995720385
 20
0.1641049398
 10
0.0995975922
 20
0.1640321339
 10
0.0996287416
 20
0.1639623321
 10
0.0996652268
 20
0.1638961066
 10
0.0997067474
 20
0.1638340081
 10
0.0997529601
 20
0.1637765516
 10
0.099803481
 20
0.1637242115
 10
0.0998578905
 20
0.1636774243
 10
0.099915738
 20
0.163636576
 10
0.0999765443
 20
0.1636020029
 10
0.1000398086
 20
0.1635739959
 10
0.1001050018
 20
0.1635527862
 10
0.1001715874
 20
0.1635385478
 10
0.1002390121
 20
0.1635313977
 10
0.1003067158
 20
0.1635313977
 10
0.1003741406
 20
0.1635385478
 10
0.1004407262
 20
0.1635527862
 10
0.1005059193
 20
0.1635739959
 10
0.1005691813
 20
0.1636020029
 10
0.10062999
 20
0.163636576
 10
0.1006878375
 20
0.1636774243
 10
0.100742247
 20
0.1637242115
 10
0.1007927679
 20
0.1637765516
 10
0.1008389806
 20
0.1638340081
 10
0.1008805012
 20
0.1638961066
 10
0.1009169863
 20
0.1639623321
 10
0.1009481357
 20
0.1640321339
 10
0.1009736871
 20
0.1641049398
 10
0.1009934329
 20
0.1641801394
 10
0.1010072087
 20
0.1642571128
 10
0.1010148977
 20
0.1643352211
 10
0.1010164403
 20
0.1644138182
 10
0.1010118197
 20
0.1644922531
 10
0.1010010766
 20
0.1645698751
 10
0.1009842991
 20
0.1646460427
 10
0.1009616255
 20
0.1647201193
 10
0.1009332441
 20
0.1647914971
 10
0.1008993934
 20
0.1648595823
 10
0.10086035
 20
0.1649238122
 10
0.1008164357
 20
0.1649836505
 10
0.10076802
 20
0.165038606
 10
0.1007155012
 20
0.1650882209
 10
0.1006593131
 20
0.1651320852
 10
0.1005999254
 20
0.165169834
 10
0.1005378245
 20
0.165201155
 10
0.1004735302
 20
0.1652257908
 10
0.1004075717
 20
0.1652435339
 10
0.1003404974
 20
0.1652542389
 10
0.1002728628
 20
0.1652578176
  0
LINE
  5
B7
330
1F
100
AcDbEntity
  8
0
  6
Continuous
 62
     7
370
    25
100
AcDbLine
 10
0.0857323574
 20
0.1590739168
 30
0.0
 11
0.1021146129
 21
0.1621121753
 31
0.0
  0
ARC
  5
B8
330
1F
100
AcDbEntity
  8
0
  6
Continuous
 62
     7
370
    25
100
AcDbCircle
 10
0.1031264027
 20
0.1640839132
 30
0.0
 40
0.0006707525056498
100
AcDbArc
 50
107.965931294
 51
231.1504831108
  0
ARC
  5
B9
330
1F
100
AcDbEntity
  8
0
  6
Continuous
 62
     7
370
    25
100
AcDbCircle
 10
0.1031155685
 20
0.1826934182
 30
0.0
 40
0.0006625539189107
100
AcDbArc
 50
111.3620605491
 51
252.7875215754
  0
ARC
  5
BA
330
1F
100
AcDbEntity
  8
0
  6
Continuous
 62
     7
370
    25
100
AcDbCircle
 10
0.1005877526
 20
0.1823883373
 30
0.0
 40
0.0008837353143055
100
AcDbArc
 50
104.3021328155
 51
255.6978671845
  0
ARC
  5
BB
330
1F
100
AcDbEntity
  8
0
  6
Continuous
 62
     7
370
    25
100
AcDbCircle
 10
0.1005876649
 20
0.1643941594
 30
0.0
 40
0.0008837142144228
100
AcDbArc
 50
104.296609235
 51
255.703390765
  0
ARC
  5
BC
330
1F
100
AcDbEntity
  8
0
  6
Continuous
 62
     7
370
    25
100
AcDbCircle
 10
0.0963251238
 20
0.1823883367
 30
0.0
 40
0.0011168238931631
100
AcDbArc
 50
102.7807216518
 51
257.2192783482
  0
ARC
  5
BD
330
1F
100
AcDbEntity
  8
0
  6
Continuous
 62
     7
370
    25
100
AcDbCircle
 10
0.0963251243
 20
0.1643941606
 30
0.0
 40
0.0011168240028521
100
AcDbArc
 50
102.7807464591
 51
257.2192535409
  0
ARC
  5
BE
330
1F
100
AcDbEntity
  8
0
  6
Continuous
 62
     7
370
    25
100
AcDbCircle
 10
0.092509087
 20
0.1628287555
 30
0.0
 40
0.0012274388450827
100
AcDbArc
 50
102.2451033526
 51
257.7548966474
  0
ARC
  5
BF
330
1F
100
AcDbEntity
  8
0
  6
Continuous
 62
     7
370
    25
100
AcDbCircle
 10
0.0925090871
 20
0.1839537413
 30
0.0
 40
0.001227438277058
100
AcDbArc
 50
102.245112364
 51
257.754887636
  0
ARC
  5
C0
330
1F
100
AcDbEntity
  8
0
  6
Continuous
 62
     7
370
    25
100
AcDbCircle
 10
0.088927985
 20
0.1632992483
 30
0.0
 40
0.0008979608573229
100
AcDbArc
 50
104.2258495547
 51
255.7741504453
  0
ARC
  5
C1
330
1F
100
AcDbEntity
  8
0
  6
Continuous
 62
     7
370
    25
100
AcDbCircle
 10
0.0889279845
 20
0.1834832484
 30
0.0
 40
0.000897960154781
100
AcDbArc
 50
104.2258274973
 51
255.7741725027
  0
ARC
  5
C2
330
1F
100
AcDbEntity
  8
0
  6
Continuous
 62
     7
370
    25
100
AcDbCircle
 10
0.0855149099
 20
0.1865379716
 30
0.0
 40
0.0011906343730086
100
AcDbArc
 50
79.4769191648
 51
89.9937957303
  0
ARC
  5
C3
330
1F
100
AcDbEntity
  8
0
  6
Continuous
 62
     7
370
    25
100
AcDbCircle
 10
0.0855149527
 20
0.1602440617
 30
0.0
 40
0.0011901696780208
100
AcDbArc
 50
270.0041453549
 51
280.52513975
  0
ARC
  5
C4
330
1F
100
AcDbEntity
  8
0
  6
Continuous
 62
     7
370
    25
100
AcDbCircle
 10
0.1356024541
 20
0.1777542177
 30
0.0
 40
0.0030158257560123
100
AcDbArc
 50
43.4337952446
 51
131.5419543358
  0
LINE
  5
C5
330
1F
100
AcDbEntity
  8
0
  6
Continuous
 62
     7
370
    25
100
AcDbLine
 10
0.1377924537
 20
0.1674476469
 30
0.0
 11
0.1377924537
 21
0.1794476462
 31
0.0
  0
ARC
  5
C6
330
1F
100
AcDbEntity
  8
0
  6
Continuous
 62
     7
370
    25
100
AcDbCircle
 10
0.1356024541
 20
0.1691410743
 30
0.0
 40
0.0030158257560123
100
AcDbArc
 50
228.4580456642
 51
316.5662047554
  0
LINE
  5
C7
330
1F
100
AcDbEntity
  8
0
  6
Continuous
 62
     7
370
    25
100
AcDbLine
 10
0.1337924539
 20
0.1674476469
 30
0.0
 11
0.1337924539
 21
0.1794476462
 31
0.0
  0
ARC
  5
C8
330
1F
100
AcDbEntity
  8
0
  6
Continuous
 62
     7
370
    25
100
AcDbCircle
 10
0.1316024541
 20
0.1691410743
 30
0.0
 40
0.0030158257560123
100
AcDbArc
 50
228.4580456642
 51
316.5662047554
  0
ARC
  5
C9
330
1F
100
AcDbEntity
  8
0
  6
Continuous
 62
     7
370
    25
100
AcDbCircle
 10
0.1316024541
 20
0.1777542177
 30
0.0
 40
0.0030158257560123
100
AcDbArc
 50
43.4337952446
 51
131.5419543358
  0
ARC
  5
CA
330
1F
100
AcDbEntity
  8
0
  6
Continuous
 62
     7
370
    25
100
AcDbCircle
 10
0.1396024541
 20
0.1777542177
 30
0.0
 40
0.0030158257560123
100
AcDbArc
 50
43.4337952446
 51
131.5419543358
  0
LINE
  5
CB
330
1F
100
AcDbEntity
  8
0
  6
Continuous
 62
     7
370
    25
100
AcDbLine
 10
0.1417924546
 20
0.1674476469
 30
0.0
 11
0.1417924546
 21
0.1794476462
 31
0.0
  0
ARC
  5
CC
330
1F
100
AcDbEntity
  8
0
  6
Continuous
 62
     7
370
    25
100
AcDbCircle
 10
0.1396024541
 20
0.1691410743
 30
0.0
 40
0.0030158257560123
100
AcDbArc
 50
228.4580456642
 51
316.5662047554
  0
LINE
  5
CD
330
1F
100
AcDbEntity
  8
0
  6
Continuous
 62
     7
370
    25
100
AcDbLine
 10
0.1254124542
 20
0.1798276461
 30
0.0
 11
0.1254124542
 21
0.1794476462
 31
0.0
  0
LINE
  5
CE
330
1F
100
AcDbEntity
  8
0
  6
Continuous
 62
     7
370
    25
100
AcDbLine
 10
0.1254124542
 20
0.1794476462
 30
0.0
 11
0.1257324542
 21
0.1794476462
 31
0.0
  0
LINE
  5
CF
330
1F
100
AcDbEntity
  8
0
  6
Continuous
 62
     7
370
    25
100
AcDbLine
 10
0.1426219963
 20
0.1798276461
 30
0.0
 11
0.1257924541
 21
0.1798276461
 31
0.0
  0
LINE
  5
D0
330
1F
100
AcDbEntity
  8
0
  6
Continuous
 62
     7
370
    25
100
AcDbLine
 10
0.1426219963
 20
0.1794476462
 30
0.0
 11
0.1257324542
 21
0.1794476462
 31
0.0
  0
LINE
  5
D1
330
1F
100
AcDbEntity
  8
0
  6
Continuous
 62
     7
370
    25
100
AcDbLine
 10
0.1434219955
 20
0.1798276461
 30
0.0
 11
0.1434219955
 21
0.1794476462
 31
0.0
  0
LINE
  5
D2
330
1F
100
AcDbEntity
  8
0
  6
Continuous
 62
     7
370
    25
100
AcDbLine
 10
0.1434219955
 20
0.1798276461
 30
0.0
 11
0.1426219963
 21
0.1798276461
 31
0.0
  0
LINE
  5
D3
330
1F
100
AcDbEntity
  8
0
  6
Continuous
 62
     7
370
    25
100
AcDbLine
 10
0.1434219955
 20
0.1794476462
 30
0.0
 11
0.1426219963
 21
0.1794476462
 31
0.0
  0
LINE
  5
D4
330
1F
100
AcDbEntity
  8
0
  6
Continuous
 62
     7
370
    25
100
AcDbLine
 10
0.1254124542
 20
0.1674476469
 30
0.0
 11
0.1254124542
 21
0.1670676459
 31
0.0
  0
LINE
  5
D5
330
1F
100
AcDbEntity
  8
0
  6
Continuous
 62
     7
370
    25
100
AcDbLine
 10
0.1254124542
 20
0.1674476469
 30
0.0
 11
0.1257324542
 21
0.1674476469
 31
0.0
  0
LINE
  5
D6
330
1F
100
AcDbEntity
  8
0
  6
Continuous
 62
     7
370
    25
100
AcDbLine
 10
0.1426219963
 20
0.1674476469
 30
0.0
 11
0.1257324542
 21
0.1674476469
 31
0.0
  0
LINE
  5
D7
330
1F
100
AcDbEntity
  8
0
  6
Continuous
 62
     7
370
    25
100
AcDbLine
 10
0.1426219963
 20
0.1670676459
 30
0.0
 11
0.1257924541
 21
0.1670676459
 31
0.0
  0
LINE
  5
D8
330
1F
100
AcDbEntity
  8
0
  6
Continuous
 62
     7
370
    25
100
AcDbLine
 10
0.1434219955
 20
0.1674476469
 30
0.0
 11
0.1434219955
 21
0.1670676459
 31
0.0
  0
LINE
  5
D9
330
1F
100
AcDbEntity
  8
0
  6
Continuous
 62
     7
370
    25
100
AcDbLine
 10
0.1434219955
 20
0.1674476469
 30
0.0
 11
0.1426219963
 21
0.1674476469
 31
0.0
  0
LINE
  5
DA
330
1F
100
AcDbEntity
  8
0
  6
Continuous
 62
     7
370
    25
100
AcDbLine
 10
0.1434219955
 20
0.1670676459
 30
0.0
 11
0.1426219963
 21
0.1670676459
 31
0.0
  0
LINE
  5
DB
330
1F
100
AcDbEntity
  8
0
  6
Continuous
 62
     7
370
    25
100
AcDbLine
 10
0.1254124542
 20
0.1670676459
 30
0.0
 11
0.1257924541
 21
0.1670676459
 31
0.0
  0
LINE
  5
DC
330
1F
100
AcDbEntity
  8
0
  6
Continuous
 62
     7
370
    25
100
AcDbLine
 10
0.1257924541
 20
0.1639912046
 30
0.0
 11
0.1257924541
 21
0.1670676459
 31
0.0
  0
LINE
  5
DD
330
1F
100
AcDbEntity
  8
0
  6
Continuous
 62
     7
370
    25
100
AcDbLine
 10
0.1254124542
 20
0.1641789616
 30
0.0
 11
0.1254124542
 21
0.1670676459
 31
0.0
  0
LINE
  5
DE
330
1F
100
AcDbEntity
  8
0
  6
Continuous
 62
     7
370
    25
100
AcDbLine
 10
0.1254124542
 20
0.1798276461
 30
0.0
 11
0.1257924541
 21
0.1798276461
 31
0.0
  0
LINE
  5
DF
330
1F
100
AcDbEntity
  8
0
  6
Continuous
 62
     7
370
    25
100
AcDbLine
 10
0.1257924541
 20
0.1798276461
 30
0.0
 11
0.1257924541
 21
0.1829040874
 31
0.0
  0
LINE
  5
E0
330
1F
100
AcDbEntity
  8
0
  6
Continuous
 62
     7
370
    25
100
AcDbLine
 10
0.1254124542
 20
0.1798276461
 30
0.0
 11
0.1254124542
 21
0.1827163304
 31
0.0
  0
LINE
  5
E1
330
1F
100
AcDbEntity
  8
0
  6
Continuous
 62
     7
370
    18
100
AcDbLine
 10
0.074714025
 20
0.2176406178
 30
0.0
 11
0.1037546006
 21
0.2162505196
 31
0.0
  0
LINE
  5
E2
330
1F
100
AcDbEntity
  8
0
  6
Continuous
 62
     7
370
    18
100
AcDbLine
 10
0.1047108547
 20
0.216227646
 30
0.0
 11
0.1249172199
 21
0.216227646
 31
0.0
  0
LINE
  5
E3
330
1F
100
AcDbEntity
  8
0
  6
Continuous
 62
     7
370
    18
100
AcDbLine
 10
0.1555488677
 20
0.2136182656
 30
0.0
 11
0.1266643424
 21
0.2161511889
 31
0.0
  0
LINE
  5
E4
330
1F
100
AcDbEntity
  8
0
  6
Continuous
 62
     7
370
    18
100
AcDbLine
 10
0.1738017451
 20
0.1936947227
 30
0.0
 11
0.1738017451
 21
0.1522858179
 31
0.0
  0
LINE
  5
E5
330
1F
100
AcDbEntity
  8
0
  6
Continuous
 62
     7
370
    18
100
AcDbLine
 10
0.1555488677
 20
0.132362275
 30
0.0
 11
0.1266643424
 21
0.1298293517
 31
0.0
  0
LINE
  5
E6
330
1F
100
AcDbEntity
  8
0
  6
Continuous
 62
     7
370
    18
100
AcDbLine
 10
0.1047108547
 20
0.1297528946
 30
0.0
 11
0.1249172199
 21
0.1297528946
 31
0.0
  0
LINE
  5
E7
330
1F
100
AcDbEntity
  8
0
  6
Continuous
 62
     7
370
    18
100
AcDbLine
 10
0.074714025
 20
0.1283399228
 30
0.0
 11
0.1037546006
 21
0.129730021
 31
0.0
  0
LINE
  5
E8
330
1F
100
AcDbEntity
  8
0
  6
Continuous
 62
     7
370
    18
100
AcDbLine
 10
0.053757771
 20
0.1483170492
 30
0.0
 11
0.053757771
 21
0.1976634914
 31
0.0
  0
LINE
  5
E9
330
1F
100
AcDbEntity
  8
0
  6
Continuous
 62
     7
370
    18
100
AcDbLine
 10
0.1047108547
 20
0.1297528946
 30
0.0
 11
0.1037546006
 21
0.129730021
 31
0.0
  0
LINE
  5
EA
330
1F
100
AcDbEntity
  8
0
  6
Continuous
 62
     7
370
    18
100
AcDbLine
 10
0.1249172199
 20
0.1297528946
 30
0.0
 11
0.1266643424
 21
0.1298293517
 31
0.0
  0
LINE
  5
EB
330
1F
100
AcDbEntity
  8
0
  6
Continuous
 62
     7
370
    18
100
AcDbLine
 10
0.1249172199
 20
0.216227646
 30
0.0
 11
0.1266643424
 21
0.2161511889
 31
0.0
  0
ARC
  5
EC
330
1F
100
AcDbEntity
  8
0
  6
Continuous
 62
     7
370
    18
100
AcDbCircle
 10
0.073757771
 20
0.1976634914
 30
0.0
 40
0.02
100
AcDbArc
 50
87.2594891162
 51
180.0
  0
ARC
  5
ED
330
1F
100
AcDbEntity
  8
0
  6
Continuous
 62
     7
370
    18
100
AcDbCircle
 10
0.1538017451
 20
0.1936947227
 30
0.0
 40
0.02
100
AcDbArc
 50
0.0
 51
84.9884747955
  0
ARC
  5
EE
330
1F
100
AcDbEntity
  8
0
  6
Continuous
 62
     7
370
    18
100
AcDbCircle
 10
0.1538017451
 20
0.1522858179
 30
0.0
 40
0.02
100
AcDbArc
 50
275.0115252045
 51
0.0
  0
ARC
  5
EF
330
1F
100
AcDbEntity
  8
0
  6
Continuous
 62
     7
370
    18
100
AcDbCircle
 10
0.073757771
 20
0.1483170492
 30
0.0
 40
0.02
100
AcDbArc
 50
180.0
 51
272.7405108838
  0
ARC
  5
F0
330
1F
100
AcDbEntity
  8
0
  6
Continuous
 62
     7
370
    18
100
AcDbCircle
 10
0.1047108547
 20
0.236227646
 30
0.0
 40
0.02
100
AcDbArc
 50
267.2594891162
 51
270.0
  0
ENDSEC
  0
SECTION
  2
OBJECTS
  0
DICTIONARY
  5
C
330
0
100
AcDbDictionary
281
     1
  3
ACAD_DETAILVIEWSTYLE
350
F9
  3
ACAD_GROUP
350
D
  3
ACAD_LAYOUT
350
1A
  3
ACAD_MATERIAL
350
43
  3
ACAD_MLEADERSTYLE
350
6B
  3
ACAD_MLINESTYLE
350
17
  3
ACAD_PLOTSETTINGS
350
19
  3
ACAD_PLOTSTYLENAME
350
E
  3
ACAD_SCALELIST
350
47
  3
ACAD_SECTIONVIEWSTYLE
350
FA
  3
ACAD_TABLESTYLE
350
69
  3
ACAD_VISUALSTYLE
350
2A
  3
ACDB_RECOMPOSE_DATA
350
F6
  3
AcDbVariableDictionary
350
F1
  0
SUN
  5
6D
330
29
100
AcDbSun
 90
        1
290
     0
 63
     7
421
 16777215
 40
1.0
291
     1
 91
  2455826
 92
 54000000
292
     0
 70
     2
 71
   256
280
     1
  0
DICTIONARY
  5
F9
102
{ACAD_REACTORS
330
C
102
}
330
C
100
AcDbDictionary
281
     1
  0
DICTIONARY
  5
D
102
{ACAD_REACTORS
330
C
102
}
330
C
100
AcDbDictionary
281
     1
  0
DICTIONARY
  5
1A
102
{ACAD_REACTORS
330
C
102
}
330
C
100
AcDbDictionary
281
     1
  3
Layout1
350
1E
  3
Layout2
350
26
  3
Model
350
22
  0
DICTIONARY
  5
43
102
{ACAD_REACTORS
330
C
102
}
330
C
100
AcDbDictionary
281
     1
  3
ByBlock
350
45
  3
ByLayer
350
44
  3
Global
350
46
  0
DICTIONARY
  5
6B
102
{ACAD_REACTORS
330
C
102
}
330
C
100
AcDbDictionary
281
     1
  3
Standard
350
6C
  0
DICTIONARY
  5
17
102
{ACAD_REACTORS
330
C
102
}
330
C
100
AcDbDictionary
281
     1
  3
Standard
350
18
  0
DICTIONARY
  5
19
102
{ACAD_REACTORS
330
C
102
}
330
C
100
AcDbDictionary
281
     1
  0
ACDBDICTIONARYWDFLT
  5
E
102
{ACAD_REACTORS
330
C
102
}
330
C
100
AcDbDictionary
281
     1
  3
Normal
350
F
100
AcDbDictionaryWithDefault
340
F
  0
DICTIONARY
  5
47
102
{ACAD_REACTORS
330
C
102
}
330
C
100
AcDbDictionary
281
     1
  3
A0
350
48
  3
A1
350
49
  3
A2
350
4A
  3
A3
350
4B
  3
A4
350
4C
  3
A5
350
4D
  3
A6
350
4E
  3
A7
350
4F
  3
A8
350
50
  3
A9
350
51
  3
B0
350
52
  3
B1
350
53
  3
B2
350
54
  3
B3
350
55
  3
B4
350
56
  3
B5
350
57
  3
B6
350
58
  3
B7
350
59
  3
B8
350
5A
  3
B9
350
5B
  3
C0
350
5C
  3
C1
350
5D
  3
C2
350
5E
  3
C3
350
5F
  3
C4
350
60
  3
C5
350
61
  3
C6
350
62
  3
C7
350
63
  3
C8
350
64
  3
C9
350
65
  3
D0
350
66
  3
D1
350
67
  3
D2
350
68
  0
DICTIONARY
  5
FA
102
{ACAD_REACTORS
330
C
102
}
330
C
100
AcDbDictionary
281
     1
  0
DICTIONARY
  5
69
102
{ACAD_REACTORS
330
C
102
}
330
C
100
AcDbDictionary
281
     1
  3
Standard
350
6A
  0
DICTIONARY
  5
2A
102
{ACAD_REACTORS
330
C
102
}
330
C
100
AcDbDictionary
281
     1
  3
2dWireframe
350
2F
  3
Basic
350
32
  3
Brighten
350
36
  3
ColorChange
350
3A
  3
Conceptual
350
34
  3
Dim
350
35
  3
EdgeColorOff
350
3D
  3
Facepattern
350
39
  3
Flat
350
2B
  3
FlatWithEdges
350
2C
  3
Gouraud
350
2D
  3
GouraudWithEdges
350
2E
  3
Hidden
350
31
  3
JitterOff
350
3B
  3
Linepattern
350
38
  3
OverhangOff
350
3C
  3
Realistic
350
33
  3
Shaded
350
42
  3
Shaded with edges
350
41
  3
Shades of Gray
350
3E
  3
Sketchy
350
3F
  3
Thicken
350
37
  3
Wireframe
350
30
  3
X-Ray
350
40
  0
XRECORD
  5
F6
102
{ACAD_REACTORS
330
C
102
}
330
C
100
AcDbXrecord
280
     1
 90
        1
330
6A
  0
DICTIONARY
  5
F1
102
{ACAD_REACTORS
330
C
102
}
330
C
100
AcDbDictionary
281
     1
  3
CANNOSCALE
350
F2
  3
CMLEADERSTYLE
350
F8
  3
CTABLESTYLE
350
F7
  0
LAYOUT
  5
1E
102
{ACAD_REACTORS
330
1A
102
}
330
1A
100
AcDbPlotSettings
  1

  2
none_device
  4

  6

 40
0.0
 41
0.0
 42
0.0
 43
0.0
 44
0.0
 45
0.0
 46
0.0
 47
0.0
 48
0.0
 49
0.0
140
0.0
141
0.0
142
1.0
143
1.0
 70
   688
 72
     1
 73
     0
 74
     5
  7

 75
    16
 76
     0
 77
     2
 78
   300
147
1.0
148
0.0
149
0.0
100
AcDbLayout
  1
Layout1
 70
     1
 71
     1
 10
0.0
 20
0.0
 11
420.0
 21
297.0
 12
0.0
 22
0.0
 32
0.0
 14
1.0000000000E+20
 24
1.0000000000E+20
 34
1.0000000000E+20
 15
-1.0000000000E+20
 25
-1.0000000000E+20
 35
-1.0000000000E+20
146
0.0
 13
0.0
 23
0.0
 33
0.0
 16
1.0
 26
0.0
 36
0.0
 17
0.0
 27
1.0
 37
0.0
 76
     0
330
1B
  0
LAYOUT
  5
26
102
{ACAD_REACTORS
330
1A
102
}
330
1A
100
AcDbPlotSettings
  1

  2
none_device
  4

  6

 40
0.0
 41
0.0
 42
0.0
 43
0.0
 44
0.0
 45
0.0
 46
0.0
 47
0.0
 48
0.0
 49
0.0
140
0.0
141
0.0
142
1.0
143
1.0
 70
   688
 72
     1
 73
     0
 74
     5
  7

 75
    16
 76
     0
 77
     2
 78
   300
147
1.0
148
0.0
149
0.0
100
AcDbLayout
  1
Layout2
 70
     1
 71
     2
 10
0.0
 20
0.0
 11
0.0
 21
0.0
 12
0.0
 22
0.0
 32
0.0
 14
0.0
 24
0.0
 34
0.0
 15
0.0
 25
0.0
 35
0.0
146
0.0
 13
0.0
 23
0.0
 33
0.0
 16
1.0
 26
0.0
 36
0.0
 17
0.0
 27
1.0
 37
0.0
 76
     0
330
23
  0
LAYOUT
  5
22
102
{ACAD_REACTORS
330
1A
102
}
330
1A
100
AcDbPlotSettings
  1

  2
none_device
  4
Letter_(8.50_x_11.00_Inches)
  6

 40
6.35
 41
6.35
 42
6.35000508
 43
6.35000508
 44
215.9
 45
279.4
 46
0.0
 47
0.0
 48
0.0
 49
0.0
140
0.0
141
0.0
142
1.0
143
1.0
 70
  1712
 72
     1
 73
     0
 74
     0
  7

 75
     0
 76
     0
 77
     2
 78
   300
147
1.0
148
0.0
149
0.0
100
AcDbLayout
  1
Model
 70
     1
 71
     0
 10
0.0
 20
0.0
 11
0.21
 21
0.297
 12
0.0
 22
0.0
 32
0.0
 14
0.0
 24
0.0
 34
0.0
 15
0.21
 25
0.297
 35
0.0
146
0.0
 13
0.0
 23
0.0
 33
0.0
 16
1.0
 26
0.0
 36
0.0
 17
0.0
 27
1.0
 37
0.0
 76
     0
330
1F
331
29
  0
MATERIAL
  5
45
102
{ACAD_REACTORS
330
43
102
}
330
43
100
AcDbMaterial
  1
ByBlock
 72
     1
 94
      127
  0
MATERIAL
  5
44
102
{ACAD_REACTORS
330
43
102
}
330
43
100
AcDbMaterial
  1
ByLayer
 72
     1
 94
      127
  0
MATERIAL
  5
46
102
{ACAD_REACTORS
330
43
102
}
330
43
100
AcDbMaterial
  1
Global
 72
     1
 94
      127
  0
MLEADERSTYLE
  5
6C
102
{ACAD_REACTORS
330
6B
102
}
330
6B
100
AcDbMLeaderStyle
170
     2
171
     1
172
     0
 90
        2
 40
0.0
 41
0.0
173
     1
 91
-1056964608
340
14
 92
       -2
290
     1
 42
2.0
291
     1
 43
8.0
  3
Standard
341
0
 44
4.0
300

342
11
174
     1
178
     6
175
     1
176
     0
 93
-1056964608
 45
4.0
292
     0
297
     0
 46
4.0
343
0
 94
-1056964608
 47
1.0
 49
1.0
140
1.0
293
     1
141
0.0
294
     1
177
     0
142
1.0
295
     0
296
     0
143
3.75
1001
ACAD_MLEADERVER
1070
     2
  0
MLINESTYLE
  5
18
102
{ACAD_REACTORS
330
17
102
}
330
17
100
AcDbMlineStyle
  2
Standard
 70
     0
  3

 62
   256
 51
90.0
 52
90.0
 71
     2
 49
0.5
 62
   256
  6
BYLAYER
 49
-0.5
 62
   256
  6
BYLAYER
  0
ACDBPLACEHOLDER
  5
F
102
{ACAD_REACTORS
330
E
102
}
330
E
  0
SCALE
  5
48
102
{ACAD_REACTORS
330
47
102
}
330
47
100
AcDbScale
 70
     0
300
1:1
140
1.0
141
1.0
290
     1
  0
SCALE
  5
49
102
{ACAD_REACTORS
330
47
102
}
330
47
100
AcDbScale
 70
     0
300
1:2
140
1.0
141
2.0
290
     0
  0
SCALE
  5
4A
102
{ACAD_REACTORS
330
47
102
}
330
47
100
AcDbScale
 70
     0
300
1:4
140
1.0
141
4.0
290
     0
  0
SCALE
  5
4B
102
{ACAD_REACTORS
330
47
102
}
330
47
100
AcDbScale
 70
     0
300
1:5
140
1.0
141
5.0
290
     0
  0
SCALE
  5
4C
102
{ACAD_REACTORS
330
47
102
}
330
47
100
AcDbScale
 70
     0
300
1:8
140
1.0
141
8.0
290
     0
  0
SCALE
  5
4D
102
{ACAD_REACTORS
330
47
102
}
330
47
100
AcDbScale
 70
     0
300
1:10
140
1.0
141
10.0
290
     0
  0
SCALE
  5
4E
102
{ACAD_REACTORS
330
47
102
}
330
47
100
AcDbScale
 70
     0
300
1:16
140
1.0
141
16.0
290
     0
  0
SCALE
  5
4F
102
{ACAD_REACTORS
330
47
102
}
330
47
100
AcDbScale
 70
     0
300
1:20
140
1.0
141
20.0
290
     0
  0
SCALE
  5
50
102
{ACAD_REACTORS
330
47
102
}
330
47
100
AcDbScale
 70
     0
300
1:30
140
1.0
141
30.0
290
     0
  0
SCALE
  5
51
102
{ACAD_REACTORS
330
47
102
}
330
47
100
AcDbScale
 70
     0
300
1:40
140
1.0
141
40.0
290
     0
  0
SCALE
  5
52
102
{ACAD_REACTORS
330
47
102
}
330
47
100
AcDbScale
 70
     0
300
1:50
140
1.0
141
50.0
290
     0
  0
SCALE
  5
53
102
{ACAD_REACTORS
330
47
102
}
330
47
100
AcDbScale
 70
     0
300
1:100
140
1.0
141
100.0
290
     0
  0
SCALE
  5
54
102
{ACAD_REACTORS
330
47
102
}
330
47
100
AcDbScale
 70
     0
300
2:1
140
2.0
141
1.0
290
     0
  0
SCALE
  5
55
102
{ACAD_REACTORS
330
47
102
}
330
47
100
AcDbScale
 70
     0
300
4:1
140
4.0
141
1.0
290
     0
  0
SCALE
  5
56
102
{ACAD_REACTORS
330
47
102
}
330
47
100
AcDbScale
 70
     0
300
8:1
140
8.0
141
1.0
290
     0
  0
SCALE
  5
57
102
{ACAD_REACTORS
330
47
102
}
330
47
100
AcDbScale
 70
     0
300
10:1
140
10.0
141
1.0
290
     0
  0
SCALE
  5
58
102
{ACAD_REACTORS
330
47
102
}
330
47
100
AcDbScale
 70
     0
300
100:1
140
100.0
141
1.0
290
     0
  0
SCALE
  5
59
102
{ACAD_REACTORS
330
47
102
}
330
47
100
AcDbScale
 70
     0
300
1/128" = 1'-0"
140
0.0078125
141
12.0
290
     0
  0
SCALE
  5
5A
102
{ACAD_REACTORS
330
47
102
}
330
47
100
AcDbScale
 70
     0
300
1/64" = 1'-0"
140
0.015625
141
12.0
290
     0
  0
SCALE
  5
5B
102
{ACAD_REACTORS
330
47
102
}
330
47
100
AcDbScale
 70
     0
300
1/32" = 1'-0"
140
0.03125
141
12.0
290
     0
  0
SCALE
  5
5C
102
{ACAD_REACTORS
330
47
102
}
330
47
100
AcDbScale
 70
     0
300
1/16" = 1'-0"
140
0.0625
141
12.0
290
     0
  0
SCALE
  5
5D
102
{ACAD_REACTORS
330
47
102
}
330
47
100
AcDbScale
 70
     0
300
3/32" = 1'-0"
140
0.09375
141
12.0
290
     0
  0
SCALE
  5
5E
102
{ACAD_REACTORS
330
47
102
}
330
47
100
AcDbScale
 70
     0
300
1/8" = 1'-0"
140
0.125
141
12.0
290
     0
  0
SCALE
  5
5F
102
{ACAD_REACTORS
330
47
102
}
330
47
100
AcDbScale
 70
     0
300
3/16" = 1'-0"
140
0.1875
141
12.0
290
     0
  0
SCALE
  5
60
102
{ACAD_REACTORS
330
47
102
}
330
47
100
AcDbScale
 70
     0
300
1/4" = 1'-0"
140
0.25
141
12.0
290
     0
  0
SCALE
  5
61
102
{ACAD_REACTORS
330
47
102
}
330
47
100
AcDbScale
 70
     0
300
3/8" = 1'-0"
140
0.375
141
12.0
290
     0
  0
SCALE
  5
62
102
{ACAD_REACTORS
330
47
102
}
330
47
100
AcDbScale
 70
     0
300
1/2" = 1'-0"
140
0.5
141
12.0
290
     0
  0
SCALE
  5
63
102
{ACAD_REACTORS
330
47
102
}
330
47
100
AcDbScale
 70
     0
300
3/4" = 1'-0"
140
0.75
141
12.0
290
     0
  0
SCALE
  5
64
102
{ACAD_REACTORS
330
47
102
}
330
47
100
AcDbScale
 70
     0
300
1" = 1'-0"
140
1.0
141
12.0
290
     0
  0
SCALE
  5
65
102
{ACAD_REACTORS
330
47
102
}
330
47
100
AcDbScale
 70
     0
300
1-1/2" = 1'-0"
140
1.5
141
12.0
290
     0
  0
SCALE
  5
66
102
{ACAD_REACTORS
330
47
102
}
330
47
100
AcDbScale
 70
     0
300
3" = 1'-0"
140
3.0
141
12.0
290
     0
  0
SCALE
  5
67
102
{ACAD_REACTORS
330
47
102
}
330
47
100
AcDbScale
 70
     0
300
6" = 1'-0"
140
6.0
141
12.0
290
     0
  0
SCALE
  5
68
102
{ACAD_REACTORS
330
47
102
}
330
47
100
AcDbScale
 70
     0
300
1'-0" = 1'-0"
140
12.0
141
12.0
290
     0
  0
TABLESTYLE
  5
6A
102
{ACAD_REACTORS
330
69
102
}
102
{ACAD_XDICTIONARY
360
F3
102
}
330
69
100
AcDbTableStyle
  3
Standard
 70
     0
 71
     0
 40
0.06
 41
0.06
280
     0
281
     0
  7
Standard
140
4.5
170
     2
 62
     0
 63
   257
283
     0
 90
        4
 91
        0
  1

274
    -2
284
     1
 64
     0
275
    -2
285
     1
 65
     0
276
    -2
286
     1
 66
     0
277
    -2
287
     1
 67
     0
278
    -2
288
     1
 68
     0
279
    -2
289
     1
 69
     0
  7
Standard
140
6.0
170
     5
 62
     0
 63
   257
283
     0
 90
        4
 91
        0
  1

274
    -2
284
     1
 64
     0
275
    -2
285
     1
 65
     0
276
    -2
286
     1
 66
     0
277
    -2
287
     1
 67
     0
278
    -2
288
     1
 68
     0
279
    -2
289
     1
 69
     0
  7
Standard
140
4.5
170
     5
 62
     0
 63
   257
283
     0
 90
        4
 91
        0
  1

274
    -2
284
     1
 64
     0
275
    -2
285
     1
 65
     0
276
    -2
286
     1
 66
     0
277
    -2
287
     1
 67
     0
278
    -2
288
     1
 68
     0
279
    -2
289
     1
 69
     0
  0
VISUALSTYLE
  5
2F
102
{ACAD_REACTORS
330
2A
102
}
330
2A
100
AcDbVisualStyle
  2
2dWireframe
 70
     4
 71
     0
 72
     2
 73
     0
 90
        0
 40
0.6
 41
30.0
 62
     5
 63
     7
421
 16777215
 74
     1
 91
        4
 64
     7
 65
   257
 75
     1
175
     1
 42
1.0
 92
        0
 66
   257
 43
1.0
 76
     1
 77
     6
 78
     2
 67
     7
 79
     5
170
     0
171
     0
290
     0
174
     0
 93
        1
 44
0.0
173
     0
291
     0
 45
0.0
  0
VISUALSTYLE
  5
32
102
{ACAD_REACTORS
330
2A
102
}
330
2A
100
AcDbVisualStyle
  2
Basic
 70
     7
 71
     1
 72
     0
 73
     1
 90
        0
 40
0.6
 41
30.0
 62
     5
 63
     7
421
 16777215
 74
     0
 91
        4
 64
     7
 65
   257
 75
     1
175
     1
 42
1.0
 92
        8
 66
     7
 43
1.0
 76
     1
 77
     6
 78
     2
 67
     7
 79
     5
170
     0
171
     0
290
     0
174
     0
 93
        1
 44
0.0
173
     0
291
     1
 45
0.0
  0
VISUALSTYLE
  5
36
102
{ACAD_REACTORS
330
2A
102
}
330
2A
100
AcDbVisualStyle
  2
Brighten
 70
    12
 71
     2
 72
     2
 73
     0
 90
        0
 40
0.6
 41
30.0
 62
     5
 63
     7
421
 16777215
 74
     1
 91
        4
 64
     7
 65
   257
 75
     1
175
     1
 42
1.0
 92
        8
 66
     7
 43
1.0
 76
     1
 77
     6
 78
     2
 67
     7
 79
     5
170
     0
171
     0
290
     0
174
     0
 93
        1
 44
50.0
173
     0
291
     1
 45
0.0
  0
VISUALSTYLE
  5
3A
102
{ACAD_REACTORS
330
2A
102
}
330
2A
100
AcDbVisualStyle
  2
ColorChange
 70
    16
 71
     2
 72
     2
 73
     3
 90
        0
 40
0.6
 41
30.0
 62
     5
 63
     8
421
  8421504
 74
     1
 91
        4
 64
     7
 65
   257
 75
     1
175
     1
 42
1.0
 92
        8
 66
     8
424
  8421504
 43
1.0
 76
     1
 77
     6
 78
     2
 67
     7
 79
     5
170
     0
171
     0
290
     0
174
     0
 93
        1
 44
0.0
173
     0
291
     1
 45
0.0
  0
VISUALSTYLE
  5
34
102
{ACAD_REACTORS
330
2A
102
}
330
2A
100
AcDbVisualStyle
  2
Conceptual
 70
     9
 71
     3
 72
     2
 73
     0
 90
        0
 40
0.6
 41
30.0
 62
     5
 63
     7
421
 16777215
 74
     2
 91
        2
 64
     7
 65
   257
 75
     1
175
     1
 42
179.0
 92
        8
 66
     7
 43
1.0
 76
     1
 77
     6
 78
     2
 67
     7
 79
     3
170
     0
171
     0
290
     0
174
     0
 93
        1
 44
0.0
173
     0
291
     0
 45
0.0
  0
VISUALSTYLE
  5
35
102
{ACAD_REACTORS
330
2A
102
}
330
2A
100
AcDbVisualStyle
  2
Dim
 70
    11
 71
     2
 72
     2
 73
     0
 90
        0
 40
0.6
 41
30.0
 62
     5
 63
     7
421
 16777215
 74
     1
 91
        4
 64
     7
 65
   257
 75
     1
175
     1
 42
1.0
 92
        8
 66
     7
 43
1.0
 76
     1
 77
     6
 78
     2
 67
     7
 79
     5
170
     0
171
     0
290
     0
174
     0
 93
        1
 44
-50.0
173
     0
291
     1
 45
0.0
  0
VISUALSTYLE
  5
3D
102
{ACAD_REACTORS
330
2A
102
}
330
2A
100
AcDbVisualStyle
  2
EdgeColorOff
 70
    22
 71
     2
 72
     2
 73
     0
 90
        0
 40
0.6
 41
30.0
 62
     5
 63
     7
421
 16777215
 74
     1
 91
        4
 64
     7
 65
   257
 75
     1
175
     1
 42
1.0
 92
        8
 66
     7
 43
1.0
 76
     1
 77
     6
 78
     2
 67
     7
 79
     5
170
     0
171
     0
290
     0
174
     0
 93
        1
 44
0.0
173
     0
291
     1
 45
0.0
  0
VISUALSTYLE
  5
39
102
{ACAD_REACTORS
330
2A
102
}
330
2A
100
AcDbVisualStyle
  2
Facepattern
 70
    15
 71
     2
 72
     2
 73
     0
 90
        0
 40
0.6
 41
30.0
 62
     5
 63
     7
421
 16777215
 74
     1
 91
        4
 64
     7
 65
   257
 75
     1
175
     1
 42
1.0
 92
        8
 66
     7
 43
1.0
 76
     1
 77
     6
 78
     2
 67
     7
 79
     5
170
     0
171
     0
290
     0
174
     0
 93
        1
 44
0.0
173
     0
291
     1
 45
0.0
  0
VISUALSTYLE
  5
2B
102
{ACAD_REACTORS
330
2A
102
}
330
2A
100
AcDbVisualStyle
  2
Flat
 70
     0
 71
     2
 72
     1
 73
     1
 90
        2
 40
0.6
 41
30.0
 62
     5
 63
     7
421
 16777215
 74
     0
 91
        0
 64
     7
 65
   257
 75
     1
175
     1
 42
1.0
 92
        8
 66
     7
 43
1.0
 76
     1
 77
     6
 78
     2
 67
     7
 79
     5
170
     0
171
     0
290
     0
174
     0
 93
       13
 44
0.0
173
     0
291
     1
 45
0.0
  0
VISUALSTYLE
  5
2C
102
{ACAD_REACTORS
330
2A
102
}
330
2A
100
AcDbVisualStyle
  2
FlatWithEdges
 70
     1
 71
     2
 72
     1
 73
     1
 90
        2
 40
0.6
 41
30.0
 62
     5
 63
     7
421
 16777215
 74
     1
 91
        0
 64
     7
 65
   257
 75
     1
175
     1
 42
1.0
 92
        0
 66
   257
 43
1.0
 76
     1
 77
     6
 78
     2
 67
     7
 79
     5
170
     0
171
     0
290
     0
174
     0
 93
       13
 44
0.0
173
     0
291
     1
 45
0.0
  0
VISUALSTYLE
  5
2D
102
{ACAD_REACTORS
330
2A
102
}
330
2A
100
AcDbVisualStyle
  2
Gouraud
 70
     2
 71
     2
 72
     2
 73
     1
 90
        2
 40
0.6
 41
30.0
 62
     5
 63
     7
421
 16777215
 74
     0
 91
        0
 64
     7
 65
   257
 75
     1
175
     1
 42
1.0
 92
        0
 66
     7
 43
1.0
 76
     1
 77
     6
 78
     2
 67
     7
 79
     5
170
     0
171
     0
290
     0
174
     0
 93
       13
 44
0.0
173
     0
291
     1
 45
0.0
  0
VISUALSTYLE
  5
2E
102
{ACAD_REACTORS
330
2A
102
}
330
2A
100
AcDbVisualStyle
  2
GouraudWithEdges
 70
     3
 71
     2
 72
     2
 73
     1
 90
        2
 40
0.6
 41
30.0
 62
     5
 63
     7
421
 16777215
 74
     1
 91
        0
 64
     7
 65
   257
 75
     1
175
     1
 42
1.0
 92
        0
 66
   257
 43
1.0
 76
     1
 77
     6
 78
     2
 67
     7
 79
     5
170
     0
171
     0
290
     0
174
     0
 93
       13
 44
0.0
173
     0
291
     1
 45
0.0
  0
VISUALSTYLE
  5
31
102
{ACAD_REACTORS
330
2A
102
}
330
2A
100
AcDbVisualStyle
  2
Hidden
 70
     6
 71
     1
 72
     2
 73
     2
 90
        0
 40
0.6
 41
30.0
 62
     5
 63
     7
421
 16777215
 74
     2
 91
        2
 64
     7
 65
   257
 75
     2
175
     1
 42
40.0
 92
        0
 66
   257
 43
1.0
 76
     1
 77
     6
 78
     2
 67
     7
 79
     3
170
     0
171
     0
290
     0
174
     0
 93
        1
 44
0.0
173
     0
291
     0
 45
0.0
  0
VISUALSTYLE
  5
3B
102
{ACAD_REACTORS
330
2A
102
}
330
2A
100
AcDbVisualStyle
  2
JitterOff
 70
    20
 71
     2
 72
     2
 73
     0
 90
        0
 40
0.6
 41
30.0
 62
     5
 63
     7
421
 16777215
 74
     1
 91
        4
 64
     7
 65
   257
 75
     1
175
     1
 42
1.0
 92
       10
 66
     7
 43
1.0
 76
     1
 77
     6
 78
     2
 67
     7
 79
     5
170
     0
171
     0
290
     0
174
     0
 93
        1
 44
0.0
173
     0
291
     1
 45
0.0
  0
VISUALSTYLE
  5
38
102
{ACAD_REACTORS
330
2A
102
}
330
2A
100
AcDbVisualStyle
  2
Linepattern
 70
    14
 71
     2
 72
     2
 73
     0
 90
        0
 40
0.6
 41
30.0
 62
     5
 63
     7
421
 16777215
 74
     1
 91
        4
 64
     7
 65
   257
 75
     7
175
     7
 42
1.0
 92
        8
 66
     7
 43
1.0
 76
     1
 77
     6
 78
     2
 67
     7
 79
     5
170
     0
171
     0
290
     0
174
     0
 93
        1
 44
0.0
173
     0
291
     1
 45
0.0
  0
VISUALSTYLE
  5
3C
102
{ACAD_REACTORS
330
2A
102
}
330
2A
100
AcDbVisualStyle
  2
OverhangOff
 70
    21
 71
     2
 72
     2
 73
     0
 90
        0
 40
0.6
 41
30.0
 62
     5
 63
     7
421
 16777215
 74
     1
 91
        4
 64
     7
 65
   257
 75
     1
175
     1
 42
1.0
 92
        9
 66
     7
 43
1.0
 76
     1
 77
     6
 78
     2
 67
     7
 79
     5
170
     0
171
     0
290
     0
174
     0
 93
        1
 44
0.0
173
     0
291
     1
 45
0.0
  0
VISUALSTYLE
  5
33
102
{ACAD_REACTORS
330
2A
102
}
330
2A
100
AcDbVisualStyle
  2
Realistic
 70
     8
 71
     2
 72
     3
 73
     0
 90
        2
 40
0.6
 41
30.0
 62
     5
 63
     7
421
 16777215
 74
     0
 91
        0
 64
     7
 65
   257
 75
     1
175
     1
 42
1.0
 92
        8
 66
   257
 43
1.0
 76
     1
 77
     6
 78
     2
 67
     7
 79
     3
170
     0
171
     0
290
     0
174
     0
 93
       13
 44
0.0
173
     0
291
     0
 45
0.0
  0
VISUALSTYLE
  5
42
102
{ACAD_REACTORS
330
2A
102
}
330
2A
100
AcDbVisualStyle
  2
Shaded
 70
    27
 71
     2
 72
     2
 73
     1
 90
        2
 40
0.6
 41
30.0
 62
     5
 63
     7
421
 16777215
 74
     0
 91
        4
 64
     7
 65
   257
 75
     1
175
     1
 42
1.0
 92
        8
 66
   257
 43
1.0
 76
     1
 77
     6
 78
     2
 67
     8
425
  7895160
 79
     3
170
     0
171
     0
290
     0
174
     0
 93
        5
 44
0.0
173
     0
291
     0
 45
0.0
  0
VISUALSTYLE
  5
41
102
{ACAD_REACTORS
330
2A
102
}
330
2A
100
AcDbVisualStyle
  2
Shaded with edges
 70
    26
 71
     2
 72
     2
 73
     1
 90
        2
 40
0.6
 41
30.0
 62
     5
 63
     7
421
 16777215
 74
     1
 91
       10
 64
     7
 65
   257
 75
     2
175
     1
 42
1.0
 92
        8
 66
   257
 43
1.0
 76
     1
 77
     6
 78
     2
 67
     7
 79
     3
170
     0
171
     0
290
     0
174
     0
 93
        5
 44
0.0
173
     0
291
     0
 45
0.0
  0
VISUALSTYLE
  5
3E
102
{ACAD_REACTORS
330
2A
102
}
330
2A
100
AcDbVisualStyle
  2
Shades of Gray
 70
    23
 71
     2
 72
     2
 73
     3
 90
        0
 40
0.6
 41
30.0
 62
     5
 63
     7
421
 16777215
 74
     2
 91
        2
 64
     7
 65
     7
 75
     1
175
     1
 42
40.0
 92
        8
 66
     7
 43
1.0
 76
     1
 77
     6
 78
     2
 67
     7
 79
     3
170
     0
171
     0
290
     0
174
     0
 93
        1
 44
0.0
173
     0
291
     0
 45
0.0
  0
VISUALSTYLE
  5
3F
102
{ACAD_REACTORS
330
2A
102
}
330
2A
100
AcDbVisualStyle
  2
Sketchy
 70
    24
 71
     1
 72
     2
 73
     2
 90
        0
 40
0.6
 41
30.0
 62
     5
 63
     7
421
 16777215
 74
     2
 91
        2
 64
     7
 65
     7
 75
     1
175
     1
 42
40.0
 92
       11
 66
     7
 43
1.0
 76
     1
 77
     6
 78
     2
 67
     7
 79
     6
170
     0
171
     0
290
     0
174
     0
 93
        1
 44
0.0
173
     0
291
     0
 45
0.0
  0
VISUALSTYLE
  5
37
102
{ACAD_REACTORS
330
2A
102
}
330
2A
100
AcDbVisualStyle
  2
Thicken
 70
    13
 71
     2
 72
     2
 73
     0
 90
        0
 40
0.6
 41
30.0
 62
     5
 63
     7
421
 16777215
 74
     1
 91
        4
 64
     7
 65
   257
 75
     1
175
     1
 42
1.0
 92
       12
 66
     7
 43
1.0
 76
     1
 77
     6
 78
     2
 67
     7
 79
     5
170
     0
171
     0
290
     0
174
     0
 93
        1
 44
0.0
173
     0
291
     1
 45
0.0
  0
VISUALSTYLE
  5
30
102
{ACAD_REACTORS
330
2A
102
}
330
2A
100
AcDbVisualStyle
  2
Wireframe
 70
     5
 71
     0
 72
     2
 73
     0
 90
        0
 40
0.6
 41
30.0
 62
     5
 63
     7
421
 16777215
 74
     1
 91
        4
 64
     7
 65
   257
 75
     1
175
     1
 42
1.0
 92
        0
 66
   257
 43
1.0
 76
     1
 77
     6
 78
     2
 67
     7
 79
     3
170
     0
171
     0
290
     0
174
     0
 93
        1
 44
0.0
173
     0
291
     0
 45
0.0
  0
VISUALSTYLE
  5
40
102
{ACAD_REACTORS
330
2A
102
}
330
2A
100
AcDbVisualStyle
  2
X-Ray
 70
    25
 71
     2
 72
     2
 73
     1
 90
        1
 40
0.5
 41
30.0
 62
     5
 63
     7
421
 16777215
 74
     1
 91
        0
 64
     7
 65
   257
 75
     1
175
     1
 42
1.0
 92
        8
 66
     7
 43
1.0
 76
     1
 77
     6
 78
     2
 67
     7
 79
     3
170
     0
171
     0
290
     0
174
     0
 93
       13
 44
0.0
173
     0
291
     0
 45
0.0
  0
DICTIONARYVAR
  5
F2
102
{ACAD_REACTORS
330
F1
102
}
330
F1
100
DictionaryVariables
280
     0
  1
1:1
  0
DICTIONARYVAR
  5
F8
102
{ACAD_REACTORS
330
F1
102
}
330
F1
100
DictionaryVariables
280
     0
  1
Standard
  0
DICTIONARYVAR
  5
F7
102
{ACAD_REACTORS
330
F1
102
}
330
F1
100
DictionaryVariables
280
     0
  1
Standard
  0
DICTIONARY
  5
F3
330
6A
100
AcDbDictionary
280
     1
281
     1
  3
ACAD_ROUNDTRIP_2008_TABLESTYLE_CELLSTYLEMAP
360
F4
  0
CELLSTYLEMAP
  5
F4
102
{ACAD_REACTORS
330
F3
102
}
330
F3
100
AcDbCellStyleMap
 90
        3
300
CELLSTYLE
  1
TABLEFORMAT_BEGIN
 90
        5
170
     1
 91
        0
 92
    32768
 62
   257
 93
        1
300
CONTENTFORMAT
  1
CONTENTFORMAT_BEGIN
 90
        0
 91
        0
 92
        4
 93
        0
300

 40
0.0
140
1.0
 94
        5
 62
     0
340
11
144
6.0
309
CONTENTFORMAT_END
171
     1
301
MARGIN
  1
CELLMARGIN_BEGIN
 40
1.5
 40
1.5
 40
1.5
 40
1.5
 40
1.5
 40
1.5
309
CELLMARGIN_END
 94
        6
 95
        1
302
GRIDFORMAT
  1
GRIDFORMAT_BEGIN
 90
        0
 91
        1
 62
     0
 92
       -2
340
14
 93
        0
 40
0.045
309
GRIDFORMAT_END
 95
        2
302
GRIDFORMAT
  1
GRIDFORMAT_BEGIN
 90
        0
 91
        1
 62
     0
 92
       -2
340
14
 93
        0
 40
0.045
309
GRIDFORMAT_END
 95
        4
302
GRIDFORMAT
  1
GRIDFORMAT_BEGIN
 90
        0
 91
        1
 62
     0
 92
       -2
340
14
 93
        0
 40
0.045
309
GRIDFORMAT_END
 95
        8
302
GRIDFORMAT
  1
GRIDFORMAT_BEGIN
 90
        0
 91
        1
 62
     0
 92
       -2
340
14
 93
        0
 40
0.045
309
GRIDFORMAT_END
 95
       16
302
GRIDFORMAT
  1
GRIDFORMAT_BEGIN
 90
        0
 91
        1
 62
     0
 92
       -2
340
14
 93
        0
 40
0.045
309
GRIDFORMAT_END
 95
       32
302
GRIDFORMAT
  1
GRIDFORMAT_BEGIN
 90
        0
 91
        1
 62
     0
 92
       -2
340
14
 93
        0
 40
0.045
309
GRIDFORMAT_END
309
TABLEFORMAT_END
  1
CELLSTYLE_BEGIN
 90
        1
 91
        1
300
_TITLE
309
CELLSTYLE_END
300
CELLSTYLE
  1
TABLEFORMAT_BEGIN
 90
        5
170
     1
 91
        0
 92
        0
 62
   257
 93
        1
300
CONTENTFORMAT
  1
CONTENTFORMAT_BEGIN
 90
        0
 91
        0
 92
        4
 93
        0
300

 40
0.0
140
1.0
 94
        5
 62
     0
340
11
144
4.5
309
CONTENTFORMAT_END
171
     1
301
MARGIN
  1
CELLMARGIN_BEGIN
 40
1.5
 40
1.5
 40
1.5
 40
1.5
 40
1.5
 40
1.5
309
CELLMARGIN_END
 94
        6
 95
        1
302
GRIDFORMAT
  1
GRIDFORMAT_BEGIN
 90
        0
 91
        1
 62
     0
 92
       -2
340
14
 93
        0
 40
0.045
309
GRIDFORMAT_END
 95
        2
302
GRIDFORMAT
  1
GRIDFORMAT_BEGIN
 90
        0
 91
        1
 62
     0
 92
       -2
340
14
 93
        0
 40
0.045
309
GRIDFORMAT_END
 95
        4
302
GRIDFORMAT
  1
GRIDFORMAT_BEGIN
 90
        0
 91
        1
 62
     0
 92
       -2
340
14
 93
        0
 40
0.045
309
GRIDFORMAT_END
 95
        8
302
GRIDFORMAT
  1
GRIDFORMAT_BEGIN
 90
        0
 91
        1
 62
     0
 92
       -2
340
14
 93
        0
 40
0.045
309
GRIDFORMAT_END
 95
       16
302
GRIDFORMAT
  1
GRIDFORMAT_BEGIN
 90
        0
 91
        1
 62
     0
 92
       -2
340
14
 93
        0
 40
0.045
309
GRIDFORMAT_END
 95
       32
302
GRIDFORMAT
  1
GRIDFORMAT_BEGIN
 90
        0
 91
        1
 62
     0
 92
       -2
340
14
 93
        0
 40
0.045
309
GRIDFORMAT_END
309
TABLEFORMAT_END
  1
CELLSTYLE_BEGIN
 90
        2
 91
        1
300
_HEADER
309
CELLSTYLE_END
300
CELLSTYLE
  1
TABLEFORMAT_BEGIN
 90
        5
170
     1
 91
        0
 92
        0
 62
   257
 93
        1
300
CONTENTFORMAT
  1
CONTENTFORMAT_BEGIN
 90
        0
 91
        0
 92
        4
 93
        0
300

 40
0.0
140
1.0
 94
        2
 62
     0
340
11
144
4.5
309
CONTENTFORMAT_END
171
     1
301
MARGIN
  1
CELLMARGIN_BEGIN
 40
1.5
 40
1.5
 40
1.5
 40
1.5
 40
1.5
 40
1.5
309
CELLMARGIN_END
 94
        6
 95
        1
302
GRIDFORMAT
  1
GRIDFORMAT_BEGIN
 90
        0
 91
        1
 62
     0
 92
       -2
340
14
 93
        0
 40
0.045
309
GRIDFORMAT_END
 95
        2
302
GRIDFORMAT
  1
GRIDFORMAT_BEGIN
 90
        0
 91
        1
 62
     0
 92
       -2
340
14
 93
        0
 40
0.045
309
GRIDFORMAT_END
 95
        4
302
GRIDFORMAT
  1
GRIDFORMAT_BEGIN
 90
        0
 91
        1
 62
     0
 92
       -2
340
14
 93
        0
 40
0.045
309
GRIDFORMAT_END
 95
        8
302
GRIDFORMAT
  1
GRIDFORMAT_BEGIN
 90
        0
 91
        1
 62
     0
 92
       -2
340
14
 93
        0
 40
0.045
309
GRIDFORMAT_END
 95
       16
302
GRIDFORMAT
  1
GRIDFORMAT_BEGIN
 90
        0
 91
        1
 62
     0
 92
       -2
340
14
 93
        0
 40
0.045
309
GRIDFORMAT_END
 95
       32
302
GRIDFORMAT
  1
GRIDFORMAT_BEGIN
 90
        0
 91
        1
 62
     0
 92
       -2
340
14
 93
        0
 40
0.045
309
GRIDFORMAT_END
309
TABLEFORMAT_END
  1
CELLSTYLE_BEGIN
 90
        3
 91
        2
300
_DATA
309
CELLSTYLE_END
  0
ENDSEC
  0
EOF
