  0
SECTION
  2
HEADER
  9
$ACADVER
  1
AC1015
  9
$ACADMAINTVER
 70
     6
  9
$DWGCODEPAGE
  3
ANSI_1250
  9
$INSBASE
 10
0.0
 20
0.0
 30
0.0
  9
$EXTMIN
 10
0.0
 20
0.0
 30
0.0
  9
$EXTMAX
 10
0.4318
 20
0.2794
 30
0.0
  9
$LIMMIN
 10
0.0
 20
0.0
  9
$LIMMAX
 10
0.4318
 20
0.2794
  9
$ORTHOMODE
 70
     0
  9
$REGENMODE
 70
     1
  9
$FILLMODE
 70
     1
  9
$QTEXTMODE
 70
     0
  9
$MIRRTEXT
 70
     1
  9
$LTSCALE
 40
1.0
  9
$ATTMODE
 70
     1
  9
$TEXTSIZE
 40
0.0035
  9
$TRACEWID
 40
1.0
  9
$TEXTSTYLE
  7
Standard
  9
$CLAYER
  8
0
  9
$CELTYPE
  6
ByLayer
  9
$CECOLOR
 62
   256
  9
$CELTSCALE
 40
1.0
  9
$DISPSILH
 70
     0
  9
$DIMSCALE
 40
1.0
  9
$DIMASZ
 40
0.003302
  9
$DIMEXO
 40
0.001
  9
$DIMDLI
 40
3.75
  9
$DIMRND
 40
0.0
  9
$DIMDLE
 40
0.0
  9
$DIMEXE
 40
0.001
  9
$DIMTP
 40
0.0
  9
$DIMTM
 40
0.0
  9
$DIMTXT
 40
0.0035
  9
$DIMCEN
 40
2.5
  9
$DIMTSZ
 40
0.0
  9
$DIMTOL
 70
     0
  9
$DIMLIM
 70
     0
  9
$DIMTIH
 70
     1
  9
$DIMTOH
 70
     1
  9
$DIMSE1
 70
     0
  9
$DIMSE2
 70
     0
  9
$DIMTAD
 70
     1
  9
$DIMZIN
 70
     0
  9
$DIMBLK
  1

  9
$DIMASO
 70
     1
  9
$DIMSHO
 70
     1
  9
$DIMPOST
  1

  9
$DIMAPOST
  1

  9
$DIMALT
 70
     0
  9
$DIMALTD
 70
     3
  9
$DIMALTF
 40
39.3700787402
  9
$DIMLFAC
 40
1.0
  9
$DIMTOFL
 70
     1
  9
$DIMTVP
 40
0.0
  9
$DIMTIX
 70
     0
  9
$DIMSOXD
 70
     0
  9
$DIMSAH
 70
     0
  9
$DIMBLK1
  1

  9
$DIMBLK2
  1

  9
$DIMSTYLE
  2
ISO-25
  9
$DIMCLRD
 70
     0
  9
$DIMCLRE
 70
     0
  9
$DIMCLRT
 70
     0
  9
$DIMTFAC
 40
1.0
  9
$DIMGAP
 40
0.001524
  9
$DIMJUST
 70
     0
  9
$DIMSD1
 70
     0
  9
$DIMSD2
 70
     0
  9
$DIMTOLJ
 70
     0
  9
$DIMTZIN
 70
     0
  9
$DIMALTZ
 70
     0
  9
$DIMALTTZ
 70
     0
  9
$DIMUPT
 70
     0
  9
$DIMDEC
 70
     2
  9
$DIMTDEC
 70
     2
  9
$DIMALTU
 70
     2
  9
$DIMALTTD
 70
     3
  9
$DIMTXSTY
  7
Standard
  9
$DIMAUNIT
 70
     0
  9
$DIMADEC
 70
     2
  9
$DIMALTRND
 40
0.0
  9
$DIMAZIN
 70
     0
  9
$DIMDSEP
 70
    44
  9
$DIMATFIT
 70
     3
  9
$DIMFRAC
 70
     0
  9
$DIMLDRBLK
  1

  9
$DIMLUNIT
 70
     2
  9
$DIMLWD
 70
    -2
  9
$DIMLWE
 70
    -2
  9
$DIMTMOVE
 70
     0
  9
$LUNITS
 70
     2
  9
$LUPREC
 70
     2
  9
$SKETCHINC
 40
1.0
  9
$FILLETRAD
 40
10.0
  9
$AUNITS
 70
     0
  9
$AUPREC
 70
     2
  9
$MENU
  1
.
  9
$ELEVATION
 40
0.0
  9
$PELEVATION
 40
0.0
  9
$THICKNESS
 40
0.0
  9
$LIMCHECK
 70
     0
  9
$CHAMFERA
 40
0.0
  9
$CHAMFERB
 40
0.0
  9
$CHAMFERC
 40
0.0
  9
$CHAMFERD
 40
0.0
  9
$SKPOLY
 70
     0
  9
$TDCREATE
 40
2458715.61675294
  9
$TDUCREATE
 40
2458715.533419606
  9
$TDUPDATE
 40
2458715.616753484
  9
$TDUUPDATE
 40
2458715.533420151
  9
$TDINDWG
 40
0.0000000116
  9
$TDUSRTIMER
 40
0.0000000116
  9
$USRTIMER
 70
     1
  9
$ANGBASE
 50
0.0
  9
$ANGDIR
 70
     0
  9
$PDMODE
 70
     0
  9
$PDSIZE
 40
-1.0
  9
$PLINEWID
 40
0.0
  9
$SPLFRAME
 70
     0
  9
$SPLINETYPE
 70
     6
  9
$SPLINESEGS
 70
     8
  9
$HANDSEED
  5
2B8
  9
$SURFTAB1
 70
     6
  9
$SURFTAB2
 70
     6
  9
$SURFTYPE
 70
     6
  9
$SURFU
 70
     6
  9
$SURFV
 70
     6
  9
$UCSBASE
  2

  9
$UCSNAME
  2

  9
$UCSORG
 10
0.0
 20
0.0
 30
0.0
  9
$UCSXDIR
 10
1.0
 20
0.0
 30
0.0
  9
$UCSYDIR
 10
0.0
 20
1.0
 30
0.0
  9
$UCSORTHOREF
  2

  9
$UCSORTHOVIEW
 70
     0
  9
$UCSORGTOP
 10
0.0
 20
0.0
 30
0.0
  9
$UCSORGBOTTOM
 10
0.0
 20
0.0
 30
0.0
  9
$UCSORGLEFT
 10
0.0
 20
0.0
 30
0.0
  9
$UCSORGRIGHT
 10
0.0
 20
0.0
 30
0.0
  9
$UCSORGFRONT
 10
0.0
 20
0.0
 30
0.0
  9
$UCSORGBACK
 10
0.0
 20
0.0
 30
0.0
  9
$PUCSBASE
  2

  9
$PUCSNAME
  2

  9
$PUCSORG
 10
0.0
 20
0.0
 30
0.0
  9
$PUCSXDIR
 10
1.0
 20
0.0
 30
0.0
  9
$PUCSYDIR
 10
0.0
 20
1.0
 30
0.0
  9
$PUCSORTHOREF
  2

  9
$PUCSORTHOVIEW
 70
     0
  9
$PUCSORGTOP
 10
0.0
 20
0.0
 30
0.0
  9
$PUCSORGBOTTOM
 10
0.0
 20
0.0
 30
0.0
  9
$PUCSORGLEFT
 10
0.0
 20
0.0
 30
0.0
  9
$PUCSORGRIGHT
 10
0.0
 20
0.0
 30
0.0
  9
$PUCSORGFRONT
 10
0.0
 20
0.0
 30
0.0
  9
$PUCSORGBACK
 10
0.0
 20
0.0
 30
0.0
  9
$USERI1
 70
     0
  9
$USERI2
 70
     0
  9
$USERI3
 70
     0
  9
$USERI4
 70
     0
  9
$USERI5
 70
     0
  9
$USERR1
 40
0.0
  9
$USERR2
 40
0.0
  9
$USERR3
 40
0.0
  9
$USERR4
 40
0.0
  9
$USERR5
 40
0.0
  9
$WORLDVIEW
 70
     1
  9
$SHADEDGE
 70
     3
  9
$SHADEDIF
 70
    70
  9
$TILEMODE
 70
     1
  9
$MAXACTVP
 70
    64
  9
$PINSBASE
 10
0.0
 20
0.0
 30
0.0
  9
$PLIMCHECK
 70
     0
  9
$PEXTMIN
 10
1.0000000000E+20
 20
1.0000000000E+20
 30
1.0000000000E+20
  9
$PEXTMAX
 10
-1.0000000000E+20
 20
-1.0000000000E+20
 30
-1.0000000000E+20
  9
$PLIMMIN
 10
0.0
 20
0.0
  9
$PLIMMAX
 10
420.0
 20
297.0
  9
$UNITMODE
 70
     0
  9
$VISRETAIN
 70
     1
  9
$PLINEGEN
 70
     0
  9
$PSLTSCALE
 70
     1
  9
$TREEDEPTH
 70
  3020
  9
$CMLSTYLE
  2
Standard
  9
$CMLJUST
 70
     0
  9
$CMLSCALE
 40
20.0
  9
$PROXYGRAPHICS
 70
     1
  9
$MEASUREMENT
 70
     1
  9
$CELWEIGHT
370
    -1
  9
$ENDCAPS
280
     0
  9
$JOINSTYLE
280
     0
  9
$LWDISPLAY
290
     1
  9
$INSUNITS
 70
     4
  9
$HYPERLINKBASE
  1

  9
$STYLESHEET
  1

  9
$XEDIT
290
     1
  9
$CEPSNTYPE
380
     0
  9
$PSTYLEMODE
290
     1
  9
$FINGERPRINTGUID
  2
{450E07D9-052E-4D62-A2C6-90D3B2FDAA1F}
  9
$VERSIONGUID
  2
{FAEB1C32-E019-11D5-929B-00C0DF256EC4}
  9
$EXTNAMES
290
     1
  9
$PSVPSCALE
 40
0.0
  9
$OLESTARTUP
290
     0
  0
ENDSEC
  0
SECTION
  2
CLASSES
  0
CLASS
  1
ACDBDICTIONARYWDFLT
  2
AcDbDictionaryWithDefault
  3
ObjectDBX Classes
 90
        0
280
     0
281
     0
  0
CLASS
  1
VISUALSTYLE
  2
AcDbVisualStyle
  3
ObjectDBX Classes
 90
     4095
280
     0
281
     0
  0
CLASS
  1
MATERIAL
  2
AcDbMaterial
  3
ObjectDBX Classes
 90
     1153
280
     0
281
     0
  0
CLASS
  1
SCALE
  2
AcDbScale
  3
ObjectDBX Classes
 90
     1153
280
     0
281
     0
  0
CLASS
  1
TABLESTYLE
  2
AcDbTableStyle
  3
ObjectDBX Classes
 90
     4095
280
     0
281
     0
  0
CLASS
  1
MLEADERSTYLE
  2
AcDbMLeaderStyle
  3
ACDB_MLEADERSTYLE_CLASS
 90
     4095
280
     0
281
     0
  0
CLASS
  1
SUN
  2
AcDbSun
  3
SCENEOE
 90
     1153
280
     0
281
     0
  0
CLASS
  1
ACDBPLACEHOLDER
  2
AcDbPlaceHolder
  3
ObjectDBX Classes
 90
        0
280
     0
281
     0
  0
CLASS
  1
LAYOUT
  2
AcDbLayout
  3
ObjectDBX Classes
 90
        0
280
     0
281
     0
  0
ENDSEC
  0
SECTION
  2
TABLES
  0
TABLE
  2
VPORT
  5
8
330
0
100
AcDbSymbolTable
 70
     1
  0
VPORT
  5
29
330
8
100
AcDbSymbolTableRecord
100
AcDbViewportTableRecord
  2
*Active
 70
     0
 10
0.0
 20
0.0
 11
1.0
 21
1.0
 12
0.2159
 22
0.1397
 13
0.0
 23
0.0
 14
10.0
 24
10.0
 15
10.0
 25
10.0
 16
0.0
 26
0.0
 36
1.0
 17
0.0
 27
0.0
 37
0.0
 40
0.2794
 41
1.5454545455
 42
50.0
 43
0.0
 44
0.0
 50
0.0
 51
0.0
 71
     0
 72
  2000
 73
     1
 74
     3
 75
     0
 76
     0
 77
     0
 78
     0
281
     0
 65
     1
110
0.0
120
0.0
130
0.0
111
1.0
121
0.0
131
0.0
112
0.0
122
1.0
132
0.0
 79
     0
146
0.0
  0
ENDTAB
  0
TABLE
  2
LTYPE
  5
5
330
0
100
AcDbSymbolTable
 70
     6
  0
LTYPE
  5
14
330
5
100
AcDbSymbolTableRecord
100
AcDbLinetypeTableRecord
  2
ByBlock
 70
     0
  3

 72
    65
 73
     0
 40
0.0
  0
LTYPE
  5
15
330
5
100
AcDbSymbolTableRecord
100
AcDbLinetypeTableRecord
  2
ByLayer
 70
     0
  3

 72
    65
 73
     0
 40
0.0
  0
LTYPE
  5
16
330
5
100
AcDbSymbolTableRecord
100
AcDbLinetypeTableRecord
  2
Continuous
 70
     0
  3
Solid line
 72
    65
 73
     0
 40
0.0
  0
LTYPE
  5
6E
330
5
100
AcDbSymbolTableRecord
100
AcDbLinetypeTableRecord
  2
HIDDEN
 70
     0
  3
Hidden __ __ __ __ __ __ __ __ __ __ __ __ __ __
 72
    65
 73
     2
 40
0.001905
 49
0.00127
 74
     0
 49
-0.000635
 74
     0
  0
LTYPE
  5
6F
330
5
100
AcDbSymbolTableRecord
100
AcDbLinetypeTableRecord
  2
PHANTOM
 70
     0
  3
Phantom ______  __  __  ______  __  __  ______
 72
    65
 73
     6
 40
0.0127
 49
0.00635
 74
     0
 49
-0.00127
 74
     0
 49
0.00127
 74
     0
 49
-0.00127
 74
     0
 49
0.00127
 74
     0
 49
-0.00127
 74
     0
  0
LTYPE
  5
70
330
5
100
AcDbSymbolTableRecord
100
AcDbLinetypeTableRecord
  2
CENTER
 70
     0
  3
Center ____ _ ____ _ ____ _ ____ _ ____ _ ____
 72
    65
 73
     4
 40
0.01016
 49
0.00635
 74
     0
 49
-0.00127
 74
     0
 49
0.00127
 74
     0
 49
-0.00127
 74
     0
  0
LTYPE
  5
71
330
5
100
AcDbSymbolTableRecord
100
AcDbLinetypeTableRecord
  2
CENTERX2
 70
     0
  3
Center (2x) ________  __  ________  __  _____
 72
    65
 73
     4
 40
0.02032
 49
0.0127
 74
     0
 49
-0.00254
 74
     0
 49
0.00254
 74
     0
 49
-0.00254
 74
     0
  0
LTYPE
  5
72
330
5
100
AcDbSymbolTableRecord
100
AcDbLinetypeTableRecord
  2
DOT2
 70
     0
  3
Dot (.5x) ........................................
 72
    65
 73
     2
 40
0.000635
 49
0.0
 74
     0
 49
-0.000635
 74
     0
  0
ENDTAB
  0
TABLE
  2
LAYER
  5
2
330
0
100
AcDbSymbolTable
 70
     1
  0
LAYER
  5
10
330
2
100
AcDbSymbolTableRecord
100
AcDbLayerTableRecord
  2
0
 70
     0
 62
     7
  6
Continuous
370
    -3
390
F
  0
ENDTAB
  0
TABLE
  2
STYLE
  5
3
330
0
100
AcDbSymbolTable
 70
     1
  0
STYLE
  5
11
330
3
100
AcDbSymbolTableRecord
100
AcDbTextStyleTableRecord
  2
Standard
 70
     0
 40
0.0
 41
1.0
 50
0.0
 71
     0
 42
0.0035
  3
txt
  4

  0
ENDTAB
  0
TABLE
  2
VIEW
  5
6
330
0
100
AcDbSymbolTable
 70
     0
  0
ENDTAB
  0
TABLE
  2
UCS
  5
7
330
0
100
AcDbSymbolTable
 70
     0
  0
ENDTAB
  0
TABLE
  2
APPID
  5
9
330
0
100
AcDbSymbolTable
 70
     1
  0
APPID
  5
12
330
9
100
AcDbSymbolTableRecord
100
AcDbRegAppTableRecord
  2
ACAD
 70
     0
  0
ENDTAB
  0
TABLE
  2
DIMSTYLE
  5
A
330
0
100
AcDbSymbolTable
 70
     1
100
AcDbDimStyleTable
  0
DIMSTYLE
105
27
330
A
100
AcDbSymbolTableRecord
100
AcDbDimStyleTableRecord
  2
ISO-25
 70
     0
 41
2.5
 42
0.625
 43
3.75
 44
1.25
 73
     0
 74
     0
 77
     1
 78
     8
140
2.5
141
2.5
143
0.0393700787
147
0.625
171
     3
172
     1
178
     0
271
     2
272
     2
274
     3
278
    44
283
     0
284
     8
340
11
  0
ENDTAB
  0
TABLE
  2
BLOCK_RECORD
  5
1
330
0
100
AcDbSymbolTable
 70
     1
  0
BLOCK_RECORD
  5
1F
330
1
100
AcDbSymbolTableRecord
100
AcDbBlockTableRecord
  2
*Model_Space
340
22
  0
BLOCK_RECORD
  5
1B
330
1
100
AcDbSymbolTableRecord
100
AcDbBlockTableRecord
  2
*Paper_Space
340
1E
  0
BLOCK_RECORD
  5
23
330
1
100
AcDbSymbolTableRecord
100
AcDbBlockTableRecord
  2
*Paper_Space0
340
26
  0
ENDTAB
  0
ENDSEC
  0
SECTION
  2
BLOCKS
  0
BLOCK
  5
20
330
1F
100
AcDbEntity
  8
0
100
AcDbBlockBegin
  2
*Model_Space
 70
     0
 10
0.0
 20
0.0
 30
0.0
  3
*Model_Space
  1

  0
ENDBLK
  5
21
330
1F
100
AcDbEntity
  8
0
100
AcDbBlockEnd
  0
BLOCK
  5
1C
330
1B
100
AcDbEntity
 67
     1
  8
0
100
AcDbBlockBegin
  2
*Paper_Space
 70
     0
 10
0.0
 20
0.0
 30
0.0
  3
*Paper_Space
  1

  0
ENDBLK
  5
1D
330
1B
100
AcDbEntity
 67
     1
  8
0
100
AcDbBlockEnd
  0
BLOCK
  5
24
330
23
100
AcDbEntity
  8
0
100
AcDbBlockBegin
  2
*Paper_Space0
 70
     0
 10
0.0
 20
0.0
 30
0.0
  3
*Paper_Space0
  1

  0
ENDBLK
  5
25
330
23
100
AcDbEntity
  8
0
100
AcDbBlockEnd
  0
ENDSEC
  0
SECTION
  2
ENTITIES
  0
LINE
  5
73
330
1F
100
AcDbEntity
  8
0
  6
Continuous
 62
     7
370
    25
100
AcDbLine
 10
0.7546206052
 20
-0.3679214473
 30
0.0
 11
0.755206042
 21
-0.3679214473
 31
0.0
  0
LINE
  5
74
330
1F
100
AcDbEntity
  8
0
  6
Continuous
 62
     7
370
    25
100
AcDbLine
 10
0.755206042
 20
-0.3479214473
 30
0.0
 11
0.7546206052
 21
-0.3479214473
 31
0.0
  0
ARC
  5
75
330
1F
100
AcDbEntity
  8
0
  6
Continuous
 62
     7
370
    25
100
AcDbCircle
 10
0.7552060879
 20
-0.3676214471
 30
0.0
 40
0.0003
100
AcDbArc
 50
270.0
 51
312.0412668333
  0
ARC
  5
76
330
1F
100
AcDbEntity
  8
0
  6
Continuous
 62
     7
370
    25
100
AcDbCircle
 10
0.7552060879
 20
-0.3482214471
 30
0.0
 40
0.0003
100
AcDbArc
 50
47.9587331667
 51
90.0
  0
ARC
  5
77
330
1F
100
AcDbEntity
  8
0
  6
Continuous
 62
     7
370
    25
100
AcDbCircle
 10
0.7546206212
 20
-0.3482214471
 30
0.0
 40
0.0003
100
AcDbArc
 50
90.0
 51
180.0
  0
ARC
  5
78
330
1F
100
AcDbEntity
  8
0
  6
Continuous
 62
     7
370
    25
100
AcDbCircle
 10
0.7546206212
 20
-0.3676214471
 30
0.0
 40
0.0003
100
AcDbArc
 50
180.0
 51
270.0
  0
ARC
  5
79
330
1F
100
AcDbEntity
  8
0
  6
Continuous
 62
     7
370
    25
100
AcDbCircle
 10
0.7464595101
 20
-0.3579214471
 30
0.0
 40
0.0133611111111112
100
AcDbArc
 50
11.4397163543
 51
47.9587331667
  0
ARC
  5
7A
330
1F
100
AcDbEntity
  8
0
  6
Continuous
 62
     7
370
    25
100
AcDbCircle
 10
0.7464595101
 20
-0.3579214471
 30
0.0
 40
0.0133611111111111
100
AcDbArc
 50
312.0412668333
 51
348.5602836457
  0
LINE
  5
7B
330
1F
100
AcDbEntity
  8
0
  6
Continuous
 62
     7
370
    25
100
AcDbLine
 10
0.7348206574
 20
-0.3641714471
 30
0.0
 11
0.7353206212
 21
-0.3641714471
 31
0.0
  0
LINE
  5
7C
330
1F
100
AcDbEntity
  8
0
  6
Continuous
 62
     7
370
    25
100
AcDbLine
 10
0.7353206212
 20
-0.3516714472
 30
0.0
 11
0.7348206574
 21
-0.3516714472
 31
0.0
  0
LINE
  5
7D
330
1F
100
AcDbEntity
  8
0
  6
Continuous
 62
     7
370
    25
100
AcDbLine
 10
0.7348206574
 20
-0.3516714472
 30
0.0
 11
0.7343205745
 21
-0.352171447
 31
0.0
  0
LINE
  5
7E
330
1F
100
AcDbEntity
  8
0
  6
Continuous
 62
     7
370
    25
100
AcDbLine
 10
0.7343205745
 20
-0.3636714471
 30
0.0
 11
0.7348206574
 21
-0.3641714471
 31
0.0
  0
LINE
  5
7F
330
1F
100
AcDbEntity
  8
0
  6
Continuous
 62
     7
370
    25
100
AcDbLine
 10
0.4538822109
 20
-0.3079214477
 30
0.0
 11
0.4417333538
 21
-0.3079214477
 31
0.0
  0
LINE
  5
80
330
1F
100
AcDbEntity
  8
0
  6
Continuous
 62
     7
370
    25
100
AcDbLine
 10
0.4417333538
 20
-0.4079214455
 30
0.0
 11
0.4538822109
 21
-0.4079214455
 31
0.0
  0
ARC
  5
81
330
1F
100
AcDbEntity
  8
0
  6
Continuous
 62
     7
370
    25
100
AcDbCircle
 10
0.4538821814
 20
-0.4049214471
 30
0.0
 40
0.003
100
AcDbArc
 50
270.0
 51
0.0
  0
ARC
  5
82
330
1F
100
AcDbEntity
  8
0
  6
Continuous
 62
     7
370
    25
100
AcDbCircle
 10
0.4538821814
 20
-0.3109214471
 30
0.0
 40
0.003
100
AcDbArc
 50
0.0
 51
90.0
  0
ARC
  5
83
330
1F
100
AcDbEntity
  8
0
  6
Continuous
 62
     7
370
    25
100
AcDbCircle
 10
0.3808844321
 20
-0.4049214471
 30
0.0
 40
0.003
100
AcDbArc
 50
270.0
 51
0.0
  0
ARC
  5
84
330
1F
100
AcDbEntity
  8
0
  6
Continuous
 62
     7
370
    25
100
AcDbCircle
 10
0.3808844321
 20
-0.3109214471
 30
0.0
 40
0.003
100
AcDbArc
 50
0.0
 51
90.0
  0
LINE
  5
85
330
1F
100
AcDbEntity
  8
0
  6
Continuous
 62
     7
370
    25
100
AcDbLine
 10
0.3808844024
 20
-0.3079214477
 30
0.0
 11
0.3758422071
 21
-0.3079214477
 31
0.0
  0
LINE
  5
86
330
1F
100
AcDbEntity
  8
0
  6
Continuous
 62
     7
370
    25
100
AcDbLine
 10
0.3758422071
 20
-0.4079214455
 30
0.0
 11
0.3808844024
 21
-0.4079214455
 31
0.0
  0
ARC
  5
87
330
1F
100
AcDbEntity
  8
0
  6
Continuous
 62
     7
370
    25
100
AcDbCircle
 10
0.4030979761
 20
-0.4049214471
 30
0.0
 40
0.003
100
AcDbArc
 50
270.0
 51
0.0
  0
ARC
  5
88
330
1F
100
AcDbEntity
  8
0
  6
Continuous
 62
     7
370
    25
100
AcDbCircle
 10
0.4030979761
 20
-0.3109214471
 30
0.0
 40
0.003
100
AcDbArc
 50
0.0
 51
90.0
  0
ARC
  5
89
330
1F
100
AcDbEntity
  8
0
  6
Continuous
 62
     7
370
    25
100
AcDbCircle
 10
0.3900979761
 20
-0.4049214471
 30
0.0
 40
0.003
100
AcDbArc
 50
180.0
 51
270.0
  0
ARC
  5
8A
330
1F
100
AcDbEntity
  8
0
  6
Continuous
 62
     7
370
    25
100
AcDbCircle
 10
0.3900979761
 20
-0.3109214471
 30
0.0
 40
0.003
100
AcDbArc
 50
90.0
 51
180.0
  0
LINE
  5
8B
330
1F
100
AcDbEntity
  8
0
  6
Continuous
 62
     7
370
    25
100
AcDbLine
 10
0.4030979807
 20
-0.3079214477
 30
0.0
 11
0.3900979692
 21
-0.3079214477
 31
0.0
  0
LINE
  5
8C
330
1F
100
AcDbEntity
  8
0
  6
Continuous
 62
     7
370
    25
100
AcDbLine
 10
0.3900979692
 20
-0.4079214455
 30
0.0
 11
0.4030979807
 21
-0.4079214455
 31
0.0
  0
ARC
  5
8D
330
1F
100
AcDbEntity
  8
0
  6
Continuous
 62
     7
370
    25
100
AcDbCircle
 10
0.6595016722
 20
-0.4049214471
 30
0.0
 40
0.003
100
AcDbArc
 50
270.0
 51
0.0
  0
ARC
  5
8E
330
1F
100
AcDbEntity
  8
0
  6
Continuous
 62
     7
370
    25
100
AcDbCircle
 10
0.6595016722
 20
-0.3109214471
 30
0.0
 40
0.003
100
AcDbArc
 50
0.0
 51
90.0
  0
LINE
  5
8F
330
1F
100
AcDbEntity
  8
0
  6
Continuous
 62
     7
370
    25
100
AcDbLine
 10
0.6595016653
 20
-0.3079214477
 30
0.0
 11
0.6465016538
 21
-0.3079214477
 31
0.0
  0
LINE
  5
90
330
1F
100
AcDbEntity
  8
0
  6
Continuous
 62
     7
370
    25
100
AcDbLine
 10
0.6465016538
 20
-0.4079214455
 30
0.0
 11
0.6595016653
 21
-0.4079214455
 31
0.0
  0
ARC
  5
91
330
1F
100
AcDbEntity
  8
0
  6
Continuous
 62
     7
370
    25
100
AcDbCircle
 10
0.6465016722
 20
-0.4049214471
 30
0.0
 40
0.003
100
AcDbArc
 50
180.0
 51
270.0
  0
ARC
  5
92
330
1F
100
AcDbEntity
  8
0
  6
Continuous
 62
     7
370
    25
100
AcDbCircle
 10
0.6465016722
 20
-0.3109214471
 30
0.0
 40
0.003
100
AcDbArc
 50
90.0
 51
180.0
  0
ARC
  5
93
330
1F
100
AcDbEntity
  8
0
  6
Continuous
 62
     7
370
    25
100
AcDbCircle
 10
0.4924098981
 20
-0.4049214471
 30
0.0
 40
0.003
100
AcDbArc
 50
270.0
 51
0.0
  0
ARC
  5
94
330
1F
100
AcDbEntity
  8
0
  6
Continuous
 62
     7
370
    25
100
AcDbCircle
 10
0.4924098981
 20
-0.3109214471
 30
0.0
 40
0.003
100
AcDbArc
 50
0.0
 51
90.0
  0
LINE
  5
95
330
1F
100
AcDbEntity
  8
0
  6
Continuous
 62
     7
370
    25
100
AcDbLine
 10
0.4924098784
 20
-0.3079214477
 30
0.0
 11
0.4861522848
 21
-0.3079214477
 31
0.0
  0
LINE
  5
96
330
1F
100
AcDbEntity
  8
0
  6
Continuous
 62
     7
370
    25
100
AcDbLine
 10
0.4861522848
 20
-0.4079214455
 30
0.0
 11
0.4924098784
 21
-0.4079214455
 31
0.0
  0
ARC
  5
97
330
1F
100
AcDbEntity
  8
0
  6
Continuous
 62
     7
370
    25
100
AcDbCircle
 10
0.4287333442
 20
-0.4049214471
 30
0.0
 40
0.003
100
AcDbArc
 50
180.0
 51
270.0
  0
ARC
  5
98
330
1F
100
AcDbEntity
  8
0
  6
Continuous
 62
     7
370
    25
100
AcDbCircle
 10
0.4287333442
 20
-0.3109214471
 30
0.0
 40
0.003
100
AcDbArc
 50
90.0
 51
180.0
  0
LINE
  5
99
330
1F
100
AcDbEntity
  8
0
  6
Continuous
 62
     7
370
    25
100
AcDbLine
 10
0.4417333538
 20
-0.3079214477
 30
0.0
 11
0.4287333423
 21
-0.3079214477
 31
0.0
  0
LINE
  5
9A
330
1F
100
AcDbEntity
  8
0
  6
Continuous
 62
     7
370
    25
100
AcDbLine
 10
0.4287333423
 20
-0.4079214455
 30
0.0
 11
0.4417333538
 21
-0.4079214455
 31
0.0
  0
ARC
  5
9B
330
1F
100
AcDbEntity
  8
0
  6
Continuous
 62
     7
370
    25
100
AcDbCircle
 10
0.4417333442
 20
-0.4049214471
 30
0.0
 40
0.003
100
AcDbArc
 50
270.0
 51
0.0
  0
ARC
  5
9C
330
1F
100
AcDbEntity
  8
0
  6
Continuous
 62
     7
370
    25
100
AcDbCircle
 10
0.4417333442
 20
-0.3109214471
 30
0.0
 40
0.003
100
AcDbArc
 50
0.0
 51
90.0
  0
LINE
  5
9D
330
1F
100
AcDbEntity
  8
0
  6
Continuous
 62
     7
370
    25
100
AcDbLine
 10
0.3400489623
 20
-0.3079214477
 30
0.0
 11
0.3369747931
 21
-0.3079214477
 31
0.0
  0
LINE
  5
9E
330
1F
100
AcDbEntity
  8
0
  6
Continuous
 62
     7
370
    25
100
AcDbLine
 10
0.3369747931
 20
-0.4079214455
 30
0.0
 11
0.3400489623
 21
-0.4079214455
 31
0.0
  0
ARC
  5
9F
330
1F
100
AcDbEntity
  8
0
  6
Continuous
 62
     7
370
    25
100
AcDbCircle
 10
0.3369748091
 20
-0.4049214471
 30
0.0
 40
0.003
100
AcDbArc
 50
180.0
 51
270.0
  0
ARC
  5
A0
330
1F
100
AcDbEntity
  8
0
  6
Continuous
 62
     7
370
    25
100
AcDbCircle
 10
0.3369748091
 20
-0.3109214471
 30
0.0
 40
0.003
100
AcDbArc
 50
90.0
 51
180.0
  0
LINE
  5
A1
330
1F
100
AcDbEntity
  8
0
  6
Continuous
 62
     7
370
    25
100
AcDbLine
 10
0.4079125458
 20
-0.3079214477
 30
0.0
 11
0.4030979807
 21
-0.3079214477
 31
0.0
  0
LINE
  5
A2
330
1F
100
AcDbEntity
  8
0
  6
Continuous
 62
     7
370
    25
100
AcDbLine
 10
0.4030979807
 20
-0.4079214455
 30
0.0
 11
0.4079125458
 21
-0.4079214455
 31
0.0
  0
ARC
  5
A3
330
1F
100
AcDbEntity
  8
0
  6
Continuous
 62
     7
370
    25
100
AcDbCircle
 10
0.407912562
 20
-0.4049214471
 30
0.0
 40
0.003
100
AcDbArc
 50
270.0
 51
0.0
  0
ARC
  5
A4
330
1F
100
AcDbEntity
  8
0
  6
Continuous
 62
     7
370
    25
100
AcDbCircle
 10
0.407912562
 20
-0.3109214471
 30
0.0
 40
0.003
100
AcDbArc
 50
0.0
 51
90.0
  0
ARC
  5
A5
330
1F
100
AcDbEntity
  8
0
  6
Continuous
 62
     7
370
    25
100
AcDbCircle
 10
0.3009539042
 20
-0.4049214471
 30
0.0
 40
0.003
100
AcDbArc
 50
270.0
 51
0.0
  0
ARC
  5
A6
330
1F
100
AcDbEntity
  8
0
  6
Continuous
 62
     7
370
    25
100
AcDbCircle
 10
0.3009539042
 20
-0.3109214471
 30
0.0
 40
0.003
100
AcDbArc
 50
0.0
 51
90.0
  0
LINE
  5
A7
330
1F
100
AcDbEntity
  8
0
  6
Continuous
 62
     7
370
    25
100
AcDbLine
 10
0.3009539181
 20
-0.3079214477
 30
0.0
 11
0.2900246913
 21
-0.3079214477
 31
0.0
  0
LINE
  5
A8
330
1F
100
AcDbEntity
  8
0
  6
Continuous
 62
     7
370
    25
100
AcDbLine
 10
0.2900246913
 20
-0.4079214455
 30
0.0
 11
0.3009539181
 21
-0.4079214455
 31
0.0
  0
ARC
  5
A9
330
1F
100
AcDbEntity
  8
0
  6
Continuous
 62
     7
370
    25
100
AcDbCircle
 10
0.2527325265
 20
-0.4049214471
 30
0.0
 40
0.003
100
AcDbArc
 50
270.0
 51
0.0
  0
ARC
  5
AA
330
1F
100
AcDbEntity
  8
0
  6
Continuous
 62
     7
370
    25
100
AcDbCircle
 10
0.2527325265
 20
-0.3109214471
 30
0.0
 40
0.003
100
AcDbArc
 50
0.0
 51
90.0
  0
ARC
  5
AB
330
1F
100
AcDbEntity
  8
0
  6
Continuous
 62
     7
370
    25
100
AcDbCircle
 10
0.2397325265
 20
-0.4049214471
 30
0.0
 40
0.003
100
AcDbArc
 50
180.0
 51
270.0
  0
ARC
  5
AC
330
1F
100
AcDbEntity
  8
0
  6
Continuous
 62
     7
370
    25
100
AcDbCircle
 10
0.2397325265
 20
-0.3109214471
 30
0.0
 40
0.003
100
AcDbArc
 50
90.0
 51
180.0
  0
LINE
  5
AD
330
1F
100
AcDbEntity
  8
0
  6
Continuous
 62
     7
370
    25
100
AcDbLine
 10
0.2527325088
 20
-0.3079214477
 30
0.0
 11
0.2397324974
 21
-0.3079214477
 31
0.0
  0
LINE
  5
AE
330
1F
100
AcDbEntity
  8
0
  6
Continuous
 62
     7
370
    25
100
AcDbLine
 10
0.2397324974
 20
-0.4079214455
 30
0.0
 11
0.2527325088
 21
-0.4079214455
 31
0.0
  0
ARC
  5
AF
330
1F
100
AcDbEntity
  8
0
  6
Continuous
 62
     7
370
    25
100
AcDbCircle
 10
0.5699317386
 20
-0.4049214471
 30
0.0
 40
0.003
100
AcDbArc
 50
180.0
 51
270.0
  0
ARC
  5
B0
330
1F
100
AcDbEntity
  8
0
  6
Continuous
 62
     7
370
    25
100
AcDbCircle
 10
0.5699317386
 20
-0.3109214471
 30
0.0
 40
0.003
100
AcDbArc
 50
90.0
 51
180.0
  0
LINE
  5
B1
330
1F
100
AcDbEntity
  8
0
  6
Continuous
 62
     7
370
    25
100
AcDbLine
 10
0.5829317505
 20
-0.3079214477
 30
0.0
 11
0.569931739
 21
-0.3079214477
 31
0.0
  0
LINE
  5
B2
330
1F
100
AcDbEntity
  8
0
  6
Continuous
 62
     7
370
    25
100
AcDbLine
 10
0.569931739
 20
-0.4079214455
 30
0.0
 11
0.5829317505
 21
-0.4079214455
 31
0.0
  0
ARC
  5
B3
330
1F
100
AcDbEntity
  8
0
  6
Continuous
 62
     7
370
    25
100
AcDbCircle
 10
0.5829317386
 20
-0.4049214471
 30
0.0
 40
0.003
100
AcDbArc
 50
270.0
 51
0.0
  0
ARC
  5
B4
330
1F
100
AcDbEntity
  8
0
  6
Continuous
 62
     7
370
    25
100
AcDbCircle
 10
0.5829317386
 20
-0.3109214471
 30
0.0
 40
0.003
100
AcDbArc
 50
0.0
 51
90.0
  0
ARC
  5
B5
330
1F
100
AcDbEntity
  8
0
  6
Continuous
 62
     7
370
    25
100
AcDbCircle
 10
0.3758421969
 20
-0.4049214471
 30
0.0
 40
0.003
100
AcDbArc
 50
270.0
 51
0.0
  0
ARC
  5
B6
330
1F
100
AcDbEntity
  8
0
  6
Continuous
 62
     7
370
    25
100
AcDbCircle
 10
0.3758421969
 20
-0.3109214471
 30
0.0
 40
0.003
100
AcDbArc
 50
0.0
 51
90.0
  0
ARC
  5
B7
330
1F
100
AcDbEntity
  8
0
  6
Continuous
 62
     7
370
    25
100
AcDbCircle
 10
0.3628421969
 20
-0.4049214471
 30
0.0
 40
0.003
100
AcDbArc
 50
180.0
 51
270.0
  0
ARC
  5
B8
330
1F
100
AcDbEntity
  8
0
  6
Continuous
 62
     7
370
    25
100
AcDbCircle
 10
0.3628421969
 20
-0.3109214471
 30
0.0
 40
0.003
100
AcDbArc
 50
90.0
 51
180.0
  0
LINE
  5
B9
330
1F
100
AcDbEntity
  8
0
  6
Continuous
 62
     7
370
    25
100
AcDbLine
 10
0.3758422071
 20
-0.3079214477
 30
0.0
 11
0.3628421957
 21
-0.3079214477
 31
0.0
  0
LINE
  5
BA
330
1F
100
AcDbEntity
  8
0
  6
Continuous
 62
     7
370
    25
100
AcDbLine
 10
0.3628421957
 20
-0.4079214455
 30
0.0
 11
0.3758422071
 21
-0.4079214455
 31
0.0
  0
ARC
  5
BB
330
1F
100
AcDbEntity
  8
0
  6
Continuous
 62
     7
370
    25
100
AcDbCircle
 10
0.2770246958
 20
-0.4049214471
 30
0.0
 40
0.003
100
AcDbArc
 50
180.0
 51
270.0
  0
ARC
  5
BC
330
1F
100
AcDbEntity
  8
0
  6
Continuous
 62
     7
370
    25
100
AcDbCircle
 10
0.2770246958
 20
-0.3109214471
 30
0.0
 40
0.003
100
AcDbArc
 50
90.0
 51
180.0
  0
ARC
  5
BD
330
1F
100
AcDbEntity
  8
0
  6
Continuous
 62
     7
370
    25
100
AcDbCircle
 10
0.2900246958
 20
-0.4049214471
 30
0.0
 40
0.003
100
AcDbArc
 50
270.0
 51
0.0
  0
ARC
  5
BE
330
1F
100
AcDbEntity
  8
0
  6
Continuous
 62
     7
370
    25
100
AcDbCircle
 10
0.2900246958
 20
-0.3109214471
 30
0.0
 40
0.003
100
AcDbArc
 50
0.0
 51
90.0
  0
LINE
  5
BF
330
1F
100
AcDbEntity
  8
0
  6
Continuous
 62
     7
370
    25
100
AcDbLine
 10
0.2900246913
 20
-0.3079214477
 30
0.0
 11
0.2770246798
 21
-0.3079214477
 31
0.0
  0
LINE
  5
C0
330
1F
100
AcDbEntity
  8
0
  6
Continuous
 62
     7
370
    25
100
AcDbLine
 10
0.2770246798
 20
-0.4079214455
 30
0.0
 11
0.2900246913
 21
-0.4079214455
 31
0.0
  0
ARC
  5
C1
330
1F
100
AcDbEntity
  8
0
  6
Continuous
 62
     7
370
    25
100
AcDbCircle
 10
0.599207362
 20
-0.4049214471
 30
0.0
 40
0.003
100
AcDbArc
 50
180.0
 51
270.0
  0
ARC
  5
C2
330
1F
100
AcDbEntity
  8
0
  6
Continuous
 62
     7
370
    25
100
AcDbCircle
 10
0.599207362
 20
-0.3109214471
 30
0.0
 40
0.003
100
AcDbArc
 50
90.0
 51
180.0
  0
LINE
  5
C3
330
1F
100
AcDbEntity
  8
0
  6
Continuous
 62
     7
370
    25
100
AcDbLine
 10
0.6122073466
 20
-0.3079214477
 30
0.0
 11
0.5992073352
 21
-0.3079214477
 31
0.0
  0
LINE
  5
C4
330
1F
100
AcDbEntity
  8
0
  6
Continuous
 62
     7
370
    25
100
AcDbLine
 10
0.5992073352
 20
-0.4079214455
 30
0.0
 11
0.6122073466
 21
-0.4079214455
 31
0.0
  0
ARC
  5
C5
330
1F
100
AcDbEntity
  8
0
  6
Continuous
 62
     7
370
    25
100
AcDbCircle
 10
0.612207362
 20
-0.4049214471
 30
0.0
 40
0.003
100
AcDbArc
 50
270.0
 51
0.0
  0
ARC
  5
C6
330
1F
100
AcDbEntity
  8
0
  6
Continuous
 62
     7
370
    25
100
AcDbCircle
 10
0.612207362
 20
-0.3109214471
 30
0.0
 40
0.003
100
AcDbArc
 50
360.0
 51
90.0
  0
LINE
  5
C7
330
1F
100
AcDbEntity
  8
0
  6
Continuous
 62
     7
370
    25
100
AcDbLine
 10
0.5555251772
 20
-0.3079214477
 30
0.0
 11
0.5425251657
 21
-0.3079214477
 31
0.0
  0
LINE
  5
C8
330
1F
100
AcDbEntity
  8
0
  6
Continuous
 62
     7
370
    25
100
AcDbLine
 10
0.5425251657
 20
-0.4079214455
 30
0.0
 11
0.5555251772
 21
-0.4079214455
 31
0.0
  0
ARC
  5
C9
330
1F
100
AcDbEntity
  8
0
  6
Continuous
 62
     7
370
    25
100
AcDbCircle
 10
0.555525187
 20
-0.4049214471
 30
0.0
 40
0.003
100
AcDbArc
 50
270.0
 51
0.0
  0
ARC
  5
CA
330
1F
100
AcDbEntity
  8
0
  6
Continuous
 62
     7
370
    25
100
AcDbCircle
 10
0.555525187
 20
-0.3109214471
 30
0.0
 40
0.003
100
AcDbArc
 50
0.0
 51
90.0
  0
ARC
  5
CB
330
1F
100
AcDbEntity
  8
0
  6
Continuous
 62
     7
370
    25
100
AcDbCircle
 10
0.542525187
 20
-0.4049214471
 30
0.0
 40
0.003
100
AcDbArc
 50
180.0
 51
270.0
  0
ARC
  5
CC
330
1F
100
AcDbEntity
  8
0
  6
Continuous
 62
     7
370
    25
100
AcDbCircle
 10
0.542525187
 20
-0.3109214471
 30
0.0
 40
0.003
100
AcDbArc
 50
90.0
 51
180.0
  0
ARC
  5
CD
330
1F
100
AcDbEntity
  8
0
  6
Continuous
 62
     7
370
    25
100
AcDbCircle
 10
0.3232657062
 20
-0.4049214471
 30
0.0
 40
0.003
100
AcDbArc
 50
270.0
 51
0.0
  0
ARC
  5
CE
330
1F
100
AcDbEntity
  8
0
  6
Continuous
 62
     7
370
    25
100
AcDbCircle
 10
0.3232657062
 20
-0.3109214471
 30
0.0
 40
0.003
100
AcDbArc
 50
0.0
 51
90.0
  0
ARC
  5
CF
330
1F
100
AcDbEntity
  8
0
  6
Continuous
 62
     7
370
    25
100
AcDbCircle
 10
0.3102657062
 20
-0.4049214471
 30
0.0
 40
0.003
100
AcDbArc
 50
180.0
 51
270.0
  0
ARC
  5
D0
330
1F
100
AcDbEntity
  8
0
  6
Continuous
 62
     7
370
    25
100
AcDbCircle
 10
0.3102657062
 20
-0.3109214471
 30
0.0
 40
0.003
100
AcDbArc
 50
90.0
 51
180.0
  0
LINE
  5
D1
330
1F
100
AcDbEntity
  8
0
  6
Continuous
 62
     7
370
    25
100
AcDbLine
 10
0.3232657248
 20
-0.3079214477
 30
0.0
 11
0.3102657134
 21
-0.3079214477
 31
0.0
  0
LINE
  5
D2
330
1F
100
AcDbEntity
  8
0
  6
Continuous
 62
     7
370
    25
100
AcDbLine
 10
0.3102657134
 20
-0.4079214455
 30
0.0
 11
0.3232657248
 21
-0.4079214455
 31
0.0
  0
ARC
  5
D3
330
1F
100
AcDbEntity
  8
0
  6
Continuous
 62
     7
370
    25
100
AcDbCircle
 10
0.4861522722
 20
-0.4049214471
 30
0.0
 40
0.003
100
AcDbArc
 50
270.0
 51
0.0
  0
ARC
  5
D4
330
1F
100
AcDbEntity
  8
0
  6
Continuous
 62
     7
370
    25
100
AcDbCircle
 10
0.4861522722
 20
-0.3109214471
 30
0.0
 40
0.003
100
AcDbArc
 50
0.0
 51
90.0
  0
ARC
  5
D5
330
1F
100
AcDbEntity
  8
0
  6
Continuous
 62
     7
370
    25
100
AcDbCircle
 10
0.4731522722
 20
-0.4049214471
 30
0.0
 40
0.003
100
AcDbArc
 50
180.0
 51
270.0
  0
ARC
  5
D6
330
1F
100
AcDbEntity
  8
0
  6
Continuous
 62
     7
370
    25
100
AcDbCircle
 10
0.4731522722
 20
-0.3109214471
 30
0.0
 40
0.003
100
AcDbArc
 50
90.0
 51
180.0
  0
LINE
  5
D7
330
1F
100
AcDbEntity
  8
0
  6
Continuous
 62
     7
370
    25
100
AcDbLine
 10
0.4861522848
 20
-0.3079214477
 30
0.0
 11
0.4731522733
 21
-0.3079214477
 31
0.0
  0
LINE
  5
D8
330
1F
100
AcDbEntity
  8
0
  6
Continuous
 62
     7
370
    25
100
AcDbLine
 10
0.4731522733
 20
-0.4079214455
 30
0.0
 11
0.4861522848
 21
-0.4079214455
 31
0.0
  0
ARC
  5
D9
330
1F
100
AcDbEntity
  8
0
  6
Continuous
 62
     7
370
    25
100
AcDbCircle
 10
0.35304898
 20
-0.4049214471
 30
0.0
 40
0.003
100
AcDbArc
 50
270.0
 51
0.0
  0
ARC
  5
DA
330
1F
100
AcDbEntity
  8
0
  6
Continuous
 62
     7
370
    25
100
AcDbCircle
 10
0.35304898
 20
-0.3109214471
 30
0.0
 40
0.003
100
AcDbArc
 50
0.0
 51
90.0
  0
LINE
  5
DB
330
1F
100
AcDbEntity
  8
0
  6
Continuous
 62
     7
370
    25
100
AcDbLine
 10
0.3530489737
 20
-0.3079214477
 30
0.0
 11
0.3400489623
 21
-0.3079214477
 31
0.0
  0
LINE
  5
DC
330
1F
100
AcDbEntity
  8
0
  6
Continuous
 62
     7
370
    25
100
AcDbLine
 10
0.3400489623
 20
-0.4079214455
 30
0.0
 11
0.3530489737
 21
-0.4079214455
 31
0.0
  0
ARC
  5
DD
330
1F
100
AcDbEntity
  8
0
  6
Continuous
 62
     7
370
    25
100
AcDbCircle
 10
0.34004898
 20
-0.4049214471
 30
0.0
 40
0.003
100
AcDbArc
 50
180.0
 51
270.0
  0
ARC
  5
DE
330
1F
100
AcDbEntity
  8
0
  6
Continuous
 62
     7
370
    25
100
AcDbCircle
 10
0.34004898
 20
-0.3109214471
 30
0.0
 40
0.003
100
AcDbArc
 50
90.0
 51
180.0
  0
ARC
  5
DF
330
1F
100
AcDbEntity
  8
0
  6
Continuous
 62
     7
370
    25
100
AcDbCircle
 10
0.5242143051
 20
-0.4049214471
 30
0.0
 40
0.003
100
AcDbArc
 50
270.0
 51
0.0
  0
ARC
  5
E0
330
1F
100
AcDbEntity
  8
0
  6
Continuous
 62
     7
370
    25
100
AcDbCircle
 10
0.5242143051
 20
-0.3109214471
 30
0.0
 40
0.003
100
AcDbArc
 50
0.0
 51
90.0
  0
LINE
  5
E1
330
1F
100
AcDbEntity
  8
0
  6
Continuous
 62
     7
370
    25
100
AcDbLine
 10
0.5242143208
 20
-0.3079214477
 30
0.0
 11
0.5112143094
 21
-0.3079214477
 31
0.0
  0
LINE
  5
E2
330
1F
100
AcDbEntity
  8
0
  6
Continuous
 62
     7
370
    25
100
AcDbLine
 10
0.5112143094
 20
-0.4079214455
 30
0.0
 11
0.5242143208
 21
-0.4079214455
 31
0.0
  0
ARC
  5
E3
330
1F
100
AcDbEntity
  8
0
  6
Continuous
 62
     7
370
    25
100
AcDbCircle
 10
0.5112143051
 20
-0.4049214471
 30
0.0
 40
0.003
100
AcDbArc
 50
180.0
 51
270.0
  0
ARC
  5
E4
330
1F
100
AcDbEntity
  8
0
  6
Continuous
 62
     7
370
    25
100
AcDbCircle
 10
0.5112143051
 20
-0.3109214471
 30
0.0
 40
0.003
100
AcDbArc
 50
90.0
 51
180.0
  0
LINE
  5
E5
330
1F
100
AcDbEntity
  8
0
  6
Continuous
 62
     7
370
    25
100
AcDbLine
 10
0.2128206426
 20
-0.3629214469
 30
0.0
 11
0.236732536
 21
-0.3629214469
 31
0.0
  0
LINE
  5
E6
330
1F
100
AcDbEntity
  8
0
  6
Continuous
 62
     7
370
    25
100
AcDbLine
 10
0.2557325298
 20
-0.3629214469
 30
0.0
 11
0.2740247185
 21
-0.3629214469
 31
0.0
  0
LINE
  5
E7
330
1F
100
AcDbEntity
  8
0
  6
Continuous
 62
     7
370
    25
100
AcDbLine
 10
0.2930247123
 20
-0.3629214469
 30
0.0
 11
0.3072656924
 21
-0.3629214469
 31
0.0
  0
LINE
  5
E8
330
1F
100
AcDbEntity
  8
0
  6
Continuous
 62
     7
370
    25
100
AcDbLine
 10
0.3262656862
 20
-0.3629214469
 30
0.0
 11
0.3370490009
 21
-0.3629214469
 31
0.0
  0
LINE
  5
E9
330
1F
100
AcDbEntity
  8
0
  6
Continuous
 62
     7
370
    25
100
AcDbLine
 10
0.3560489947
 20
-0.3629214469
 30
0.0
 11
0.3598421747
 21
-0.3629214469
 31
0.0
  0
LINE
  5
EA
330
1F
100
AcDbEntity
  8
0
  6
Continuous
 62
     7
370
    25
100
AcDbLine
 10
0.3788421685
 20
-0.3629214469
 30
0.0
 11
0.3870979482
 21
-0.3629214469
 31
0.0
  0
LINE
  5
EB
330
1F
100
AcDbEntity
  8
0
  6
Continuous
 62
     7
370
    25
100
AcDbLine
 10
0.4060980016
 20
-0.3629214469
 30
0.0
 11
0.4257333214
 21
-0.3629214469
 31
0.0
  0
LINE
  5
EC
330
1F
100
AcDbEntity
  8
0
  6
Continuous
 62
     7
370
    25
100
AcDbLine
 10
0.4447333152
 20
-0.3629214469
 30
0.0
 11
0.4701522524
 21
-0.3629214469
 31
0.0
  0
LINE
  5
ED
330
1F
100
AcDbEntity
  8
0
  6
Continuous
 62
     7
370
    25
100
AcDbLine
 10
0.4891522462
 20
-0.3629214469
 30
0.0
 11
0.5082142884
 21
-0.3629214469
 31
0.0
  0
LINE
  5
EE
330
1F
100
AcDbEntity
  8
0
  6
Continuous
 62
     7
370
    25
100
AcDbLine
 10
0.5272142822
 20
-0.3629214469
 30
0.0
 11
0.566931718
 21
-0.3629214469
 31
0.0
  0
LINE
  5
EF
330
1F
100
AcDbEntity
  8
0
  6
Continuous
 62
     7
370
    25
100
AcDbLine
 10
0.5859317118
 20
-0.3629214469
 30
0.0
 11
0.7343205745
 21
-0.3629214469
 31
0.0
  0
LINE
  5
F0
330
1F
100
AcDbEntity
  8
0
  6
Continuous
 62
     7
370
    25
100
AcDbLine
 10
0.7343205745
 20
-0.3529214472
 30
0.0
 11
0.5859317118
 21
-0.3529214472
 31
0.0
  0
LINE
  5
F1
330
1F
100
AcDbEntity
  8
0
  6
Continuous
 62
     7
370
    25
100
AcDbLine
 10
0.566931718
 20
-0.3529214472
 30
0.0
 11
0.5272142822
 21
-0.3529214472
 31
0.0
  0
LINE
  5
F2
330
1F
100
AcDbEntity
  8
0
  6
Continuous
 62
     7
370
    25
100
AcDbLine
 10
0.5082142884
 20
-0.3529214472
 30
0.0
 11
0.4891522462
 21
-0.3529214472
 31
0.0
  0
LINE
  5
F3
330
1F
100
AcDbEntity
  8
0
  6
Continuous
 62
     7
370
    25
100
AcDbLine
 10
0.4701522524
 20
-0.3529214472
 30
0.0
 11
0.4447333152
 21
-0.3529214472
 31
0.0
  0
LINE
  5
F4
330
1F
100
AcDbEntity
  8
0
  6
Continuous
 62
     7
370
    25
100
AcDbLine
 10
0.4257333214
 20
-0.3529214472
 30
0.0
 11
0.4060980016
 21
-0.3529214472
 31
0.0
  0
LINE
  5
F5
330
1F
100
AcDbEntity
  8
0
  6
Continuous
 62
     7
370
    25
100
AcDbLine
 10
0.3870979482
 20
-0.3529214472
 30
0.0
 11
0.3788421685
 21
-0.3529214472
 31
0.0
  0
LINE
  5
F6
330
1F
100
AcDbEntity
  8
0
  6
Continuous
 62
     7
370
    25
100
AcDbLine
 10
0.3598421747
 20
-0.3529214472
 30
0.0
 11
0.3560489947
 21
-0.3529214472
 31
0.0
  0
LINE
  5
F7
330
1F
100
AcDbEntity
  8
0
  6
Continuous
 62
     7
370
    25
100
AcDbLine
 10
0.3370490009
 20
-0.3529214472
 30
0.0
 11
0.3262656862
 21
-0.3529214472
 31
0.0
  0
LINE
  5
F8
330
1F
100
AcDbEntity
  8
0
  6
Continuous
 62
     7
370
    25
100
AcDbLine
 10
0.3072656924
 20
-0.3529214472
 30
0.0
 11
0.2930247123
 21
-0.3529214472
 31
0.0
  0
LINE
  5
F9
330
1F
100
AcDbEntity
  8
0
  6
Continuous
 62
     7
370
    25
100
AcDbLine
 10
0.2740247185
 20
-0.3529214472
 30
0.0
 11
0.2557325298
 21
-0.3529214472
 31
0.0
  0
LINE
  5
FA
330
1F
100
AcDbEntity
  8
0
  6
Continuous
 62
     7
370
    25
100
AcDbLine
 10
0.236732536
 20
-0.3529214472
 30
0.0
 11
0.2128206426
 21
-0.3529214472
 31
0.0
  0
LINE
  5
FB
330
1F
100
AcDbEntity
  8
0
  6
Continuous
 62
     7
370
    25
100
AcDbLine
 10
0.4864844615
 20
0.7260786063
 30
0.0
 11
0.4864844615
 21
0.7070785529
 31
0.0
  0
LINE
  5
FC
330
1F
100
AcDbEntity
  8
0
  6
Continuous
 62
     7
370
    25
100
AcDbLine
 10
0.6126759583
 20
0.7070785529
 30
0.0
 11
0.6126759583
 21
0.7260786063
 31
0.0
  0
LINE
  5
FD
330
1F
100
AcDbEntity
  8
0
  6
Continuous
 62
     7
370
    25
100
AcDbLine
 10
0.1743525202
 20
0.7260786063
 30
0.0
 11
0.1743525202
 21
0.7070785529
 31
0.0
  0
LINE
  5
FE
330
1F
100
AcDbEntity
  8
0
  6
Continuous
 62
     7
370
    25
100
AcDbLine
 10
0.2626866037
 20
0.7230785853
 30
0.0
 11
0.2626866037
 21
0.7260786063
 31
0.0
  0
LINE
  5
FF
330
1F
100
AcDbEntity
  8
0
  6
Continuous
 62
     7
370
    25
100
AcDbLine
 10
0.7228780324
 20
0.7230785853
 30
0.0
 11
0.7228780324
 21
0.7260786063
 31
0.0
  0
LINE
  5
100
330
1F
100
AcDbEntity
  8
0
  6
Continuous
 62
     7
370
    25
100
AcDbLine
 10
0.3784813816
 20
0.7260786063
 30
0.0
 11
0.3784813816
 21
0.7230785853
 31
0.0
  0
LINE
  5
101
330
1F
100
AcDbEntity
  8
0
  6
Continuous
 62
     7
370
    25
100
AcDbLine
 10
0.0904693538
 20
0.7260786063
 30
0.0
 11
0.0904693538
 21
0.7230785853
 31
0.0
  0
LINE
  5
102
330
1F
100
AcDbEntity
  8
0
  6
Continuous
 62
     7
370
    25
100
AcDbLine
 10
0.3282319838
 20
0.7230785853
 30
0.0
 11
0.3282319838
 21
0.7260786063
 31
0.0
  0
LINE
  5
103
330
1F
100
AcDbEntity
  8
0
  6
Continuous
 62
     7
370
    25
100
AcDbLine
 10
0.0721315378
 20
0.7260786063
 30
0.0
 11
0.0721315378
 21
0.7230785853
 31
0.0
  0
LINE
  5
104
330
1F
100
AcDbEntity
  8
0
  6
Continuous
 62
     7
370
    25
100
AcDbLine
 10
0.7250770861
 20
0.7230785853
 30
0.0
 11
0.7250770861
 21
0.7260786063
 31
0.0
  0
LINE
  5
105
330
1F
100
AcDbEntity
  8
0
  6
Continuous
 62
     7
370
    25
100
AcDbLine
 10
0.3325787718
 20
0.7069785363
 30
0.0
 11
0.3325787718
 21
0.6879786021
 31
0.0
  0
LINE
  5
106
330
1F
100
AcDbEntity
  8
0
  6
Continuous
 62
     7
370
    25
100
AcDbLine
 10
0.4209128553
 20
0.6879786021
 30
0.0
 11
0.4209128553
 21
0.7069785363
 31
0.0
  0
LINE
  5
107
330
1F
100
AcDbEntity
  8
0
  6
Continuous
 62
     7
370
    25
100
AcDbLine
 10
0.2486956054
 20
0.7069785363
 30
0.0
 11
0.2486956054
 21
0.6879786021
 31
0.0
  0
LINE
  5
108
330
1F
100
AcDbEntity
  8
0
  6
Continuous
 62
     7
370
    25
100
AcDbLine
 10
0.4864582354
 20
0.6879786021
 30
0.0
 11
0.4864582354
 21
0.7069785363
 31
0.0
  0
LINE
  5
109
330
1F
100
AcDbEntity
  8
0
  6
Continuous
 62
     7
370
    25
100
AcDbLine
 10
0.2303577596
 20
0.7069785363
 30
0.0
 11
0.2303577596
 21
0.6879786021
 31
0.0
  0
LINE
  5
10A
330
1F
100
AcDbEntity
  8
0
  6
Continuous
 62
     7
370
    25
100
AcDbLine
 10
0.0110904211
 20
0.7069785363
 30
0.0
 11
0.0110904211
 21
0.6879786021
 31
0.0
  0
LINE
  5
10B
330
1F
100
AcDbEntity
  8
0
  6
Continuous
 62
     7
370
    25
100
AcDbLine
 10
0.0994244749
 20
0.6879786021
 30
0.0
 11
0.0994244749
 21
0.7069785363
 31
0.0
  0
LINE
  5
10C
330
1F
100
AcDbEntity
  8
0
  6
Continuous
 62
     7
370
    25
100
AcDbLine
 10
-0.072792775
 20
0.7069785363
 30
0.0
 11
-0.072792775
 21
0.6879786021
 31
0.0
  0
LINE
  5
10D
330
1F
100
AcDbEntity
  8
0
  6
Continuous
 62
     7
370
    25
100
AcDbLine
 10
0.164969855
 20
0.6879786021
 30
0.0
 11
0.164969855
 21
0.7069785363
 31
0.0
  0
LINE
  5
10E
330
1F
100
AcDbEntity
  8
0
  6
Continuous
 62
     7
370
    25
100
AcDbLine
 10
-0.0911305761
 20
0.7069785363
 30
0.0
 11
-0.0911305761
 21
0.6879786021
 31
0.0
  0
LINE
  5
10F
330
1F
100
AcDbEntity
  8
0
  6
Continuous
 62
     7
370
    25
100
AcDbLine
 10
0.7543206746
 20
0.7884341246
 30
0.0
 11
0.7353206212
 21
0.7884341246
 31
0.0
  0
LINE
  5
110
330
1F
100
AcDbEntity
  8
0
  6
Continuous
 62
     7
370
    25
100
AcDbLine
 10
0.7353206212
 20
-0.4554838994
 30
0.0
 11
0.7543206746
 21
-0.4554838994
 31
0.0
  0
LINE
  5
111
330
1F
100
AcDbEntity
  8
0
  6
Continuous
 62
     7
370
    25
100
AcDbLine
 10
0.7663206393
 20
-0.2326841437
 30
0.0
 11
0.7543206746
 21
-0.2326841437
 31
0.0
  0
LINE
  5
112
330
1F
100
AcDbEntity
  8
0
  6
Continuous
 62
     7
370
    25
100
AcDbLine
 10
0.7543206746
 20
-0.2910189041
 30
0.0
 11
0.7663206393
 21
-0.2910189041
 31
0.0
  0
LINE
  5
113
330
1F
100
AcDbEntity
  8
0
  6
Continuous
 62
     7
370
    25
100
AcDbLine
 10
-0.3638793779
 20
-0.2412974992
 30
0.0
 11
-0.3448793786
 21
-0.2412974992
 31
0.0
  0
LINE
  5
114
330
1F
100
AcDbEntity
  8
0
  6
Continuous
 62
     7
370
    25
100
AcDbLine
 10
-0.3448793786
 20
0.7701216704
 30
0.0
 11
-0.3638793779
 21
0.7701216704
 31
0.0
  0
LINE
  5
115
330
1F
100
AcDbEntity
  8
0
  6
Continuous
 62
     7
370
    25
100
AcDbLine
 10
-0.3638793779
 20
-0.4180291825
 30
0.0
 11
-0.3448793786
 21
-0.4180291825
 31
0.0
  0
LINE
  5
116
330
1F
100
AcDbEntity
  8
0
  6
Continuous
 62
     7
370
    25
100
AcDbLine
 10
-0.3638793779
 20
-0.1838836306
 30
0.0
 11
-0.3758793799
 21
-0.1838836306
 31
0.0
  0
LINE
  5
117
330
1F
100
AcDbEntity
  8
0
  6
Continuous
 62
     7
370
    25
100
AcDbLine
 10
-0.3758793799
 20
-0.2412660428
 30
0.0
 11
-0.3638793779
 21
-0.2412660428
 31
0.0
  0
LINE
  5
118
330
1F
100
AcDbEntity
  8
0
  6
Continuous
 62
     7
370
    25
100
AcDbLine
 10
-0.3448793786
 20
-0.2412660428
 30
0.0
 11
-0.3328793789
 21
-0.2412660428
 31
0.0
  0
LINE
  5
119
330
1F
100
AcDbEntity
  8
0
  6
Continuous
 62
     7
370
    25
100
AcDbLine
 10
-0.3446793789
 20
-0.1838836306
 30
0.0
 11
-0.3448793786
 21
-0.1838836306
 31
0.0
  0
LINE
  5
11A
330
1F
100
AcDbEntity
  8
0
  6
Continuous
 62
     7
370
    25
100
AcDbLine
 10
-0.3448793786
 20
0.570810712
 30
0.0
 11
-0.3328793789
 21
0.570810712
 31
0.0
  0
LINE
  5
11B
330
1F
100
AcDbEntity
  8
0
  6
Continuous
 62
     7
370
    25
100
AcDbLine
 10
-0.3328793789
 20
0.6221670873
 30
0.0
 11
-0.3448793786
 21
0.6221670873
 31
0.0
  0
LINE
  5
11C
330
1F
100
AcDbEntity
  8
0
  6
Continuous
 62
     7
370
    25
100
AcDbLine
 10
-0.3638793779
 20
0.6221670873
 30
0.0
 11
-0.3758793799
 21
0.6221670873
 31
0.0
  0
LINE
  5
11D
330
1F
100
AcDbEntity
  8
0
  6
Continuous
 62
     7
370
    25
100
AcDbLine
 10
-0.3758793799
 20
0.570810712
 30
0.0
 11
-0.3638793779
 21
0.570810712
 31
0.0
  0
LINE
  5
11E
330
1F
100
AcDbEntity
  8
0
  6
Continuous
 62
     7
370
    25
100
AcDbLine
 10
0.7703205878
 20
2.2420786387
 30
0.0
 11
-0.3796793772
 21
2.2420786387
 31
0.0
  0
ARC
  5
11F
330
1F
100
AcDbEntity
  8
0
  6
Continuous
 62
     7
370
    25
100
AcDbCircle
 10
0.7703206212
 20
0.7420785529
 30
0.0
 40
1.5
100
AcDbArc
 50
0.0
 51
90.0
  0
ARC
  5
120
330
1F
100
AcDbEntity
  8
0
  6
Continuous
 62
     7
370
    25
100
AcDbCircle
 10
-0.3796793788
 20
0.7420785529
 30
0.0
 40
1.5
100
AcDbArc
 50
90.0
 51
180.0
  0
LINE
  5
121
330
1F
100
AcDbEntity
  8
0
  6
Continuous
 62
     7
370
    25
100
AcDbLine
 10
-0.3796793772
 20
-1.9079214566
 30
0.0
 11
0.7703205878
 21
-1.9079214566
 31
0.0
  0
ARC
  5
122
330
1F
100
AcDbEntity
  8
0
  6
Continuous
 62
     7
370
    25
100
AcDbCircle
 10
0.7703206212
 20
-0.4079214471
 30
0.0
 40
1.5
100
AcDbArc
 50
270.0
 51
0.0
  0
LINE
  5
123
330
1F
100
AcDbEntity
  8
0
  6
Continuous
 62
     7
370
    25
100
AcDbLine
 10
-1.8796793884
 20
0.7420785195
 30
0.0
 11
-1.8796793884
 21
-0.4079214455
 31
0.0
  0
ARC
  5
124
330
1F
100
AcDbEntity
  8
0
  6
Continuous
 62
     7
370
    25
100
AcDbCircle
 10
-0.3796793788
 20
-0.4079214471
 30
0.0
 40
1.5
100
AcDbArc
 50
180.0
 51
270.0
  0
LINE
  5
125
330
1F
100
AcDbEntity
  8
0
  6
Continuous
 62
     7
370
    25
100
AcDbLine
 10
2.270320707
 20
-0.4079214455
 30
0.0
 11
2.270320707
 21
0.7420785195
 31
0.0
  0
LINE
  5
126
330
1F
100
AcDbEntity
  8
0
  6
Continuous
 62
     7
370
    25
100
AcDbLine
 10
0.7595551545
 20
-0.3552714471
 30
0.0
 11
0.7594655091
 21
-0.3552714471
 31
0.0
  0
ARC
  5
127
330
1F
100
AcDbEntity
  8
0
  6
Continuous
 62
     7
370
    25
100
AcDbCircle
 10
0.7497182838
 20
-0.3565964471
 30
0.0
 40
0.0098368707402402
100
AcDbArc
 50
352.2588831424
 51
7.7411168576
  0
ARC
  5
128
330
1F
100
AcDbEntity
  8
0
  6
Continuous
 62
     7
370
    25
100
AcDbCircle
 10
0.7497182822
 20
-0.3592464471
 30
0.0
 40
0.0098368723875855
100
AcDbArc
 50
352.2588838479
 51
7.7411161521
  0
LINE
  5
129
330
1F
100
AcDbEntity
  8
0
  6
Continuous
 62
     7
370
    25
100
AcDbLine
 10
0.7594655091
 20
-0.3605714472
 30
0.0
 11
0.7595551545
 21
-0.3605714472
 31
0.0
  0
LINE
  5
12A
330
1F
100
AcDbEntity
  8
0
  6
Continuous
 62
     7
370
    25
100
AcDbLine
 10
0.7348206574
 20
-0.3516714472
 30
0.0
 11
0.7348206574
 21
-0.3641714471
 31
0.0
  0
LINE
  5
12B
330
1F
100
AcDbEntity
  8
0
  6
Continuous
 62
     7
370
    25
100
AcDbLine
 10
0.7343205745
 20
-0.3636714471
 30
0.0
 11
0.7343205745
 21
-0.352171447
 31
0.0
  0
ARC
  5
12C
330
1F
100
AcDbEntity
  8
0
  6
Continuous
 62
     7
370
    25
100
AcDbCircle
 10
0.7516262874
 20
-0.3562505175
 30
0.0
 40
0.0079288704228111
100
AcDbArc
 50
358.8232363532
 51
5.6840442982
  0
ARC
  5
12D
330
1F
100
AcDbEntity
  8
0
  6
Continuous
 62
     7
370
    25
100
AcDbCircle
 10
0.7516616751
 20
-0.3595933878
 30
0.0
 40
0.0078935111397701
100
AcDbArc
 50
352.8823726632
 51
1.1893758295
  0
ELLIPSE
  5
12E
330
1F
100
AcDbEntity
  8
0
  6
Continuous
 62
     7
370
    25
100
AcDbEllipse
 10
0.7313206212
 20
0.216522333
 30
0.0
 11
0.004000000000000004
 21
0.0
 31
0.0
210
0.0
220
0.0
230
1.0
 40
0.0115291045
 41
5.922188357267506
 42
6.283185307179586
  0
ELLIPSE
  5
12F
330
1F
100
AcDbEntity
  8
0
  6
Continuous
 62
     7
370
    25
100
AcDbEllipse
 10
0.7313206212
 20
0.216522333
 30
0.0
 11
0.004000000000000004
 21
0.0
 31
0.0
210
0.0
220
0.0
230
1.0
 40
0.0115291045
 41
5.922188357277754
 42
6.283185307179586
  0
LINE
  5
130
330
1F
100
AcDbEntity
  8
0
  6
Continuous
 62
     7
370
    25
100
AcDbLine
 10
-0.3446793789
 20
0.2224985129
 30
0.0
 11
-0.3446793789
 21
0.2165223128
 31
0.0
  0
ELLIPSE
  5
131
330
1F
100
AcDbEntity
  8
0
  6
Continuous
 62
     7
370
    25
100
AcDbEllipse
 10
-0.3406793788
 20
0.216522333
 30
0.0
 11
0.004000000000000004
 21
0.0
 31
0.0
210
0.0
220
0.0
230
1.0
 40
0.0115291045
 41
3.141592653589782
 42
3.498945477301661
  0
ELLIPSE
  5
132
330
1F
100
AcDbEntity
  8
0
  6
Continuous
 62
     7
370
    25
100
AcDbEllipse
 10
-0.3406793788
 20
0.216522333
 30
0.0
 11
0.004000000000000004
 21
0.0
 31
0.0
210
0.0
220
0.0
230
1.0
 40
0.0115291045
 41
3.141592653589782
 42
3.498945477250174
  0
LINE
  5
133
330
1F
100
AcDbEntity
  8
0
  6
Continuous
 62
     7
370
    25
100
AcDbLine
 10
-0.3446793789
 20
0.2165223128
 30
0.0
 11
-0.3446793789
 21
0.2122763163
 31
0.0
  0
LINE
  5
134
330
1F
100
AcDbEntity
  8
0
  6
Continuous
 62
     7
370
    25
100
AcDbLine
 10
0.4568821723
 20
-0.3109214463
 30
0.0
 11
0.4568821723
 21
-0.3529214472
 31
0.0
  0
LINE
  5
135
330
1F
100
AcDbEntity
  8
0
  6
Continuous
 62
     7
370
    25
100
AcDbLine
 10
0.4568821723
 20
-0.3629214469
 30
0.0
 11
0.4568821723
 21
-0.4049214468
 31
0.0
  0
LINE
  5
136
330
1F
100
AcDbEntity
  8
0
  6
Continuous
 62
     7
370
    25
100
AcDbLine
 10
0.3838844234
 20
-0.3109214463
 30
0.0
 11
0.3838844234
 21
-0.3529214472
 31
0.0
  0
LINE
  5
137
330
1F
100
AcDbEntity
  8
0
  6
Continuous
 62
     7
370
    25
100
AcDbLine
 10
0.3838844234
 20
-0.3629214469
 30
0.0
 11
0.3838844234
 21
-0.4049214468
 31
0.0
  0
LINE
  5
138
330
1F
100
AcDbEntity
  8
0
  6
Continuous
 62
     7
370
    25
100
AcDbLine
 10
0.4060980016
 20
-0.3109214463
 30
0.0
 11
0.4060980016
 21
-0.4049214468
 31
0.0
  0
LINE
  5
139
330
1F
100
AcDbEntity
  8
0
  6
Continuous
 62
     7
370
    25
100
AcDbLine
 10
0.3870979482
 20
-0.4049214468
 30
0.0
 11
0.3870979482
 21
-0.3109214463
 31
0.0
  0
LINE
  5
13A
330
1F
100
AcDbEntity
  8
0
  6
Continuous
 62
     7
370
    25
100
AcDbLine
 10
0.6625016863
 20
-0.3109214463
 30
0.0
 11
0.6625016863
 21
-0.3529214472
 31
0.0
  0
LINE
  5
13B
330
1F
100
AcDbEntity
  8
0
  6
Continuous
 62
     7
370
    25
100
AcDbLine
 10
0.6625016863
 20
-0.3629214469
 30
0.0
 11
0.6625016863
 21
-0.4049214468
 31
0.0
  0
LINE
  5
13C
330
1F
100
AcDbEntity
  8
0
  6
Continuous
 62
     7
370
    25
100
AcDbLine
 10
0.6435016925
 20
-0.4049214468
 30
0.0
 11
0.6435016925
 21
-0.3629214469
 31
0.0
  0
LINE
  5
13D
330
1F
100
AcDbEntity
  8
0
  6
Continuous
 62
     7
370
    25
100
AcDbLine
 10
0.6435016925
 20
-0.3529214472
 30
0.0
 11
0.6435016925
 21
-0.3109214463
 31
0.0
  0
LINE
  5
13E
330
1F
100
AcDbEntity
  8
0
  6
Continuous
 62
     7
370
    25
100
AcDbLine
 10
0.4954098994
 20
-0.3109214463
 30
0.0
 11
0.4954098994
 21
-0.3529214472
 31
0.0
  0
LINE
  5
13F
330
1F
100
AcDbEntity
  8
0
  6
Continuous
 62
     7
370
    25
100
AcDbLine
 10
0.4954098994
 20
-0.3629214469
 30
0.0
 11
0.4954098994
 21
-0.4049214468
 31
0.0
  0
LINE
  5
140
330
1F
100
AcDbEntity
  8
0
  6
Continuous
 62
     7
370
    25
100
AcDbLine
 10
0.4257333214
 20
-0.4049214468
 30
0.0
 11
0.4257333214
 21
-0.3109214463
 31
0.0
  0
LINE
  5
141
330
1F
100
AcDbEntity
  8
0
  6
Continuous
 62
     7
370
    25
100
AcDbLine
 10
0.4447333152
 20
-0.3109214463
 30
0.0
 11
0.4447333152
 21
-0.4049214468
 31
0.0
  0
LINE
  5
142
330
1F
100
AcDbEntity
  8
0
  6
Continuous
 62
     7
370
    25
100
AcDbLine
 10
0.3339748317
 20
-0.4049214468
 30
0.0
 11
0.3339748317
 21
-0.3629214469
 31
0.0
  0
LINE
  5
143
330
1F
100
AcDbEntity
  8
0
  6
Continuous
 62
     7
370
    25
100
AcDbLine
 10
0.3339748317
 20
-0.3529214472
 30
0.0
 11
0.3339748317
 21
-0.3109214463
 31
0.0
  0
LINE
  5
144
330
1F
100
AcDbEntity
  8
0
  6
Continuous
 62
     7
370
    25
100
AcDbLine
 10
0.4109125668
 20
-0.3109214463
 30
0.0
 11
0.4109125668
 21
-0.3529214472
 31
0.0
  0
LINE
  5
145
330
1F
100
AcDbEntity
  8
0
  6
Continuous
 62
     7
370
    25
100
AcDbLine
 10
0.4109125668
 20
-0.3629214469
 30
0.0
 11
0.4109125668
 21
-0.4049214468
 31
0.0
  0
LINE
  5
146
330
1F
100
AcDbEntity
  8
0
  6
Continuous
 62
     7
370
    25
100
AcDbLine
 10
0.3039538795
 20
-0.3109214463
 30
0.0
 11
0.3039538795
 21
-0.3529214472
 31
0.0
  0
LINE
  5
147
330
1F
100
AcDbEntity
  8
0
  6
Continuous
 62
     7
370
    25
100
AcDbLine
 10
0.3039538795
 20
-0.3629214469
 30
0.0
 11
0.3039538795
 21
-0.4049214468
 31
0.0
  0
LINE
  5
148
330
1F
100
AcDbEntity
  8
0
  6
Continuous
 62
     7
370
    25
100
AcDbLine
 10
0.2557325298
 20
-0.3109214463
 30
0.0
 11
0.2557325298
 21
-0.4049214468
 31
0.0
  0
LINE
  5
149
330
1F
100
AcDbEntity
  8
0
  6
Continuous
 62
     7
370
    25
100
AcDbLine
 10
0.236732536
 20
-0.4049214468
 30
0.0
 11
0.236732536
 21
-0.3109214463
 31
0.0
  0
LINE
  5
14A
330
1F
100
AcDbEntity
  8
0
  6
Continuous
 62
     7
370
    25
100
AcDbLine
 10
0.566931718
 20
-0.4049214468
 30
0.0
 11
0.566931718
 21
-0.3109214463
 31
0.0
  0
LINE
  5
14B
330
1F
100
AcDbEntity
  8
0
  6
Continuous
 62
     7
370
    25
100
AcDbLine
 10
0.5859317118
 20
-0.3109214463
 30
0.0
 11
0.5859317118
 21
-0.4049214468
 31
0.0
  0
LINE
  5
14C
330
1F
100
AcDbEntity
  8
0
  6
Continuous
 62
     7
370
    25
100
AcDbLine
 10
0.3788421685
 20
-0.3109214463
 30
0.0
 11
0.3788421685
 21
-0.4049214468
 31
0.0
  0
LINE
  5
14D
330
1F
100
AcDbEntity
  8
0
  6
Continuous
 62
     7
370
    25
100
AcDbLine
 10
0.3598421747
 20
-0.4049214468
 30
0.0
 11
0.3598421747
 21
-0.3109214463
 31
0.0
  0
LINE
  5
14E
330
1F
100
AcDbEntity
  8
0
  6
Continuous
 62
     7
370
    25
100
AcDbLine
 10
0.2740247185
 20
-0.4049214468
 30
0.0
 11
0.2740247185
 21
-0.3109214463
 31
0.0
  0
LINE
  5
14F
330
1F
100
AcDbEntity
  8
0
  6
Continuous
 62
     7
370
    25
100
AcDbLine
 10
0.2930247123
 20
-0.3109214463
 30
0.0
 11
0.2930247123
 21
-0.4049214468
 31
0.0
  0
LINE
  5
150
330
1F
100
AcDbEntity
  8
0
  6
Continuous
 62
     7
370
    25
100
AcDbLine
 10
0.5962073738
 20
-0.4049214468
 30
0.0
 11
0.5962073738
 21
-0.3629214469
 31
0.0
  0
LINE
  5
151
330
1F
100
AcDbEntity
  8
0
  6
Continuous
 62
     7
370
    25
100
AcDbLine
 10
0.5962073738
 20
-0.3529214472
 30
0.0
 11
0.5962073738
 21
-0.3109214463
 31
0.0
  0
LINE
  5
152
330
1F
100
AcDbEntity
  8
0
  6
Continuous
 62
     7
370
    25
100
AcDbLine
 10
0.6152073676
 20
-0.3109214463
 30
0.0
 11
0.6152073676
 21
-0.3529214472
 31
0.0
  0
LINE
  5
153
330
1F
100
AcDbEntity
  8
0
  6
Continuous
 62
     7
370
    25
100
AcDbLine
 10
0.6152073676
 20
-0.3629214469
 30
0.0
 11
0.6152073676
 21
-0.4049214468
 31
0.0
  0
LINE
  5
154
330
1F
100
AcDbEntity
  8
0
  6
Continuous
 62
     7
370
    25
100
AcDbLine
 10
0.5585251982
 20
-0.3109214463
 30
0.0
 11
0.5585251982
 21
-0.3529214472
 31
0.0
  0
LINE
  5
155
330
1F
100
AcDbEntity
  8
0
  6
Continuous
 62
     7
370
    25
100
AcDbLine
 10
0.5585251982
 20
-0.3629214469
 30
0.0
 11
0.5585251982
 21
-0.4049214468
 31
0.0
  0
LINE
  5
156
330
1F
100
AcDbEntity
  8
0
  6
Continuous
 62
     7
370
    25
100
AcDbLine
 10
0.5395252044
 20
-0.4049214468
 30
0.0
 11
0.5395252044
 21
-0.3629214469
 31
0.0
  0
LINE
  5
157
330
1F
100
AcDbEntity
  8
0
  6
Continuous
 62
     7
370
    25
100
AcDbLine
 10
0.5395252044
 20
-0.3529214472
 30
0.0
 11
0.5395252044
 21
-0.3109214463
 31
0.0
  0
LINE
  5
158
330
1F
100
AcDbEntity
  8
0
  6
Continuous
 62
     7
370
    25
100
AcDbLine
 10
0.3262656862
 20
-0.3109214463
 30
0.0
 11
0.3262656862
 21
-0.4049214468
 31
0.0
  0
LINE
  5
159
330
1F
100
AcDbEntity
  8
0
  6
Continuous
 62
     7
370
    25
100
AcDbLine
 10
0.3072656924
 20
-0.4049214468
 30
0.0
 11
0.3072656924
 21
-0.3109214463
 31
0.0
  0
LINE
  5
15A
330
1F
100
AcDbEntity
  8
0
  6
Continuous
 62
     7
370
    25
100
AcDbLine
 10
0.4891522462
 20
-0.3109214463
 30
0.0
 11
0.4891522462
 21
-0.4049214468
 31
0.0
  0
LINE
  5
15B
330
1F
100
AcDbEntity
  8
0
  6
Continuous
 62
     7
370
    25
100
AcDbLine
 10
0.4701522524
 20
-0.4049214468
 30
0.0
 11
0.4701522524
 21
-0.3109214463
 31
0.0
  0
LINE
  5
15C
330
1F
100
AcDbEntity
  8
0
  6
Continuous
 62
     7
370
    25
100
AcDbLine
 10
0.3560489947
 20
-0.3109214463
 30
0.0
 11
0.3560489947
 21
-0.4049214468
 31
0.0
  0
LINE
  5
15D
330
1F
100
AcDbEntity
  8
0
  6
Continuous
 62
     7
370
    25
100
AcDbLine
 10
0.3370490009
 20
-0.4049214468
 30
0.0
 11
0.3370490009
 21
-0.3109214463
 31
0.0
  0
LINE
  5
15E
330
1F
100
AcDbEntity
  8
0
  6
Continuous
 62
     7
370
    25
100
AcDbLine
 10
0.5272142822
 20
-0.3109214463
 30
0.0
 11
0.5272142822
 21
-0.4049214468
 31
0.0
  0
LINE
  5
15F
330
1F
100
AcDbEntity
  8
0
  6
Continuous
 62
     7
370
    25
100
AcDbLine
 10
0.5082142884
 20
-0.4049214468
 30
0.0
 11
0.5082142884
 21
-0.3109214463
 31
0.0
  0
LINE
  5
160
330
1F
100
AcDbEntity
  8
0
  6
Continuous
 62
     7
370
    25
100
AcDbLine
 10
-0.2713284334
 20
-0.3919214466
 30
0.0
 11
-0.2713284334
 21
-0.3729214472
 31
0.0
  0
LINE
  5
161
330
1F
100
AcDbEntity
  8
0
  6
Continuous
 62
     7
370
    25
100
AcDbLine
 10
-0.3446793789
 20
-0.3919214466
 30
0.0
 11
-0.3446793789
 21
-0.3729214472
 31
0.0
  0
LINE
  5
162
330
1F
100
AcDbEntity
  8
0
  6
Continuous
 62
     7
370
    25
100
AcDbLine
 10
-0.2713284334
 20
-0.3729214472
 30
0.0
 11
-0.3446793789
 21
-0.3729214472
 31
0.0
  0
LINE
  5
163
330
1F
100
AcDbEntity
  8
0
  6
Continuous
 62
     7
370
    25
100
AcDbLine
 10
-0.2713284334
 20
-0.3919214466
 30
0.0
 11
-0.3446793789
 21
-0.3919214466
 31
0.0
  0
LINE
  5
164
330
1F
100
AcDbEntity
  8
0
  6
Continuous
 62
     7
370
    25
100
AcDbLine
 10
-0.0713284379
 20
-0.3919214466
 30
0.0
 11
-0.0713284379
 21
-0.3729214472
 31
0.0
  0
LINE
  5
165
330
1F
100
AcDbEntity
  8
0
  6
Continuous
 62
     7
370
    25
100
AcDbLine
 10
-0.144679374
 20
-0.3919214466
 30
0.0
 11
-0.144679374
 21
-0.3729214472
 31
0.0
  0
LINE
  5
166
330
1F
100
AcDbEntity
  8
0
  6
Continuous
 62
     7
370
    25
100
AcDbLine
 10
-0.0713284379
 20
-0.3919214466
 30
0.0
 11
-0.144679374
 21
-0.3919214466
 31
0.0
  0
LINE
  5
167
330
1F
100
AcDbEntity
  8
0
  6
Continuous
 62
     7
370
    25
100
AcDbLine
 10
-0.0713284379
 20
-0.3729214472
 30
0.0
 11
-0.144679374
 21
-0.3729214472
 31
0.0
  0
LINE
  5
168
330
1F
100
AcDbEntity
  8
0
  6
Continuous
 62
     7
370
    25
100
AcDbLine
 10
0.2186715538
 20
-0.3919214466
 30
0.0
 11
0.2186715538
 21
-0.3729214472
 31
0.0
  0
LINE
  5
169
330
1F
100
AcDbEntity
  8
0
  6
Continuous
 62
     7
370
    25
100
AcDbLine
 10
0.2186715538
 20
-0.3919214466
 30
0.0
 11
0.1453206176
 21
-0.3919214466
 31
0.0
  0
LINE
  5
16A
330
1F
100
AcDbEntity
  8
0
  6
Continuous
 62
     7
370
    25
100
AcDbLine
 10
0.1453206176
 20
-0.3919214466
 30
0.0
 11
0.1453206176
 21
-0.3729214472
 31
0.0
  0
LINE
  5
16B
330
1F
100
AcDbEntity
  8
0
  6
Continuous
 62
     7
370
    25
100
AcDbLine
 10
0.2186715538
 20
-0.3729214472
 30
0.0
 11
0.1453206176
 21
-0.3729214472
 31
0.0
  0
LINE
  5
16C
330
1F
100
AcDbEntity
  8
0
  6
Continuous
 62
     7
370
    25
100
AcDbLine
 10
0.0286715562
 20
-0.3919214466
 30
0.0
 11
0.0286715562
 21
-0.3729214472
 31
0.0
  0
LINE
  5
16D
330
1F
100
AcDbEntity
  8
0
  6
Continuous
 62
     7
370
    25
100
AcDbLine
 10
0.0286715562
 20
-0.3919214466
 30
0.0
 11
-0.04467938
 21
-0.3919214466
 31
0.0
  0
LINE
  5
16E
330
1F
100
AcDbEntity
  8
0
  6
Continuous
 62
     7
370
    25
100
AcDbLine
 10
-0.04467938
 20
-0.3919214466
 30
0.0
 11
-0.04467938
 21
-0.3729214472
 31
0.0
  0
LINE
  5
16F
330
1F
100
AcDbEntity
  8
0
  6
Continuous
 62
     7
370
    25
100
AcDbLine
 10
0.0286715562
 20
-0.3729214472
 30
0.0
 11
-0.04467938
 21
-0.3729214472
 31
0.0
  0
LINE
  5
170
330
1F
100
AcDbEntity
  8
0
  6
Continuous
 62
     7
370
    25
100
AcDbLine
 10
-0.1713284319
 20
-0.3919214466
 30
0.0
 11
-0.1713284319
 21
-0.3729214472
 31
0.0
  0
LINE
  5
171
330
1F
100
AcDbEntity
  8
0
  6
Continuous
 62
     7
370
    25
100
AcDbLine
 10
-0.2446793755
 20
-0.3919214466
 30
0.0
 11
-0.2446793755
 21
-0.3729214472
 31
0.0
  0
LINE
  5
172
330
1F
100
AcDbEntity
  8
0
  6
Continuous
 62
     7
370
    25
100
AcDbLine
 10
-0.1713284319
 20
-0.3729214472
 30
0.0
 11
-0.2446793755
 21
-0.3729214472
 31
0.0
  0
LINE
  5
173
330
1F
100
AcDbEntity
  8
0
  6
Continuous
 62
     7
370
    25
100
AcDbLine
 10
-0.1713284319
 20
-0.3919214466
 30
0.0
 11
-0.2446793755
 21
-0.3919214466
 31
0.0
  0
LINE
  5
174
330
1F
100
AcDbEntity
  8
0
  6
Continuous
 62
     7
370
    25
100
AcDbLine
 10
0.12867158
 20
-0.3919214466
 30
0.0
 11
0.12867158
 21
-0.3729214472
 31
0.0
  0
LINE
  5
175
330
1F
100
AcDbEntity
  8
0
  6
Continuous
 62
     7
370
    25
100
AcDbLine
 10
0.12867158
 20
-0.3919214466
 30
0.0
 11
0.055320614
 21
-0.3919214466
 31
0.0
  0
LINE
  5
176
330
1F
100
AcDbEntity
  8
0
  6
Continuous
 62
     7
370
    25
100
AcDbLine
 10
0.055320614
 20
-0.3919214466
 30
0.0
 11
0.055320614
 21
-0.3729214472
 31
0.0
  0
LINE
  5
177
330
1F
100
AcDbEntity
  8
0
  6
Continuous
 62
     7
370
    25
100
AcDbLine
 10
0.12867158
 20
-0.3729214472
 30
0.0
 11
0.055320614
 21
-0.3729214472
 31
0.0
  0
LINE
  5
178
330
1F
100
AcDbEntity
  8
0
  6
Continuous
 62
     7
370
    25
100
AcDbLine
 10
0.6126759583
 20
0.7070785529
 30
0.0
 11
0.4864844615
 21
0.7070785529
 31
0.0
  0
LINE
  5
179
330
1F
100
AcDbEntity
  8
0
  6
Continuous
 62
     7
370
    25
100
AcDbLine
 10
0.6126759583
 20
0.7260786063
 30
0.0
 11
0.4864844615
 21
0.7260786063
 31
0.0
  0
LINE
  5
17A
330
1F
100
AcDbEntity
  8
0
  6
Continuous
 62
     7
370
    25
100
AcDbLine
 10
0.2626627619
 20
0.7070785529
 30
0.0
 11
0.2626627619
 21
0.7230785853
 31
0.0
  0
LINE
  5
17B
330
1F
100
AcDbEntity
  8
0
  6
Continuous
 62
     7
370
    25
100
AcDbLine
 10
0.2626866037
 20
0.7260786063
 30
0.0
 11
0.1743525202
 21
0.7260786063
 31
0.0
  0
LINE
  5
17C
330
1F
100
AcDbEntity
  8
0
  6
Continuous
 62
     7
370
    25
100
AcDbLine
 10
0.2626627619
 20
0.7070785529
 30
0.0
 11
0.1743525202
 21
0.7070785529
 31
0.0
  0
LINE
  5
17D
330
1F
100
AcDbEntity
  8
0
  6
Continuous
 62
     7
370
    25
100
AcDbLine
 10
0.718603068
 20
0.7070785529
 30
0.0
 11
0.718603068
 21
0.7230785853
 31
0.0
  0
LINE
  5
17E
330
1F
100
AcDbEntity
  8
0
  6
Continuous
 62
     7
370
    25
100
AcDbLine
 10
0.6147792274
 20
0.7070785529
 30
0.0
 11
0.6147792274
 21
0.7260786063
 31
0.0
  0
LINE
  5
17F
330
1F
100
AcDbEntity
  8
0
  6
Continuous
 62
     7
370
    25
100
AcDbLine
 10
0.7228780324
 20
0.7260786063
 30
0.0
 11
0.6147792274
 21
0.7260786063
 31
0.0
  0
LINE
  5
180
330
1F
100
AcDbEntity
  8
0
  6
Continuous
 62
     7
370
    25
100
AcDbLine
 10
0.718603068
 20
0.7070785529
 30
0.0
 11
0.6147792274
 21
0.7070785529
 31
0.0
  0
LINE
  5
181
330
1F
100
AcDbEntity
  8
0
  6
Continuous
 62
     7
370
    25
100
AcDbLine
 10
0.4850093657
 20
0.7070785529
 30
0.0
 11
0.4850093657
 21
0.7260786063
 31
0.0
  0
LINE
  5
182
330
1F
100
AcDbEntity
  8
0
  6
Continuous
 62
     7
370
    25
100
AcDbLine
 10
0.3843803341
 20
0.7070785529
 30
0.0
 11
0.3843803341
 21
0.7230785853
 31
0.0
  0
LINE
  5
183
330
1F
100
AcDbEntity
  8
0
  6
Continuous
 62
     7
370
    25
100
AcDbLine
 10
0.4850093657
 20
0.7260786063
 30
0.0
 11
0.3784813816
 21
0.7260786063
 31
0.0
  0
LINE
  5
184
330
1F
100
AcDbEntity
  8
0
  6
Continuous
 62
     7
370
    25
100
AcDbLine
 10
0.4850093657
 20
0.7070785529
 30
0.0
 11
0.3843803341
 21
0.7070785529
 31
0.0
  0
LINE
  5
185
330
1F
100
AcDbEntity
  8
0
  6
Continuous
 62
     7
370
    25
100
AcDbLine
 10
0.6147792274
 20
0.7260786063
 30
0.0
 11
0.6126759583
 21
0.7260786063
 31
0.0
  0
LINE
  5
186
330
1F
100
AcDbEntity
  8
0
  6
Continuous
 62
     7
370
    25
100
AcDbLine
 10
0.6147792274
 20
0.7070785529
 30
0.0
 11
0.6126759583
 21
0.7070785529
 31
0.0
  0
LINE
  5
187
330
1F
100
AcDbEntity
  8
0
  6
Continuous
 62
     7
370
    25
100
AcDbLine
 10
0.4864844615
 20
0.7260786063
 30
0.0
 11
0.4850093657
 21
0.7260786063
 31
0.0
  0
LINE
  5
188
330
1F
100
AcDbEntity
  8
0
  6
Continuous
 62
     7
370
    25
100
AcDbLine
 10
0.4864844615
 20
0.7070785529
 30
0.0
 11
0.4850093657
 21
0.7070785529
 31
0.0
  0
LINE
  5
189
330
1F
100
AcDbEntity
  8
0
  6
Continuous
 62
     7
370
    25
100
AcDbLine
 10
0.1714666421
 20
0.7230785853
 30
0.0
 11
0.1714666421
 21
0.7260786063
 31
0.0
  0
LINE
  5
18A
330
1F
100
AcDbEntity
  8
0
  6
Continuous
 62
     7
370
    25
100
AcDbLine
 10
0.1714666421
 20
0.7070785529
 30
0.0
 11
0.1714666421
 21
0.7230785853
 31
0.0
  0
LINE
  5
18B
330
1F
100
AcDbEntity
  8
0
  6
Continuous
 62
     7
370
    25
100
AcDbLine
 10
0.1010710532
 20
0.7070785529
 30
0.0
 11
0.1010710532
 21
0.7230785853
 31
0.0
  0
LINE
  5
18C
330
1F
100
AcDbEntity
  8
0
  6
Continuous
 62
     7
370
    25
100
AcDbLine
 10
0.1714666421
 20
0.7260786063
 30
0.0
 11
0.0904693538
 21
0.7260786063
 31
0.0
  0
LINE
  5
18D
330
1F
100
AcDbEntity
  8
0
  6
Continuous
 62
     7
370
    25
100
AcDbLine
 10
0.1714666421
 20
0.7070785529
 30
0.0
 11
0.1010710532
 21
0.7070785529
 31
0.0
  0
LINE
  5
18E
330
1F
100
AcDbEntity
  8
0
  6
Continuous
 62
     7
370
    25
100
AcDbLine
 10
-0.3446793789
 20
0.7070785529
 30
0.0
 11
-0.3446793789
 21
0.7230785853
 31
0.0
  0
LINE
  5
18F
330
1F
100
AcDbEntity
  8
0
  6
Continuous
 62
     7
370
    25
100
AcDbLine
 10
-0.3446793789
 20
0.7230785853
 30
0.0
 11
0.1010710532
 21
0.7230785853
 31
0.0
  0
LINE
  5
190
330
1F
100
AcDbEntity
  8
0
  6
Continuous
 62
     7
370
    25
100
AcDbLine
 10
-0.3446793789
 20
0.7070785529
 30
0.0
 11
0.1010710532
 21
0.7070785529
 31
0.0
  0
LINE
  5
191
330
1F
100
AcDbEntity
  8
0
  6
Continuous
 62
     7
370
    25
100
AcDbLine
 10
0.718603068
 20
0.7230785853
 30
0.0
 11
0.7353206212
 21
0.7230785853
 31
0.0
  0
LINE
  5
192
330
1F
100
AcDbEntity
  8
0
  6
Continuous
 62
     7
370
    25
100
AcDbLine
 10
0.718603068
 20
0.7070785529
 30
0.0
 11
0.7353206212
 21
0.7070785529
 31
0.0
  0
LINE
  5
193
330
1F
100
AcDbEntity
  8
0
  6
Continuous
 62
     7
370
    25
100
AcDbLine
 10
0.2626627619
 20
0.7230785853
 30
0.0
 11
0.3843803341
 21
0.7230785853
 31
0.0
  0
LINE
  5
194
330
1F
100
AcDbEntity
  8
0
  6
Continuous
 62
     7
370
    25
100
AcDbLine
 10
0.2626627619
 20
0.7070785529
 30
0.0
 11
0.3843803341
 21
0.7070785529
 31
0.0
  0
LINE
  5
195
330
1F
100
AcDbEntity
  8
0
  6
Continuous
 62
     7
370
    25
100
AcDbLine
 10
0.174394601
 20
0.7230785853
 30
0.0
 11
0.1714666421
 21
0.7230785853
 31
0.0
  0
LINE
  5
196
330
1F
100
AcDbEntity
  8
0
  6
Continuous
 62
     7
370
    25
100
AcDbLine
 10
0.174394601
 20
0.7070785529
 30
0.0
 11
0.1714666421
 21
0.7070785529
 31
0.0
  0
LINE
  5
197
330
1F
100
AcDbEntity
  8
0
  6
Continuous
 62
     7
370
    25
100
AcDbLine
 10
0.1714666421
 20
0.7260786063
 30
0.0
 11
0.1743525202
 21
0.7260786063
 31
0.0
  0
LINE
  5
198
330
1F
100
AcDbEntity
  8
0
  6
Continuous
 62
     7
370
    25
100
AcDbLine
 10
0.3282319838
 20
0.7260786063
 30
0.0
 11
0.2626866037
 21
0.7260786063
 31
0.0
  0
LINE
  5
199
330
1F
100
AcDbEntity
  8
0
  6
Continuous
 62
     7
370
    25
100
AcDbLine
 10
0.0904693538
 20
0.7260786063
 30
0.0
 11
0.0721315378
 21
0.7260786063
 31
0.0
  0
LINE
  5
19A
330
1F
100
AcDbEntity
  8
0
  6
Continuous
 62
     7
370
    25
100
AcDbLine
 10
0.7250770861
 20
0.7260786063
 30
0.0
 11
0.7228780324
 21
0.7260786063
 31
0.0
  0
LINE
  5
19B
330
1F
100
AcDbEntity
  8
0
  6
Continuous
 62
     7
370
    25
100
AcDbLine
 10
0.3784813816
 20
0.7260786063
 30
0.0
 11
0.3282319838
 21
0.7260786063
 31
0.0
  0
LINE
  5
19C
330
1F
100
AcDbEntity
  8
0
  6
Continuous
 62
     7
370
    25
100
AcDbLine
 10
0.4209128553
 20
0.6879786021
 30
0.0
 11
0.3325787718
 21
0.6879786021
 31
0.0
  0
LINE
  5
19D
330
1F
100
AcDbEntity
  8
0
  6
Continuous
 62
     7
370
    25
100
AcDbLine
 10
0.4209128553
 20
0.7069785363
 30
0.0
 11
0.3325787718
 21
0.7069785363
 31
0.0
  0
LINE
  5
19E
330
1F
100
AcDbEntity
  8
0
  6
Continuous
 62
     7
370
    25
100
AcDbLine
 10
0.3296928937
 20
0.6909785039
 30
0.0
 11
0.3296928937
 21
0.7069785363
 31
0.0
  0
LINE
  5
19F
330
1F
100
AcDbEntity
  8
0
  6
Continuous
 62
     7
370
    25
100
AcDbLine
 10
0.3296928937
 20
0.6879786021
 30
0.0
 11
0.3296928937
 21
0.6909785039
 31
0.0
  0
LINE
  5
1A0
330
1F
100
AcDbEntity
  8
0
  6
Continuous
 62
     7
370
    25
100
AcDbLine
 10
0.3296928937
 20
0.6879786021
 30
0.0
 11
0.2486956054
 21
0.6879786021
 31
0.0
  0
LINE
  5
1A1
330
1F
100
AcDbEntity
  8
0
  6
Continuous
 62
     7
370
    25
100
AcDbLine
 10
0.3296928937
 20
0.7069785363
 30
0.0
 11
0.2486956054
 21
0.7069785363
 31
0.0
  0
LINE
  5
1A2
330
1F
100
AcDbEntity
  8
0
  6
Continuous
 62
     7
370
    25
100
AcDbLine
 10
0.332620793
 20
0.6909785039
 30
0.0
 11
0.3296928937
 21
0.6909785039
 31
0.0
  0
LINE
  5
1A3
330
1F
100
AcDbEntity
  8
0
  6
Continuous
 62
     7
370
    25
100
AcDbLine
 10
0.332620793
 20
0.7069785363
 30
0.0
 11
0.3296928937
 21
0.7069785363
 31
0.0
  0
LINE
  5
1A4
330
1F
100
AcDbEntity
  8
0
  6
Continuous
 62
     7
370
    25
100
AcDbLine
 10
0.3296928937
 20
0.6879786021
 30
0.0
 11
0.3325787718
 21
0.6879786021
 31
0.0
  0
LINE
  5
1A5
330
1F
100
AcDbEntity
  8
0
  6
Continuous
 62
     7
370
    25
100
AcDbLine
 10
0.4864582354
 20
0.6879786021
 30
0.0
 11
0.4209128553
 21
0.6879786021
 31
0.0
  0
LINE
  5
1A6
330
1F
100
AcDbEntity
  8
0
  6
Continuous
 62
     7
370
    25
100
AcDbLine
 10
0.4864582354
 20
0.7069785363
 30
0.0
 11
0.4209128553
 21
0.7069785363
 31
0.0
  0
LINE
  5
1A7
330
1F
100
AcDbEntity
  8
0
  6
Continuous
 62
     7
370
    25
100
AcDbLine
 10
0.2486956054
 20
0.6879786021
 30
0.0
 11
0.2303577596
 21
0.6879786021
 31
0.0
  0
LINE
  5
1A8
330
1F
100
AcDbEntity
  8
0
  6
Continuous
 62
     7
370
    25
100
AcDbLine
 10
0.2486956054
 20
0.7069785363
 30
0.0
 11
0.2303577596
 21
0.7069785363
 31
0.0
  0
LINE
  5
1A9
330
1F
100
AcDbEntity
  8
0
  6
Continuous
 62
     7
370
    25
100
AcDbLine
 10
0.0994244749
 20
0.7069785363
 30
0.0
 11
0.0110904211
 21
0.7069785363
 31
0.0
  0
LINE
  5
1AA
330
1F
100
AcDbEntity
  8
0
  6
Continuous
 62
     7
370
    25
100
AcDbLine
 10
0.0994244749
 20
0.6879786021
 30
0.0
 11
0.0110904211
 21
0.6879786021
 31
0.0
  0
LINE
  5
1AB
330
1F
100
AcDbEntity
  8
0
  6
Continuous
 62
     7
370
    25
100
AcDbLine
 10
0.008204543
 20
0.6909785039
 30
0.0
 11
0.008204543
 21
0.7069785363
 31
0.0
  0
LINE
  5
1AC
330
1F
100
AcDbEntity
  8
0
  6
Continuous
 62
     7
370
    25
100
AcDbLine
 10
0.008204543
 20
0.6879786021
 30
0.0
 11
0.008204543
 21
0.6909785039
 31
0.0
  0
LINE
  5
1AD
330
1F
100
AcDbEntity
  8
0
  6
Continuous
 62
     7
370
    25
100
AcDbLine
 10
0.008204543
 20
0.6879786021
 30
0.0
 11
-0.072792775
 21
0.6879786021
 31
0.0
  0
LINE
  5
1AE
330
1F
100
AcDbEntity
  8
0
  6
Continuous
 62
     7
370
    25
100
AcDbLine
 10
0.008204543
 20
0.7069785363
 30
0.0
 11
-0.072792775
 21
0.7069785363
 31
0.0
  0
LINE
  5
1AF
330
1F
100
AcDbEntity
  8
0
  6
Continuous
 62
     7
370
    25
100
AcDbLine
 10
0.0111324722
 20
0.6909785039
 30
0.0
 11
0.008204543
 21
0.6909785039
 31
0.0
  0
LINE
  5
1B0
330
1F
100
AcDbEntity
  8
0
  6
Continuous
 62
     7
370
    25
100
AcDbLine
 10
0.0111324722
 20
0.7069785363
 30
0.0
 11
0.008204543
 21
0.7069785363
 31
0.0
  0
LINE
  5
1B1
330
1F
100
AcDbEntity
  8
0
  6
Continuous
 62
     7
370
    25
100
AcDbLine
 10
0.008204543
 20
0.6879786021
 30
0.0
 11
0.0110904211
 21
0.6879786021
 31
0.0
  0
LINE
  5
1B2
330
1F
100
AcDbEntity
  8
0
  6
Continuous
 62
     7
370
    25
100
AcDbLine
 10
0.164969855
 20
0.6879786021
 30
0.0
 11
0.0994244749
 21
0.6879786021
 31
0.0
  0
LINE
  5
1B3
330
1F
100
AcDbEntity
  8
0
  6
Continuous
 62
     7
370
    25
100
AcDbLine
 10
0.164969855
 20
0.7069785363
 30
0.0
 11
0.0994244749
 21
0.7069785363
 31
0.0
  0
LINE
  5
1B4
330
1F
100
AcDbEntity
  8
0
  6
Continuous
 62
     7
370
    25
100
AcDbLine
 10
-0.072792775
 20
0.6879786021
 30
0.0
 11
-0.0911305761
 21
0.6879786021
 31
0.0
  0
LINE
  5
1B5
330
1F
100
AcDbEntity
  8
0
  6
Continuous
 62
     7
370
    25
100
AcDbLine
 10
-0.072792775
 20
0.7069785363
 30
0.0
 11
-0.0911305761
 21
0.7069785363
 31
0.0
  0
ARC
  5
1B6
330
1F
100
AcDbEntity
  8
0
  6
Continuous
 62
     7
370
    25
100
AcDbCircle
 10
-0.1607133468
 20
0.714610104
 30
0.0
 40
0.0335999999999925
100
AcDbArc
 50
270.0
 51
347.0469054014
  0
ARC
  5
1B7
330
1F
100
AcDbEntity
  8
0
  6
Continuous
 62
     7
370
    25
100
AcDbCircle
 10
-0.1607133468
 20
0.714610104
 30
0.0
 40
0.0335999999999925
100
AcDbArc
 50
14.5980941465
 51
165.4019058535
  0
ARC
  5
1B8
330
1F
100
AcDbEntity
  8
0
  6
Continuous
 62
     7
370
    25
100
AcDbCircle
 10
-0.1607133468
 20
0.714610104
 30
0.0
 40
0.0335999999999925
100
AcDbArc
 50
192.9530945986
 51
270.0
  0
ARC
  5
1B9
330
1F
100
AcDbEntity
  8
0
  6
Continuous
 62
     7
370
    25
100
AcDbCircle
 10
-0.2168950956
 20
0.7651963779
 30
0.0
 40
0.0378574566130411
100
AcDbArc
 50
33.5
 51
242.5
  0
LINE
  5
1BA
330
1F
100
AcDbEntity
  8
0
  6
Continuous
 62
     7
370
    25
100
AcDbLine
 10
-0.1853262996
 20
0.7860913045
 30
0.0
 11
-0.1721961414
 21
0.7479585177
 31
0.0
  0
ARC
  5
1BB
330
1F
100
AcDbEntity
  8
0
  6
Continuous
 62
     7
370
    25
100
AcDbCircle
 10
-0.1607133468
 20
0.714610104
 30
0.0
 40
0.0344400000000109
100
AcDbArc
 50
110.3643141507
 51
165.6356858493
  0
LINE
  5
1BC
330
1F
100
AcDbEntity
  8
0
  6
Continuous
 62
     7
370
    25
100
AcDbLine
 10
-0.1940998947
 20
0.7230785853
 30
0.0
 11
-0.1940766787
 21
0.723154164
 31
0.0
  0
LINE
  5
1BD
330
1F
100
AcDbEntity
  8
0
  6
Continuous
 62
     7
370
    25
100
AcDbLine
 10
-0.1973942285
 20
0.7230785853
 30
0.0
 11
-0.2343757218
 21
0.7316163546
 31
0.0
  0
ARC
  5
1BE
330
1F
100
AcDbEntity
  8
0
  6
Continuous
 62
     7
370
    25
100
AcDbCircle
 10
-0.1729903708
 20
0.7476850656
 30
0.0
 40
0.000840000000018
100
AcDbArc
 50
290.3643141502
 51
18.9999999986
  0
ARC
  5
1BF
330
1F
100
AcDbEntity
  8
0
  6
Continuous
 62
     7
370
    25
100
AcDbCircle
 10
-0.1832185918
 20
0.6874404086
 30
0.0
 40
0.0008399999999971
100
AcDbArc
 50
50.3643141511
 51
139.0000000005
  0
ARC
  5
1C0
330
1F
100
AcDbEntity
  8
0
  6
Continuous
 62
     7
370
    25
100
AcDbCircle
 10
-0.1512046932
 20
0.6806356444
 30
0.0
 40
0.0008400000000288
100
AcDbArc
 50
17.0000000022
 51
105.6356858494
  0
LINE
  5
1C1
330
1F
100
AcDbEntity
  8
0
  6
Continuous
 62
     7
370
    25
100
AcDbLine
 10
-0.2103114119
 20
0.6575540072
 30
0.0
 11
-0.183852545
 21
0.6879914767
 31
0.0
  0
LINE
  5
1C2
330
1F
100
AcDbEntity
  8
0
  6
Continuous
 62
     7
370
    25
100
AcDbLine
 10
-0.1504013901
 20
0.6808812386
 30
0.0
 11
-0.1386100417
 21
0.6423134572
 31
0.0
  0
ARC
  5
1C3
330
1F
100
AcDbEntity
  8
0
  6
Continuous
 62
     7
370
    25
100
AcDbCircle
 10
-0.1607133468
 20
0.714610104
 30
0.0
 40
0.0344400000000001
100
AcDbArc
 50
230.3643141506
 51
285.6356858493
  0
ARC
  5
1C4
330
1F
100
AcDbEntity
  8
0
  6
Continuous
 62
     7
370
    25
100
AcDbCircle
 10
-0.1764314707
 20
0.6406621454
 30
0.0
 40
0.0378574566130411
100
AcDbArc
 50
153.5
 51
2.5
  0
ARC
  5
1C5
330
1F
100
AcDbEntity
  8
0
  6
Continuous
 62
     7
370
    25
100
AcDbCircle
 10
-0.2326132195
 20
0.6912484193
 30
0.0
 40
0.0378574566130141
100
AcDbArc
 50
93.5
 51
122.7764683508
  0
ARC
  5
1C6
330
1F
100
AcDbEntity
  8
0
  6
Continuous
 62
     7
370
    25
100
AcDbCircle
 10
-0.2326132195
 20
0.6912484193
 30
0.0
 40
0.0378574566130143
100
AcDbArc
 50
155.2820921749
 51
302.5
  0
LINE
  5
1C7
330
1F
100
AcDbEntity
  8
0
  6
Continuous
 62
     7
370
    25
100
AcDbLine
 10
-0.2349243602
 20
0.7290352351
 30
0.0
 11
-0.2042797422
 21
0.7230785853
 31
0.0
  0
ARC
  5
1C8
330
1F
100
AcDbEntity
  8
0
  6
Continuous
 62
     7
370
    25
100
AcDbCircle
 10
-0.1607133468
 20
0.714610104
 30
0.0
 40
0.0344399999999904
100
AcDbArc
 50
192.6318761936
 51
225.6356858493
  0
LINE
  5
1C9
330
1F
100
AcDbEntity
  8
0
  6
Continuous
 62
     7
370
    25
100
AcDbLine
 10
-0.1847674316
 20
0.6888152129
 30
0.0
 11
-0.2122724196
 21
0.6593197352
 31
0.0
  0
ARC
  5
1CA
330
1F
100
AcDbEntity
  8
0
  6
Continuous
 62
     7
370
    25
100
AcDbCircle
 10
-0.1853817651
 20
0.6893881386
 30
0.0
 40
0.0008399999999953
100
AcDbArc
 50
316.9999999999
 51
45.6356858505
  0
ARC
  5
1CB
330
1F
100
AcDbEntity
  8
0
  6
Continuous
 62
     7
370
    25
100
AcDbCircle
 10
-0.1607133468
 20
0.714610104
 30
0.0
 40
0.0344399999999905
100
AcDbArc
 50
14.234431369
 51
45.6356858493
  0
ARC
  5
1CC
330
1F
100
AcDbEntity
  8
0
  6
Continuous
 62
     7
370
    25
100
AcDbCircle
 10
-0.1360449285
 20
0.7398320694
 30
0.0
 40
0.0008399999999951
100
AcDbArc
 50
136.9999999993
 51
225.6356858506
  0
LINE
  5
1CD
330
1F
100
AcDbEntity
  8
0
  6
Continuous
 62
     7
370
    25
100
AcDbLine
 10
-0.0911305761
 20
0.7010845906
 30
0.0
 11
-0.1219668751
 21
0.7070785529
 31
0.0
  0
ARC
  5
1CE
330
1F
100
AcDbEntity
  8
0
  6
Continuous
 62
     7
370
    25
100
AcDbCircle
 10
-0.0888134742
 20
0.7379717888
 30
0.0
 40
0.0378574566130141
100
AcDbArc
 50
336.8335913896
 51
122.5
  0
LINE
  5
1CF
330
1F
100
AcDbEntity
  8
0
  6
Continuous
 62
     7
370
    25
100
AcDbLine
 10
-0.1366592711
 20
0.7404049403
 30
0.0
 11
-0.1091542756
 21
0.769900418
 31
0.0
  0
ARC
  5
1D0
330
1F
100
AcDbEntity
  8
0
  6
Continuous
 62
     7
370
    25
100
AcDbCircle
 10
-0.1382081019
 20
0.7417797994
 30
0.0
 40
0.0008399999999972
100
AcDbArc
 50
230.3643141507
 51
318.9999999996
  0
LINE
  5
1D1
330
1F
100
AcDbEntity
  8
0
  6
Continuous
 62
     7
370
    25
100
AcDbLine
 10
-0.1111152833
 20
0.771666146
 30
0.0
 11
-0.1375741428
 21
0.7412286765
 31
0.0
  0
LINE
  5
1D2
330
1F
100
AcDbEntity
  8
0
  6
Continuous
 62
     7
370
    25
100
AcDbLine
 10
-0.1710252976
 20
0.7483389146
 30
0.0
 11
-0.182816646
 21
0.786906696
 31
0.0
  0
ARC
  5
1D3
330
1F
100
AcDbEntity
  8
0
  6
Continuous
 62
     7
370
    25
100
AcDbCircle
 10
-0.1607133468
 20
0.714610104
 30
0.0
 40
0.0344400000000001
100
AcDbArc
 50
50.3643141506
 51
105.6356858493
  0
ARC
  5
1D4
330
1F
100
AcDbEntity
  8
0
  6
Continuous
 62
     7
370
    25
100
AcDbCircle
 10
-0.1702220004
 20
0.7485845636
 30
0.0
 40
0.0008400000000289
100
AcDbArc
 50
197.0000000022
 51
285.6356858494
  0
ARC
  5
1D5
330
1F
100
AcDbEntity
  8
0
  6
Continuous
 62
     7
370
    25
100
AcDbCircle
 10
-0.144995223
 20
0.7885580626
 30
0.0
 40
0.0378574566130411
100
AcDbArc
 50
333.5
 51
182.4999999999
  0
LINE
  5
1D6
330
1F
100
AcDbEntity
  8
0
  6
Continuous
 62
     7
370
    25
100
AcDbLine
 10
-0.1263473099
 20
0.7066761023
 30
0.0
 11
-0.0911305761
 21
0.6985456712
 31
0.0
  0
LINE
  5
1D7
330
1F
100
AcDbEntity
  8
0
  6
Continuous
 62
     7
370
    25
100
AcDbLine
 10
-0.1361003881
 20
0.6431289083
 30
0.0
 11
-0.1492305612
 21
0.6812616355
 31
0.0
  0
ARC
  5
1D8
330
1F
100
AcDbEntity
  8
0
  6
Continuous
 62
     7
370
    25
100
AcDbCircle
 10
-0.1265362749
 20
0.7058576098
 30
0.0
 40
0.000839999999997
100
AcDbArc
 50
77.0000000004
 51
165.6356858515
  0
ARC
  5
1D9
330
1F
100
AcDbEntity
  8
0
  6
Continuous
 62
     7
370
    25
100
AcDbCircle
 10
-0.1607133468
 20
0.714610104
 30
0.0
 40
0.0344400000000109
100
AcDbArc
 50
290.3643141507
 51
345.6356858493
  0
ARC
  5
1DA
330
1F
100
AcDbEntity
  8
0
  6
Continuous
 62
     7
370
    25
100
AcDbCircle
 10
-0.1484363229
 20
0.6815351425
 30
0.0
 40
0.0008400000000181
100
AcDbArc
 50
110.3643141507
 51
198.9999999978
  0
ARC
  5
1DB
330
1F
100
AcDbEntity
  8
0
  6
Continuous
 62
     7
370
    25
100
AcDbCircle
 10
-0.104531598
 20
0.6640238302
 30
0.0
 40
0.0378574566130411
100
AcDbArc
 50
213.5
 51
39.2541203291
  0
ARC
  5
1DC
330
1F
100
AcDbEntity
  8
0
  6
Continuous
 62
     7
370
    25
100
AcDbCircle
 10
-0.1607133468
 20
0.714610104
 30
0.0
 40
0.0756000000000153
100
AcDbArc
 50
227.0
 51
229.0
  0
ARC
  5
1DD
330
1F
100
AcDbEntity
  8
0
  6
Continuous
 62
     7
370
    25
100
AcDbCircle
 10
-0.1607133468
 20
0.714610104
 30
0.0
 40
0.0756000000000087
100
AcDbArc
 50
47.0
 51
49.0
  0
ARC
  5
1DE
330
1F
100
AcDbEntity
  8
0
  6
Continuous
 62
     7
370
    25
100
AcDbCircle
 10
-0.1607133468
 20
0.714610104
 30
0.0
 40
0.0756000000000178
100
AcDbArc
 50
167.0
 51
169.0
  0
ARC
  5
1DF
330
1F
100
AcDbEntity
  8
0
  6
Continuous
 62
     7
370
    25
100
AcDbCircle
 10
-0.1607133468
 20
0.714610104
 30
0.0
 40
0.0756000000000387
100
AcDbArc
 50
107.0
 51
109.0
  0
ARC
  5
1E0
330
1F
100
AcDbEntity
  8
0
  6
Continuous
 62
     7
370
    25
100
AcDbCircle
 10
-0.1607133468
 20
0.714610104
 30
0.0
 40
0.0756000000000284
100
AcDbArc
 50
287.0
 51
289.0
  0
LWPOLYLINE
  5
1E1
330
1F
100
AcDbEntity
  8
0
  6
Continuous
 62
     7
370
    25
100
AcDbPolyline
 90
       28
 70
   128
 43
0.0
 10
0.7353206212
 20
0.1988985307
 10
0.7351345355
 20
0.2039466864
 10
0.7345768744
 20
0.2089777953
 10
0.7336494262
 20
0.2139747507
 10
0.7323555285
 20
0.2189207441
 10
0.7306994731
 20
0.2237989671
 10
0.7286868626
 20
0.228592909
 10
0.7263243729
 20
0.2332864172
 10
0.7236202294
 20
0.2378635175
 10
0.7205833728
 20
0.2423087723
 10
0.7172242934
 20
0.2466072208
 10
0.713554197
 20
0.2507441408
 10
0.7095854813
 20
0.2547057039
 10
0.7053317363
 20
0.2584783799
 10
0.7008071477
 20
0.262049473
 10
0.6960272128
 20
0.2654068834
 10
0.6910080249
 20
0.2685392863
 10
0.6857666308
 20
0.2714360124
 10
0.6803206736
 20
0.2740872866
 10
0.6746885115
 20
0.2764841682
 10
0.6688893968
 20
0.278618551
 10
0.6629428202
 20
0.2804831035
 10
0.6568689877
 20
0.2820716864
 10
0.6506883437
 20
0.2833788163
 10
0.6444219286
 20
0.2844000227
 10
0.6380908424
 20
0.2851319677
 10
0.6317165429
 20
0.285572148
 10
0.6253206069
 20
0.2857190735
  0
LINE
  5
1E2
330
1F
100
AcDbEntity
  8
0
  6
Continuous
 62
     7
370
    25
100
AcDbLine
 10
0.6253206069
 20
0.2857190735
 30
0.0
 11
0.6253206069
 21
0.297385729
 31
0.0
  0
LWPOLYLINE
  5
1E3
330
1F
100
AcDbEntity
  8
0
  6
Continuous
 62
     7
370
    25
100
AcDbPolyline
 90
       28
 70
   128
 43
0.0
 10
0.7353206212
 20
0.2105652458
 10
0.7351345355
 20
0.2156134016
 10
0.7345768744
 20
0.2206445104
 10
0.7336494262
 20
0.2256414658
 10
0.7323555285
 20
0.2305874593
 10
0.7306994731
 20
0.2354656822
 10
0.7286868626
 20
0.2402596242
 10
0.7263243729
 20
0.2449530727
 10
0.7236202294
 20
0.2495302326
 10
0.7205833728
 20
0.2539754874
 10
0.7172242934
 20
0.2582738764
 10
0.713554197
 20
0.2624108559
 10
0.7095854813
 20
0.2663724191
 10
0.7053317363
 20
0.270145095
 10
0.7008071477
 20
0.2737161881
 10
0.6960272128
 20
0.2770735986
 10
0.6910080249
 20
0.2802060015
 10
0.6857666308
 20
0.2831027276
 10
0.6803206736
 20
0.2857540018
 10
0.6746885115
 20
0.2881508834
 10
0.6688893968
 20
0.2902852065
 10
0.6629428202
 20
0.2921498186
 10
0.6568689877
 20
0.2937384016
 10
0.6506883437
 20
0.2950454718
 10
0.6444219286
 20
0.2960667378
 10
0.6380908424
 20
0.2967986829
 10
0.6317165429
 20
0.2972388632
 10
0.6253206069
 20
0.297385729
  0
LINE
  5
1E4
330
1F
100
AcDbEntity
  8
0
  6
Continuous
 62
     7
370
    25
100
AcDbLine
 10
0.2612206275
 20
0.2857190735
 30
0.0
 11
0.6253206069
 21
0.2857190735
 31
0.0
  0
LINE
  5
1E5
330
1F
100
AcDbEntity
  8
0
  6
Continuous
 62
     7
370
    25
100
AcDbLine
 10
0.2612206275
 20
0.2857190735
 30
0.0
 11
0.2612206275
 21
0.297385729
 31
0.0
  0
LINE
  5
1E6
330
1F
100
AcDbEntity
  8
0
  6
Continuous
 62
     7
370
    25
100
AcDbLine
 10
0.2612206275
 20
0.297385729
 30
0.0
 11
0.6253206069
 21
0.297385729
 31
0.0
  0
LWPOLYLINE
  5
1E7
330
1F
100
AcDbEntity
  8
0
  6
Continuous
 62
     7
370
    25
100
AcDbPolyline
 90
       16
 70
   128
 43
0.0
 10
0.7312583262
 20
-0.2352039077
 10
0.7270043427
 20
-0.2350608193
 10
0.7227812344
 20
-0.2346325898
 10
0.7186195189
 20
-0.2339223259
 10
0.7145495946
 20
-0.2329351687
 10
0.7106007869
 20
-0.231678293
 10
0.706801706
 20
-0.230160796
 10
0.7031800086
 20
-0.228393712
 10
0.6997619206
 20
-0.2263898187
 10
0.6965722377
 20
-0.2241636598
 10
0.6936342055
 20
-0.2217313879
 10
0.690968805
 20
-0.2191106313
 10
0.6885957057
 20
-0.2163204038
 10
0.6865319545
 20
-0.2133809411
 10
0.6847925717
 20
-0.2103135371
 10
0.6833900744
 20
-0.2071404689
  0
ELLIPSE
  5
1E8
330
1F
100
AcDbEntity
  8
0
  6
Continuous
 62
     7
370
    25
100
AcDbEllipse
 10
0.1953206212
 20
-0.2767075636
 30
0.0
 11
0.5011911422995236
 21
-5.551115123125783E-17
 31
0.0
210
0.0
220
0.0
230
1.0
 40
0.6105961021
 41
0.2293294954331554
 42
2.912263158156637
  0
LWPOLYLINE
  5
1E9
330
1F
100
AcDbEntity
  8
0
  6
Continuous
 62
     7
370
    25
100
AcDbPolyline
 90
       16
 70
   128
 43
0.0
 10
-0.340617083
 20
-0.2352039077
 10
-0.3363631088
 20
-0.2350608193
 10
-0.3321399824
 20
-0.2346325898
 10
-0.3279783292
 20
-0.2339223259
 10
-0.3239083281
 20
-0.2329351687
 10
-0.3199594933
 20
-0.231678293
 10
-0.3161604609
 20
-0.230160796
 10
-0.3125387793
 20
-0.228393712
 10
-0.3091207119
 20
-0.2263898187
 10
-0.3059310457
 20
-0.2241636598
 10
-0.3029929111
 20
-0.2217313879
 10
-0.3003276149
 20
-0.2191106313
 10
-0.2979544857
 20
-0.2163204038
 10
-0.2958907289
 20
-0.2133809411
 10
-0.2941513164
 20
-0.2103135371
 10
-0.2927488526
 20
-0.2071404689
  0
LINE
  5
1EA
330
1F
100
AcDbEntity
  8
0
  6
Continuous
 62
     7
370
    25
100
AcDbLine
 10
-0.3446793789
 20
-0.2352039077
 30
0.0
 11
-0.340617083
 21
-0.2352039077
 31
0.0
  0
LINE
  5
1EB
330
1F
100
AcDbEntity
  8
0
  6
Continuous
 62
     7
370
    25
100
AcDbLine
 10
-0.3446793789
 20
-0.2352039077
 30
0.0
 11
-0.3446793789
 21
0.2006096012
 31
0.0
  0
LINE
  5
1EC
330
1F
100
AcDbEntity
  8
0
  6
Continuous
 62
     7
370
    25
100
AcDbLine
 10
-0.3446793789
 20
0.2006096012
 30
0.0
 11
-0.3412582865
 21
0.2006096012
 31
0.0
  0
LINE
  5
1ED
330
1F
100
AcDbEntity
  8
0
  6
Continuous
 62
     7
370
    25
100
AcDbLine
 10
0.189420634
 20
0.2006096012
 30
0.0
 11
0.1917205984
 21
0.2006096012
 31
0.0
  0
LINE
  5
1EE
330
1F
100
AcDbEntity
  8
0
  6
Continuous
 62
     7
370
    25
100
AcDbLine
 10
0.1917205984
 20
0.2006096012
 30
0.0
 11
0.1917205984
 21
0.2156058914
 31
0.0
  0
LINE
  5
1EF
330
1F
100
AcDbEntity
  8
0
  6
Continuous
 62
     7
370
    25
100
AcDbLine
 10
0.1917205984
 20
0.2156058914
 30
0.0
 11
0.2012206251
 21
0.2156058914
 31
0.0
  0
LINE
  5
1F0
330
1F
100
AcDbEntity
  8
0
  6
Continuous
 62
     7
370
    25
100
AcDbLine
 10
0.2012206251
 20
0.2156058914
 30
0.0
 11
0.2012206251
 21
0.2383624083
 31
0.0
  0
LWPOLYLINE
  5
1F1
330
1F
100
AcDbEntity
  8
0
  6
Continuous
 62
     7
370
    25
100
AcDbPolyline
 90
       21
 70
   128
 43
0.0
 10
0.2012206251
 20
0.2383624083
 10
0.2014055783
 20
0.2420779831
 10
0.2019593055
 20
0.24577061
 10
0.2028784091
 20
0.2494175798
 10
0.2041572267
 20
0.2529964215
 10
0.205787831
 20
0.2564850218
 10
0.2077602083
 20
0.2598618633
 10
0.2100621993
 20
0.2631062037
 10
0.2126796181
 20
0.2661979563
 10
0.2155962521
 20
0.269118107
 10
0.2187942201
 20
0.2718485958
 10
0.2222537333
 20
0.2743726737
 10
0.2259535128
 20
0.2766747243
 10
0.2298707301
 20
0.2787405617
 10
0.2339811856
 20
0.28055749
 10
0.238259607
 20
0.2821142442
 10
0.2426795894
 20
0.2834012277
 10
0.2472138936
 20
0.2844105727
 10
0.2518345649
 20
0.2851360208
 10
0.2565130526
 20
0.2855730421
 10
0.2612206275
 20
0.2857190735
  0
LINE
  5
1F2
330
1F
100
AcDbEntity
  8
0
  6
Continuous
 62
     7
370
    25
100
AcDbLine
 10
0.7312583262
 20
-0.2352039077
 30
0.0
 11
0.7353206212
 21
-0.2352039077
 31
0.0
  0
LINE
  5
1F3
330
1F
100
AcDbEntity
  8
0
  6
Continuous
 62
     7
370
    25
100
AcDbLine
 10
0.2012206251
 20
0.2383624083
 30
0.0
 11
0.2012206251
 21
0.2500291235
 31
0.0
  0
LWPOLYLINE
  5
1F4
330
1F
100
AcDbEntity
  8
0
  6
Continuous
 62
     7
370
    25
100
AcDbPolyline
 90
       21
 70
   128
 43
0.0
 10
0.2012206251
 20
0.2500291235
 10
0.2014055783
 20
0.2537446982
 10
0.2019593055
 20
0.2574373252
 10
0.2028784091
 20
0.261084295
 10
0.2041572267
 20
0.2646631367
 10
0.205787831
 20
0.2681517369
 10
0.2077602083
 20
0.2715285785
 10
0.2100621993
 20
0.2747728593
 10
0.2126796181
 20
0.2778646714
 10
0.2155962521
 20
0.2807847626
 10
0.2187942201
 20
0.2835153109
 10
0.2222537333
 20
0.2860393888
 10
0.2259535128
 20
0.2883414394
 10
0.2298707301
 20
0.2904072768
 10
0.2339811856
 20
0.2922242052
 10
0.238259607
 20
0.2937809593
 10
0.2426795894
 20
0.2950679428
 10
0.2472138936
 20
0.2960772878
 10
0.2518345649
 20
0.296802736
 10
0.2565130526
 20
0.2972397572
 10
0.2612206275
 20
0.297385729
  0
LINE
  5
1F5
330
1F
100
AcDbEntity
  8
0
  6
Continuous
 62
     7
370
    25
100
AcDbLine
 10
0.1917205984
 20
0.2156058914
 30
0.0
 11
0.1917205984
 21
0.2161977655
 31
0.0
  0
LINE
  5
1F6
330
1F
100
AcDbEntity
  8
0
  6
Continuous
 62
     7
370
    25
100
AcDbLine
 10
0.1989206011
 20
0.2272726065
 30
0.0
 11
0.2012206251
 21
0.2272726065
 31
0.0
  0
LINE
  5
1F7
330
1F
100
AcDbEntity
  8
0
  6
Continuous
 62
     7
370
    25
100
AcDbLine
 10
-0.3446793789
 20
0.2006096012
 30
0.0
 11
-0.3446793789
 21
0.2122763163
 31
0.0
  0
LINE
  5
1F8
330
1F
100
AcDbEntity
  8
0
  6
Continuous
 62
     7
370
    25
100
AcDbLine
 10
-0.3446793789
 20
0.2122763163
 30
0.0
 11
-0.3439423991
 21
0.2122763163
 31
0.0
  0
LINE
  5
1F9
330
1F
100
AcDbEntity
  8
0
  6
Continuous
 62
     7
370
    25
100
AcDbLine
 10
-0.2346793776
 20
0.1453370816
 30
0.0
 11
-0.2346793776
 21
0.1340427763
 31
0.0
  0
LINE
  5
1FA
330
1F
100
AcDbEntity
  8
0
  6
Continuous
 62
     7
370
    25
100
AcDbLine
 10
0.1294206316
 20
0.1453370816
 30
0.0
 11
-0.2346793776
 21
0.1453370816
 31
0.0
  0
LINE
  5
1FB
330
1F
100
AcDbEntity
  8
0
  6
Continuous
 62
     7
370
    25
100
AcDbLine
 10
0.1294206316
 20
0.1453370816
 30
0.0
 11
0.1294206316
 21
0.1340427763
 31
0.0
  0
LINE
  5
1FC
330
1F
100
AcDbEntity
  8
0
  6
Continuous
 62
     7
370
    25
100
AcDbLine
 10
0.1294206316
 20
0.1340427763
 30
0.0
 11
-0.2346793776
 21
0.1340427763
 31
0.0
  0
LINE
  5
1FD
330
1F
100
AcDbEntity
  8
0
  6
Continuous
 62
     7
370
    25
100
AcDbLine
 10
-0.3446793789
 20
0.2337928182
 30
0.0
 11
-0.3446793789
 21
0.2224985129
 31
0.0
  0
LWPOLYLINE
  5
1FE
330
1F
100
AcDbEntity
  8
0
  6
Continuous
 62
     7
370
    25
100
AcDbPolyline
 90
       28
 70
   128
 43
0.0
 10
-0.3446793789
 20
0.2337928182
 10
-0.3444932764
 20
0.2286495334
 10
-0.3439355986
 20
0.2235237128
 10
-0.3430082323
 20
0.2184326417
 10
-0.3417143142
 20
0.2133934862
 10
-0.3400582252
 20
0.2084234125
 10
-0.3380455673
 20
0.2035391695
 10
-0.3356831502
 20
0.1987572677
 10
-0.3329789694
 20
0.1940939195
 10
-0.3299421733
 20
0.1895649201
 10
-0.3265830381
 20
0.1851855881
 10
-0.32291293
 20
0.1809707052
 10
-0.3189442679
 20
0.1769345767
 10
-0.3146904791
 20
0.1730907924
 10
-0.3101659594
 20
0.1694524056
 10
-0.3053860152
 20
0.1660317547
 10
-0.3003668235
 20
0.1628404028
 10
-0.295125368
 20
0.1598891384
 10
-0.2896793773
 20
0.1571879155
 10
-0.2840472897
 20
0.1547458536
 10
-0.2782481527
 20
0.1525712973
 10
-0.2723015947
 20
0.1506715781
 10
-0.2662277361
 20
0.1490531332
 10
-0.2600471219
 20
0.1477213866
 10
-0.253780677
 20
0.1466809279
 10
-0.2474495983
 20
0.1459351546
 10
-0.2410753136
 20
0.1454867489
 10
-0.2346793776
 20
0.1453370816
  0
LWPOLYLINE
  5
1FF
330
1F
100
AcDbEntity
  8
0
  6
Continuous
 62
     7
370
    25
100
AcDbPolyline
 90
       28
 70
   128
 43
0.0
 10
-0.3446793789
 20
0.2224985129
 10
-0.3444932764
 20
0.2173552877
 10
-0.3439355986
 20
0.2122294075
 10
-0.3430082323
 20
0.2071383364
 10
-0.3417143142
 20
0.2020992405
 10
-0.3400582252
 20
0.1971291072
 10
-0.3380455673
 20
0.1922448642
 10
-0.3356831502
 20
0.1874629623
 10
-0.3329789694
 20
0.1827996737
 10
-0.3299421733
 20
0.1782706744
 10
-0.3265830381
 20
0.1738912827
 10
-0.32291293
 20
0.1696763999
 10
-0.3189442679
 20
0.1656402714
 10
-0.3146904791
 20
0.161796487
 10
-0.3101659594
 20
0.1581581599
 10
-0.3053860152
 20
0.1547375089
 10
-0.3003668235
 20
0.1515460975
 10
-0.295125368
 20
0.1485948331
 10
-0.2896793773
 20
0.1458936102
 10
-0.2840472897
 20
0.1434515781
 10
-0.2782481527
 20
0.1412770516
 10
-0.2723015947
 20
0.1393773324
 10
-0.2662277361
 20
0.1377588577
 10
-0.2600471219
 20
0.1364271111
 10
-0.253780677
 20
0.1353866226
 10
-0.2474495983
 20
0.1346409089
 10
-0.2410753136
 20
0.1341924435
 10
-0.2346793776
 20
0.1340427763
  0
LWPOLYLINE
  5
200
330
1F
100
AcDbEntity
  8
0
  6
Continuous
 62
     7
370
    25
100
AcDbPolyline
 90
       19
 70
   128
 43
0.0
 10
0.7254032428
 20
0.5554499394
 10
0.7186917598
 20
0.5552989013
 10
0.7120013768
 20
0.5548462636
 10
0.7053528363
 20
0.5540933973
 10
0.6987671191
 20
0.5530427462
 10
0.6922648484
 20
0.551697529
 10
0.6858661706
 20
0.5500619776
 10
0.6795913512
 20
0.5481412179
 10
0.6734599406
 20
0.5459412104
 10
0.6674911911
 20
0.543468929
 10
0.6617036993
 20
0.5407320625
 10
0.656115585
 20
0.5377391941
 10
0.6507443721
 20
0.5344996816
 10
0.6456068689
 20
0.531023658
 10
0.6407192284
 20
0.5273220307
 10
0.6360966498
 20
0.5234064228
 10
0.631753617
 20
0.5192889935
 10
0.6277037794
 20
0.5149826772
 10
0.6239597732
 20
0.5105010039
  0
LINE
  5
201
330
1F
100
AcDbEntity
  8
0
  6
Continuous
 62
     7
370
    25
100
AcDbLine
 10
0.7353206212
 20
0.5554499394
 30
0.0
 11
0.7254032428
 21
0.5554499394
 31
0.0
  0
LINE
  5
202
330
1F
100
AcDbEntity
  8
0
  6
Continuous
 62
     7
370
    25
100
AcDbLine
 10
0.7353206212
 20
0.5554499394
 30
0.0
 11
0.7353206212
 21
0.2320495016
 31
0.0
  0
LINE
  5
203
330
1F
100
AcDbEntity
  8
0
  6
Continuous
 62
     7
370
    25
100
AcDbLine
 10
0.7353206212
 20
0.2320495016
 30
0.0
 11
0.731899553
 21
0.2320495016
 31
0.0
  0
LINE
  5
204
330
1F
100
AcDbEntity
  8
0
  6
Continuous
 62
     7
370
    25
100
AcDbLine
 10
0.2012206251
 20
0.2320495016
 30
0.0
 11
0.1989206011
 21
0.2320495016
 31
0.0
  0
LINE
  5
205
330
1F
100
AcDbEntity
  8
0
  6
Continuous
 62
     7
370
    25
100
AcDbLine
 10
0.1989206011
 20
0.2320495016
 30
0.0
 11
0.1989206011
 21
0.2167708046
 31
0.0
  0
LINE
  5
206
330
1F
100
AcDbEntity
  8
0
  6
Continuous
 62
     7
370
    25
100
AcDbLine
 10
0.1989206011
 20
0.2167708046
 30
0.0
 11
0.189420634
 21
0.2167708046
 31
0.0
  0
LINE
  5
207
330
1F
100
AcDbEntity
  8
0
  6
Continuous
 62
     7
370
    25
100
AcDbLine
 10
0.189420634
 20
0.2167708046
 30
0.0
 11
0.189420634
 21
0.1935856706
 31
0.0
  0
LWPOLYLINE
  5
208
330
1F
100
AcDbEntity
  8
0
  6
Continuous
 62
     7
370
    25
100
AcDbPolyline
 90
       21
 70
   128
 43
0.0
 10
0.189420634
 20
0.1935856706
 10
0.1892356807
 20
0.1898001201
 10
0.188681894
 20
0.1860379345
 10
0.1877627904
 20
0.1823222405
 10
0.1864840323
 20
0.1786760456
 10
0.1848533685
 20
0.1751217014
 10
0.1828809912
 20
0.1716812617
 10
0.1805790598
 20
0.1683758265
 10
0.177961641
 20
0.1652258403
 10
0.1750450069
 20
0.162250734
 10
0.1718470389
 20
0.1594687468
 10
0.1683874959
 20
0.156897164
 10
0.1646877462
 20
0.1545517213
 10
0.160770529
 20
0.1524469621
 10
0.1566600436
 20
0.1505958802
 10
0.1523816222
 20
0.1490098006
 10
0.1479616398
 20
0.1476984984
 10
0.1434273357
 20
0.1466701991
 10
0.1388066942
 20
0.1459311015
 10
0.1341281766
 20
0.1454857952
 10
0.1294206316
 20
0.1453370816
  0
LINE
  5
209
330
1F
100
AcDbEntity
  8
0
  6
Continuous
 62
     7
370
    25
100
AcDbLine
 10
-0.3446793789
 20
0.5554499394
 30
0.0
 11
-0.3446793789
 21
0.2337928182
 31
0.0
  0
LINE
  5
20A
330
1F
100
AcDbEntity
  8
0
  6
Continuous
 62
     7
370
    25
100
AcDbLine
 10
-0.3347619907
 20
0.5554499394
 30
0.0
 11
-0.3446793789
 21
0.5554499394
 31
0.0
  0
LWPOLYLINE
  5
20B
330
1F
100
AcDbEntity
  8
0
  6
Continuous
 62
     7
370
    25
100
AcDbPolyline
 90
       19
 70
   128
 43
0.0
 10
-0.3347619907
 20
0.5554499394
 10
-0.3280505441
 20
0.5552989013
 10
-0.3213601075
 20
0.5548462636
 10
-0.3147116247
 20
0.5540933973
 10
-0.3081259085
 20
0.5530427462
 10
-0.3016235782
 20
0.551697529
 10
-0.295224986
 20
0.5500619776
 10
-0.2889501592
 20
0.5481412179
 10
-0.2828187486
 20
0.5459412104
 10
-0.2768499469
 20
0.543468929
 10
-0.2710624328
 20
0.5407320625
 10
-0.2654743334
 20
0.5377391941
 10
-0.2601031354
 20
0.5344996816
 10
-0.2549656471
 20
0.531023658
 10
-0.2500779694
 20
0.5273220307
 10
-0.2454553908
 20
0.5234064228
 10
-0.2411123803
 20
0.5192889935
 10
-0.2370625352
 20
0.5149826772
 10
-0.233318544
 20
0.5105010039
  0
ELLIPSE
  5
20C
330
1F
100
AcDbEntity
  8
0
  6
Continuous
 62
     7
370
    25
100
AcDbEllipse
 10
0.1953206212
 20
0.5554499512
 30
0.0
 11
0.4459504809634945
 21
0.0
 31
0.0
210
0.0
220
0.0
230
1.0
 40
0.3653024273
 41
3.421137666874849
 42
6.003640293894602
  0
LINE
  5
20D
330
1F
100
AcDbEntity
  8
0
  6
Continuous
 62
     7
370
    25
100
AcDbLine
 10
0.189420634
 20
0.1935856706
 30
0.0
 11
0.189420634
 21
0.1822913653
 31
0.0
  0
LWPOLYLINE
  5
20E
330
1F
100
AcDbEntity
  8
0
  6
Continuous
 62
     7
370
    25
100
AcDbPolyline
 90
       21
 70
   128
 43
0.0
 10
0.189420634
 20
0.1822913653
 10
0.1892356807
 20
0.1785058147
 10
0.188681894
 20
0.1747436292
 10
0.1877627904
 20
0.1710279352
 10
0.1864840323
 20
0.1673817403
 10
0.1848533685
 20
0.1638274557
 10
0.1828809912
 20
0.1603869564
 10
0.1805790598
 20
0.1570815808
 10
0.177961641
 20
0.1539315349
 10
0.1750450069
 20
0.1509564287
 10
0.1718470389
 20
0.1481744415
 10
0.1683874959
 20
0.1456028587
 10
0.1646877462
 20
0.1432574457
 10
0.160770529
 20
0.1411526865
 10
0.1566600436
 20
0.1393015749
 10
0.1523816222
 20
0.1377154953
 10
0.1479616398
 20
0.1364042527
 10
0.1434273357
 20
0.1353758938
 10
0.1388066942
 20
0.1346367962
 10
0.1341281766
 20
0.1341915197
 10
0.1294206316
 20
0.1340427763
  0
LINE
  5
20F
330
1F
100
AcDbEntity
  8
0
  6
Continuous
 62
     7
370
    25
100
AcDbLine
 10
0.1989206011
 20
0.2167708046
 30
0.0
 11
0.1989206011
 21
0.2161977655
 31
0.0
  0
LINE
  5
210
330
1F
100
AcDbEntity
  8
0
  6
Continuous
 62
     7
370
    25
100
AcDbLine
 10
0.1917205984
 20
0.2054764993
 30
0.0
 11
0.189420634
 21
0.2054764993
 31
0.0
  0
LINE
  5
211
330
1F
100
AcDbEntity
  8
0
  6
Continuous
 62
     7
370
    25
100
AcDbLine
 10
0.7353206212
 20
0.2320495016
 30
0.0
 11
0.7353206212
 21
0.2207551963
 31
0.0
  0
LINE
  5
212
330
1F
100
AcDbEntity
  8
0
  6
Continuous
 62
     7
370
    25
100
AcDbLine
 10
0.7353206212
 20
0.2207551963
 30
0.0
 11
0.7345603043
 21
0.2207551963
 31
0.0
  0
SPLINE
  5
213
330
1F
100
AcDbEntity
  8
0
  6
Continuous
 62
     7
370
    25
100
AcDbSpline
210
0.0
220
0.0
230
1.0
 70
    24
 71
     3
 72
    82
 73
    78
 74
     0
 42
0.000000001
 43
0.00000001
 40
0.0
 40
0.0
 40
0.0
 40
0.0
 40
0.0075953080783105
 40
0.0197837265923279
 40
0.0318913130307696
 40
0.0439300085085141
 40
0.0549192783790699
 40
0.0658812765623411
 40
0.0768363937274375
 40
0.0878089093845418
 40
0.0988216554821004
 40
0.1098852972269936
 40
0.1210065634392008
 40
0.1321903969944294
 40
0.1434400610100412
 40
0.1547572826511661
 40
0.1661424762568305
 40
0.1775948562018194
 40
0.1911757157986578
 40
0.2048430041086759
 40
0.2185909152737024
 40
0.2324127050591407
 40
0.2452659393346193
 40
0.2581698567569781
 40
0.2711181105917759
 40
0.2841044852933035
 40
0.2971229998738287
 40
0.3101681646482531
 40
0.3232351644510171
 40
0.3376292736786158
 40
0.3520470120255632
 40
0.3664950283049072
 40
0.3809778599829805
 40
0.3954979161630233
 40
0.4100555504441143
 40
0.4246493132583219
 40
0.4392761430361835
 40
0.4539315863174775
 40
0.4686099152893835
 40
0.4830419227086309
 40
0.4974823041972487
 40
0.5119230698070342
 40
0.5263559034286461
 40
0.5419225451593697
 40
0.5574582962928745
 40
0.5729517454492115
 40
0.5883916069186149
 40
0.6037668878614229
 40
0.619067207009616
 40
0.6334160610270517
 40
0.6476825144705624
 40
0.6618604960087532
 40
0.675944921658314
 40
0.6899323349519049
 40
0.7038208774344659
 40
0.7176105631605726
 40
0.7313035577538631
 40
0.7449044078584932
 40
0.7584203102853353
 40
0.7716220081497236
 40
0.7847654355279153
 40
0.7978748460182997
 40
0.8109752494179397
 40
0.8236629273698246
 40
0.8363790106423385
 40
0.8491372927681156
 40
0.8619486319058464
 40
0.8748213754177246
 40
0.8875296431392586
 40
0.9003059879614141
 40
0.9131517335754676
 40
0.9260662915637989
 40
0.9415269082721176
 40
0.9570749213607207
 40
0.972700607525333
 40
0.9883917864754851
 40
0.9999999999999999
 40
0.9999999999999999
 40
0.9999999999999999
 40
0.9999999999999999
 10
0.7543206745882785
 20
-0.4553887628941358
 30
0.0
 10
0.7543206745882785
 20
-0.4553966568124845
 30
0.0
 10
0.754320674588278
 20
-0.4554172183381981
 30
0.0
 10
0.7543206745882787
 20
-0.4545217141133545
 30
0.0
 10
0.7543206745882787
 20
-0.4527138867629608
 30
0.0
 10
0.754320674588278
 20
-0.4499768607827457
 30
0.0
 10
0.7543206745882787
 20
-0.4463861917934071
 30
0.0
 10
0.7543206745882785
 20
-0.4419760154063513
 30
0.0
 10
0.7543206745882782
 20
-0.4365926860751846
 30
0.0
 10
0.7543206745882787
 20
-0.4301831797676035
 30
0.0
 10
0.7543206745882785
 20
-0.4227137250768648
 30
0.0
 10
0.7543206745882785
 20
-0.4142220554838405
 30
0.0
 10
0.7543206745882782
 20
-0.404740074020403
 30
0.0
 10
0.7543206745882787
 20
-0.3943021950710803
 30
0.0
 10
0.7543206745882785
 20
-0.3829422124660645
 30
0.0
 10
0.7543206745882787
 20
-0.3706939915698535
 30
0.0
 10
0.7543206745882785
 20
-0.3575913268747456
 30
0.0
 10
0.7543206745882789
 20
-0.3428320696159718
 30
0.0
 10
0.7543206745882778
 20
-0.3262833042929973
 30
0.0
 10
0.7543206745882787
 20
-0.3078261471772018
 30
0.0
 10
0.7543206745882785
 20
-0.2883866366745448
 30
0.0
 10
0.7543206745882785
 20
-0.2685283610724541
 30
0.0
 10
0.7543206745882785
 20
-0.2483768079093957
 30
0.0
 10
0.7543206745882785
 20
-0.2280436977754113
 30
0.0
 10
0.7543206745882787
 20
-0.2070506648817859
 30
0.0
 10
0.7543206745882785
 20
-0.1854414134771033
 30
0.0
 10
0.7543206745882787
 20
-0.1632595512484952
 30
0.0
 10
0.7543206745882782
 20
-0.1405485322221478
 30
0.0
 10
0.7543206745882787
 20
-0.1165779760153786
 30
0.0
 10
0.7543206745882789
 20
-0.0913340063440401
 30
0.0
 10
0.7543206745882785
 20
-0.0648219507640735
 30
0.0
 10
0.7543206745882787
 20
-0.0378899835685853
 30
0.0
 10
0.7543206745882782
 20
-0.0105924171446246
 30
0.0
 10
0.754320674588278
 20
0.0170160720038985
 30
0.0
 10
0.7543206745882789
 20
0.0448809686839484
 30
0.0
 10
0.754320674588278
 20
0.072947751968542
 30
0.0
 10
0.7543206745882785
 20
0.1011619530384684
 30
0.0
 10
0.7543206745882782
 20
0.1294690400859771
 30
0.0
 10
0.7543206745882789
 20
0.1576456175066233
 30
0.0
 10
0.7543206745882787
 20
0.185637952448464
 30
0.0
 10
0.7543206745882785
 20
0.2133948839784475
 30
0.0
 10
0.7543206745882789
 20
0.2410331582416232
 30
0.0
 10
0.754320674588278
 20
0.2692310409076201
 30
0.0
 10
0.7543206745882785
 20
0.297916177761145
 30
0.0
 10
0.7543206745882787
 20
0.3270039033916027
 30
0.0
 10
0.7543206745882785
 20
0.355702854802613
 30
0.0
 10
0.7543206745882785
 20
0.3839479840317543
 30
0.0
 10
0.7543206745882785
 20
0.4116743524434424
 30
0.0
 10
0.7543206745882789
 20
0.4383042213482229
 30
0.0
 10
0.7543206745882785
 20
0.4638110521656078
 30
0.0
 10
0.7543206745882787
 20
0.4881776702510148
 30
0.0
 10
0.754320674588278
 20
0.5118581500012467
 30
0.0
 10
0.7543206745882785
 20
0.534798301663119
 30
0.0
 10
0.7543206745882785
 20
0.5569432621751658
 30
0.0
 10
0.754320674588278
 20
0.5782386987022186
 30
0.0
 10
0.7543206745882791
 20
0.598629763695077
 30
0.0
 10
0.754320674588278
 20
0.6180619156606209
 30
0.0
 10
0.7543206745882789
 20
0.6364804610655168
 30
0.0
 10
0.754320674588278
 20
0.6537275950679287
 30
0.0
 10
0.7543206745882787
 20
0.6697725830267622
 30
0.0
 10
0.7543206745882782
 20
0.6845842323018339
 30
0.0
 10
0.7543206745882787
 20
0.6982712802038937
 30
0.0
 10
0.7543206745882785
 20
0.7107273672243035
 30
0.0
 10
0.7543206745882787
 20
0.7220207488804788
 30
0.0
 10
0.7543206745882789
 20
0.7322185082706032
 30
0.0
 10
0.754320674588278
 20
0.7414717012729442
 30
0.0
 10
0.7543206745882787
 20
0.7498067058458664
 30
0.0
 10
0.7543206745882787
 20
0.757205514676921
 30
0.0
 10
0.7543206745882782
 20
0.7637128743373232
 30
0.0
 10
0.7543206745882787
 20
0.7693718667047194
 30
0.0
 10
0.7543206745882785
 20
0.774246318471947
 30
0.0
 10
0.7543206745882782
 20
0.7786248811630583
 30
0.0
 10
0.7543206745882785
 20
0.7823547564064248
 30
0.0
 10
0.7543206745882785
 20
0.785301374300853
 30
0.0
 10
0.7543206745882785
 20
0.7872622941383047
 30
0.0
 10
0.7543206745882787
 20
0.7883140978606407
 30
0.0
 10
0.7543206745882785
 20
0.7883406007222649
 30
0.0
 10
0.7543206745882785
 20
0.7883518702359378
 30
0.0
  0
SPLINE
  5
214
330
1F
100
AcDbEntity
  8
0
  6
Continuous
 62
     7
370
    25
100
AcDbSpline
210
0.0
220
0.0
230
1.0
 70
    24
 71
     3
 72
    46
 73
    42
 74
     0
 42
0.000000001
 43
0.00000001
 40
0.0
 40
0.0
 40
0.0
 40
0.0
 40
0.0155646961180959
 40
0.0405418304719475
 40
0.0653533195774484
 40
0.0900236337816182
 40
0.112543411035077
 40
0.1350073017437326
 40
0.157457091515893
 40
0.1799425351730866
 40
0.2025104211188498
 40
0.2251826050438827
 40
0.2479728759923072
 40
0.2708913631593501
 40
0.293944753493008
 40
0.3171365863889333
 40
0.3404677109319779
 40
0.3639365171785283
 40
0.3917671134450509
 40
0.4197748238776678
 40
0.4479477508130836
 40
0.4762720736187497
 40
0.5026115826379837
 40
0.5290549541696219
 40
0.5555891821588871
 40
0.582201529389701
 40
0.6088797393142612
 40
0.6356125621874016
 40
0.6623901305241005
 40
0.6918872797783925
 40
0.721432851039851
 40
0.7510404693982775
 40
0.7807194332631493
 40
0.8104746794927818
 40
0.8403069327006016
 40
0.8702132223574179
 40
0.9001872745375596
 40
0.9302199629811959
 40
0.9602995499595794
 40
0.9898743621381869
 40
1.0
 40
1.0
 40
1.0
 40
1.0
 10
0.7353206211825167
 20
-0.4553887628941358
 30
0.0
 10
0.735320621182517
 20
-0.4553966568124845
 30
0.0
 10
0.735320621182517
 20
-0.4554172183381983
 30
0.0
 10
0.7353206211825165
 20
-0.4545217141133544
 30
0.0
 10
0.735320621182517
 20
-0.4527138867629608
 30
0.0
 10
0.7353206211825165
 20
-0.4499768607827458
 30
0.0
 10
0.7353206211825167
 20
-0.4463861917934071
 30
0.0
 10
0.7353206211825165
 20
-0.4419760154063513
 30
0.0
 10
0.7353206211825172
 20
-0.4365926860751848
 30
0.0
 10
0.7353206211825161
 20
-0.4301831797676035
 30
0.0
 10
0.7353206211825172
 20
-0.4227137250768648
 30
0.0
 10
0.7353206211825165
 20
-0.4142220554838405
 30
0.0
 10
0.7353206211825167
 20
-0.4047400740204031
 30
0.0
 10
0.7353206211825167
 20
-0.3943021950710803
 30
0.0
 10
0.7353206211825167
 20
-0.3829422124660645
 30
0.0
 10
0.735320621182517
 20
-0.3706939915698535
 30
0.0
 10
0.7353206211825165
 20
-0.3575913268747456
 30
0.0
 10
0.735320621182517
 20
-0.3428320696159718
 30
0.0
 10
0.7353206211825167
 20
-0.3262833042929973
 30
0.0
 10
0.7353206211825167
 20
-0.3078261471772018
 30
0.0
 10
0.7353206211825167
 20
-0.2883866366745449
 30
0.0
 10
0.7353206211825167
 20
-0.2685283610724533
 30
0.0
 10
0.735320621182517
 20
-0.2483768079093983
 30
0.0
 10
0.7353206211825167
 20
-0.2280436977754019
 30
0.0
 10
0.7353206211825165
 20
-0.2070506648818211
 30
0.0
 10
0.7353206211825167
 20
-0.1854414134769714
 30
0.0
 10
0.7353206211825167
 20
-0.1632595512489893
 30
0.0
 10
0.7353206211825165
 20
-0.1405485322202986
 30
0.0
 10
0.7353206211825172
 20
-0.1165779760225892
 30
0.0
 10
0.7353206211825163
 20
-0.0913340063140514
 30
0.0
 10
0.735320621182517
 20
-0.0648219508759362
 30
0.0
 10
0.7353206211825167
 20
-0.0378899831498258
 30
0.0
 10
0.735320621182517
 20
-0.0105924187132094
 30
0.0
 10
0.7353206211825167
 20
0.0170160778806029
 30
0.0
 10
0.7353206211825167
 20
0.0448809466675374
 30
0.0
 10
0.735320621182517
 20
0.0729478344332152
 30
0.0
 10
0.7353206211825167
 20
0.1011616442721454
 30
0.0
 10
0.7353206211825172
 20
0.1294701955950709
 30
0.0
 10
0.7353206211825163
 20
0.1576413285399306
 30
0.0
 10
0.7353206211825167
 20
0.1795436391404543
 30
0.0
 10
0.735320621182517
 20
0.1919515493226019
 30
0.0
 10
0.7353206211825167
 20
0.1951161987157047
 30
0.0
  0
SPLINE
  5
215
330
1F
100
AcDbEntity
  8
0
  6
Continuous
 62
     7
370
    25
100
AcDbSpline
210
0.0
220
0.0
230
1.0
 70
    24
 71
     3
 72
     9
 73
     5
 74
     0
 42
0.000000001
 43
0.00000001
 40
0.0
 40
0.0
 40
0.0
 40
0.0
 40
0.6180156504732441
 40
1.0
 40
1.0
 40
1.0
 40
1.0
 10
0.7353206211825167
 20
0.2016668087811649
 30
0.0
 10
0.7353206211825167
 20
0.2055746376800531
 30
0.0
 10
0.7353206211825167
 20
0.2118978252820109
 30
0.0
 10
0.7353206211825167
 20
0.2181803651344958
 30
0.0
 10
0.7353206211825167
 20
0.2205801970334232
 30
0.0
  0
SPLINE
  5
216
330
1F
100
AcDbEntity
  8
0
  6
Continuous
 62
     7
370
    25
100
AcDbSpline
210
0.0
220
0.0
230
1.0
 70
    24
 71
     3
 72
    42
 73
    38
 74
     0
 42
0.000000001
 43
0.00000001
 40
0.0
 40
0.0
 40
0.0
 40
0.0
 40
0.0228689579756945
 40
0.054983047363209
 40
0.0870334092353428
 40
0.1189965018364588
 40
0.1508490426693759
 40
0.1825683534299588
 40
0.2141330174905954
 40
0.2437348024160396
 40
0.2731665943884509
 40
0.3024158682092359
 40
0.3314721355857171
 40
0.3603282658019037
 40
0.3889804248521733
 40
0.4174286417312125
 40
0.4456773841355411
 40
0.4737360318234501
 40
0.5016194318654674
 40
0.5288546257253712
 40
0.5559696071698587
 40
0.5830144115398926
 40
0.6100406342195215
 40
0.6362154014503137
 40
0.6624487690537197
 40
0.6887691931828157
 40
0.7151990742939631
 40
0.7417556330530107
 40
0.767972877120774
 40
0.7943305647172327
 40
0.8208314266266311
 40
0.8474742489393554
 40
0.8793696079734818
 40
0.9114452663436597
 40
0.9436811648060239
 40
0.9760521753372239
 40
1.0
 40
1.0
 40
1.0
 40
1.0
 10
0.7353206211825167
 20
0.2473832733006656
 30
0.0
 10
0.7353206211825167
 20
0.254424070126053
 30
0.0
 10
0.7353206211825165
 20
0.271352015235596
 30
0.0
 10
0.735320621182517
 20
0.297912478572982
 30
0.0
 10
0.7353206211825165
 20
0.3270048908777261
 30
0.0
 10
0.735320621182517
 20
0.3557025914861673
 30
0.0
 10
0.7353206211825167
 20
0.3839480541781368
 30
0.0
 10
0.735320621182517
 20
0.4116743337426045
 30
0.0
 10
0.7353206211825165
 20
0.4383042260047247
 30
0.0
 10
0.7353206211825167
 20
0.4638110509594214
 30
0.0
 10
0.7353206211825167
 20
0.4881776705712756
 30
0.0
 10
0.735320621182517
 20
0.5118581499162667
 30
0.0
 10
0.7353206211825167
 20
0.5347983016856575
 30
0.0
 10
0.735320621182517
 20
0.5569432621691903
 30
0.0
 10
0.7353206211825167
 20
0.5782386987038031
 30
0.0
 10
0.7353206211825167
 20
0.5986297636946567
 30
0.0
 10
0.7353206211825167
 20
0.6180619156607323
 30
0.0
 10
0.7353206211825167
 20
0.6364804610654871
 30
0.0
 10
0.7353206211825167
 20
0.6537275950679367
 30
0.0
 10
0.735320621182517
 20
0.6697725830267602
 30
0.0
 10
0.7353206211825167
 20
0.6845842323018347
 30
0.0
 10
0.7353206211825165
 20
0.6982712802038933
 30
0.0
 10
0.735320621182517
 20
0.7107273672243037
 30
0.0
 10
0.7353206211825165
 20
0.7220207488804786
 30
0.0
 10
0.735320621182517
 20
0.732218508270603
 30
0.0
 10
0.7353206211825165
 20
0.7414717012729444
 30
0.0
 10
0.735320621182517
 20
0.7498067058458664
 30
0.0
 10
0.7353206211825167
 20
0.7572055146769212
 30
0.0
 10
0.7353206211825167
 20
0.7637128743373229
 30
0.0
 10
0.7353206211825167
 20
0.7693718667047194
 30
0.0
 10
0.735320621182517
 20
0.7742463184719475
 30
0.0
 10
0.7353206211825165
 20
0.7786248811630585
 30
0.0
 10
0.735320621182517
 20
0.7823547564064248
 30
0.0
 10
0.7353206211825167
 20
0.785301374300853
 30
0.0
 10
0.7353206211825165
 20
0.7872622941383045
 30
0.0
 10
0.7353206211825165
 20
0.78831409786064
 30
0.0
 10
0.7353206211825165
 20
0.7883406007222651
 30
0.0
 10
0.7353206211825167
 20
0.7883518702359378
 30
0.0
  0
LINE
  5
217
330
1F
100
AcDbEntity
  8
0
  6
Continuous
 62
     7
370
    25
100
AcDbLine
 10
0.7663206393
 20
-0.2726244935
 30
0.0
 11
0.7543206746
 21
-0.2726244935
 31
0.0
  0
LINE
  5
218
330
1F
100
AcDbEntity
  8
0
  6
Continuous
 62
     7
370
    25
100
AcDbLine
 10
0.7663206393
 20
-0.2726244935
 30
0.0
 11
0.7663206393
 21
-0.2754968711
 31
0.0
  0
LINE
  5
219
330
1F
100
AcDbEntity
  8
0
  6
Continuous
 62
     7
370
    25
100
AcDbLine
 10
0.7663206393
 20
-0.2754968711
 30
0.0
 11
0.7543206746
 21
-0.2754968711
 31
0.0
  0
LINE
  5
21A
330
1F
100
AcDbEntity
  8
0
  6
Continuous
 62
     7
370
    25
100
AcDbLine
 10
0.7663206393
 20
-0.2510785618
 30
0.0
 11
0.7543206746
 21
-0.2510785618
 31
0.0
  0
LINE
  5
21B
330
1F
100
AcDbEntity
  8
0
  6
Continuous
 62
     7
370
    25
100
AcDbLine
 10
0.7663206393
 20
-0.2510785618
 30
0.0
 11
0.7663206393
 21
-0.2726244935
 31
0.0
  0
LINE
  5
21C
330
1F
100
AcDbEntity
  8
0
  6
Continuous
 62
     7
370
    25
100
AcDbLine
 10
0.7663206393
 20
-0.2482061842
 30
0.0
 11
0.7543206746
 21
-0.2482061842
 31
0.0
  0
LINE
  5
21D
330
1F
100
AcDbEntity
  8
0
  6
Continuous
 62
     7
370
    25
100
AcDbLine
 10
0.7663206393
 20
-0.2482061842
 30
0.0
 11
0.7663206393
 21
-0.2510785618
 31
0.0
  0
LINE
  5
21E
330
1F
100
AcDbEntity
  8
0
  6
Continuous
 62
     7
370
    25
100
AcDbLine
 10
0.7663206393
 20
-0.2908912831
 30
0.0
 11
0.7543206746
 21
-0.2908912831
 31
0.0
  0
LINE
  5
21F
330
1F
100
AcDbEntity
  8
0
  6
Continuous
 62
     7
370
    25
100
AcDbLine
 10
0.7663206393
 20
-0.2754968711
 30
0.0
 11
0.7663206393
 21
-0.2908912831
 31
0.0
  0
LINE
  5
220
330
1F
100
AcDbEntity
  8
0
  6
Continuous
 62
     7
370
    25
100
AcDbLine
 10
0.7663206393
 20
-0.2328117722
 30
0.0
 11
0.7543206746
 21
-0.2328117722
 31
0.0
  0
LINE
  5
221
330
1F
100
AcDbEntity
  8
0
  6
Continuous
 62
     7
370
    25
100
AcDbLine
 10
0.7663206393
 20
-0.2328117722
 30
0.0
 11
0.7663206393
 21
-0.2482061842
 31
0.0
  0
LINE
  5
222
330
1F
100
AcDbEntity
  8
0
  6
Continuous
 62
     7
370
    25
100
AcDbLine
 10
0.7663206393
 20
-0.2326841437
 30
0.0
 11
0.7663206393
 21
-0.2328117722
 31
0.0
  0
LINE
  5
223
330
1F
100
AcDbEntity
  8
0
  6
Continuous
 62
     7
370
    25
100
AcDbLine
 10
0.7663206393
 20
-0.2908912831
 30
0.0
 11
0.7663206393
 21
-0.2910189041
 31
0.0
  0
LINE
  5
224
330
1F
100
AcDbEntity
  8
0
  6
Continuous
 62
     7
370
    25
100
AcDbLine
 10
-0.3638793779
 20
0.2070495254
 30
0.0
 11
-0.3448793786
 21
0.2070495254
 31
0.0
  0
LINE
  5
225
330
1F
100
AcDbEntity
  8
0
  6
Continuous
 62
     7
370
    25
100
AcDbLine
 10
-0.3638793779
 20
0.2251766092
 30
0.0
 11
-0.3448793786
 21
0.2251766092
 31
0.0
  0
LINE
  5
226
330
1F
100
AcDbEntity
  8
0
  6
Continuous
 62
     7
370
    25
100
AcDbLine
 10
-0.3448793786
 20
0.2070495254
 30
0.0
 11
-0.3448793786
 21
0.2251766092
 31
0.0
  0
LINE
  5
227
330
1F
100
AcDbEntity
  8
0
  6
Continuous
 62
     7
370
    25
100
AcDbLine
 10
-0.3638793779
 20
0.2070495254
 30
0.0
 11
-0.3638793779
 21
0.2251766092
 31
0.0
  0
LINE
  5
228
330
1F
100
AcDbEntity
  8
0
  6
Continuous
 62
     7
370
    25
100
AcDbLine
 10
-0.3638793779
 20
0.7336209781
 30
0.0
 11
-0.3448793786
 21
0.7336209781
 31
0.0
  0
LINE
  5
229
330
1F
100
AcDbEntity
  8
0
  6
Continuous
 62
     7
370
    25
100
AcDbLine
 10
-0.3448793786
 20
0.7336209781
 30
0.0
 11
-0.3448793786
 21
0.2251766092
 31
0.0
  0
LINE
  5
22A
330
1F
100
AcDbEntity
  8
0
  6
Continuous
 62
     7
370
    25
100
AcDbLine
 10
-0.3638793779
 20
0.7336209781
 30
0.0
 11
-0.3638793779
 21
0.2251766092
 31
0.0
  0
LINE
  5
22B
330
1F
100
AcDbEntity
  8
0
  6
Continuous
 62
     7
370
    25
100
AcDbLine
 10
-0.3638793779
 20
-0.0881567531
 30
0.0
 11
-0.3448793786
 21
-0.0881567531
 31
0.0
  0
LINE
  5
22C
330
1F
100
AcDbEntity
  8
0
  6
Continuous
 62
     7
370
    25
100
AcDbLine
 10
-0.3448793786
 20
0.2070495254
 30
0.0
 11
-0.3448793786
 21
-0.0881567531
 31
0.0
  0
LINE
  5
22D
330
1F
100
AcDbEntity
  8
0
  6
Continuous
 62
     7
370
    25
100
AcDbLine
 10
-0.3638793779
 20
0.2070495254
 30
0.0
 11
-0.3638793779
 21
-0.0881567531
 31
0.0
  0
LINE
  5
22E
330
1F
100
AcDbEntity
  8
0
  6
Continuous
 62
     7
370
    25
100
AcDbLine
 10
-0.3638793779
 20
-0.1260373377
 30
0.0
 11
-0.3448793786
 21
-0.1260373377
 31
0.0
  0
LINE
  5
22F
330
1F
100
AcDbEntity
  8
0
  6
Continuous
 62
     7
370
    25
100
AcDbLine
 10
-0.3638793779
 20
-0.1100211673
 30
0.0
 11
-0.3448793786
 21
-0.1100211673
 31
0.0
  0
LINE
  5
230
330
1F
100
AcDbEntity
  8
0
  6
Continuous
 62
     7
370
    25
100
AcDbLine
 10
-0.3448793786
 20
-0.1260373377
 30
0.0
 11
-0.3448793786
 21
-0.1100211673
 31
0.0
  0
LINE
  5
231
330
1F
100
AcDbEntity
  8
0
  6
Continuous
 62
     7
370
    25
100
AcDbLine
 10
-0.3638793779
 20
-0.1260373377
 30
0.0
 11
-0.3638793779
 21
-0.1100211673
 31
0.0
  0
LINE
  5
232
330
1F
100
AcDbEntity
  8
0
  6
Continuous
 62
     7
370
    25
100
AcDbLine
 10
-0.3638793779
 20
-0.2275580102
 30
0.0
 11
-0.3448793786
 21
-0.2275580102
 31
0.0
  0
LINE
  5
233
330
1F
100
AcDbEntity
  8
0
  6
Continuous
 62
     7
370
    25
100
AcDbLine
 10
-0.3448793786
 20
-0.2275580102
 30
0.0
 11
-0.3448793786
 21
-0.1260373377
 31
0.0
  0
LINE
  5
234
330
1F
100
AcDbEntity
  8
0
  6
Continuous
 62
     7
370
    25
100
AcDbLine
 10
-0.3638793779
 20
-0.2275580102
 30
0.0
 11
-0.3638793779
 21
-0.1260373377
 31
0.0
  0
LINE
  5
235
330
1F
100
AcDbEntity
  8
0
  6
Continuous
 62
     7
370
    25
100
AcDbLine
 10
-0.3448793786
 20
-0.2412974992
 30
0.0
 11
-0.3448793786
 21
-0.2275580102
 31
0.0
  0
LINE
  5
236
330
1F
100
AcDbEntity
  8
0
  6
Continuous
 62
     7
370
    25
100
AcDbLine
 10
-0.3638793779
 20
-0.2412974992
 30
0.0
 11
-0.3638793779
 21
-0.2275580102
 31
0.0
  0
LINE
  5
237
330
1F
100
AcDbEntity
  8
0
  6
Continuous
 62
     7
370
    25
100
AcDbLine
 10
-0.3448793786
 20
-0.1100211673
 30
0.0
 11
-0.3448793786
 21
-0.0881567531
 31
0.0
  0
LINE
  5
238
330
1F
100
AcDbEntity
  8
0
  6
Continuous
 62
     7
370
    25
100
AcDbLine
 10
-0.3638793779
 20
-0.1100211673
 30
0.0
 11
-0.3638793779
 21
-0.0881567531
 31
0.0
  0
LINE
  5
239
330
1F
100
AcDbEntity
  8
0
  6
Continuous
 62
     7
370
    25
100
AcDbLine
 10
-0.3638793779
 20
-0.3832925138
 30
0.0
 11
-0.3448793786
 21
-0.3832925138
 31
0.0
  0
LINE
  5
23A
330
1F
100
AcDbEntity
  8
0
  6
Continuous
 62
     7
370
    25
100
AcDbLine
 10
-0.3448793786
 20
-0.2412974992
 30
0.0
 11
-0.3448793786
 21
-0.3832925138
 31
0.0
  0
LINE
  5
23B
330
1F
100
AcDbEntity
  8
0
  6
Continuous
 62
     7
370
    25
100
AcDbLine
 10
-0.3638793779
 20
-0.2412974992
 30
0.0
 11
-0.3638793779
 21
-0.3832925138
 31
0.0
  0
LINE
  5
23C
330
1F
100
AcDbEntity
  8
0
  6
Continuous
 62
     7
370
    25
100
AcDbLine
 10
-0.3448793786
 20
0.7701216704
 30
0.0
 11
-0.3448793786
 21
0.7336209781
 31
0.0
  0
LINE
  5
23D
330
1F
100
AcDbEntity
  8
0
  6
Continuous
 62
     7
370
    25
100
AcDbLine
 10
-0.3638793779
 20
0.7701216704
 30
0.0
 11
-0.3638793779
 21
0.7336209781
 31
0.0
  0
LINE
  5
23E
330
1F
100
AcDbEntity
  8
0
  6
Continuous
 62
     7
370
    25
100
AcDbLine
 10
-0.3448793786
 20
-0.4180291825
 30
0.0
 11
-0.3448793786
 21
-0.3832925138
 31
0.0
  0
LINE
  5
23F
330
1F
100
AcDbEntity
  8
0
  6
Continuous
 62
     7
370
    25
100
AcDbLine
 10
-0.3638793779
 20
-0.4180291825
 30
0.0
 11
-0.3638793779
 21
-0.3832925138
 31
0.0
  0
LINE
  5
240
330
1F
100
AcDbEntity
  8
0
  6
Continuous
 62
     7
370
    25
100
AcDbLine
 10
-0.3758793799
 20
-0.2412660428
 30
0.0
 11
-0.3758793799
 21
-0.1838836306
 31
0.0
  0
LINE
  5
241
330
1F
100
AcDbEntity
  8
0
  6
Continuous
 62
     7
370
    25
100
AcDbLine
 10
-0.3328793789
 20
-0.2347284862
 30
0.0
 11
-0.3328793789
 21
-0.2412660428
 31
0.0
  0
LINE
  5
242
330
1F
100
AcDbEntity
  8
0
  6
Continuous
 62
     7
370
    25
100
AcDbLine
 10
-0.3328793789
 20
0.6221670873
 30
0.0
 11
-0.3328793789
 21
0.570810712
 31
0.0
  0
LINE
  5
243
330
1F
100
AcDbEntity
  8
0
  6
Continuous
 62
     7
370
    25
100
AcDbLine
 10
-0.3758793799
 20
0.570810712
 30
0.0
 11
-0.3758793799
 21
0.6221670873
 31
0.0
  0
LINE
  5
244
330
1F
100
AcDbEntity
  8
0
  6
Continuous
 62
     7
370
    25
100
AcDbLine
 10
-0.3086793786
 20
0.7070785529
 30
0.0
 11
-0.3086793786
 21
0.6710785395
 31
0.0
  0
LINE
  5
245
330
1F
100
AcDbEntity
  8
0
  6
Continuous
 62
     7
370
    25
100
AcDbLine
 10
0.2186715538
 20
-0.3729214472
 30
0.0
 11
0.236732536
 21
-0.3729214472
 31
0.0
  0
LINE
  5
246
330
1F
100
AcDbEntity
  8
0
  6
Continuous
 62
     7
370
    25
100
AcDbLine
 10
0.2557325298
 20
-0.3729214472
 30
0.0
 11
0.2740247185
 21
-0.3729214472
 31
0.0
  0
LINE
  5
247
330
1F
100
AcDbEntity
  8
0
  6
Continuous
 62
     7
370
    25
100
AcDbLine
 10
0.3039538795
 20
-0.3729214472
 30
0.0
 11
0.3072656924
 21
-0.3729214472
 31
0.0
  0
LINE
  5
248
330
1F
100
AcDbEntity
  8
0
  6
Continuous
 62
     7
370
    25
100
AcDbLine
 10
0.3262656862
 20
-0.3729214472
 30
0.0
 11
0.3339748317
 21
-0.3729214472
 31
0.0
  0
LINE
  5
249
330
1F
100
AcDbEntity
  8
0
  6
Continuous
 62
     7
370
    25
100
AcDbLine
 10
0.3560489947
 20
-0.3729214472
 30
0.0
 11
0.3598421747
 21
-0.3729214472
 31
0.0
  0
LINE
  5
24A
330
1F
100
AcDbEntity
  8
0
  6
Continuous
 62
     7
370
    25
100
AcDbLine
 10
0.3838844234
 20
-0.3729214472
 30
0.0
 11
0.3870979482
 21
-0.3729214472
 31
0.0
  0
LINE
  5
24B
330
1F
100
AcDbEntity
  8
0
  6
Continuous
 62
     7
370
    25
100
AcDbLine
 10
0.4109125668
 20
-0.3729214472
 30
0.0
 11
0.4257333214
 21
-0.3729214472
 31
0.0
  0
LINE
  5
24C
330
1F
100
AcDbEntity
  8
0
  6
Continuous
 62
     7
370
    25
100
AcDbLine
 10
0.4568821723
 20
-0.3729214472
 30
0.0
 11
0.4701522524
 21
-0.3729214472
 31
0.0
  0
LINE
  5
24D
330
1F
100
AcDbEntity
  8
0
  6
Continuous
 62
     7
370
    25
100
AcDbLine
 10
0.4954098994
 20
-0.3729214472
 30
0.0
 11
0.5082142884
 21
-0.3729214472
 31
0.0
  0
LINE
  5
24E
330
1F
100
AcDbEntity
  8
0
  6
Continuous
 62
     7
370
    25
100
AcDbLine
 10
0.5272142822
 20
-0.3729214472
 30
0.0
 11
0.5395252044
 21
-0.3729214472
 31
0.0
  0
LINE
  5
24F
330
1F
100
AcDbEntity
  8
0
  6
Continuous
 62
     7
370
    25
100
AcDbLine
 10
0.5585251982
 20
-0.3729214472
 30
0.0
 11
0.566931718
 21
-0.3729214472
 31
0.0
  0
LINE
  5
250
330
1F
100
AcDbEntity
  8
0
  6
Continuous
 62
     7
370
    25
100
AcDbLine
 10
0.5859317118
 20
-0.3729214472
 30
0.0
 11
0.5962073738
 21
-0.3729214472
 31
0.0
  0
LINE
  5
251
330
1F
100
AcDbEntity
  8
0
  6
Continuous
 62
     7
370
    25
100
AcDbLine
 10
0.6152073676
 20
-0.3729214472
 30
0.0
 11
0.6435016925
 21
-0.3729214472
 31
0.0
  0
LINE
  5
252
330
1F
100
AcDbEntity
  8
0
  6
Continuous
 62
     7
370
    25
100
AcDbLine
 10
0.6625016863
 20
-0.3729214472
 30
0.0
 11
0.7353206212
 21
-0.3729214472
 31
0.0
  0
LINE
  5
253
330
1F
100
AcDbEntity
  8
0
  6
Continuous
 62
     7
370
    25
100
AcDbLine
 10
0.210691982
 20
-0.3729214472
 30
0.0
 11
0.210691982
 21
-0.3727921181
 31
0.0
  0
LINE
  5
254
330
1F
100
AcDbEntity
  8
0
  6
Continuous
 62
     7
370
    25
100
AcDbLine
 10
-0.3446793789
 20
0.6710785395
 30
0.0
 11
-0.3086793786
 21
0.6710785395
 31
0.0
  0
LINE
  5
255
330
1F
100
AcDbEntity
  8
0
  6
Continuous
 62
     7
370
    25
100
AcDbLine
 10
0.7353206212
 20
0.6710785395
 30
0.0
 11
0.6993206078
 21
0.6710785395
 31
0.0
  0
LINE
  5
256
330
1F
100
AcDbEntity
  8
0
  6
Continuous
 62
     7
370
    25
100
AcDbLine
 10
0.6993206078
 20
0.7070785529
 30
0.0
 11
0.6993206078
 21
0.6710785395
 31
0.0
  0
LINE
  5
257
330
1F
100
AcDbEntity
  8
0
  6
Continuous
 62
     7
370
    25
100
AcDbLine
 10
-0.3446793789
 20
-0.337921447
 30
0.0
 11
-0.3446793789
 21
-0.2412660428
 31
0.0
  0
LINE
  5
258
330
1F
100
AcDbEntity
  8
0
  6
Continuous
 62
     7
370
    25
100
AcDbLine
 10
-0.3446793789
 20
0.5554499394
 30
0.0
 11
-0.3446793789
 21
0.570810712
 31
0.0
  0
LINE
  5
259
330
1F
100
AcDbEntity
  8
0
  6
Continuous
 62
     7
370
    25
100
AcDbLine
 10
-0.3446793789
 20
0.6221670873
 30
0.0
 11
-0.3446793789
 21
0.6710785395
 31
0.0
  0
LINE
  5
25A
330
1F
100
AcDbEntity
  8
0
  6
Continuous
 62
     7
370
    25
100
AcDbLine
 10
0.7344419295
 20
0.7061998612
 30
0.0
 11
0.7353206212
 21
0.7070785529
 31
0.0
  0
LINE
  5
25B
330
1F
100
AcDbEntity
  8
0
  6
Continuous
 62
     7
370
    25
100
AcDbLine
 10
0.7003206546
 20
0.6710785395
 30
0.0
 11
0.7003206546
 21
0.6720785863
 31
0.0
  0
LINE
  5
25C
330
1F
100
AcDbEntity
  8
0
  6
Continuous
 62
     7
370
    25
100
AcDbLine
 10
0.7003206546
 20
0.6720785863
 30
0.0
 11
0.7011993462
 21
0.672957278
 31
0.0
  0
LINE
  5
25D
330
1F
100
AcDbEntity
  8
0
  6
Continuous
 62
     7
370
    25
100
AcDbLine
 10
0.7353206212
 20
0.7070785529
 30
0.0
 11
0.7344419295
 21
0.7061998612
 31
0.0
  0
LWPOLYLINE
  5
25E
330
1F
100
AcDbEntity
  8
0
  6
Continuous
 62
     7
370
    25
100
AcDbPolyline
 90
        5
 70
   128
 43
0.0
 10
-0.3438006984
 20
0.7061998612
 10
-0.3441737881
 20
0.7065729863
 10
-0.3444510167
 20
0.7068501479
 10
-0.3446217337
 20
0.7070208556
 10
-0.3446793789
 20
0.7070785529
  0
LINE
  5
25F
330
1F
100
AcDbEntity
  8
0
  6
Continuous
 62
     7
370
    25
100
AcDbLine
 10
0.7003206546
 20
0.6720785863
 30
0.0
 11
0.6993206078
 21
0.6720785863
 31
0.0
  0
LINE
  5
260
330
1F
100
AcDbEntity
  8
0
  6
Continuous
 62
     7
370
    25
100
AcDbLine
 10
-0.3086793786
 20
0.6720785863
 30
0.0
 11
-0.3096793787
 21
0.6720785863
 31
0.0
  0
LINE
  5
261
330
1F
100
AcDbEntity
  8
0
  6
Continuous
 62
     7
370
    25
100
AcDbLine
 10
-0.3105580592
 20
0.672957278
 30
0.0
 11
-0.3096793787
 21
0.6720785863
 31
0.0
  0
LINE
  5
262
330
1F
100
AcDbEntity
  8
0
  6
Continuous
 62
     7
370
    25
100
AcDbLine
 10
0.7011993462
 20
0.672957278
 30
0.0
 11
0.7003206546
 21
0.6720785863
 31
0.0
  0
LINE
  5
263
330
1F
100
AcDbEntity
  8
0
  6
Continuous
 62
     7
370
    25
100
AcDbLine
 10
-0.3446793789
 20
0.7070785529
 30
0.0
 11
-0.3446793789
 21
0.7040785319
 31
0.0
  0
LINE
  5
264
330
1F
100
AcDbEntity
  8
0
  6
Continuous
 62
     7
370
    25
100
AcDbLine
 10
-0.3446793789
 20
0.6750786073
 30
0.0
 11
-0.3446793789
 21
0.6710785395
 31
0.0
  0
LWPOLYLINE
  5
265
330
1F
100
AcDbEntity
  8
0
  6
Continuous
 62
     7
370
    25
100
AcDbPolyline
 90
        6
 70
   128
 43
0.0
 10
-0.3446793789
 20
0.7070785529
 10
-0.3446338018
 20
0.707033015
 10
-0.3444984564
 20
0.7068975932
 10
-0.3442774555
 20
0.7066765792
 10
-0.3439775118
 20
0.7063766486
 10
-0.3438006984
 20
0.7061998612
  0
LINE
  5
266
330
1F
100
AcDbEntity
  8
0
  6
Continuous
 62
     7
370
    25
100
AcDbLine
 10
-0.3096793787
 20
0.6720785863
 30
0.0
 11
-0.3096793787
 21
0.6710785395
 31
0.0
  0
LWPOLYLINE
  5
267
330
1F
100
AcDbEntity
  8
0
  6
Continuous
 62
     7
370
    25
100
AcDbPolyline
 90
        6
 70
   128
 43
0.0
 10
-0.3105580592
 20
0.672957278
 10
-0.3103812458
 20
0.6727803714
 10
-0.3100813022
 20
0.6724804408
 10
-0.3098603012
 20
0.6722594268
 10
-0.3097249558
 20
0.6721241242
 10
-0.3096793787
 20
0.6720785863
  0
LINE
  5
268
330
1F
100
AcDbEntity
  8
0
  6
Continuous
 62
     7
370
    25
100
AcDbLine
 10
0.2128206426
 20
-0.3409214475
 30
0.0
 11
0.2128206426
 21
-0.3699214467
 31
0.0
  0
LINE
  5
269
330
1F
100
AcDbEntity
  8
0
  6
Continuous
 62
     7
370
    25
100
AcDbLine
 10
-0.3448793786
 20
-0.3729214472
 30
0.0
 11
-0.3446793789
 21
-0.3729214472
 31
0.0
  0
LINE
  5
26A
330
1F
100
AcDbEntity
  8
0
  6
Continuous
 62
     7
370
    25
100
AcDbLine
 10
-0.2713284334
 20
-0.3729214472
 30
0.0
 11
-0.2446793755
 21
-0.3729214472
 31
0.0
  0
LINE
  5
26B
330
1F
100
AcDbEntity
  8
0
  6
Continuous
 62
     7
370
    25
100
AcDbLine
 10
-0.1713284319
 20
-0.3729214472
 30
0.0
 11
-0.144679374
 21
-0.3729214472
 31
0.0
  0
LINE
  5
26C
330
1F
100
AcDbEntity
  8
0
  6
Continuous
 62
     7
370
    25
100
AcDbLine
 10
-0.0713284379
 20
-0.3729214472
 30
0.0
 11
-0.04467938
 21
-0.3729214472
 31
0.0
  0
LINE
  5
26D
330
1F
100
AcDbEntity
  8
0
  6
Continuous
 62
     7
370
    25
100
AcDbLine
 10
0.0286715562
 20
-0.3729214472
 30
0.0
 11
0.055320614
 21
-0.3729214472
 31
0.0
  0
LINE
  5
26E
330
1F
100
AcDbEntity
  8
0
  6
Continuous
 62
     7
370
    25
100
AcDbLine
 10
0.12867158
 20
-0.3729214472
 30
0.0
 11
0.1453206176
 21
-0.3729214472
 31
0.0
  0
ARC
  5
26F
330
1F
100
AcDbEntity
  8
0
  6
Continuous
 62
     7
370
    25
100
AcDbCircle
 10
0.2098206212
 20
-0.3699214471
 30
0.0
 40
0.003
100
AcDbArc
 50
270.0
 51
0.0
  0
LINE
  5
270
330
1F
100
AcDbEntity
  8
0
  6
Continuous
 62
     7
370
    25
100
AcDbLine
 10
-0.3448793786
 20
-0.337921447
 30
0.0
 11
0.2098206217
 21
-0.337921447
 31
0.0
  0
ARC
  5
271
330
1F
100
AcDbEntity
  8
0
  6
Continuous
 62
     7
370
    25
100
AcDbCircle
 10
0.2098206212
 20
-0.3409214471
 30
0.0
 40
0.003
100
AcDbArc
 50
0.0
 51
90.0
  0
ARC
  5
272
330
1F
100
AcDbEntity
  8
0
  6
Continuous
 62
     7
370
    25
100
AcDbCircle
 10
-0.3126793788
 20
0.6750785529
 30
0.0
 40
0.003
100
AcDbArc
 50
270.0
 51
0.0
  0
ARC
  5
273
330
1F
100
AcDbEntity
  8
0
  6
Continuous
 62
     7
370
    25
100
AcDbCircle
 10
-0.3126793788
 20
0.7040785529
 30
0.0
 40
0.003
100
AcDbArc
 50
0.0
 51
90.0
  0
LINE
  5
274
330
1F
100
AcDbEntity
  8
0
  6
Continuous
 62
     7
370
    25
100
AcDbLine
 10
-0.3096793787
 20
0.6750786073
 30
0.0
 11
-0.3096793787
 21
0.7040785319
 31
0.0
  0
ARC
  5
275
330
1F
100
AcDbEntity
  8
0
  6
Continuous
 62
     7
370
    25
100
AcDbCircle
 10
-0.3416793788
 20
0.6750785529
 30
0.0
 40
0.003
100
AcDbArc
 50
180.0
 51
270.0
  0
LINE
  5
276
330
1F
100
AcDbEntity
  8
0
  6
Continuous
 62
     7
370
    25
100
AcDbLine
 10
-0.3416793784
 20
0.6720785863
 30
0.0
 11
-0.3126793792
 21
0.6720785863
 31
0.0
  0
ARC
  5
277
330
1F
100
AcDbEntity
  8
0
  6
Continuous
 62
     7
370
    25
100
AcDbCircle
 10
-0.3416793788
 20
0.7040785529
 30
0.0
 40
0.003
100
AcDbArc
 50
90.0
 51
180.0
  0
LINE
  5
278
330
1F
100
AcDbEntity
  8
0
  6
Continuous
 62
     7
370
    25
100
AcDbLine
 10
-0.3446793789
 20
0.7040785319
 30
0.0
 11
-0.3446793789
 21
0.6750786073
 31
0.0
  0
ARC
  5
279
330
1F
100
AcDbEntity
  8
0
  6
Continuous
 62
     7
370
    25
100
AcDbCircle
 10
0.7323206212
 20
0.6750785529
 30
0.0
 40
0.0029999999999999
100
AcDbArc
 50
270.0
 51
0.0
  0
LINE
  5
27A
330
1F
100
AcDbEntity
  8
0
  6
Continuous
 62
     7
370
    25
100
AcDbLine
 10
0.7033206755
 20
0.6720785863
 30
0.0
 11
0.7323206002
 21
0.6720785863
 31
0.0
  0
LINE
  5
27B
330
1F
100
AcDbEntity
  8
0
  6
Continuous
 62
     7
370
    25
100
AcDbLine
 10
0.7003206546
 20
0.7040785319
 30
0.0
 11
0.7003206546
 21
0.6750786073
 31
0.0
  0
ARC
  5
27C
330
1F
100
AcDbEntity
  8
0
  6
Continuous
 62
     7
370
    25
100
AcDbCircle
 10
0.7323206212
 20
0.7040785529
 30
0.0
 40
0.0029999999999999
100
AcDbArc
 50
0.0
 51
90.0
  0
ARC
  5
27D
330
1F
100
AcDbEntity
  8
0
  6
Continuous
 62
     7
370
    25
100
AcDbCircle
 10
0.7033206212
 20
0.7040785529
 30
0.0
 40
0.0029999999999999
100
AcDbArc
 50
90.0
 51
180.0
  0
ARC
  5
27E
330
1F
100
AcDbEntity
  8
0
  6
Continuous
 62
     7
370
    25
100
AcDbCircle
 10
0.7033206212
 20
0.6750785529
 30
0.0
 40
0.0029999999999999
100
AcDbArc
 50
180.0
 51
270.0
  0
LINE
  5
27F
330
1F
100
AcDbEntity
  8
0
  6
Continuous
 62
     8
370
    25
100
AcDbLine
 10
0.7546206052
 20
-0.3479214473
 30
0.0
 11
0.7546206052
 21
-0.3679214473
 31
0.0
  0
LINE
  5
280
330
1F
100
AcDbEntity
  8
0
  6
Continuous
 62
     8
370
    25
100
AcDbLine
 10
0.755206042
 20
-0.3679214473
 30
0.0
 11
0.755206042
 21
-0.3479214473
 31
0.0
  0
LINE
  5
281
330
1F
100
AcDbEntity
  8
0
  6
Continuous
 62
     8
370
    25
100
AcDbLine
 10
0.7554070288
 20
-0.3479986483
 30
0.0
 11
0.7554070288
 21
-0.3678442462
 31
0.0
  0
LINE
  5
282
330
1F
100
AcDbEntity
  8
0
  6
Continuous
 62
     8
370
    25
100
AcDbLine
 10
0.4538822109
 20
-0.4079214455
 30
0.0
 11
0.4538822109
 21
-0.3629214469
 31
0.0
  0
LINE
  5
283
330
1F
100
AcDbEntity
  8
0
  6
Continuous
 62
     8
370
    25
100
AcDbLine
 10
0.4538822109
 20
-0.3529214472
 30
0.0
 11
0.4538822109
 21
-0.3079214477
 31
0.0
  0
LINE
  5
284
330
1F
100
AcDbEntity
  8
0
  6
Continuous
 62
     8
370
    25
100
AcDbLine
 10
0.3808844024
 20
-0.4079214455
 30
0.0
 11
0.3808844024
 21
-0.3629214469
 31
0.0
  0
LINE
  5
285
330
1F
100
AcDbEntity
  8
0
  6
Continuous
 62
     8
370
    25
100
AcDbLine
 10
0.3808844024
 20
-0.3529214472
 30
0.0
 11
0.3808844024
 21
-0.3079214477
 31
0.0
  0
LINE
  5
286
330
1F
100
AcDbEntity
  8
0
  6
Continuous
 62
     8
370
    25
100
AcDbLine
 10
0.4030979807
 20
-0.4079214455
 30
0.0
 11
0.4030979807
 21
-0.3079214477
 31
0.0
  0
LINE
  5
287
330
1F
100
AcDbEntity
  8
0
  6
Continuous
 62
     8
370
    25
100
AcDbLine
 10
0.3900979692
 20
-0.3079214477
 30
0.0
 11
0.3900979692
 21
-0.4079214455
 31
0.0
  0
LINE
  5
288
330
1F
100
AcDbEntity
  8
0
  6
Continuous
 62
     8
370
    25
100
AcDbLine
 10
0.6595016653
 20
-0.4079214455
 30
0.0
 11
0.6595016653
 21
-0.3629214469
 31
0.0
  0
LINE
  5
289
330
1F
100
AcDbEntity
  8
0
  6
Continuous
 62
     8
370
    25
100
AcDbLine
 10
0.6595016653
 20
-0.3529214472
 30
0.0
 11
0.6595016653
 21
-0.3079214477
 31
0.0
  0
LINE
  5
28A
330
1F
100
AcDbEntity
  8
0
  6
Continuous
 62
     8
370
    25
100
AcDbLine
 10
0.6465016538
 20
-0.3079214477
 30
0.0
 11
0.6465016538
 21
-0.3529214472
 31
0.0
  0
LINE
  5
28B
330
1F
100
AcDbEntity
  8
0
  6
Continuous
 62
     8
370
    25
100
AcDbLine
 10
0.6465016538
 20
-0.3629214469
 30
0.0
 11
0.6465016538
 21
-0.4079214455
 31
0.0
  0
LINE
  5
28C
330
1F
100
AcDbEntity
  8
0
  6
Continuous
 62
     8
370
    25
100
AcDbLine
 10
0.4924098784
 20
-0.4079214455
 30
0.0
 11
0.4924098784
 21
-0.3629214469
 31
0.0
  0
LINE
  5
28D
330
1F
100
AcDbEntity
  8
0
  6
Continuous
 62
     8
370
    25
100
AcDbLine
 10
0.4924098784
 20
-0.3529214472
 30
0.0
 11
0.4924098784
 21
-0.3079214477
 31
0.0
  0
LINE
  5
28E
330
1F
100
AcDbEntity
  8
0
  6
Continuous
 62
     8
370
    25
100
AcDbLine
 10
0.4287333423
 20
-0.3079214477
 30
0.0
 11
0.4287333423
 21
-0.4079214455
 31
0.0
  0
LINE
  5
28F
330
1F
100
AcDbEntity
  8
0
  6
Continuous
 62
     8
370
    25
100
AcDbLine
 10
0.4417333538
 20
-0.4079214455
 30
0.0
 11
0.4417333538
 21
-0.3079214477
 31
0.0
  0
LINE
  5
290
330
1F
100
AcDbEntity
  8
0
  6
Continuous
 62
     8
370
    25
100
AcDbLine
 10
0.3369747931
 20
-0.3079214477
 30
0.0
 11
0.3369747931
 21
-0.3529214472
 31
0.0
  0
LINE
  5
291
330
1F
100
AcDbEntity
  8
0
  6
Continuous
 62
     8
370
    25
100
AcDbLine
 10
0.3369747931
 20
-0.3629214469
 30
0.0
 11
0.3369747931
 21
-0.4079214455
 31
0.0
  0
LINE
  5
292
330
1F
100
AcDbEntity
  8
0
  6
Continuous
 62
     8
370
    25
100
AcDbLine
 10
0.4079125458
 20
-0.4079214455
 30
0.0
 11
0.4079125458
 21
-0.3629214469
 31
0.0
  0
LINE
  5
293
330
1F
100
AcDbEntity
  8
0
  6
Continuous
 62
     8
370
    25
100
AcDbLine
 10
0.4079125458
 20
-0.3529214472
 30
0.0
 11
0.4079125458
 21
-0.3079214477
 31
0.0
  0
LINE
  5
294
330
1F
100
AcDbEntity
  8
0
  6
Continuous
 62
     8
370
    25
100
AcDbLine
 10
0.3009539181
 20
-0.4079214455
 30
0.0
 11
0.3009539181
 21
-0.3629214469
 31
0.0
  0
LINE
  5
295
330
1F
100
AcDbEntity
  8
0
  6
Continuous
 62
     8
370
    25
100
AcDbLine
 10
0.3009539181
 20
-0.3529214472
 30
0.0
 11
0.3009539181
 21
-0.3079214477
 31
0.0
  0
LINE
  5
296
330
1F
100
AcDbEntity
  8
0
  6
Continuous
 62
     8
370
    25
100
AcDbLine
 10
0.2527325088
 20
-0.4079214455
 30
0.0
 11
0.2527325088
 21
-0.3079214477
 31
0.0
  0
LINE
  5
297
330
1F
100
AcDbEntity
  8
0
  6
Continuous
 62
     8
370
    25
100
AcDbLine
 10
0.2397324974
 20
-0.3079214477
 30
0.0
 11
0.2397324974
 21
-0.4079214455
 31
0.0
  0
LINE
  5
298
330
1F
100
AcDbEntity
  8
0
  6
Continuous
 62
     8
370
    25
100
AcDbLine
 10
0.569931739
 20
-0.3079214477
 30
0.0
 11
0.569931739
 21
-0.4079214455
 31
0.0
  0
LINE
  5
299
330
1F
100
AcDbEntity
  8
0
  6
Continuous
 62
     8
370
    25
100
AcDbLine
 10
0.5829317505
 20
-0.4079214455
 30
0.0
 11
0.5829317505
 21
-0.3079214477
 31
0.0
  0
LINE
  5
29A
330
1F
100
AcDbEntity
  8
0
  6
Continuous
 62
     8
370
    25
100
AcDbLine
 10
0.3758422071
 20
-0.4079214455
 30
0.0
 11
0.3758422071
 21
-0.3079214477
 31
0.0
  0
LINE
  5
29B
330
1F
100
AcDbEntity
  8
0
  6
Continuous
 62
     8
370
    25
100
AcDbLine
 10
0.3628421957
 20
-0.3079214477
 30
0.0
 11
0.3628421957
 21
-0.4079214455
 31
0.0
  0
LINE
  5
29C
330
1F
100
AcDbEntity
  8
0
  6
Continuous
 62
     8
370
    25
100
AcDbLine
 10
0.2770246798
 20
-0.3079214477
 30
0.0
 11
0.2770246798
 21
-0.4079214455
 31
0.0
  0
LINE
  5
29D
330
1F
100
AcDbEntity
  8
0
  6
Continuous
 62
     8
370
    25
100
AcDbLine
 10
0.2900246913
 20
-0.4079214455
 30
0.0
 11
0.2900246913
 21
-0.3079214477
 31
0.0
  0
LINE
  5
29E
330
1F
100
AcDbEntity
  8
0
  6
Continuous
 62
     8
370
    25
100
AcDbLine
 10
0.5992073352
 20
-0.3079214477
 30
0.0
 11
0.5992073352
 21
-0.3529214472
 31
0.0
  0
LINE
  5
29F
330
1F
100
AcDbEntity
  8
0
  6
Continuous
 62
     8
370
    25
100
AcDbLine
 10
0.5992073352
 20
-0.3629214469
 30
0.0
 11
0.5992073352
 21
-0.4079214455
 31
0.0
  0
LINE
  5
2A0
330
1F
100
AcDbEntity
  8
0
  6
Continuous
 62
     8
370
    25
100
AcDbLine
 10
0.6122073466
 20
-0.4079214455
 30
0.0
 11
0.6122073466
 21
-0.3629214469
 31
0.0
  0
LINE
  5
2A1
330
1F
100
AcDbEntity
  8
0
  6
Continuous
 62
     8
370
    25
100
AcDbLine
 10
0.6122073466
 20
-0.3529214472
 30
0.0
 11
0.6122073466
 21
-0.3079214477
 31
0.0
  0
LINE
  5
2A2
330
1F
100
AcDbEntity
  8
0
  6
Continuous
 62
     8
370
    25
100
AcDbLine
 10
0.5425251657
 20
-0.3079214477
 30
0.0
 11
0.5425251657
 21
-0.3529214472
 31
0.0
  0
LINE
  5
2A3
330
1F
100
AcDbEntity
  8
0
  6
Continuous
 62
     8
370
    25
100
AcDbLine
 10
0.5425251657
 20
-0.3629214469
 30
0.0
 11
0.5425251657
 21
-0.4079214455
 31
0.0
  0
LINE
  5
2A4
330
1F
100
AcDbEntity
  8
0
  6
Continuous
 62
     8
370
    25
100
AcDbLine
 10
0.5555251772
 20
-0.4079214455
 30
0.0
 11
0.5555251772
 21
-0.3629214469
 31
0.0
  0
LINE
  5
2A5
330
1F
100
AcDbEntity
  8
0
  6
Continuous
 62
     8
370
    25
100
AcDbLine
 10
0.5555251772
 20
-0.3529214472
 30
0.0
 11
0.5555251772
 21
-0.3079214477
 31
0.0
  0
LINE
  5
2A6
330
1F
100
AcDbEntity
  8
0
  6
Continuous
 62
     8
370
    25
100
AcDbLine
 10
0.3232657248
 20
-0.4079214455
 30
0.0
 11
0.3232657248
 21
-0.3079214477
 31
0.0
  0
LINE
  5
2A7
330
1F
100
AcDbEntity
  8
0
  6
Continuous
 62
     8
370
    25
100
AcDbLine
 10
0.3102657134
 20
-0.3079214477
 30
0.0
 11
0.3102657134
 21
-0.4079214455
 31
0.0
  0
LINE
  5
2A8
330
1F
100
AcDbEntity
  8
0
  6
Continuous
 62
     8
370
    25
100
AcDbLine
 10
0.4861522848
 20
-0.4079214455
 30
0.0
 11
0.4861522848
 21
-0.3079214477
 31
0.0
  0
LINE
  5
2A9
330
1F
100
AcDbEntity
  8
0
  6
Continuous
 62
     8
370
    25
100
AcDbLine
 10
0.4731522733
 20
-0.3079214477
 30
0.0
 11
0.4731522733
 21
-0.4079214455
 31
0.0
  0
LINE
  5
2AA
330
1F
100
AcDbEntity
  8
0
  6
Continuous
 62
     8
370
    25
100
AcDbLine
 10
0.3530489737
 20
-0.4079214455
 30
0.0
 11
0.3530489737
 21
-0.3079214477
 31
0.0
  0
LINE
  5
2AB
330
1F
100
AcDbEntity
  8
0
  6
Continuous
 62
     8
370
    25
100
AcDbLine
 10
0.3400489623
 20
-0.3079214477
 30
0.0
 11
0.3400489623
 21
-0.4079214455
 31
0.0
  0
LINE
  5
2AC
330
1F
100
AcDbEntity
  8
0
  6
Continuous
 62
     8
370
    25
100
AcDbLine
 10
0.5242143208
 20
-0.4079214455
 30
0.0
 11
0.5242143208
 21
-0.3079214477
 31
0.0
  0
LINE
  5
2AD
330
1F
100
AcDbEntity
  8
0
  6
Continuous
 62
     8
370
    25
100
AcDbLine
 10
0.5112143094
 20
-0.3079214477
 30
0.0
 11
0.5112143094
 21
-0.4079214455
 31
0.0
  0
LINE
  5
2AE
330
1F
100
AcDbEntity
  8
0
  6
Continuous
 62
     8
370
    25
100
AcDbLine
 10
0.7323206002
 20
0.6710785395
 30
0.0
 11
0.7323206002
 21
0.6720785863
 31
0.0
  0
LINE
  5
2AF
330
1F
100
AcDbEntity
  8
0
  6
Continuous
 62
     8
370
    25
100
AcDbLine
 10
0.7033206755
 20
0.6710785395
 30
0.0
 11
0.7033206755
 21
0.6720785863
 31
0.0
  0
LINE
  5
2B0
330
1F
100
AcDbEntity
  8
0
  6
Continuous
 62
     8
370
    25
100
AcDbLine
 10
0.7003206546
 20
0.7040785319
 30
0.0
 11
0.6993206078
 21
0.7040785319
 31
0.0
  0
LINE
  5
2B1
330
1F
100
AcDbEntity
  8
0
  6
Continuous
 62
     8
370
    25
100
AcDbLine
 10
-0.3086793786
 20
0.7040785319
 30
0.0
 11
-0.3096793787
 21
0.7040785319
 31
0.0
  0
LINE
  5
2B2
330
1F
100
AcDbEntity
  8
0
  6
Continuous
 62
     8
370
    25
100
AcDbLine
 10
0.7003206546
 20
0.6750786073
 30
0.0
 11
0.6993206078
 21
0.6750786073
 31
0.0
  0
LINE
  5
2B3
330
1F
100
AcDbEntity
  8
0
  6
Continuous
 62
     8
370
    25
100
AcDbLine
 10
-0.3086793786
 20
0.6750786073
 30
0.0
 11
-0.3096793787
 21
0.6750786073
 31
0.0
  0
LINE
  5
2B4
330
1F
100
AcDbEntity
  8
0
  6
Continuous
 62
     8
370
    25
100
AcDbLine
 10
-0.3416793784
 20
0.6720785863
 30
0.0
 11
-0.3416793784
 21
0.6710785395
 31
0.0
  0
LINE
  5
2B5
330
1F
100
AcDbEntity
  8
0
  6
Continuous
 62
     8
370
    25
100
AcDbLine
 10
-0.3126793792
 20
0.6720785863
 30
0.0
 11
-0.3126793792
 21
0.6710785395
 31
0.0
  0
LINE
  5
2B6
330
1F
100
AcDbEntity
  8
0
  6
Continuous
 62
     8
370
    25
100
AcDbLine
 10
-0.3448793786
 20
-0.3699214467
 30
0.0
 11
0.2128206426
 21
-0.3699214467
 31
0.0
  0
LINE
  5
2B7
330
1F
100
AcDbEntity
  8
0
  6
Continuous
 62
     8
370
    25
100
AcDbLine
 10
-0.3448793786
 20
-0.3409214475
 30
0.0
 11
0.2128206426
 21
-0.3409214475
 31
0.0
  0
ENDSEC
  0
SECTION
  2
OBJECTS
  0
DICTIONARY
  5
C
330
0
100
AcDbDictionary
281
     1
  3
ACAD_GROUP
350
D
  3
ACAD_LAYOUT
350
1A
  3
ACAD_MLINESTYLE
350
17
  3
ACAD_PLOTSETTINGS
350
19
  3
ACAD_PLOTSTYLENAME
350
E
  3
ACAD_SCALELIST
350
47
  0
DICTIONARY
  5
D
102
{ACAD_REACTORS
330
C
102
}
330
C
100
AcDbDictionary
281
     1
  0
DICTIONARY
  5
1A
102
{ACAD_REACTORS
330
C
102
}
330
C
100
AcDbDictionary
281
     1
  3
Layout1
350
1E
  3
Layout2
350
26
  3
Model
350
22
  0
DICTIONARY
  5
17
102
{ACAD_REACTORS
330
C
102
}
330
C
100
AcDbDictionary
281
     1
  3
Standard
350
18
  0
DICTIONARY
  5
19
102
{ACAD_REACTORS
330
C
102
}
330
C
100
AcDbDictionary
281
     1
  0
ACDBDICTIONARYWDFLT
  5
E
102
{ACAD_REACTORS
330
C
102
}
330
C
100
AcDbDictionary
281
     1
  3
Normal
350
F
100
AcDbDictionaryWithDefault
340
F
  0
DICTIONARY
  5
47
102
{ACAD_REACTORS
330
C
102
}
330
C
100
AcDbDictionary
281
     1
  3
A0
350
48
  3
A1
350
49
  3
A2
350
4A
  3
A3
350
4B
  3
A4
350
4C
  3
A5
350
4D
  3
A6
350
4E
  3
A7
350
4F
  3
A8
350
50
  3
A9
350
51
  3
B0
350
52
  3
B1
350
53
  3
B2
350
54
  3
B3
350
55
  3
B4
350
56
  3
B5
350
57
  3
B6
350
58
  3
B7
350
59
  3
B8
350
5A
  3
B9
350
5B
  3
C0
350
5C
  3
C1
350
5D
  3
C2
350
5E
  3
C3
350
5F
  3
C4
350
60
  3
C5
350
61
  3
C6
350
62
  3
C7
350
63
  3
C8
350
64
  3
C9
350
65
  3
D0
350
66
  3
D1
350
67
  3
D2
350
68
  0
LAYOUT
  5
1E
102
{ACAD_REACTORS
330
1A
102
}
330
1A
100
AcDbPlotSettings
  1

  2
none_device
  4

  6

 40
0.0
 41
0.0
 42
0.0
 43
0.0
 44
0.0
 45
0.0
 46
0.0
 47
0.0
 48
0.0
 49
0.0
140
0.0
141
0.0
142
1.0
143
1.0
 70
   688
 72
     1
 73
     0
 74
     5
  7

 75
    16
147
1.0
148
0.0
149
0.0
100
AcDbLayout
  1
Layout1
 70
     1
 71
     1
 10
0.0
 20
0.0
 11
420.0
 21
297.0
 12
0.0
 22
0.0
 32
0.0
 14
1.0000000000E+20
 24
1.0000000000E+20
 34
1.0000000000E+20
 15
-1.0000000000E+20
 25
-1.0000000000E+20
 35
-1.0000000000E+20
146
0.0
 13
0.0
 23
0.0
 33
0.0
 16
1.0
 26
0.0
 36
0.0
 17
0.0
 27
1.0
 37
0.0
 76
     0
330
1B
  0
LAYOUT
  5
26
102
{ACAD_REACTORS
330
1A
102
}
330
1A
100
AcDbPlotSettings
  1

  2
none_device
  4

  6

 40
0.0
 41
0.0
 42
0.0
 43
0.0
 44
0.0
 45
0.0
 46
0.0
 47
0.0
 48
0.0
 49
0.0
140
0.0
141
0.0
142
1.0
143
1.0
 70
   688
 72
     1
 73
     0
 74
     5
  7

 75
    16
147
1.0
148
0.0
149
0.0
100
AcDbLayout
  1
Layout2
 70
     1
 71
     2
 10
0.0
 20
0.0
 11
0.0
 21
0.0
 12
0.0
 22
0.0
 32
0.0
 14
0.0
 24
0.0
 34
0.0
 15
0.0
 25
0.0
 35
0.0
146
0.0
 13
0.0
 23
0.0
 33
0.0
 16
1.0
 26
0.0
 36
0.0
 17
0.0
 27
1.0
 37
0.0
 76
     0
330
23
  0
LAYOUT
  5
22
102
{ACAD_REACTORS
330
1A
102
}
330
1A
100
AcDbPlotSettings
  1

  2
none_device
  4
Letter_(8.50_x_11.00_Inches)
  6

 40
6.35
 41
6.35
 42
6.35000508
 43
6.35000508
 44
215.9
 45
279.4
 46
0.0
 47
0.0
 48
0.0
 49
0.0
140
0.0
141
0.0
142
1.0
143
1.0
 70
  1712
 72
     1
 73
     0
 74
     0
  7

 75
     0
147
1.0
148
0.0
149
0.0
100
AcDbLayout
  1
Model
 70
     1
 71
     0
 10
0.0
 20
0.0
 11
0.4318
 21
0.2794
 12
0.0
 22
0.0
 32
0.0
 14
0.0
 24
0.0
 34
0.0
 15
0.4318
 25
0.2794
 35
0.0
146
0.0
 13
0.0
 23
0.0
 33
0.0
 16
1.0
 26
0.0
 36
0.0
 17
0.0
 27
1.0
 37
0.0
 76
     0
330
1F
331
29
  0
MLINESTYLE
  5
18
102
{ACAD_REACTORS
330
17
102
}
330
17
100
AcDbMlineStyle
  2
Standard
 70
     0
  3

 62
   256
 51
90.0
 52
90.0
 71
     2
 49
0.5
 62
   256
  6
BYLAYER
 49
-0.5
 62
   256
  6
BYLAYER
  0
ACDBPLACEHOLDER
  5
F
102
{ACAD_REACTORS
330
E
102
}
330
E
  0
SCALE
  5
48
102
{ACAD_REACTORS
330
47
102
}
330
47
100
AcDbScale
 70
     0
300
1:1
140
1.0
141
1.0
290
     1
  0
SCALE
  5
49
102
{ACAD_REACTORS
330
47
102
}
330
47
100
AcDbScale
 70
     0
300
1:2
140
1.0
141
2.0
290
     0
  0
SCALE
  5
4A
102
{ACAD_REACTORS
330
47
102
}
330
47
100
AcDbScale
 70
     0
300
1:4
140
1.0
141
4.0
290
     0
  0
SCALE
  5
4B
102
{ACAD_REACTORS
330
47
102
}
330
47
100
AcDbScale
 70
     0
300
1:5
140
1.0
141
5.0
290
     0
  0
SCALE
  5
4C
102
{ACAD_REACTORS
330
47
102
}
330
47
100
AcDbScale
 70
     0
300
1:8
140
1.0
141
8.0
290
     0
  0
SCALE
  5
4D
102
{ACAD_REACTORS
330
47
102
}
330
47
100
AcDbScale
 70
     0
300
1:10
140
1.0
141
10.0
290
     0
  0
SCALE
  5
4E
102
{ACAD_REACTORS
330
47
102
}
330
47
100
AcDbScale
 70
     0
300
1:16
140
1.0
141
16.0
290
     0
  0
SCALE
  5
4F
102
{ACAD_REACTORS
330
47
102
}
330
47
100
AcDbScale
 70
     0
300
1:20
140
1.0
141
20.0
290
     0
  0
SCALE
  5
50
102
{ACAD_REACTORS
330
47
102
}
330
47
100
AcDbScale
 70
     0
300
1:30
140
1.0
141
30.0
290
     0
  0
SCALE
  5
51
102
{ACAD_REACTORS
330
47
102
}
330
47
100
AcDbScale
 70
     0
300
1:40
140
1.0
141
40.0
290
     0
  0
SCALE
  5
52
102
{ACAD_REACTORS
330
47
102
}
330
47
100
AcDbScale
 70
     0
300
1:50
140
1.0
141
50.0
290
     0
  0
SCALE
  5
53
102
{ACAD_REACTORS
330
47
102
}
330
47
100
AcDbScale
 70
     0
300
1:100
140
1.0
141
100.0
290
     0
  0
SCALE
  5
54
102
{ACAD_REACTORS
330
47
102
}
330
47
100
AcDbScale
 70
     0
300
2:1
140
2.0
141
1.0
290
     0
  0
SCALE
  5
55
102
{ACAD_REACTORS
330
47
102
}
330
47
100
AcDbScale
 70
     0
300
4:1
140
4.0
141
1.0
290
     0
  0
SCALE
  5
56
102
{ACAD_REACTORS
330
47
102
}
330
47
100
AcDbScale
 70
     0
300
8:1
140
8.0
141
1.0
290
     0
  0
SCALE
  5
57
102
{ACAD_REACTORS
330
47
102
}
330
47
100
AcDbScale
 70
     0
300
10:1
140
10.0
141
1.0
290
     0
  0
SCALE
  5
58
102
{ACAD_REACTORS
330
47
102
}
330
47
100
AcDbScale
 70
     0
300
100:1
140
100.0
141
1.0
290
     0
  0
SCALE
  5
59
102
{ACAD_REACTORS
330
47
102
}
330
47
100
AcDbScale
 70
     0
300
1/128" = 1'-0"
140
0.0078125
141
12.0
290
     0
  0
SCALE
  5
5A
102
{ACAD_REACTORS
330
47
102
}
330
47
100
AcDbScale
 70
     0
300
1/64" = 1'-0"
140
0.015625
141
12.0
290
     0
  0
SCALE
  5
5B
102
{ACAD_REACTORS
330
47
102
}
330
47
100
AcDbScale
 70
     0
300
1/32" = 1'-0"
140
0.03125
141
12.0
290
     0
  0
SCALE
  5
5C
102
{ACAD_REACTORS
330
47
102
}
330
47
100
AcDbScale
 70
     0
300
1/16" = 1'-0"
140
0.0625
141
12.0
290
     0
  0
SCALE
  5
5D
102
{ACAD_REACTORS
330
47
102
}
330
47
100
AcDbScale
 70
     0
300
3/32" = 1'-0"
140
0.09375
141
12.0
290
     0
  0
SCALE
  5
5E
102
{ACAD_REACTORS
330
47
102
}
330
47
100
AcDbScale
 70
     0
300
1/8" = 1'-0"
140
0.125
141
12.0
290
     0
  0
SCALE
  5
5F
102
{ACAD_REACTORS
330
47
102
}
330
47
100
AcDbScale
 70
     0
300
3/16" = 1'-0"
140
0.1875
141
12.0
290
     0
  0
SCALE
  5
60
102
{ACAD_REACTORS
330
47
102
}
330
47
100
AcDbScale
 70
     0
300
1/4" = 1'-0"
140
0.25
141
12.0
290
     0
  0
SCALE
  5
61
102
{ACAD_REACTORS
330
47
102
}
330
47
100
AcDbScale
 70
     0
300
3/8" = 1'-0"
140
0.375
141
12.0
290
     0
  0
SCALE
  5
62
102
{ACAD_REACTORS
330
47
102
}
330
47
100
AcDbScale
 70
     0
300
1/2" = 1'-0"
140
0.5
141
12.0
290
     0
  0
SCALE
  5
63
102
{ACAD_REACTORS
330
47
102
}
330
47
100
AcDbScale
 70
     0
300
3/4" = 1'-0"
140
0.75
141
12.0
290
     0
  0
SCALE
  5
64
102
{ACAD_REACTORS
330
47
102
}
330
47
100
AcDbScale
 70
     0
300
1" = 1'-0"
140
1.0
141
12.0
290
     0
  0
SCALE
  5
65
102
{ACAD_REACTORS
330
47
102
}
330
47
100
AcDbScale
 70
     0
300
1-1/2" = 1'-0"
140
1.5
141
12.0
290
     0
  0
SCALE
  5
66
102
{ACAD_REACTORS
330
47
102
}
330
47
100
AcDbScale
 70
     0
300
3" = 1'-0"
140
3.0
141
12.0
290
     0
  0
SCALE
  5
67
102
{ACAD_REACTORS
330
47
102
}
330
47
100
AcDbScale
 70
     0
300
6" = 1'-0"
140
6.0
141
12.0
290
     0
  0
SCALE
  5
68
102
{ACAD_REACTORS
330
47
102
}
330
47
100
AcDbScale
 70
     0
300
1'-0" = 1'-0"
140
12.0
141
12.0
290
     0
  0
ENDSEC
  0
EOF
