  0
SECTION
  2
HEADER
  9
$ACADVER
  1
AC1021
  9
$ACADMAINTVER
 70
    25
  9
$DWGCODEPAGE
  3
ANSI_1250
  9
$INSBASE
 10
0.0
 20
0.0
 30
0.0
  9
$EXTMIN
 10
0.0
 20
0.0
 30
0.0
  9
$EXTMAX
 10
0.21
 20
0.297
 30
0.0
  9
$LIMMIN
 10
0.0
 20
0.0
  9
$LIMMAX
 10
0.21
 20
0.297
  9
$ORTHOMODE
 70
     0
  9
$REGENMODE
 70
     1
  9
$FILLMODE
 70
     1
  9
$QTEXTMODE
 70
     0
  9
$MIRRTEXT
 70
     1
  9
$LTSCALE
 40
1.0
  9
$ATTMODE
 70
     1
  9
$TEXTSIZE
 40
0.0035
  9
$TRACEWID
 40
1.0
  9
$TEXTSTYLE
  7
Standard
  9
$CLAYER
  8
0
  9
$CELTYPE
  6
ByLayer
  9
$CECOLOR
 62
   256
  9
$CELTSCALE
 40
1.0
  9
$DISPSILH
 70
     0
  9
$DIMSCALE
 40
1.0
  9
$DIMASZ
 40
0.003302
  9
$DIMEXO
 40
0.001
  9
$DIMDLI
 40
3.75
  9
$DIMRND
 40
0.0
  9
$DIMDLE
 40
0.0
  9
$DIMEXE
 40
0.001
  9
$DIMTP
 40
0.0
  9
$DIMTM
 40
0.0
  9
$DIMTXT
 40
0.0035
  9
$DIMCEN
 40
2.5
  9
$DIMTSZ
 40
0.0
  9
$DIMTOL
 70
     0
  9
$DIMLIM
 70
     0
  9
$DIMTIH
 70
     1
  9
$DIMTOH
 70
     1
  9
$DIMSE1
 70
     0
  9
$DIMSE2
 70
     0
  9
$DIMTAD
 70
     1
  9
$DIMZIN
 70
     0
  9
$DIMBLK
  1

  9
$DIMASO
 70
     1
  9
$DIMSHO
 70
     1
  9
$DIMPOST
  1

  9
$DIMAPOST
  1

  9
$DIMALT
 70
     0
  9
$DIMALTD
 70
     3
  9
$DIMALTF
 40
39.3700787402
  9
$DIMLFAC
 40
50.0
  9
$DIMTOFL
 70
     1
  9
$DIMTVP
 40
0.0
  9
$DIMTIX
 70
     0
  9
$DIMSOXD
 70
     0
  9
$DIMSAH
 70
     0
  9
$DIMBLK1
  1

  9
$DIMBLK2
  1

  9
$DIMSTYLE
  2
ISO-25
  9
$DIMCLRD
 70
     0
  9
$DIMCLRE
 70
     0
  9
$DIMCLRT
 70
     0
  9
$DIMTFAC
 40
1.0
  9
$DIMGAP
 40
0.001524
  9
$DIMJUST
 70
     0
  9
$DIMSD1
 70
     0
  9
$DIMSD2
 70
     0
  9
$DIMTOLJ
 70
     0
  9
$DIMTZIN
 70
     0
  9
$DIMALTZ
 70
     0
  9
$DIMALTTZ
 70
     0
  9
$DIMUPT
 70
     0
  9
$DIMDEC
 70
     2
  9
$DIMTDEC
 70
     2
  9
$DIMALTU
 70
     2
  9
$DIMALTTD
 70
     3
  9
$DIMTXSTY
  7
Standard
  9
$DIMAUNIT
 70
     0
  9
$DIMADEC
 70
     2
  9
$DIMALTRND
 40
0.0
  9
$DIMAZIN
 70
     0
  9
$DIMDSEP
 70
    44
  9
$DIMATFIT
 70
     3
  9
$DIMFRAC
 70
     0
  9
$DIMLDRBLK
  1

  9
$DIMLUNIT
 70
     2
  9
$DIMLWD
 70
    -2
  9
$DIMLWE
 70
    -2
  9
$DIMTMOVE
 70
     0
  9
$DIMFXL
 40
1.0
  9
$DIMFXLON
 70
     0
  9
$DIMJOGANG
 40
0.7853981634
  9
$DIMTFILL
 70
     0
  9
$DIMTFILLCLR
 70
     0
  9
$DIMARCSYM
 70
     0
  9
$DIMLTYPE
  6

  9
$DIMLTEX1
  6

  9
$DIMLTEX2
  6

  9
$LUNITS
 70
     2
  9
$LUPREC
 70
     2
  9
$SKETCHINC
 40
1.0
  9
$FILLETRAD
 40
10.0
  9
$AUNITS
 70
     0
  9
$AUPREC
 70
     2
  9
$MENU
  1
.
  9
$ELEVATION
 40
0.0
  9
$PELEVATION
 40
0.0
  9
$THICKNESS
 40
0.0
  9
$LIMCHECK
 70
     0
  9
$CHAMFERA
 40
0.0
  9
$CHAMFERB
 40
0.0
  9
$CHAMFERC
 40
0.0
  9
$CHAMFERD
 40
0.0
  9
$SKPOLY
 70
     0
  9
$TDCREATE
 40
2458074.488237789
  9
$TDUCREATE
 40
2458074.446571123
  9
$TDUPDATE
 40
2458074.488238276
  9
$TDUUPDATE
 40
2458074.446571609
  9
$TDINDWG
 40
0.0000000116
  9
$TDUSRTIMER
 40
0.0000000116
  9
$USRTIMER
 70
     1
  9
$ANGBASE
 50
0.0
  9
$ANGDIR
 70
     0
  9
$PDMODE
 70
     0
  9
$PDSIZE
 40
-1.0
  9
$PLINEWID
 40
0.0
  9
$SPLFRAME
 70
     0
  9
$SPLINETYPE
 70
     6
  9
$SPLINESEGS
 70
     8
  9
$HANDSEED
  5
441
  9
$SURFTAB1
 70
     6
  9
$SURFTAB2
 70
     6
  9
$SURFTYPE
 70
     6
  9
$SURFU
 70
     6
  9
$SURFV
 70
     6
  9
$UCSBASE
  2

  9
$UCSNAME
  2

  9
$UCSORG
 10
0.0
 20
0.0
 30
0.0
  9
$UCSXDIR
 10
1.0
 20
0.0
 30
0.0
  9
$UCSYDIR
 10
0.0
 20
1.0
 30
0.0
  9
$UCSORTHOREF
  2

  9
$UCSORTHOVIEW
 70
     0
  9
$UCSORGTOP
 10
0.0
 20
0.0
 30
0.0
  9
$UCSORGBOTTOM
 10
0.0
 20
0.0
 30
0.0
  9
$UCSORGLEFT
 10
0.0
 20
0.0
 30
0.0
  9
$UCSORGRIGHT
 10
0.0
 20
0.0
 30
0.0
  9
$UCSORGFRONT
 10
0.0
 20
0.0
 30
0.0
  9
$UCSORGBACK
 10
0.0
 20
0.0
 30
0.0
  9
$PUCSBASE
  2

  9
$PUCSNAME
  2

  9
$PUCSORG
 10
0.0
 20
0.0
 30
0.0
  9
$PUCSXDIR
 10
1.0
 20
0.0
 30
0.0
  9
$PUCSYDIR
 10
0.0
 20
1.0
 30
0.0
  9
$PUCSORTHOREF
  2

  9
$PUCSORTHOVIEW
 70
     0
  9
$PUCSORGTOP
 10
0.0
 20
0.0
 30
0.0
  9
$PUCSORGBOTTOM
 10
0.0
 20
0.0
 30
0.0
  9
$PUCSORGLEFT
 10
0.0
 20
0.0
 30
0.0
  9
$PUCSORGRIGHT
 10
0.0
 20
0.0
 30
0.0
  9
$PUCSORGFRONT
 10
0.0
 20
0.0
 30
0.0
  9
$PUCSORGBACK
 10
0.0
 20
0.0
 30
0.0
  9
$USERI1
 70
     0
  9
$USERI2
 70
     0
  9
$USERI3
 70
     0
  9
$USERI4
 70
     0
  9
$USERI5
 70
     0
  9
$USERR1
 40
0.0
  9
$USERR2
 40
0.0
  9
$USERR3
 40
0.0
  9
$USERR4
 40
0.0
  9
$USERR5
 40
0.0
  9
$WORLDVIEW
 70
     1
  9
$SHADEDGE
 70
     3
  9
$SHADEDIF
 70
    70
  9
$TILEMODE
 70
     1
  9
$MAXACTVP
 70
    64
  9
$PINSBASE
 10
0.0
 20
0.0
 30
0.0
  9
$PLIMCHECK
 70
     0
  9
$PEXTMIN
 10
1.0000000000E+20
 20
1.0000000000E+20
 30
1.0000000000E+20
  9
$PEXTMAX
 10
-1.0000000000E+20
 20
-1.0000000000E+20
 30
-1.0000000000E+20
  9
$PLIMMIN
 10
0.0
 20
0.0
  9
$PLIMMAX
 10
420.0
 20
297.0
  9
$UNITMODE
 70
     0
  9
$VISRETAIN
 70
     1
  9
$PLINEGEN
 70
     0
  9
$PSLTSCALE
 70
     1
  9
$TREEDEPTH
 70
  3020
  9
$CMLSTYLE
  2
Standard
  9
$CMLJUST
 70
     0
  9
$CMLSCALE
 40
20.0
  9
$PROXYGRAPHICS
 70
     1
  9
$MEASUREMENT
 70
     1
  9
$CELWEIGHT
370
    -1
  9
$ENDCAPS
280
     0
  9
$JOINSTYLE
280
     0
  9
$LWDISPLAY
290
     1
  9
$INSUNITS
 70
     4
  9
$HYPERLINKBASE
  1

  9
$STYLESHEET
  1

  9
$XEDIT
290
     1
  9
$CEPSNTYPE
380
     0
  9
$PSTYLEMODE
290
     1
  9
$FINGERPRINTGUID
  2
{D95E0699-741F-4207-B285-53B43D6F1282}
  9
$VERSIONGUID
  2
{FAEB1C32-E019-11D5-929B-00C0DF256EC4}
  9
$EXTNAMES
290
     1
  9
$PSVPSCALE
 40
0.0
  9
$OLESTARTUP
290
     0
  9
$SORTENTS
280
   127
  9
$INDEXCTL
280
     0
  9
$HIDETEXT
280
     1
  9
$XCLIPFRAME
290
     0
  9
$HALOGAP
280
     0
  9
$OBSCOLOR
 70
   257
  9
$OBSLTYPE
280
     0
  9
$INTERSECTIONDISPLAY
280
     0
  9
$INTERSECTIONCOLOR
 70
   257
  9
$DIMASSOC
280
     2
  9
$PROJECTNAME
  1

  9
$CAMERADISPLAY
290
     0
  9
$LENSLENGTH
 40
50.0
  9
$CAMERAHEIGHT
 40
0.0
  9
$STEPSPERSEC
 40
2.0
  9
$STEPSIZE
 40
6.0
  9
$3DDWFPREC
 40
2.0
  9
$PSOLWIDTH
 40
5.0
  9
$PSOLHEIGHT
 40
80.0
  9
$LOFTANG1
 40
1.5707963268
  9
$LOFTANG2
 40
1.5707963268
  9
$LOFTMAG1
 40
0.0
  9
$LOFTMAG2
 40
0.0
  9
$LOFTPARAM
 70
     7
  9
$LOFTNORMALS
280
     1
  9
$LATITUDE
 40
37.795
  9
$LONGITUDE
 40
-122.394
  9
$NORTHDIRECTION
 40
0.0
  9
$TIMEZONE
 70
 -8000
  9
$LIGHTGLYPHDISPLAY
280
     1
  9
$TILEMODELIGHTSYNCH
280
     1
  9
$CMATERIAL
347
44
  9
$SOLIDHIST
280
     0
  9
$SHOWHIST
280
     1
  9
$DWFFRAME
280
     2
  9
$DGNFRAME
280
     2
  9
$REALWORLDSCALE
290
     1
  9
$INTERFERECOLOR
 62
   256
  9
$CSHADOW
280
     0
  9
$SHADOWPLANELOCATION
 40
0.0
  0
ENDSEC
  0
SECTION
  2
CLASSES
  0
CLASS
  1
ACDBDICTIONARYWDFLT
  2
AcDbDictionaryWithDefault
  3
ObjectDBX Classes
 90
        0
 91
        4
280
     0
281
     0
  0
CLASS
  1
VISUALSTYLE
  2
AcDbVisualStyle
  3
ObjectDBX Classes
 90
     4095
 91
        4
280
     0
281
     0
  0
CLASS
  1
MATERIAL
  2
AcDbMaterial
  3
ObjectDBX Classes
 90
     1153
 91
        4
280
     0
281
     0
  0
CLASS
  1
SCALE
  2
AcDbScale
  3
ObjectDBX Classes
 90
     1153
 91
        4
280
     0
281
     0
  0
CLASS
  1
TABLESTYLE
  2
AcDbTableStyle
  3
ObjectDBX Classes
 90
     4095
 91
        4
280
     0
281
     0
  0
CLASS
  1
MLEADERSTYLE
  2
AcDbMLeaderStyle
  3
ACDB_MLEADERSTYLE_CLASS
 90
     4095
 91
        4
280
     0
281
     0
  0
CLASS
  1
SUN
  2
AcDbSun
  3
SCENEOE
 90
     1153
 91
        4
280
     0
281
     0
  0
CLASS
  1
DICTIONARYVAR
  2
AcDbDictionaryVar
  3
ObjectDBX Classes
 90
        0
 91
        4
280
     0
281
     0
  0
CLASS
  1
CELLSTYLEMAP
  2
AcDbCellStyleMap
  3
ObjectDBX Classes
 90
     1152
 91
        4
280
     0
281
     0
  0
ENDSEC
  0
SECTION
  2
TABLES
  0
TABLE
  2
VPORT
  5
8
330
0
100
AcDbSymbolTable
 70
     1
  0
VPORT
  5
29
330
8
100
AcDbSymbolTableRecord
100
AcDbViewportTableRecord
  2
*Active
 70
     0
 10
0.0
 20
0.0
 11
1.0
 21
1.0
 12
0.105
 22
0.1485
 13
0.0
 23
0.0
 14
10.0
 24
10.0
 15
10.0
 25
10.0
 16
0.0
 26
0.0
 36
1.0
 17
0.0
 27
0.0
 37
0.0
 40
0.297
 41
0.7070707071
 42
50.0
 43
0.0
 44
0.0
 50
0.0
 51
0.0
 71
     0
 72
  2000
 73
     1
 74
     3
 75
     0
 76
     0
 77
     0
 78
     0
281
     0
 65
     1
110
0.0
120
0.0
130
0.0
111
1.0
121
0.0
131
0.0
112
0.0
122
1.0
132
0.0
 79
     0
146
0.0
 60
     3
 61
     5
292
     1
282
     1
141
0.0
142
0.0
 63
   250
361
6D
  0
ENDTAB
  0
TABLE
  2
LTYPE
  5
5
330
0
100
AcDbSymbolTable
 70
     6
  0
LTYPE
  5
14
330
5
100
AcDbSymbolTableRecord
100
AcDbLinetypeTableRecord
  2
ByBlock
 70
     0
  3

 72
    65
 73
     0
 40
0.0
  0
LTYPE
  5
15
330
5
100
AcDbSymbolTableRecord
100
AcDbLinetypeTableRecord
  2
ByLayer
 70
     0
  3

 72
    65
 73
     0
 40
0.0
  0
LTYPE
  5
16
330
5
100
AcDbSymbolTableRecord
100
AcDbLinetypeTableRecord
  2
Continuous
 70
     0
  3
Solid line
 72
    65
 73
     0
 40
0.0
  0
LTYPE
  5
6E
330
5
100
AcDbSymbolTableRecord
100
AcDbLinetypeTableRecord
  2
HIDDEN
 70
     0
  3
Hidden __ __ __ __ __ __ __ __ __ __ __ __ __ __
 72
    65
 73
     2
 40
0.001905
 49
0.00127
 74
     0
 49
-0.000635
 74
     0
  0
LTYPE
  5
6F
330
5
100
AcDbSymbolTableRecord
100
AcDbLinetypeTableRecord
  2
PHANTOM
 70
     0
  3
Phantom ______  __  __  ______  __  __  ______
 72
    65
 73
     6
 40
0.0127
 49
0.00635
 74
     0
 49
-0.00127
 74
     0
 49
0.00127
 74
     0
 49
-0.00127
 74
     0
 49
0.00127
 74
     0
 49
-0.00127
 74
     0
  0
LTYPE
  5
70
330
5
100
AcDbSymbolTableRecord
100
AcDbLinetypeTableRecord
  2
CENTER
 70
     0
  3
Center ____ _ ____ _ ____ _ ____ _ ____ _ ____
 72
    65
 73
     4
 40
0.01016
 49
0.00635
 74
     0
 49
-0.00127
 74
     0
 49
0.00127
 74
     0
 49
-0.00127
 74
     0
  0
LTYPE
  5
71
330
5
100
AcDbSymbolTableRecord
100
AcDbLinetypeTableRecord
  2
CENTERX2
 70
     0
  3
Center (2x) ________  __  ________  __  _____
 72
    65
 73
     4
 40
0.02032
 49
0.0127
 74
     0
 49
-0.00254
 74
     0
 49
0.00254
 74
     0
 49
-0.00254
 74
     0
  0
LTYPE
  5
72
330
5
100
AcDbSymbolTableRecord
100
AcDbLinetypeTableRecord
  2
DOT2
 70
     0
  3
Dot (.5x) ........................................
 72
    65
 73
     2
 40
0.000635
 49
0.0
 74
     0
 49
-0.000635
 74
     0
  0
ENDTAB
  0
TABLE
  2
LAYER
  5
2
330
0
100
AcDbSymbolTable
 70
     2
  0
LAYER
  5
10
330
2
100
AcDbSymbolTableRecord
100
AcDbLayerTableRecord
  2
0
 70
     0
 62
     7
  6
Continuous
370
    -3
390
F
347
46
  0
LAYER
  5
73
330
2
100
AcDbSymbolTableRecord
100
AcDbLayerTableRecord
  2
FORMAT
 70
     0
 62
     7
  6
Continuous
370
    -3
390
F
347
46
  0
ENDTAB
  0
TABLE
  2
STYLE
  5
3
330
0
100
AcDbSymbolTable
 70
     1
  0
STYLE
  5
11
330
3
100
AcDbSymbolTableRecord
100
AcDbTextStyleTableRecord
  2
Standard
 70
     0
 40
0.0
 41
1.0
 50
0.0
 71
     0
 42
0.0035
  3
txt
  4

  0
ENDTAB
  0
TABLE
  2
VIEW
  5
6
330
0
100
AcDbSymbolTable
 70
     0
  0
ENDTAB
  0
TABLE
  2
UCS
  5
7
330
0
100
AcDbSymbolTable
 70
     0
  0
ENDTAB
  0
TABLE
  2
APPID
  5
9
330
0
100
AcDbSymbolTable
 70
     2
  0
APPID
  5
12
330
9
100
AcDbSymbolTableRecord
100
AcDbRegAppTableRecord
  2
ACAD
 70
     0
  0
APPID
  5
43B
330
9
100
AcDbSymbolTableRecord
100
AcDbRegAppTableRecord
  2
ACAD_MLEADERVER
 70
     0
  0
ENDTAB
  0
TABLE
  2
DIMSTYLE
  5
A
330
0
100
AcDbSymbolTable
 70
     1
100
AcDbDimStyleTable
  0
DIMSTYLE
105
27
330
A
100
AcDbSymbolTableRecord
100
AcDbDimStyleTableRecord
  2
ISO-25
 70
     0
 41
2.5
 42
0.625
 43
3.75
 44
1.25
 73
     0
 74
     0
 77
     1
 78
     8
140
2.5
141
2.5
143
0.0393700787
147
0.625
171
     3
172
     1
178
     0
271
     2
272
     2
274
     3
278
    44
283
     0
284
     8
340
11
  0
ENDTAB
  0
TABLE
  2
BLOCK_RECORD
  5
1
330
0
100
AcDbSymbolTable
 70
     1
  0
BLOCK_RECORD
  5
1F
330
1
100
AcDbSymbolTableRecord
100
AcDbBlockTableRecord
  2
*Model_Space
340
22
 70
     0
280
     1
281
     0
  0
BLOCK_RECORD
  5
1B
330
1
100
AcDbSymbolTableRecord
100
AcDbBlockTableRecord
  2
*Paper_Space
340
1E
 70
     0
280
     1
281
     0
  0
BLOCK_RECORD
  5
23
330
1
100
AcDbSymbolTableRecord
100
AcDbBlockTableRecord
  2
*Paper_Space0
340
26
 70
     0
280
     1
281
     0
  0
ENDTAB
  0
ENDSEC
  0
SECTION
  2
BLOCKS
  0
BLOCK
  5
20
330
1F
100
AcDbEntity
  8
0
100
AcDbBlockBegin
  2
*Model_Space
 70
     0
 10
0.0
 20
0.0
 30
0.0
  3
*Model_Space
  1

  0
ENDBLK
  5
21
330
1F
100
AcDbEntity
  8
0
100
AcDbBlockEnd
  0
BLOCK
  5
1C
330
1B
100
AcDbEntity
 67
     1
  8
0
100
AcDbBlockBegin
  2
*Paper_Space
 70
     0
 10
0.0
 20
0.0
 30
0.0
  3
*Paper_Space
  1

  0
ENDBLK
  5
1D
330
1B
100
AcDbEntity
 67
     1
  8
0
100
AcDbBlockEnd
  0
BLOCK
  5
24
330
23
100
AcDbEntity
  8
0
100
AcDbBlockBegin
  2
*Paper_Space0
 70
     0
 10
0.0
 20
0.0
 30
0.0
  3
*Paper_Space0
  1

  0
ENDBLK
  5
25
330
23
100
AcDbEntity
  8
0
100
AcDbBlockEnd
  0
ENDSEC
  0
SECTION
  2
ENTITIES
  0
LINE
  5
74
330
1F
100
AcDbEntity
  8
0
  6
Continuous
 62
     7
370
    25
100
AcDbLine
 10
0.0763738471
 20
0.1642980816
 30
0.0
 11
0.0786306625
 21
0.1642980816
 31
0.0
  0
LINE
  5
75
330
1F
100
AcDbEntity
  8
0
  6
Continuous
 62
     7
370
    25
100
AcDbLine
 10
0.0799363564
 20
0.1642980816
 30
0.0
 11
0.1227314568
 21
0.1642980816
 31
0.0
  0
LINE
  5
76
330
1F
100
AcDbEntity
  8
0
  6
Continuous
 62
     7
370
    25
100
AcDbLine
 10
0.1240371455
 20
0.1642980816
 30
0.0
 11
0.1262938471
 21
0.1642980816
 31
0.0
  0
LINE
  5
77
330
1F
100
AcDbEntity
  8
0
  6
Continuous
 62
     7
370
    25
100
AcDbLine
 10
0.1262938471
 20
0.1655040816
 30
0.0
 11
0.1240369198
 21
0.1655040816
 31
0.0
  0
LINE
  5
78
330
1F
100
AcDbEntity
  8
0
  6
Continuous
 62
     7
370
    25
100
AcDbLine
 10
0.1227312258
 20
0.1655040816
 30
0.0
 11
0.0799363496
 21
0.1655040816
 31
0.0
  0
LINE
  5
79
330
1F
100
AcDbEntity
  8
0
  6
Continuous
 62
     7
370
    25
100
AcDbLine
 10
0.0786306608
 20
0.1655040816
 30
0.0
 11
0.0763738471
 21
0.1655040816
 31
0.0
  0
LINE
  5
7A
330
1F
100
AcDbEntity
  8
0
  6
Continuous
 62
     7
370
    25
100
AcDbLine
 10
0.0763738471
 20
0.1654960816
 30
0.0
 11
0.0763338471
 21
0.1654960816
 31
0.0
  0
LINE
  5
7B
330
1F
100
AcDbEntity
  8
0
  6
Continuous
 62
     7
370
    25
100
AcDbLine
 10
0.0763338471
 20
0.1643060816
 30
0.0
 11
0.0763738471
 21
0.1643060816
 31
0.0
  0
LINE
  5
7C
330
1F
100
AcDbEntity
  8
0
  6
Continuous
 62
     7
370
    25
100
AcDbLine
 10
0.1262938471
 20
0.1643060816
 30
0.0
 11
0.1263338471
 21
0.1643060816
 31
0.0
  0
LINE
  5
7D
330
1F
100
AcDbEntity
  8
0
  6
Continuous
 62
     7
370
    25
100
AcDbLine
 10
0.1263338471
 20
0.1654960816
 30
0.0
 11
0.1262938471
 21
0.1654960816
 31
0.0
  0
ARC
  5
7E
330
1F
100
AcDbEntity
  8
0
  6
Continuous
 62
     7
370
    25
100
AcDbCircle
 10
0.1243930077
 20
0.1661137871
 30
0.0
 40
0.0002215939511833
100
AcDbArc
 50
16.6760295898
 51
69.6803762141
  0
ARC
  5
7F
330
1F
100
AcDbEntity
  8
0
  6
Continuous
 62
     7
370
    25
100
AcDbCircle
 10
0.1243930077
 20
0.1661137871
 30
0.0
 40
0.0002215939511833
100
AcDbArc
 50
290.3196237859
 51
343.3239704102
  0
LINE
  5
80
330
1F
100
AcDbEntity
  8
0
  6
Continuous
 62
     7
370
    25
100
AcDbLine
 10
0.1244580354
 20
0.1663237871
 30
0.0
 11
0.1244510489
 21
0.1663237871
 31
0.0
  0
LINE
  5
81
330
1F
100
AcDbEntity
  8
0
  6
Continuous
 62
     7
370
    25
100
AcDbLine
 10
0.1244510489
 20
0.1659037871
 30
0.0
 11
0.1244580354
 21
0.1659037871
 31
0.0
  0
ARC
  5
82
330
1F
100
AcDbEntity
  8
0
  6
Continuous
 62
     7
370
    25
100
AcDbCircle
 10
0.0782746865
 20
0.1661135172
 30
0.0
 40
0.0002215939511833
100
AcDbArc
 50
110.3196237859
 51
163.3239704102
  0
ARC
  5
83
330
1F
100
AcDbEntity
  8
0
  6
Continuous
 62
     7
370
    25
100
AcDbCircle
 10
0.0782746865
 20
0.1661135172
 30
0.0
 40
0.0002215939511833
100
AcDbArc
 50
196.6760295898
 51
249.6803762141
  0
LINE
  5
84
330
1F
100
AcDbEntity
  8
0
  6
Continuous
 62
     7
370
    25
100
AcDbLine
 10
0.0782096589
 20
0.1659035172
 30
0.0
 11
0.0782166454
 21
0.1659035172
 31
0.0
  0
LINE
  5
85
330
1F
100
AcDbEntity
  8
0
  6
Continuous
 62
     7
370
    25
100
AcDbLine
 10
0.0782166454
 20
0.1663235172
 30
0.0
 11
0.0782096589
 21
0.1663235172
 31
0.0
  0
ARC
  5
86
330
1F
100
AcDbEntity
  8
0
  6
Continuous
 62
     7
370
    25
100
AcDbCircle
 10
0.1243930077
 20
0.163688916
 30
0.0
 40
0.0002215939511833
100
AcDbArc
 50
16.6760295898
 51
69.6803762141
  0
ARC
  5
87
330
1F
100
AcDbEntity
  8
0
  6
Continuous
 62
     7
370
    25
100
AcDbCircle
 10
0.1243930077
 20
0.163688916
 30
0.0
 40
0.0002215939511833
100
AcDbArc
 50
290.3196237859
 51
343.3239704102
  0
LINE
  5
88
330
1F
100
AcDbEntity
  8
0
  6
Continuous
 62
     7
370
    25
100
AcDbLine
 10
0.1244580354
 20
0.163898916
 30
0.0
 11
0.1244510489
 21
0.163898916
 31
0.0
  0
LINE
  5
89
330
1F
100
AcDbEntity
  8
0
  6
Continuous
 62
     7
370
    25
100
AcDbLine
 10
0.1244510489
 20
0.163478916
 30
0.0
 11
0.1244580354
 21
0.163478916
 31
0.0
  0
ARC
  5
8A
330
1F
100
AcDbEntity
  8
0
  6
Continuous
 62
     7
370
    25
100
AcDbCircle
 10
0.0782746865
 20
0.1636886461
 30
0.0
 40
0.0002215939511833
100
AcDbArc
 50
110.3196237859
 51
163.3239704102
  0
ARC
  5
8B
330
1F
100
AcDbEntity
  8
0
  6
Continuous
 62
     7
370
    25
100
AcDbCircle
 10
0.0782746865
 20
0.1636886461
 30
0.0
 40
0.0002215939511833
100
AcDbArc
 50
196.6760295898
 51
249.6803762141
  0
LINE
  5
8C
330
1F
100
AcDbEntity
  8
0
  6
Continuous
 62
     7
370
    25
100
AcDbLine
 10
0.0782096589
 20
0.1634786461
 30
0.0
 11
0.0782166454
 21
0.1634786461
 31
0.0
  0
LINE
  5
8D
330
1F
100
AcDbEntity
  8
0
  6
Continuous
 62
     7
370
    25
100
AcDbLine
 10
0.0782166454
 20
0.1638986461
 30
0.0
 11
0.0782096589
 21
0.1638986461
 31
0.0
  0
LINE
  5
8E
330
1F
100
AcDbEntity
  8
0
  6
Continuous
 62
     7
370
    25
100
AcDbLine
 10
0.0768892395
 20
0.169689157
 30
0.0
 11
0.0768892395
 21
0.1655040816
 31
0.0
  0
LINE
  5
8F
330
1F
100
AcDbEntity
  8
0
  6
Continuous
 62
     7
370
    25
100
AcDbLine
 10
0.0768892395
 20
0.1642980816
 30
0.0
 11
0.0768892395
 21
0.1601129554
 31
0.0
  0
LINE
  5
90
330
1F
100
AcDbEntity
  8
0
  6
Continuous
 62
     7
370
    25
100
AcDbLine
 10
0.1257784548
 20
0.1601132762
 30
0.0
 11
0.1257784548
 21
0.1642980816
 31
0.0
  0
LINE
  5
91
330
1F
100
AcDbEntity
  8
0
  6
Continuous
 62
     7
370
    25
100
AcDbLine
 10
0.1257784548
 20
0.1655040816
 30
0.0
 11
0.1257784548
 21
0.1696894778
 31
0.0
  0
LWPOLYLINE
  5
92
330
1F
100
AcDbEntity
  8
0
  6
Continuous
 62
     7
370
    25
100
AcDbPolyline
 90
      121
 70
   128
 43
0.0
 10
0.073661097
 20
0.1819935493
 10
0.073624808
 20
0.182058513
 10
0.0735795146
 20
0.1821380131
 10
0.0735358143
 20
0.1822129639
 10
0.0734933669
 20
0.1822837773
 10
0.0734515888
 20
0.1823511385
 10
0.0734093664
 20
0.1824163059
 10
0.0733641666
 20
0.1824820121
 10
0.073316914
 20
0.1825451138
 10
0.0732871924
 20
0.182581378
 10
0.0732589681
 20
0.1826131608
 10
0.0732317979
 20
0.1826412708
 10
0.0732047976
 20
0.1826668343
 10
0.0731772628
 20
0.1826905756
 10
0.0731486464
 20
0.1827129057
 10
0.0731185056
 20
0.1827340197
 10
0.0730864645
 20
0.1827539588
 10
0.0730521918
 20
0.182772643
 10
0.0730153928
 20
0.1827898877
 10
0.0729758136
 20
0.1828054081
 10
0.0729332573
 20
0.1828188203
 10
0.0728876159
 20
0.1828296425
 10
0.0728389141
 20
0.1828373061
 10
0.0727817951
 20
0.1828413462
 10
0.072722294
 20
0.1828399505
 10
0.0726614971
 20
0.1828325558
 10
0.0726006219
 20
0.1828188685
 10
0.0725410199
 20
0.1827989368
 10
0.0724840123
 20
0.1827731722
 10
0.0724307436
 20
0.1827423058
 10
0.0723820905
 20
0.1827073023
 10
0.0723386022
 20
0.1826692411
 10
0.0723005086
 20
0.1826292066
 10
0.072267752
 20
0.1825881842
 10
0.0722400479
 20
0.1825469829
 10
0.0722169648
 20
0.1825062009
 10
0.0721980021
 20
0.1824662307
 10
0.0721826519
 20
0.1824272894
 10
0.0721704382
 20
0.1823894561
 10
0.0721609366
 20
0.1823527034
 10
0.0721537826
 20
0.1823169166
 10
0.0721486724
 20
0.1822819003
 10
0.0721453636
 20
0.182247369
 10
0.0721436784
 20
0.1822129197
 10
0.0721435137
 20
0.1821779759
 10
0.0721448661
 20
0.1821416814
 10
0.0721478863
 20
0.1821026823
 10
0.0721530121
 20
0.1820586335
 10
0.0721613355
 20
0.1820048665
 10
0.0721758665
 20
0.1819300466
 10
0.0721936815
 20
0.1818521077
 10
0.0722128033
 20
0.1817766479
 10
0.0722335038
 20
0.1817004329
 10
0.0722582243
 20
0.1816141397
 10
0.0722848324
 20
0.1815251332
 10
0.0723134882
 20
0.1814324472
 10
0.0723443028
 20
0.1813354826
 10
0.0723773433
 20
0.1812338824
 10
0.072412654
 20
0.1811274171
 10
0.0724502652
 20
0.1810159318
 10
0.0724901982
 20
0.1808993189
 10
0.0725324681
 20
0.1807775021
 10
0.0725770855
 20
0.1806504272
 10
0.0726240575
 20
0.180518056
 10
0.0726733884
 20
0.1803803623
 10
0.0727250806
 20
0.1802373291
 10
0.0727791344
 20
0.1800889466
 10
0.072835549
 20
0.1799352107
 10
0.0728943219
 20
0.1797761222
 10
0.0729554498
 20
0.1796116858
 10
0.0730189284
 20
0.1794419095
 10
0.0730847524
 20
0.1792668042
 10
0.0731529159
 20
0.1790863834
 10
0.0732234121
 20
0.1789006626
 10
0.0732962336
 20
0.1787096593
 10
0.0733713725
 20
0.1785133931
 10
0.0734488203
 20
0.1783118848
 10
0.0735285679
 20
0.1781051568
 10
0.0736106056
 20
0.1778932331
 10
0.0736949236
 20
0.1776761387
 10
0.0737815112
 20
0.1774539
 10
0.0738703576
 20
0.1772265443
 10
0.0739614512
 20
0.1769941003
 10
0.0740547804
 20
0.1767565975
 10
0.074150333
 20
0.1765140665
 10
0.0742480963
 20
0.1762665389
 10
0.0743480575
 20
0.176014047
 10
0.0744502031
 20
0.1757566243
 10
0.0745545196
 20
0.1754943049
 10
0.0746609928
 20
0.1752271239
 10
0.0747696084
 20
0.1749551172
 10
0.0748803516
 20
0.1746783216
 10
0.0749932074
 20
0.1743967743
 10
0.0751081604
 20
0.1741105138
 10
0.0752251948
 20
0.1738195791
 10
0.0753442947
 20
0.1735240097
 10
0.0754654436
 20
0.1732238463
 10
0.0755886249
 20
0.17291913
 10
0.0757138216
 20
0.1726099027
 10
0.0758410165
 20
0.172296207
 10
0.0759701919
 20
0.1719780861
 10
0.07610133
 20
0.171655584
 10
0.0762344127
 20
0.1713287452
 10
0.0763694214
 20
0.1709976151
 10
0.0765063375
 20
0.1706622394
 10
0.0766451419
 20
0.1703226648
 10
0.0767858153
 20
0.1699789383
 10
0.0769283382
 20
0.1696311077
 10
0.0770726908
 20
0.1692792213
 10
0.077218853
 20
0.168923328
 10
0.0773668043
 20
0.1685634776
 10
0.0775165242
 20
0.1681997199
 10
0.0776679919
 20
0.1678321057
 10
0.0778211861
 20
0.1674606863
 10
0.0779760855
 20
0.1670855135
 10
0.0781326685
 20
0.1667066395
 10
0.0782909133
 20
0.1663241173
 10
0.0784507976
 20
0.1659380002
 10
0.0786122993
 20
0.1655483422
 10
0.0787753956
 20
0.1651551977
 10
0.0788809819
 20
0.1649009107
  0
LWPOLYLINE
  5
93
330
1F
100
AcDbEntity
  8
0
  6
Continuous
 62
     7
370
    25
100
AcDbPolyline
 90
      131
 70
   128
 43
0.0
 10
0.0801867803
 20
0.1649012912
 10
0.0800964869
 20
0.1651185064
 10
0.079931613
 20
0.1655154862
 10
0.0797683097
 20
0.1659090373
 10
0.0796065999
 20
0.1662991042
 10
0.0794465064
 20
0.1666856318
 10
0.0792880519
 20
0.1670685657
 10
0.0791312586
 20
0.1674478518
 10
0.0789761487
 20
0.1678234365
 10
0.0788227441
 20
0.1681952667
 10
0.0786710665
 20
0.1685632901
 10
0.0785211372
 20
0.1689274545
 10
0.0783729775
 20
0.1692877085
 10
0.0782266083
 20
0.1696440012
 10
0.0780820502
 20
0.169996282
 10
0.0779393239
 20
0.1703445012
 10
0.0777984493
 20
0.1706886094
 10
0.0776594466
 20
0.1710285578
 10
0.0775223354
 20
0.1713642982
 10
0.077387135
 20
0.171695783
 10
0.0772538648
 20
0.172022965
 10
0.0771225437
 20
0.1723457978
 10
0.0769931902
 20
0.1726642354
 10
0.0768658229
 20
0.1729782324
 10
0.0767404598
 20
0.1732877441
 10
0.0766171188
 20
0.1735927262
 10
0.0764958175
 20
0.1738931352
 10
0.0763765732
 20
0.1741889279
 10
0.0762594031
 20
0.174480062
 10
0.0761443238
 20
0.1747664955
 10
0.076031352
 20
0.1750481873
 10
0.0759205039
 20
0.1753250967
 10
0.0758117954
 20
0.1755971835
 10
0.0757052424
 20
0.1758644082
 10
0.0756008601
 20
0.176126732
 10
0.0754986639
 20
0.1763841163
 10
0.0753986686
 20
0.1766365236
 10
0.0753008889
 20
0.1768839163
 10
0.0752053391
 20
0.177126258
 10
0.0751120334
 20
0.1773635124
 10
0.0750209857
 20
0.1775956438
 10
0.0749322096
 20
0.1778226171
 10
0.0748457184
 20
0.1780443977
 10
0.0747615253
 20
0.1782609511
 10
0.0746796432
 20
0.1784722438
 10
0.0746000848
 20
0.1786782421
 10
0.0745228626
 20
0.1788789129
 10
0.0744479888
 20
0.1790742235
 10
0.0743754755
 20
0.1792641412
 10
0.0743053347
 20
0.1794486335
 10
0.0742375781
 20
0.179627668
 10
0.0741722173
 20
0.1798012121
 10
0.0741092641
 20
0.1799692333
 10
0.0740487297
 20
0.1801316985
 10
0.0739906256
 20
0.1802885742
 10
0.0739349634
 20
0.180439826
 10
0.0738817544
 20
0.1805854187
 10
0.0738310104
 20
0.1807253157
 10
0.0737827431
 20
0.1808594784
 10
0.0737369645
 20
0.1809878661
 10
0.0736936869
 20
0.1811104354
 10
0.073652923
 20
0.1812271387
 10
0.073614686
 20
0.1813379244
 10
0.0735789895
 20
0.1814427345
 10
0.0735458476
 20
0.181541504
 10
0.073515275
 20
0.1816341586
 10
0.0734872866
 20
0.1817206125
 10
0.0734618973
 20
0.1818007657
 10
0.0734391209
 20
0.1818745009
 10
0.073418969
 20
0.1819416794
 10
0.0734014481
 20
0.1820021379
 10
0.0733865553
 20
0.1820556857
 10
0.073374271
 20
0.1821021044
 10
0.0733645473
 20
0.182141154
 10
0.0733572914
 20
0.1821725891
 10
0.0733527822
 20
0.1821939788
 10
0.0733499572
 20
0.1822088902
 10
0.0733485155
 20
0.1822175854
 10
0.0733481078
 20
0.1822204598
 10
0.0733483583
 20
0.1822180027
 10
0.073348887
 20
0.1822107441
 10
0.0733493251
 20
0.1821992023
 10
0.0733493217
 20
0.1821838483
 10
0.0733485418
 20
0.1821650883
 10
0.07334666
 20
0.1821432625
 10
0.073343351
 20
0.1821186519
 10
0.0733382801
 20
0.1820914916
 10
0.073331093
 20
0.1820619862
 10
0.0733214073
 20
0.1820303289
 10
0.0733088072
 20
0.1819967248
 10
0.0732928431
 20
0.1819614191
 10
0.0732730423
 20
0.1819247325
 10
0.0732489356
 20
0.1818871021
 10
0.0732168565
 20
0.1818452196
 10
0.0731789802
 20
0.1818042803
 10
0.0731354447
 20
0.1817655571
 10
0.0730867249
 20
0.1817303154
 10
0.0730337394
 20
0.1816997523
 10
0.0729777552
 20
0.1816748001
 10
0.0729202336
 20
0.181655999
 10
0.0728626944
 20
0.1816434628
 10
0.0728065168
 20
0.1816368967
 10
0.0727528354
 20
0.1816356941
 10
0.0727024937
 20
0.1816390536
 10
0.0726559836
 20
0.1816460991
 10
0.0726135028
 20
0.181655984
 10
0.072575034
 20
0.1816679517
 10
0.0725404311
 20
0.1816813569
 10
0.0725094888
 20
0.1816956579
 10
0.0724819902
 20
0.1817103957
 10
0.0724577354
 20
0.1817251698
 10
0.0724365564
 20
0.1817396141
 10
0.0724183254
 20
0.1817533758
 10
0.0724029582
 20
0.1817660958
 10
0.072390416
 20
0.1817773921
 10
0.0723807064
 20
0.181786844
 10
0.0723738819
 20
0.1817939801
 10
0.0723700364
 20
0.1817982717
 10
0.0723692963
 20
0.1817991353
 10
0.0723718067
 20
0.181795948
 10
0.0723777105
 20
0.1817880787
 10
0.0723871262
 20
0.181774931
 10
0.0724001276
 20
0.181755989
 10
0.0724167331
 20
0.1817308526
 10
0.0724369067
 20
0.181699252
 10
0.0724605693
 20
0.1816610399
 10
0.0724876151
 20
0.1816161676
 10
0.0725179274
 20
0.1815646558
 10
0.0725513903
 20
0.1815065666
 10
0.0725878965
 20
0.1814419837
 10
0.0726071281
 20
0.1814073816
  0
LWPOLYLINE
  5
94
330
1F
100
AcDbEntity
  8
0
  6
Continuous
 62
     7
370
    25
100
AcDbPolyline
 90
      121
 70
   128
 43
0.0
 10
0.1290065972
 20
0.1478088839
 10
0.1290428863
 20
0.1477439202
 10
0.1290881797
 20
0.1476644201
 10
0.1291318799
 20
0.1475894693
 10
0.1291743273
 20
0.1475186559
 10
0.1292161055
 20
0.1474512947
 10
0.1292583278
 20
0.1473861273
 10
0.1293035277
 20
0.1473204211
 10
0.1293507803
 20
0.1472573194
 10
0.1293805018
 20
0.1472210552
 10
0.1294087262
 20
0.1471892724
 10
0.1294358964
 20
0.1471611624
 10
0.1294628967
 20
0.1471355989
 10
0.1294904315
 20
0.1471118576
 10
0.1295190479
 20
0.1470895275
 10
0.1295491886
 20
0.1470684135
 10
0.1295812298
 20
0.1470484744
 10
0.1296155025
 20
0.1470297902
 10
0.1296523014
 20
0.1470125455
 10
0.1296918807
 20
0.1469970251
 10
0.129734437
 20
0.1469836129
 10
0.1297800784
 20
0.1469727907
 10
0.1298287802
 20
0.1469651271
 10
0.1298858992
 20
0.146961087
 10
0.1299454003
 20
0.1469624827
 10
0.1300061971
 20
0.1469698774
 10
0.1300670723
 20
0.1469835647
 10
0.1301266744
 20
0.1470034965
 10
0.130183682
 20
0.147029261
 10
0.1302369507
 20
0.1470601274
 10
0.1302856037
 20
0.1470951309
 10
0.1303290921
 20
0.1471331921
 10
0.1303671856
 20
0.1471732266
 10
0.1303999423
 20
0.147214249
 10
0.1304276464
 20
0.1472554503
 10
0.1304507295
 20
0.1472962323
 10
0.1304696922
 20
0.1473362025
 10
0.1304850423
 20
0.1473751438
 10
0.1304972561
 20
0.1474129771
 10
0.1305067576
 20
0.1474497298
 10
0.1305139116
 20
0.1474855166
 10
0.1305190219
 20
0.1475205329
 10
0.1305223307
 20
0.1475550642
 10
0.1305240159
 20
0.1475895136
 10
0.1305241805
 20
0.1476244573
 10
0.1305228282
 20
0.1476607518
 10
0.130519808
 20
0.1476997509
 10
0.1305146822
 20
0.1477437997
 10
0.1305063587
 20
0.1477975667
 10
0.1304918278
 20
0.1478723866
 10
0.1304740127
 20
0.1479503255
 10
0.130454891
 20
0.1480257853
 10
0.1304341905
 20
0.1481020003
 10
0.13040947
 20
0.1481882935
 10
0.1303828619
 20
0.1482773
 10
0.130354206
 20
0.148369986
 10
0.1303233915
 20
0.1484669506
 10
0.1302903509
 20
0.1485685508
 10
0.1302550402
 20
0.1486750161
 10
0.1302174291
 20
0.1487865014
 10
0.1301774961
 20
0.1489031143
 10
0.1301352261
 20
0.1490249311
 10
0.1300906088
 20
0.1491520061
 10
0.1300436368
 20
0.1492843772
 10
0.1299943059
 20
0.1494220709
 10
0.1299426137
 20
0.1495651041
 10
0.1298885598
 20
0.1497134866
 10
0.1298321453
 20
0.1498672225
 10
0.1297733724
 20
0.150026311
 10
0.1297122444
 20
0.1501907474
 10
0.1296487658
 20
0.1503605237
 10
0.1295829418
 20
0.150535629
 10
0.1295147784
 20
0.1507160498
 10
0.1294442822
 20
0.1509017707
 10
0.1293714607
 20
0.1510927739
 10
0.1292963218
 20
0.1512890401
 10
0.129218874
 20
0.1514905484
 10
0.1291391264
 20
0.1516972764
 10
0.1290570886
 20
0.1519092001
 10
0.1289727707
 20
0.1521262945
 10
0.128886183
 20
0.1523485332
 10
0.1287973367
 20
0.1525758889
 10
0.1287062431
 20
0.1528083329
 10
0.1286129138
 20
0.1530458357
 10
0.1285173613
 20
0.1532883667
 10
0.128419598
 20
0.1535358943
 10
0.1283196368
 20
0.1537883862
 10
0.1282174912
 20
0.1540458089
 10
0.1281131747
 20
0.1543081283
 10
0.1280067015
 20
0.1545753093
 10
0.1278980859
 20
0.154847316
 10
0.1277873427
 20
0.1551241116
 10
0.1276744869
 20
0.1554056589
 10
0.1275595339
 20
0.1556919194
 10
0.1274424994
 20
0.1559828542
 10
0.1273233996
 20
0.1562784235
 10
0.1272022507
 20
0.1565785869
 10
0.1270790694
 20
0.1568833032
 10
0.1269538726
 20
0.1571925305
 10
0.1268266778
 20
0.1575062262
 10
0.1266975023
 20
0.1578243471
 10
0.1265663642
 20
0.1581468492
 10
0.1264332816
 20
0.158473688
 10
0.1262982729
 20
0.1588048181
 10
0.1261613568
 20
0.1591401938
 10
0.1260225524
 20
0.1594797684
 10
0.125881879
 20
0.1598234949
 10
0.125739356
 20
0.1601713256
 10
0.1255950034
 20
0.1605232119
 10
0.1254488413
 20
0.1608791052
 10
0.12530089
 20
0.1612389557
 10
0.12515117
 20
0.1616027133
 10
0.1249997024
 20
0.1619703275
 10
0.1248465082
 20
0.1623417469
 10
0.1246916088
 20
0.1627169197
 10
0.1245350257
 20
0.1630957937
 10
0.124376781
 20
0.1634783159
 10
0.1242168967
 20
0.163864433
 10
0.124055395
 20
0.164254091
 10
0.1238922986
 20
0.1646472355
 10
0.1237867123
 20
0.1649015225
  0
LWPOLYLINE
  5
95
330
1F
100
AcDbEntity
  8
0
  6
Continuous
 62
     7
370
    25
100
AcDbPolyline
 90
      131
 70
   128
 43
0.0
 10
0.122480914
 20
0.164901142
 10
0.1225712074
 20
0.1646839268
 10
0.1227360813
 20
0.164286947
 10
0.1228993846
 20
0.1638933959
 10
0.1230610944
 20
0.163503329
 10
0.1232211879
 20
0.1631168014
 10
0.1233796424
 20
0.1627338675
 10
0.1235364357
 20
0.1623545814
 10
0.1236915456
 20
0.1619789968
 10
0.1238449502
 20
0.1616071665
 10
0.1239966278
 20
0.1612391431
 10
0.1241465571
 20
0.1608749787
 10
0.1242947168
 20
0.1605147247
 10
0.124441086
 20
0.160158432
 10
0.124585644
 20
0.1598061512
 10
0.1247283704
 20
0.159457932
 10
0.1248692449
 20
0.1591138238
 10
0.1250082477
 20
0.1587738754
 10
0.1251453589
 20
0.158438135
 10
0.1252805592
 20
0.1581066502
 10
0.1254138294
 20
0.1577794682
 10
0.1255451506
 20
0.1574566354
 10
0.125674504
 20
0.1571381978
 10
0.1258018714
 20
0.1568242008
 10
0.1259272345
 20
0.1565146891
 10
0.1260505755
 20
0.156209707
 10
0.1261718768
 20
0.1559092981
 10
0.1262911211
 20
0.1556135053
 10
0.1264082912
 20
0.1553223712
 10
0.1265233704
 20
0.1550359377
 10
0.1266363423
 20
0.1547542459
 10
0.1267471904
 20
0.1544773365
 10
0.1268558988
 20
0.1542052497
 10
0.1269624519
 20
0.153938025
 10
0.1270668341
 20
0.1536757012
 10
0.1271690304
 20
0.1534183169
 10
0.1272690257
 20
0.1531659097
 10
0.1273668054
 20
0.1529185169
 10
0.1274623552
 20
0.1526761752
 10
0.1275556608
 20
0.1524389208
 10
0.1276467086
 20
0.1522067894
 10
0.1277354847
 20
0.1519798161
 10
0.1278219759
 20
0.1517580355
 10
0.127906169
 20
0.1515414821
 10
0.1279880511
 20
0.1513301894
 10
0.1280676095
 20
0.1511241911
 10
0.1281448317
 20
0.1509235203
 10
0.1282197055
 20
0.1507282097
 10
0.1282922188
 20
0.150538292
 10
0.1283623596
 20
0.1503537997
 10
0.1284301162
 20
0.1501747652
 10
0.1284954769
 20
0.1500012211
 10
0.1285584302
 20
0.1498331999
 10
0.1286189646
 20
0.1496707347
 10
0.1286770687
 20
0.149513859
 10
0.1287327309
 20
0.1493626072
 10
0.1287859398
 20
0.1492170145
 10
0.1288366838
 20
0.1490771175
 10
0.1288849512
 20
0.1489429548
 10
0.1289307298
 20
0.1488145671
 10
0.1289740073
 20
0.1486919978
 10
0.1290147712
 20
0.1485752945
 10
0.1290530082
 20
0.1484645088
 10
0.1290887048
 20
0.1483596987
 10
0.1291218467
 20
0.1482609292
 10
0.1291524193
 20
0.1481682747
 10
0.1291804077
 20
0.1480818207
 10
0.129205797
 20
0.1480016675
 10
0.1292285734
 20
0.1479279323
 10
0.1292487253
 20
0.1478607538
 10
0.1292662462
 20
0.1478002953
 10
0.129281139
 20
0.1477467475
 10
0.1292934233
 20
0.1477003288
 10
0.129303147
 20
0.1476612792
 10
0.1293104028
 20
0.1476298441
 10
0.1293149121
 20
0.1476084544
 10
0.1293177371
 20
0.147593543
 10
0.1293191788
 20
0.1475848478
 10
0.1293195865
 20
0.1475819734
 10
0.129319336
 20
0.1475844305
 10
0.1293188073
 20
0.1475916891
 10
0.1293183691
 20
0.1476032309
 10
0.1293183726
 20
0.147618585
 10
0.1293191525
 20
0.1476373449
 10
0.1293210343
 20
0.1476591707
 10
0.1293243433
 20
0.1476837813
 10
0.1293294141
 20
0.1477109416
 10
0.1293366013
 20
0.1477404471
 10
0.129346287
 20
0.1477721043
 10
0.1293588871
 20
0.1478057084
 10
0.1293748511
 20
0.1478410141
 10
0.1293946519
 20
0.1478777008
 10
0.1294187587
 20
0.1479153311
 10
0.1294508378
 20
0.1479572136
 10
0.129488714
 20
0.1479981529
 10
0.1295322496
 20
0.1480368761
 10
0.1295809694
 20
0.1480721178
 10
0.1296339548
 20
0.1481026809
 10
0.1296899391
 20
0.1481276331
 10
0.1297474607
 20
0.1481464342
 10
0.1298049999
 20
0.1481589704
 10
0.1298611775
 20
0.1481655365
 10
0.1299148589
 20
0.1481667391
 10
0.1299652006
 20
0.1481633796
 10
0.1300117106
 20
0.1481563341
 10
0.1300541915
 20
0.1481464493
 10
0.1300926602
 20
0.1481344815
 10
0.1301272632
 20
0.1481210763
 10
0.1301582055
 20
0.1481067753
 10
0.1301857041
 20
0.1480920375
 10
0.1302099589
 20
0.1480772634
 10
0.1302311379
 20
0.1480628191
 10
0.1302493689
 20
0.1480490574
 10
0.1302647361
 20
0.1480363374
 10
0.1302772783
 20
0.1480250411
 10
0.1302869879
 20
0.1480155892
 10
0.1302938123
 20
0.1480084531
 10
0.1302976579
 20
0.1480041615
 10
0.1302983979
 20
0.1480032979
 10
0.1302958876
 20
0.1480064852
 10
0.1302899838
 20
0.1480143545
 10
0.1302805681
 20
0.1480275022
 10
0.1302675666
 20
0.1480464442
 10
0.1302509611
 20
0.1480715806
 10
0.1302307876
 20
0.1481031812
 10
0.130207125
 20
0.1481413933
 10
0.1301800792
 20
0.1481862656
 10
0.1301497669
 20
0.1482377774
 10
0.130116304
 20
0.1482958666
 10
0.1300797978
 20
0.1483604495
 10
0.1300605661
 20
0.1483950516
  0
LWPOLYLINE
  5
96
330
1F
100
AcDbEntity
  8
0
  6
Continuous
 62
     7
370
    25
100
AcDbPolyline
 90
      122
 70
   128
 43
0.0
 10
0.1237866545
 20
0.1649010426
 10
0.1238502582
 20
0.1650541864
 10
0.1240137564
 20
0.165448208
 10
0.1241756656
 20
0.1658387568
 10
0.1243359632
 20
0.1662257782
 10
0.1244946267
 20
0.1666092183
 10
0.124651634
 20
0.1669890234
 10
0.1248069631
 20
0.1673651405
 10
0.1249605924
 20
0.1677375172
 10
0.1251125004
 20
0.1681061014
 10
0.125262666
 20
0.1684708418
 10
0.1254110681
 20
0.1688316875
 10
0.1255576861
 20
0.1691885883
 10
0.1257024995
 20
0.1695414944
 10
0.1258454882
 20
0.1698903567
 10
0.1259866323
 20
0.1702351267
 10
0.1261259121
 20
0.1705757564
 10
0.1262633082
 20
0.1709121985
 10
0.1263988016
 20
0.1712444063
 10
0.1265323734
 20
0.1715723337
 10
0.1266640051
 20
0.1718959352
 10
0.1267936784
 20
0.1722151661
 10
0.1269213754
 20
0.1725299822
 10
0.1270470784
 20
0.17284034
 10
0.1271707701
 20
0.1731461967
 10
0.1272924332
 20
0.1734475101
 10
0.1274120512
 20
0.1737442388
 10
0.1275296074
 20
0.174036342
 10
0.1276450858
 20
0.1743237798
 10
0.1277584704
 20
0.1746065128
 10
0.1278697459
 20
0.1748845025
 10
0.1279788969
 20
0.1751577111
 10
0.1280859087
 20
0.1754261015
 10
0.1281907666
 20
0.1756896375
 10
0.1282934566
 20
0.1759482837
 10
0.1283939647
 20
0.1762020054
 10
0.1284922775
 20
0.1764507689
 10
0.1285883818
 20
0.1766945412
 10
0.1286822648
 20
0.1769332902
 10
0.1287739142
 20
0.1771669849
 10
0.128863318
 20
0.1773955951
 10
0.1289504646
 20
0.1776190915
 10
0.1290353426
 20
0.177837446
 10
0.1291179415
 20
0.1780506314
 10
0.1291982507
 20
0.1782586217
 10
0.1292762604
 20
0.1784613921
 10
0.1293519611
 20
0.178658919
 10
0.1294253439
 20
0.1788511801
 10
0.1294964003
 20
0.1790381545
 10
0.1295651224
 20
0.1792198229
 10
0.1296315029
 20
0.1793961678
 10
0.129695535
 20
0.1795671732
 10
0.1297572127
 20
0.1797328255
 10
0.1298165307
 20
0.1798931132
 10
0.1298734843
 20
0.1800480275
 10
0.1299280699
 20
0.1801975627
 10
0.1299802847
 20
0.1803417165
 10
0.130030127
 20
0.1804804909
 10
0.1300775966
 20
0.1806138927
 10
0.1301226944
 20
0.1807419352
 10
0.1301654231
 20
0.1808646391
 10
0.1302057875
 20
0.1809820349
 10
0.1302437949
 20
0.1810941657
 10
0.1302794555
 20
0.1812010914
 10
0.1303127835
 20
0.1813028945
 10
0.1303437978
 20
0.18139969
 10
0.1303725241
 20
0.1814916391
 10
0.1303989972
 20
0.1815789747
 10
0.1304232645
 20
0.1816620441
 10
0.1304453931
 20
0.1817413921
 10
0.1304654809
 20
0.1818179386
 10
0.1304836795
 20
0.1818934155
 10
0.1305002371
 20
0.1819717122
 10
0.130512955
 20
0.1820465484
 10
0.1305187389
 20
0.1820924281
 10
0.1305223873
 20
0.1821347474
 10
0.1305240951
 20
0.1821737749
 10
0.1305240721
 20
0.1822109422
 10
0.1305223582
 20
0.1822472541
 10
0.1305188745
 20
0.1822833872
 10
0.1305134574
 20
0.1823197952
 10
0.1305058776
 20
0.1823567778
 10
0.1304958487
 20
0.1823945195
 10
0.1304830334
 20
0.1824331061
 10
0.1304670498
 20
0.1824725252
 10
0.1304474836
 20
0.1825126541
 10
0.1304239107
 20
0.1825532386
 10
0.1303959361
 20
0.1825938677
 10
0.1303595383
 20
0.182638103
 10
0.1303175567
 20
0.1826803197
 10
0.1302703328
 20
0.1827193411
 10
0.1302184942
 20
0.182754082
 10
0.1301630083
 20
0.1827835963
 10
0.1301050844
 20
0.1828072111
 10
0.1300460405
 20
0.1828246014
 10
0.1299871791
 20
0.1828357978
 10
0.1299296596
 20
0.1828411466
 10
0.1298744251
 20
0.1828412282
 10
0.1298221483
 20
0.1828367632
 10
0.1297732183
 20
0.1828285142
 10
0.1297277705
 20
0.1828172053
 10
0.1296857439
 20
0.1828034687
 10
0.1296469459
 20
0.1827878212
 10
0.129611106
 20
0.1827706617
 10
0.1295779122
 20
0.1827522783
 10
0.1295470304
 20
0.1827328559
 10
0.1295181098
 20
0.1827124798
 10
0.1294907759
 20
0.1826911282
 10
0.1294646133
 20
0.1826686518
 10
0.1294391318
 20
0.182644727
 10
0.1294137051
 20
0.182618764
 10
0.1293874504
 20
0.1825897162
 10
0.1293589582
 20
0.1825556402
 10
0.1293255696
 20
0.1825124995
 10
0.1292810652
 20
0.1824502131
 10
0.1292367815
 20
0.1823837265
 10
0.1291951539
 20
0.1823179475
 10
0.1291540471
 20
0.1822504838
 10
0.1291083866
 20
0.1821731738
 10
0.1290620446
 20
0.182092615
 10
0.129014434
 20
0.1820080326
 10
0.1290066664
 20
0.1819939901
  0
LWPOLYLINE
  5
97
330
1F
100
AcDbEntity
  8
0
  6
Continuous
 62
     7
370
    25
100
AcDbPolyline
 90
      131
 70
   128
 43
0.0
 10
0.1300606346
 20
0.1814078068
 10
0.1300900935
 20
0.181460583
 10
0.1301266011
 20
0.1815248343
 10
0.1301601023
 20
0.1815826187
 10
0.1301904711
 20
0.181633813
 10
0.1302175529
 20
0.1816782842
 10
0.1302411595
 20
0.1817158966
 10
0.1302610669
 20
0.1817465298
 10
0.1302755653
 20
0.1817680042
 10
0.1302865549
 20
0.1817836301
 10
0.1302939837
 20
0.1817937236
 10
0.1302978621
 20
0.1817987397
 10
0.1302982597
 20
0.1817992442
 10
0.1302952875
 20
0.1817958655
 10
0.1302890718
 20
0.1817892422
 10
0.1302797285
 20
0.1817799821
 10
0.1302673448
 20
0.1817686415
 10
0.1302519688
 20
0.1817557205
 10
0.1302336061
 20
0.1817416709
 10
0.1302122205
 20
0.1817269099
 10
0.1301877371
 20
0.1817118372
 10
0.1301600486
 20
0.1816968535
 10
0.1301290245
 20
0.1816823802
 10
0.130094527
 20
0.1816688791
 10
0.1300564363
 20
0.1816568715
 10
0.130014689
 20
0.1816469527
 10
0.129964167
 20
0.1816392105
 10
0.1299099968
 20
0.1816358702
 10
0.1298530217
 20
0.1816377808
 10
0.1297943106
 20
0.1816456084
 10
0.1297352406
 20
0.181659721
 10
0.1296773742
 20
0.1816800702
 10
0.1296222013
 20
0.1817061792
 10
0.1295710086
 20
0.1817371867
 10
0.1295247485
 20
0.1817719627
 10
0.1294839637
 20
0.1818092714
 10
0.1294488316
 20
0.1818478898
 10
0.1294191981
 20
0.1818867419
 10
0.129394667
 20
0.1819249766
 10
0.1293747099
 20
0.1819619754
 10
0.1293587545
 20
0.1819973171
 10
0.1293462444
 20
0.1820307244
 10
0.1293366686
 20
0.1820620099
 10
0.1293295706
 20
0.1820910327
 10
0.1293245451
 20
0.1821176656
 10
0.1293212298
 20
0.1821417716
 10
0.129319294
 20
0.182163186
 10
0.1293184272
 20
0.1821817016
 10
0.1293183283
 20
0.1821970567
 10
0.1293186956
 20
0.1822089257
 10
0.1293192174
 20
0.1822169134
 10
0.1293195664
 20
0.1822205577
 10
0.1293193979
 20
0.182219343
 10
0.1293183543
 20
0.1822127284
 10
0.1293160774
 20
0.1822001896
 10
0.1293122261
 20
0.1821812666
 10
0.1293064961
 20
0.1821556045
 10
0.1292986355
 20
0.1821229758
 10
0.1292884519
 20
0.1820832781
 10
0.12927581
 20
0.1820365125
 10
0.1292606232
 20
0.1819827521
 10
0.1292428421
 20
0.1819221121
 10
0.1292224435
 20
0.1818547253
 10
0.1291994209
 20
0.1817807264
 10
0.1291737785
 20
0.1817002432
 10
0.1291455267
 20
0.1816133921
 10
0.1291146786
 20
0.1815202769
 10
0.1290812492
 20
0.1814209896
 10
0.1290452535
 20
0.1813156112
 10
0.1290067066
 20
0.1812042134
 10
0.1289656233
 20
0.1810868603
 10
0.1289220179
 20
0.1809636093
 10
0.128875904
 20
0.1808345124
 10
0.128827295
 20
0.1806996174
 10
0.1287762038
 20
0.1805589687
 10
0.1287226429
 20
0.1804126079
 10
0.1286666248
 20
0.1802605742
 10
0.1286081616
 20
0.1801029053
 10
0.1285472652
 20
0.1799396374
 10
0.1284839477
 20
0.179770806
 10
0.128418221
 20
0.1795964453
 10
0.128350097
 20
0.1794165896
 10
0.1282795878
 20
0.1792312723
 10
0.1282067055
 20
0.179040527
 10
0.1281314622
 20
0.178844387
 10
0.1280538704
 20
0.1786428857
 10
0.1279739425
 20
0.1784360568
 10
0.1278916913
 20
0.1782239339
 10
0.1278071297
 20
0.1780065511
 10
0.1277202706
 20
0.1777839428
 10
0.1276311275
 20
0.1775561437
 10
0.1275397139
 20
0.1773231888
 10
0.1274460435
 20
0.1770851138
 10
0.1273501304
 20
0.1768419547
 10
0.1272519888
 20
0.176593748
 10
0.1271516332
 20
0.1763405307
 10
0.1270490784
 20
0.1760823403
 10
0.1269443393
 20
0.175819215
 10
0.1268374314
 20
0.1755511933
 10
0.12672837
 20
0.1752783145
 10
0.1266171711
 20
0.1750006183
 10
0.1265038507
 20
0.174718145
 10
0.1263884252
 20
0.1744309355
 10
0.1262709111
 20
0.1741390312
 10
0.1261513253
 20
0.1738424743
 10
0.1260296849
 20
0.1735413073
 10
0.1259060075
 20
0.1732355735
 10
0.1257803106
 20
0.1729253166
 10
0.1256526121
 20
0.1726105809
 10
0.1255229304
 20
0.1722914115
 10
0.1253912837
 20
0.1719678539
 10
0.125257691
 20
0.1716399541
 10
0.1251221711
 20
0.1713077589
 10
0.1249847433
 20
0.1709713154
 10
0.1248454271
 20
0.1706306714
 10
0.1247042422
 20
0.1702858753
 10
0.1245612087
 20
0.1699369759
 10
0.1244163468
 20
0.1695840228
 10
0.124269677
 20
0.169227066
 10
0.1241212201
 20
0.1688661559
 10
0.123970997
 20
0.1685013436
 10
0.123819029
 20
0.1681326808
 10
0.1236653375
 20
0.1677602195
 10
0.1235099443
 20
0.1673840124
 10
0.1233528713
 20
0.1670041126
 10
0.1231941407
 20
0.1666205738
 10
0.1230337748
 20
0.1662334502
 10
0.1228717964
 20
0.1658427962
 10
0.1227082281
 20
0.1654486672
 10
0.1225430932
 20
0.1650511185
 10
0.1224809296
 20
0.1649015962
  0
LWPOLYLINE
  5
98
330
1F
100
AcDbEntity
  8
0
  6
Continuous
 62
     7
370
    25
100
AcDbPolyline
 90
      122
 70
   128
 43
0.0
 10
0.0788810398
 20
0.1649013906
 10
0.0788174361
 20
0.1647482468
 10
0.0786539379
 20
0.1643542252
 10
0.0784920287
 20
0.1639636764
 10
0.0783317311
 20
0.163576655
 10
0.0781730676
 20
0.1631932149
 10
0.0780160603
 20
0.1628134098
 10
0.0778607312
 20
0.1624372927
 10
0.0777071019
 20
0.162064916
 10
0.0775551938
 20
0.1616963318
 10
0.0774050283
 20
0.1613315914
 10
0.0772566262
 20
0.1609707457
 10
0.0771100082
 20
0.1606138449
 10
0.0769651947
 20
0.1602609388
 10
0.076822206
 20
0.1599120765
 10
0.076681062
 20
0.1595673065
 10
0.0765417822
 20
0.1592266768
 10
0.076404386
 20
0.1588902347
 10
0.0762688927
 20
0.1585580269
 10
0.0761353209
 20
0.1582300995
 10
0.0760036892
 20
0.157906498
 10
0.0758740158
 20
0.1575872671
 10
0.0757463188
 20
0.157272451
 10
0.0756206158
 20
0.1569620932
 10
0.0754969242
 20
0.1566562365
 10
0.075375261
 20
0.1563549231
 10
0.0752556431
 20
0.1560581945
 10
0.0751380869
 20
0.1557660912
 10
0.0750226085
 20
0.1554786534
 10
0.0749092238
 20
0.1551959204
 10
0.0747979484
 20
0.1549179307
 10
0.0746887973
 20
0.1546447221
 10
0.0745817856
 20
0.1543763317
 10
0.0744769276
 20
0.1541127957
 10
0.0743742377
 20
0.1538541495
 10
0.0742737296
 20
0.1536004278
 10
0.0741754168
 20
0.1533516643
 10
0.0740793125
 20
0.153107892
 10
0.0739854295
 20
0.152869143
 10
0.07389378
 20
0.1526354483
 10
0.0738043763
 20
0.1524068381
 10
0.0737172297
 20
0.1521833417
 10
0.0736323516
 20
0.1519649872
 10
0.0735497528
 20
0.1517518018
 10
0.0734694436
 20
0.1515438115
 10
0.0733914339
 20
0.1513410411
 10
0.0733157332
 20
0.1511435142
 10
0.0732423504
 20
0.1509512531
 10
0.073171294
 20
0.1507642787
 10
0.0731025719
 20
0.1505826103
 10
0.0730361914
 20
0.1504062654
 10
0.0729721592
 20
0.15023526
 10
0.0729104815
 20
0.1500696077
 10
0.0728511636
 20
0.14990932
 10
0.07279421
 20
0.1497544057
 10
0.0727396244
 20
0.1496048705
 10
0.0726874096
 20
0.1494607167
 10
0.0726375672
 20
0.1493219423
 10
0.0725900977
 20
0.1491885405
 10
0.0725449999
 20
0.149060498
 10
0.0725022712
 20
0.1489377941
 10
0.0724619067
 20
0.1488203983
 10
0.0724238993
 20
0.1487082675
 10
0.0723882387
 20
0.1486013418
 10
0.0723549108
 20
0.1484995387
 10
0.0723238965
 20
0.1484027432
 10
0.0722951701
 20
0.1483107941
 10
0.0722686971
 20
0.1482234585
 10
0.0722444298
 20
0.1481403891
 10
0.0722223012
 20
0.1480610411
 10
0.0722022134
 20
0.1479844946
 10
0.0721840147
 20
0.1479090177
 10
0.0721674571
 20
0.147830721
 10
0.0721547393
 20
0.1477558848
 10
0.0721489554
 20
0.1477100051
 10
0.072145307
 20
0.1476676859
 10
0.0721435992
 20
0.1476286583
 10
0.0721436221
 20
0.147591491
 10
0.072145336
 20
0.1475551791
 10
0.0721488198
 20
0.147519046
 10
0.0721542368
 20
0.147482638
 10
0.0721618167
 20
0.1474456554
 10
0.0721718456
 20
0.1474079137
 10
0.0721846609
 20
0.1473693271
 10
0.0722006445
 20
0.147329908
 10
0.0722202107
 20
0.1472897791
 10
0.0722437835
 20
0.1472491946
 10
0.0722717582
 20
0.1472085655
 10
0.072308156
 20
0.1471643302
 10
0.0723501375
 20
0.1471221135
 10
0.0723973615
 20
0.1470830921
 10
0.0724492
 20
0.1470483512
 10
0.0725046859
 20
0.1470188369
 10
0.0725626099
 20
0.1469952221
 10
0.0726216538
 20
0.1469778318
 10
0.0726805152
 20
0.1469666354
 10
0.0727380347
 20
0.1469612867
 10
0.0727932692
 20
0.146961205
 10
0.072845546
 20
0.14696567
 10
0.0728944759
 20
0.146973919
 10
0.0729399238
 20
0.1469852279
 10
0.0729819504
 20
0.1469989645
 10
0.0730207484
 20
0.147014612
 10
0.0730565883
 20
0.1470317715
 10
0.0730897821
 20
0.1470501549
 10
0.0731206638
 20
0.1470695773
 10
0.0731495845
 20
0.1470899535
 10
0.0731769184
 20
0.147111305
 10
0.0732030809
 20
0.1471337814
 10
0.0732285625
 20
0.1471577062
 10
0.0732539892
 20
0.1471836692
 10
0.0732802439
 20
0.147212717
 10
0.0733087361
 20
0.147246793
 10
0.0733421247
 20
0.1472899337
 10
0.0733866291
 20
0.1473522201
 10
0.0734309127
 20
0.1474187067
 10
0.0734725404
 20
0.1474844858
 10
0.0735136472
 20
0.1475519494
 10
0.0735593077
 20
0.1476292594
 10
0.0736056497
 20
0.1477098182
 10
0.0736532603
 20
0.1477944006
 10
0.0736610279
 20
0.1478084431
  0
LWPOLYLINE
  5
99
330
1F
100
AcDbEntity
  8
0
  6
Continuous
 62
     7
370
    25
100
AcDbPolyline
 90
      131
 70
   128
 43
0.0
 10
0.0726070596
 20
0.1483946264
 10
0.0725776008
 20
0.1483418502
 10
0.0725410932
 20
0.148277599
 10
0.072507592
 20
0.1482198145
 10
0.0724772232
 20
0.1481686202
 10
0.0724501414
 20
0.148124149
 10
0.0724265348
 20
0.1480865366
 10
0.0724066274
 20
0.1480559034
 10
0.072392129
 20
0.148034429
 10
0.0723811394
 20
0.1480188032
 10
0.0723737105
 20
0.1480087096
 10
0.0723698321
 20
0.1480036935
 10
0.0723694346
 20
0.148003189
 10
0.0723724068
 20
0.1480065677
 10
0.0723786225
 20
0.1480131911
 10
0.0723879658
 20
0.1480224511
 10
0.0724003495
 20
0.1480337917
 10
0.0724157255
 20
0.1480467127
 10
0.0724340882
 20
0.1480607624
 10
0.0724554738
 20
0.1480755233
 10
0.0724799572
 20
0.148090596
 10
0.0725076457
 20
0.1481055797
 10
0.0725386698
 20
0.148120053
 10
0.0725731672
 20
0.1481335541
 10
0.0726112579
 20
0.1481455617
 10
0.0726530053
 20
0.1481554805
 10
0.0727035272
 20
0.1481632228
 10
0.0727576975
 20
0.148166563
 10
0.0728146726
 20
0.1481646524
 10
0.0728733837
 20
0.1481568248
 10
0.0729324537
 20
0.1481427123
 10
0.0729903201
 20
0.148122363
 10
0.073045493
 20
0.148096254
 10
0.0730966857
 20
0.1480652465
 10
0.0731429458
 20
0.1480304705
 10
0.0731837306
 20
0.1479931618
 10
0.0732188626
 20
0.1479545434
 10
0.0732484962
 20
0.1479156913
 10
0.0732730272
 20
0.1478774566
 10
0.0732929844
 20
0.1478404579
 10
0.0733089398
 20
0.1478051162
 10
0.0733214498
 20
0.1477717088
 10
0.0733310256
 20
0.1477404233
 10
0.0733381237
 20
0.1477114005
 10
0.0733431491
 20
0.1476847676
 10
0.0733464644
 20
0.1476606616
 10
0.0733484003
 20
0.1476392472
 10
0.0733492671
 20
0.1476207316
 10
0.0733493659
 20
0.1476053765
 10
0.0733489987
 20
0.1475935075
 10
0.0733484769
 20
0.1475855198
 10
0.0733481279
 20
0.1475818755
 10
0.0733482964
 20
0.1475830902
 10
0.07334934
 20
0.1475897048
 10
0.0733516169
 20
0.1476022436
 10
0.0733554682
 20
0.1476211666
 10
0.0733611982
 20
0.1476468287
 10
0.0733690587
 20
0.1476794574
 10
0.0733792424
 20
0.1477191551
 10
0.0733918843
 20
0.1477659208
 10
0.0734070711
 20
0.1478196811
 10
0.0734248521
 20
0.1478803211
 10
0.0734452508
 20
0.147947708
 10
0.0734682734
 20
0.1480217068
 10
0.0734939157
 20
0.14810219
 10
0.0735221676
 20
0.1481890411
 10
0.0735530156
 20
0.1482821563
 10
0.0735864451
 20
0.1483814437
 10
0.0736224408
 20
0.1484868221
 10
0.0736609877
 20
0.1485982198
 10
0.0737020709
 20
0.1487155729
 10
0.0737456764
 20
0.1488388239
 10
0.0737917903
 20
0.1489679208
 10
0.0738403993
 20
0.1491028158
 10
0.0738914905
 20
0.1492434645
 10
0.0739450513
 20
0.1493898253
 10
0.0740010695
 20
0.149541859
 10
0.0740595327
 20
0.1496995279
 10
0.0741204291
 20
0.1498627958
 10
0.0741837466
 20
0.1500316272
 10
0.0742494733
 20
0.1502059879
 10
0.0743175973
 20
0.1503858436
 10
0.0743881065
 20
0.1505711609
 10
0.0744609888
 20
0.1507619062
 10
0.0745362321
 20
0.1509580462
 10
0.0746138239
 20
0.1511595475
 10
0.0746937517
 20
0.1513663764
 10
0.0747760029
 20
0.1515784993
 10
0.0748605646
 20
0.1517958821
 10
0.0749474237
 20
0.1520184904
 10
0.0750365668
 20
0.1522462895
 10
0.0751279804
 20
0.1524792444
 10
0.0752216507
 20
0.1527173194
 10
0.0753175639
 20
0.1529604785
 10
0.0754157055
 20
0.1532086852
 10
0.0755160611
 20
0.1534619026
 10
0.0756186159
 20
0.1537200929
 10
0.0757233549
 20
0.1539832182
 10
0.0758302629
 20
0.1542512399
 10
0.0759393242
 20
0.1545241187
 10
0.0760505231
 20
0.1548018149
 10
0.0761638435
 20
0.1550842882
 10
0.0762792691
 20
0.1553714977
 10
0.0763967832
 20
0.155663402
 10
0.076516369
 20
0.1559599589
 10
0.0766380093
 20
0.1562611259
 10
0.0767616868
 20
0.1565668597
 10
0.0768873837
 20
0.1568771167
 10
0.0770150821
 20
0.1571918523
 10
0.0771447639
 20
0.1575110217
 10
0.0772764105
 20
0.1578345793
 10
0.0774100033
 20
0.1581624791
 10
0.0775455232
 20
0.1584946743
 10
0.077682951
 20
0.1588311178
 10
0.0778222672
 20
0.1591717618
 10
0.077963452
 20
0.1595165579
 10
0.0781064856
 20
0.1598654573
 10
0.0782513475
 20
0.1602184104
 10
0.0783980173
 20
0.1605753672
 10
0.0785464742
 20
0.1609362773
 10
0.0786966973
 20
0.1613010896
 10
0.0788486653
 20
0.1616697524
 10
0.0790023568
 20
0.1620422137
 10
0.07915775
 20
0.1624184208
 10
0.0793148229
 20
0.1627983206
 10
0.0794735536
 20
0.1631818594
 10
0.0796339194
 20
0.163568983
 10
0.0797958979
 20
0.163959637
 10
0.0799594661
 20
0.164353766
 10
0.0801246011
 20
0.1647513147
 10
0.0801867646
 20
0.164900837
  0
LINE
  5
9A
330
1F
100
AcDbEntity
  8
0
  6
Continuous
 62
     7
370
    25
100
AcDbLine
 10
0.1084387022
 20
0.1658618254
 30
0.0
 11
0.1083198509
 21
0.1658618254
 31
0.0
  0
LINE
  5
9B
330
1F
100
AcDbEntity
  8
0
  6
Continuous
 62
     7
370
    25
100
AcDbLine
 10
0.1085431926
 20
0.1662021714
 30
0.0
 11
0.1084243412
 21
0.1662021714
 31
0.0
  0
LINE
  5
9C
330
1F
100
AcDbEntity
  8
0
  6
Continuous
 62
     7
370
    25
100
AcDbLine
 10
0.1083342119
 20
0.1655214795
 30
0.0
 11
0.1082153605
 21
0.1655214795
 31
0.0
  0
LINE
  5
9D
330
1F
100
AcDbEntity
  8
0
  6
Continuous
 62
     7
370
    25
100
AcDbLine
 10
0.1084836529
 20
0.1635591731
 30
0.0
 11
0.1085906768
 21
0.1635591731
 31
0.0
  0
LINE
  5
9E
330
1F
100
AcDbEntity
  8
0
  6
Continuous
 62
     7
370
    25
100
AcDbLine
 10
0.108367335
 20
0.163899519
 30
0.0
 11
0.1084861864
 21
0.163899519
 31
0.0
  0
LINE
  5
9F
330
1F
100
AcDbEntity
  8
0
  6
Continuous
 62
     7
370
    25
100
AcDbLine
 10
0.1082628447
 20
0.164239865
 30
0.0
 11
0.108381696
 21
0.164239865
 31
0.0
  0
LINE
  5
A0
330
1F
100
AcDbEntity
  8
0
  6
Continuous
 62
     7
370
    25
100
AcDbLine
 10
0.1171445002
 20
0.1658618254
 30
0.0
 11
0.1170256489
 21
0.1658618254
 31
0.0
  0
LINE
  5
A1
330
1F
100
AcDbEntity
  8
0
  6
Continuous
 62
     7
370
    25
100
AcDbLine
 10
0.1168736743
 20
0.1635591731
 30
0.0
 11
0.1169806982
 21
0.1635591731
 31
0.0
  0
LINE
  5
A2
330
1F
100
AcDbEntity
  8
0
  6
Continuous
 62
     7
370
    25
100
AcDbLine
 10
0.1172489906
 20
0.1655214795
 30
0.0
 11
0.1171301392
 21
0.1655214795
 31
0.0
  0
LINE
  5
A3
330
1F
100
AcDbEntity
  8
0
  6
Continuous
 62
     7
370
    25
100
AcDbLine
 10
0.1170301812
 20
0.1640689472
 30
0.0
 11
0.1171490326
 21
0.1640689472
 31
0.0
  0
LINE
  5
A4
330
1F
100
AcDbEntity
  8
0
  6
Continuous
 62
     7
370
    25
100
AcDbLine
 10
0.1170400099
 20
0.1662021714
 30
0.0
 11
0.1169211585
 21
0.1662021714
 31
0.0
  0
LINE
  5
A5
330
1F
100
AcDbEntity
  8
0
  6
Continuous
 62
     7
370
    25
100
AcDbLine
 10
0.0942400099
 20
0.1662021714
 30
0.0
 11
0.0941211585
 21
0.1662021714
 31
0.0
  0
LINE
  5
A6
330
1F
100
AcDbEntity
  8
0
  6
Continuous
 62
     7
370
    25
100
AcDbLine
 10
0.0940736743
 20
0.1635591731
 30
0.0
 11
0.0941806982
 21
0.1635591731
 31
0.0
  0
LINE
  5
A7
330
1F
100
AcDbEntity
  8
0
  6
Continuous
 62
     7
370
    25
100
AcDbLine
 10
0.0854628447
 20
0.164239865
 30
0.0
 11
0.085581696
 21
0.164239865
 31
0.0
  0
LINE
  5
A8
330
1F
100
AcDbEntity
  8
0
  6
Continuous
 62
     7
370
    25
100
AcDbLine
 10
0.085567335
 20
0.163899519
 30
0.0
 11
0.0856861864
 21
0.163899519
 31
0.0
  0
LINE
  5
A9
330
1F
100
AcDbEntity
  8
0
  6
Continuous
 62
     7
370
    25
100
AcDbLine
 10
0.0856836529
 20
0.1635591731
 30
0.0
 11
0.0857906768
 21
0.1635591731
 31
0.0
  0
LINE
  5
AA
330
1F
100
AcDbEntity
  8
0
  6
Continuous
 62
     7
370
    25
100
AcDbLine
 10
0.0855342119
 20
0.1655214795
 30
0.0
 11
0.0854153605
 21
0.1655214795
 31
0.0
  0
LINE
  5
AB
330
1F
100
AcDbEntity
  8
0
  6
Continuous
 62
     7
370
    25
100
AcDbLine
 10
0.0857431926
 20
0.1662021714
 30
0.0
 11
0.0856243412
 21
0.1662021714
 31
0.0
  0
LINE
  5
AC
330
1F
100
AcDbEntity
  8
0
  6
Continuous
 62
     7
370
    25
100
AcDbLine
 10
0.0856387022
 20
0.1658618254
 30
0.0
 11
0.0855198509
 21
0.1658618254
 31
0.0
  0
LINE
  5
AD
330
1F
100
AcDbEntity
  8
0
  6
Continuous
 62
     7
370
    25
100
AcDbLine
 10
0.0943445002
 20
0.1658618254
 30
0.0
 11
0.0942256489
 21
0.1658618254
 31
0.0
  0
LINE
  5
AE
330
1F
100
AcDbEntity
  8
0
  6
Continuous
 62
     7
370
    25
100
AcDbLine
 10
0.0944489906
 20
0.1655214795
 30
0.0
 11
0.0943301392
 21
0.1655214795
 31
0.0
  0
LINE
  5
AF
330
1F
100
AcDbEntity
  8
0
  6
Continuous
 62
     7
370
    25
100
AcDbLine
 10
0.0942301812
 20
0.1640689472
 30
0.0
 11
0.0943490326
 21
0.1640689472
 31
0.0
  0
LINE
  5
B0
330
1F
100
AcDbEntity
  8
0
  6
Continuous
 62
     7
370
    25
100
AcDbLine
 10
0.1262938471
 20
0.1655040816
 30
0.0
 11
0.1262938471
 21
0.1642980816
 31
0.0
  0
LINE
  5
B1
330
1F
100
AcDbEntity
  8
0
  6
Continuous
 62
     7
370
    25
100
AcDbLine
 10
0.0763738471
 20
0.1655040816
 30
0.0
 11
0.0763738471
 21
0.1642980816
 31
0.0
  0
LINE
  5
B2
330
1F
100
AcDbEntity
  8
0
  6
Continuous
 62
     7
370
    25
100
AcDbLine
 10
0.0763338471
 20
0.1643060816
 30
0.0
 11
0.0763338471
 21
0.1654960816
 31
0.0
  0
LINE
  5
B3
330
1F
100
AcDbEntity
  8
0
  6
Continuous
 62
     7
370
    25
100
AcDbLine
 10
0.1263338471
 20
0.1654960816
 30
0.0
 11
0.1263338471
 21
0.1643060816
 31
0.0
  0
LWPOLYLINE
  5
B4
330
1F
100
AcDbEntity
  8
0
  6
Continuous
 62
     7
370
    25
100
AcDbPolyline
 90
       25
 70
   128
 43
0.0
 10
0.124572393
 20
0.1660087871
 10
0.12458309
 20
0.1660123649
 10
0.124593058
 20
0.1660228545
 10
0.1246016178
 20
0.1660395409
 10
0.1246081859
 20
0.1660612871
 10
0.1246123148
 20
0.1660866111
 10
0.124613723
 20
0.1661137871
 10
0.1246123148
 20
0.1661409631
 10
0.1246081859
 20
0.1661662871
 10
0.1246016178
 20
0.1661880333
 10
0.124593058
 20
0.1662047198
 10
0.12458309
 20
0.1662152093
 10
0.124572393
 20
0.1662187871
 10
0.124561696
 20
0.1662152093
 10
0.1245517279
 20
0.1662047198
 10
0.1245431682
 20
0.1661880333
 10
0.1245366001
 20
0.1661662871
 10
0.1245324712
 20
0.1661409631
 10
0.1245310629
 20
0.1661137871
 10
0.1245324712
 20
0.1660866111
 10
0.1245366001
 20
0.1660612871
 10
0.1245431682
 20
0.1660395409
 10
0.1245517279
 20
0.1660228545
 10
0.124561696
 20
0.1660123649
 10
0.124572393
 20
0.1660087871
  0
LINE
  5
B5
330
1F
100
AcDbEntity
  8
0
  6
Continuous
 62
     7
370
    25
100
AcDbLine
 10
0.1244580354
 20
0.1659037871
 30
0.0
 11
0.1244699577
 21
0.165905983
 31
0.0
  0
ARC
  5
B6
330
1F
100
AcDbEntity
  8
0
  6
Continuous
 62
     7
370
    25
100
AcDbCircle
 10
0.1246070191
 20
0.166108608
 30
0.0
 40
0.0002532739870356
100
AcDbArc
 50
122.762526383
 51
233.9684018908
  0
ARC
  5
B7
330
1F
100
AcDbEntity
  8
0
  6
Continuous
 62
     7
370
    25
100
AcDbCircle
 10
0.1246160495
 20
0.1661137871
 30
0.0
 40
0.0002670677925655
100
AcDbArc
 50
128.157331804
 51
231.842668196
  0
LINE
  5
B8
330
1F
100
AcDbEntity
  8
0
  6
Continuous
 62
     7
370
    25
100
AcDbLine
 10
0.124608754
 20
0.1661137871
 30
0.0
 11
0.1245905735
 21
0.1660337871
 31
0.0
  0
LINE
  5
B9
330
1F
100
AcDbEntity
  8
0
  6
Continuous
 62
     7
370
    25
100
AcDbLine
 10
0.1245905735
 20
0.1661937871
 30
0.0
 11
0.124608754
 21
0.1661137871
 31
0.0
  0
LINE
  5
BA
330
1F
100
AcDbEntity
  8
0
  6
Continuous
 62
     7
370
    25
100
AcDbLine
 10
0.1245542125
 20
0.1661937871
 30
0.0
 11
0.1245905735
 21
0.1661937871
 31
0.0
  0
LINE
  5
BB
330
1F
100
AcDbEntity
  8
0
  6
Continuous
 62
     7
370
    25
100
AcDbLine
 10
0.1245360319
 20
0.1661137871
 30
0.0
 11
0.1245542125
 21
0.1661937871
 31
0.0
  0
LINE
  5
BC
330
1F
100
AcDbEntity
  8
0
  6
Continuous
 62
     7
370
    25
100
AcDbLine
 10
0.1245542125
 20
0.1660337871
 30
0.0
 11
0.1245360319
 21
0.1661137871
 31
0.0
  0
LINE
  5
BD
330
1F
100
AcDbEntity
  8
0
  6
Continuous
 62
     7
370
    25
100
AcDbLine
 10
0.1245905735
 20
0.1660337871
 30
0.0
 11
0.1245542125
 21
0.1660337871
 31
0.0
  0
LINE
  5
BE
330
1F
100
AcDbEntity
  8
0
  6
Continuous
 62
     7
370
    25
100
AcDbLine
 10
0.1245360319
 20
0.1661137871
 30
0.0
 11
0.124608754
 21
0.1661137871
 31
0.0
  0
LWPOLYLINE
  5
BF
330
1F
100
AcDbEntity
  8
0
  6
Continuous
 62
     7
370
    25
100
AcDbPolyline
 90
       25
 70
   128
 43
0.0
 10
0.0780953013
 20
0.1660085172
 10
0.0781059983
 20
0.166012095
 10
0.0781159663
 20
0.1660225845
 10
0.0781245261
 20
0.166039271
 10
0.0781310942
 20
0.1660610172
 10
0.0781352231
 20
0.1660863412
 10
0.0781366314
 20
0.1661135172
 10
0.0781352231
 20
0.1661406932
 10
0.0781310942
 20
0.1661660172
 10
0.0781245261
 20
0.1661877634
 10
0.0781159663
 20
0.1662044499
 10
0.0781059983
 20
0.1662149394
 10
0.0780953013
 20
0.1662185172
 10
0.0780846043
 20
0.1662149394
 10
0.0780746363
 20
0.1662044499
 10
0.0780660765
 20
0.1661877634
 10
0.0780595084
 20
0.1661660172
 10
0.0780553795
 20
0.1661406932
 10
0.0780539712
 20
0.1661135172
 10
0.0780553795
 20
0.1660863412
 10
0.0780595084
 20
0.1660610172
 10
0.0780660765
 20
0.166039271
 10
0.0780746363
 20
0.1660225845
 10
0.0780846043
 20
0.166012095
 10
0.0780953013
 20
0.1660085172
  0
ARC
  5
C0
330
1F
100
AcDbEntity
  8
0
  6
Continuous
 62
     7
370
    25
100
AcDbCircle
 10
0.0780771721
 20
0.1661135172
 30
0.0
 40
0.0002402464481543
100
AcDbArc
 50
300.1215749541
 51
59.8784250459
  0
ARC
  5
C1
330
1F
100
AcDbEntity
  8
0
  6
Continuous
 62
     7
370
    25
100
AcDbCircle
 10
0.0780405791
 20
0.1661135172
 30
0.0
 40
0.0002740425530404
100
AcDbArc
 50
309.9768274048
 51
50.0231725952
  0
LINE
  5
C2
330
1F
100
AcDbEntity
  8
0
  6
Continuous
 62
     7
370
    25
100
AcDbLine
 10
0.0781316623
 20
0.1661135172
 30
0.0
 11
0.0781134818
 21
0.1660335172
 31
0.0
  0
LINE
  5
C3
330
1F
100
AcDbEntity
  8
0
  6
Continuous
 62
     7
370
    25
100
AcDbLine
 10
0.0781134818
 20
0.1661935172
 30
0.0
 11
0.0781316623
 21
0.1661135172
 31
0.0
  0
LINE
  5
C4
330
1F
100
AcDbEntity
  8
0
  6
Continuous
 62
     7
370
    25
100
AcDbLine
 10
0.0780771208
 20
0.1661935172
 30
0.0
 11
0.0781134818
 21
0.1661935172
 31
0.0
  0
LINE
  5
C5
330
1F
100
AcDbEntity
  8
0
  6
Continuous
 62
     7
370
    25
100
AcDbLine
 10
0.0780589403
 20
0.1661135172
 30
0.0
 11
0.0780771208
 21
0.1661935172
 31
0.0
  0
LINE
  5
C6
330
1F
100
AcDbEntity
  8
0
  6
Continuous
 62
     7
370
    25
100
AcDbLine
 10
0.0780771208
 20
0.1660335172
 30
0.0
 11
0.0780589403
 21
0.1661135172
 31
0.0
  0
LINE
  5
C7
330
1F
100
AcDbEntity
  8
0
  6
Continuous
 62
     7
370
    25
100
AcDbLine
 10
0.0781134818
 20
0.1660335172
 30
0.0
 11
0.0780771208
 21
0.1660335172
 31
0.0
  0
LINE
  5
C8
330
1F
100
AcDbEntity
  8
0
  6
Continuous
 62
     7
370
    25
100
AcDbLine
 10
0.0781316623
 20
0.1661135172
 30
0.0
 11
0.0780589403
 21
0.1661135172
 31
0.0
  0
LWPOLYLINE
  5
C9
330
1F
100
AcDbEntity
  8
0
  6
Continuous
 62
     7
370
    25
100
AcDbPolyline
 90
       25
 70
   128
 43
0.0
 10
0.124572393
 20
0.163583916
 10
0.12458309
 20
0.1635874938
 10
0.124593058
 20
0.1635979833
 10
0.1246016178
 20
0.1636146698
 10
0.1246081859
 20
0.163636416
 10
0.1246123148
 20
0.16366174
 10
0.124613723
 20
0.163688916
 10
0.1246123148
 20
0.163716092
 10
0.1246081859
 20
0.163741416
 10
0.1246016178
 20
0.1637631622
 10
0.124593058
 20
0.1637798487
 10
0.12458309
 20
0.1637903382
 10
0.124572393
 20
0.163793916
 10
0.124561696
 20
0.1637903382
 10
0.1245517279
 20
0.1637798487
 10
0.1245431682
 20
0.1637631622
 10
0.1245366001
 20
0.163741416
 10
0.1245324712
 20
0.163716092
 10
0.1245310629
 20
0.163688916
 10
0.1245324712
 20
0.16366174
 10
0.1245366001
 20
0.163636416
 10
0.1245431682
 20
0.1636146698
 10
0.1245517279
 20
0.1635979833
 10
0.124561696
 20
0.1635874938
 10
0.124572393
 20
0.163583916
  0
LINE
  5
CA
330
1F
100
AcDbEntity
  8
0
  6
Continuous
 62
     7
370
    25
100
AcDbLine
 10
0.1244580354
 20
0.163478916
 30
0.0
 11
0.1244699577
 21
0.1634811118
 31
0.0
  0
ARC
  5
CB
330
1F
100
AcDbEntity
  8
0
  6
Continuous
 62
     7
370
    25
100
AcDbCircle
 10
0.1246070191
 20
0.1636837368
 30
0.0
 40
0.0002532739870356
100
AcDbArc
 50
122.762526383
 51
233.9684018908
  0
ARC
  5
CC
330
1F
100
AcDbEntity
  8
0
  6
Continuous
 62
     7
370
    25
100
AcDbCircle
 10
0.1246160495
 20
0.163688916
 30
0.0
 40
0.0002670677925656
100
AcDbArc
 50
128.1573318041
 51
231.8426681959
  0
LINE
  5
CD
330
1F
100
AcDbEntity
  8
0
  6
Continuous
 62
     7
370
    25
100
AcDbLine
 10
0.124608754
 20
0.163688916
 30
0.0
 11
0.1245905735
 21
0.163608916
 31
0.0
  0
LINE
  5
CE
330
1F
100
AcDbEntity
  8
0
  6
Continuous
 62
     7
370
    25
100
AcDbLine
 10
0.1245905735
 20
0.163768916
 30
0.0
 11
0.124608754
 21
0.163688916
 31
0.0
  0
LINE
  5
CF
330
1F
100
AcDbEntity
  8
0
  6
Continuous
 62
     7
370
    25
100
AcDbLine
 10
0.1245542125
 20
0.163768916
 30
0.0
 11
0.1245905735
 21
0.163768916
 31
0.0
  0
LINE
  5
D0
330
1F
100
AcDbEntity
  8
0
  6
Continuous
 62
     7
370
    25
100
AcDbLine
 10
0.1245360319
 20
0.163688916
 30
0.0
 11
0.1245542125
 21
0.163768916
 31
0.0
  0
LINE
  5
D1
330
1F
100
AcDbEntity
  8
0
  6
Continuous
 62
     7
370
    25
100
AcDbLine
 10
0.1245542125
 20
0.163608916
 30
0.0
 11
0.1245360319
 21
0.163688916
 31
0.0
  0
LINE
  5
D2
330
1F
100
AcDbEntity
  8
0
  6
Continuous
 62
     7
370
    25
100
AcDbLine
 10
0.1245905735
 20
0.163608916
 30
0.0
 11
0.1245542125
 21
0.163608916
 31
0.0
  0
LINE
  5
D3
330
1F
100
AcDbEntity
  8
0
  6
Continuous
 62
     7
370
    25
100
AcDbLine
 10
0.1245360319
 20
0.163688916
 30
0.0
 11
0.124608754
 21
0.163688916
 31
0.0
  0
LWPOLYLINE
  5
D4
330
1F
100
AcDbEntity
  8
0
  6
Continuous
 62
     7
370
    25
100
AcDbPolyline
 90
       25
 70
   128
 43
0.0
 10
0.0780953013
 20
0.1635836461
 10
0.0781059983
 20
0.1635872239
 10
0.0781159663
 20
0.1635977134
 10
0.0781245261
 20
0.1636143999
 10
0.0781310942
 20
0.1636361461
 10
0.0781352231
 20
0.1636614701
 10
0.0781366314
 20
0.1636886461
 10
0.0781352231
 20
0.1637158221
 10
0.0781310942
 20
0.1637411461
 10
0.0781245261
 20
0.1637628923
 10
0.0781159663
 20
0.1637795787
 10
0.0781059983
 20
0.1637900683
 10
0.0780953013
 20
0.1637936461
 10
0.0780846043
 20
0.1637900683
 10
0.0780746363
 20
0.1637795787
 10
0.0780660765
 20
0.1637628923
 10
0.0780595084
 20
0.1637411461
 10
0.0780553795
 20
0.1637158221
 10
0.0780539712
 20
0.1636886461
 10
0.0780553795
 20
0.1636614701
 10
0.0780595084
 20
0.1636361461
 10
0.0780660765
 20
0.1636143999
 10
0.0780746363
 20
0.1635977134
 10
0.0780846043
 20
0.1635872239
 10
0.0780953013
 20
0.1635836461
  0
ARC
  5
D5
330
1F
100
AcDbEntity
  8
0
  6
Continuous
 62
     7
370
    25
100
AcDbCircle
 10
0.0780771721
 20
0.1636886461
 30
0.0
 40
0.0002402464481543
100
AcDbArc
 50
300.1215749541
 51
59.8784250459
  0
ARC
  5
D6
330
1F
100
AcDbEntity
  8
0
  6
Continuous
 62
     7
370
    25
100
AcDbCircle
 10
0.0780405791
 20
0.1636886461
 30
0.0
 40
0.0002740425530404
100
AcDbArc
 50
309.9768274049
 51
50.0231725952
  0
LINE
  5
D7
330
1F
100
AcDbEntity
  8
0
  6
Continuous
 62
     7
370
    25
100
AcDbLine
 10
0.0781316623
 20
0.1636886461
 30
0.0
 11
0.0781134818
 21
0.1636086461
 31
0.0
  0
LINE
  5
D8
330
1F
100
AcDbEntity
  8
0
  6
Continuous
 62
     7
370
    25
100
AcDbLine
 10
0.0781134818
 20
0.1637686461
 30
0.0
 11
0.0781316623
 21
0.1636886461
 31
0.0
  0
LINE
  5
D9
330
1F
100
AcDbEntity
  8
0
  6
Continuous
 62
     7
370
    25
100
AcDbLine
 10
0.0780771208
 20
0.1637686461
 30
0.0
 11
0.0781134818
 21
0.1637686461
 31
0.0
  0
LINE
  5
DA
330
1F
100
AcDbEntity
  8
0
  6
Continuous
 62
     7
370
    25
100
AcDbLine
 10
0.0780589403
 20
0.1636886461
 30
0.0
 11
0.0780771208
 21
0.1637686461
 31
0.0
  0
LINE
  5
DB
330
1F
100
AcDbEntity
  8
0
  6
Continuous
 62
     7
370
    25
100
AcDbLine
 10
0.0780771208
 20
0.1636086461
 30
0.0
 11
0.0780589403
 21
0.1636886461
 31
0.0
  0
LINE
  5
DC
330
1F
100
AcDbEntity
  8
0
  6
Continuous
 62
     7
370
    25
100
AcDbLine
 10
0.0781134818
 20
0.1636086461
 30
0.0
 11
0.0780771208
 21
0.1636086461
 31
0.0
  0
LINE
  5
DD
330
1F
100
AcDbEntity
  8
0
  6
Continuous
 62
     7
370
    25
100
AcDbLine
 10
0.0781316623
 20
0.1636886461
 30
0.0
 11
0.0780589403
 21
0.1636886461
 31
0.0
  0
ARC
  5
DE
330
1F
100
AcDbEntity
  8
0
  6
Continuous
 62
     7
370
    25
100
AcDbCircle
 10
0.0771020519
 20
0.1696852469
 30
0.0
 40
0.0002131126010508
100
AcDbArc
 50
170.5565335186
 51
192.6140131495
  0
ARC
  5
DF
330
1F
100
AcDbEntity
  8
0
  6
Continuous
 62
     7
370
    25
100
AcDbCircle
 10
0.0785696062
 20
0.166260652
 30
0.0
 40
0.0005725392244406
100
AcDbArc
 50
265.8524258597
 51
268.4664279592
  0
ARC
  5
E0
330
1F
100
AcDbEntity
  8
0
  6
Continuous
 62
     7
370
    25
100
AcDbCircle
 10
0.078551877
 20
0.1655909404
 30
0.0
 40
0.000070006240563
100
AcDbArc
 50
188.4536306635
 51
266.2804966823
  0
ARC
  5
E1
330
1F
100
AcDbEntity
  8
0
  6
Continuous
 62
     7
370
    25
100
AcDbCircle
 10
0.0771017378
 20
0.1601169272
 30
0.0
 40
0.0002128037242623
100
AcDbArc
 50
167.3703880191
 51
189.4622053101
  0
LWPOLYLINE
  5
E2
330
1F
100
AcDbEntity
  8
0
  6
Continuous
 62
     7
370
    25
100
AcDbPolyline
 90
        4
 70
   128
 43
0.0
 10
0.0785543104
 20
0.1641139091
 10
0.0785426074
 20
0.1641134604
 10
0.0785282691
 20
0.1641126155
 10
0.0785281827
 20
0.1641126089
  0
ARC
  5
E3
330
1F
100
AcDbEntity
  8
0
  6
Continuous
 62
     7
370
    25
100
AcDbCircle
 10
0.0785518768
 20
0.1642112247
 30
0.0
 40
0.0000700044160668
100
AcDbArc
 50
93.7194110146
 51
171.5477489172
  0
LINE
  5
E4
330
1F
100
AcDbEntity
  8
0
  6
Continuous
 62
     7
370
    25
100
AcDbLine
 10
0.0786236083
 20
0.1655210816
 30
0.0
 11
0.0785473356
 21
0.1655210816
 31
0.0
  0
LINE
  5
E5
330
1F
100
AcDbEntity
  8
0
  6
Continuous
 62
     7
370
    25
100
AcDbLine
 10
0.0786236149
 20
0.1642810816
 30
0.0
 11
0.0785473356
 21
0.1642810816
 31
0.0
  0
ARC
  5
E6
330
1F
100
AcDbEntity
  8
0
  6
Continuous
 62
     7
370
    25
100
AcDbCircle
 10
0.0786178937
 20
0.1649065672
 30
0.0
 40
0.0006145964451134
100
AcDbArc
 50
261.9136108642
 51
270.9575580414
  0
ARC
  5
E7
330
1F
100
AcDbEntity
  8
0
  6
Continuous
 62
     7
370
    25
100
AcDbCircle
 10
0.0786305216
 20
0.1647836447
 30
0.0
 40
0.0007267042781474
100
AcDbArc
 50
90.1938798674
 51
98.2265660631
  0
ARC
  5
E8
330
1F
100
AcDbEntity
  8
0
  6
Continuous
 62
     7
370
    25
100
AcDbCircle
 10
0.1255659561
 20
0.169685506
 30
0.0
 40
0.0002128040453306
100
AcDbArc
 50
347.3703973512
 51
9.4621981517
  0
LWPOLYLINE
  5
E9
330
1F
100
AcDbEntity
  8
0
  6
Continuous
 62
     7
370
    25
100
AcDbPolyline
 90
        4
 70
   128
 43
0.0
 10
0.1241134103
 20
0.1656885878
 10
0.1241250726
 20
0.1656890335
 10
0.1241394109
 20
0.1656898757
 10
0.1241394973
 20
0.1656898822
  0
ARC
  5
EA
330
1F
100
AcDbEntity
  8
0
  6
Continuous
 62
     7
370
    25
100
AcDbCircle
 10
0.1241158172
 20
0.1655912103
 30
0.0
 40
0.000070006240563
100
AcDbArc
 50
273.7195033177
 51
351.5463693365
  0
ARC
  5
EB
330
1F
100
AcDbEntity
  8
0
  6
Continuous
 62
     7
370
    25
100
AcDbCircle
 10
0.1255656427
 20
0.1601171863
 30
0.0
 40
0.0002131122791643
100
AcDbArc
 50
350.5565263568
 51
12.6140224874
  0
ARC
  5
EC
330
1F
100
AcDbEntity
  8
0
  6
Continuous
 62
     7
370
    25
100
AcDbCircle
 10
0.1240980601
 20
0.1635430766
 30
0.0
 40
0.0005713080504596
100
AcDbArc
 50
85.8392320528
 51
88.4629654546
  0
ARC
  5
ED
330
1F
100
AcDbEntity
  8
0
  6
Continuous
 62
     7
370
    25
100
AcDbCircle
 10
0.1241158175
 20
0.1642114946
 30
0.0
 40
0.0000700044160652
100
AcDbArc
 50
8.4522510817
 51
86.2805889865
  0
LINE
  5
EE
330
1F
100
AcDbEntity
  8
0
  6
Continuous
 62
     7
370
    25
100
AcDbLine
 10
0.1241203587
 20
0.1655213516
 30
0.0
 11
0.1240440794
 21
0.1655213516
 31
0.0
  0
LINE
  5
EF
330
1F
100
AcDbEntity
  8
0
  6
Continuous
 62
     7
370
    25
100
AcDbLine
 10
0.1241203587
 20
0.1642813516
 30
0.0
 11
0.1240440859
 21
0.1642813516
 31
0.0
  0
ARC
  5
F0
330
1F
100
AcDbEntity
  8
0
  6
Continuous
 62
     7
370
    25
100
AcDbCircle
 10
0.1241837896
 20
0.1649641978
 30
0.0
 40
0.0005470836923503
100
AcDbArc
 50
80.694263613
 51
91.982348451
  0
ARC
  5
F1
330
1F
100
AcDbEntity
  8
0
  6
Continuous
 62
     7
370
    25
100
AcDbCircle
 10
0.1241795685
 20
0.164919558
 30
0.0
 40
0.0006279811666585
100
AcDbArc
 50
268.658372719
 51
278.2538359949
  0
LWPOLYLINE
  5
F2
330
1F
100
AcDbEntity
  8
0
  6
Continuous
 62
     7
370
    25
100
AcDbPolyline
 90
        3
 70
   128
 43
0.0
 10
0.1241648651
 20
0.1655109541
 10
0.1240679429
 20
0.1655110599
 10
0.1240394723
 20
0.1655102385
  0
LWPOLYLINE
  5
F3
330
1F
100
AcDbEntity
  8
0
  6
Continuous
 62
     7
370
    25
100
AcDbPolyline
 90
        3
 70
   128
 43
0.0
 10
0.1240393895
 20
0.1642926724
 10
0.1240916903
 20
0.1642913943
 10
0.1241648651
 20
0.164291749
  0
LINE
  5
F4
330
1F
100
AcDbEntity
  8
0
  6
Continuous
 62
     7
370
    25
100
AcDbLine
 10
0.0801809834
 20
0.1649010816
 30
0.0
 11
0.0789231137
 21
0.1649010816
 31
0.0
  0
LINE
  5
F5
330
1F
100
AcDbEntity
  8
0
  6
Continuous
 62
     7
370
    25
100
AcDbLine
 10
0.0788813594
 20
0.1649010816
 30
0.0
 11
0.0788809328
 21
0.1649010816
 31
0.0
  0
ARC
  5
F6
330
1F
100
AcDbEntity
  8
0
  6
Continuous
 62
     7
370
    25
100
AcDbCircle
 10
0.073130202
 20
0.1816945742
 30
0.0
 40
0.0006089428488366
100
AcDbArc
 50
323.1664061952
 51
29.3888901999
  0
LINE
  5
F7
330
1F
100
AcDbEntity
  8
0
  6
Continuous
 62
     7
370
    25
100
AcDbLine
 10
0.1224867108
 20
0.1649013516
 30
0.0
 11
0.1237445805
 21
0.1649013516
 31
0.0
  0
ARC
  5
F8
330
1F
100
AcDbEntity
  8
0
  6
Continuous
 62
     7
370
    25
100
AcDbCircle
 10
0.1295374922
 20
0.148107859
 30
0.0
 40
0.0006089428488366
100
AcDbArc
 50
143.1664061952
 51
209.3888901999
  0
ARC
  5
F9
330
1F
100
AcDbEntity
  8
0
  6
Continuous
 62
     7
370
    25
100
AcDbCircle
 10
0.1295291467
 20
0.1816951066
 30
0.0
 40
0.0006009804016503
100
AcDbArc
 50
150.2329280049
 51
217.2347815792
  0
LINE
  5
FA
330
1F
100
AcDbEntity
  8
0
  6
Continuous
 62
     7
370
    25
100
AcDbLine
 10
0.1224860437
 20
0.1649013517
 30
0.0
 11
0.1225585442
 21
0.1649013516
 31
0.0
  0
LINE
  5
FB
330
1F
100
AcDbEntity
  8
0
  6
Continuous
 62
     7
370
    25
100
AcDbLine
 10
0.1225585442
 20
0.1649013516
 30
0.0
 11
0.1225763016
 21
0.1649013516
 31
0.0
  0
LINE
  5
FC
330
1F
100
AcDbEntity
  8
0
  6
Continuous
 62
     7
370
    25
100
AcDbLine
 10
0.1225763016
 20
0.1649013516
 30
0.0
 11
0.1226973185
 21
0.1649013516
 31
0.0
  0
LINE
  5
FD
330
1F
100
AcDbEntity
  8
0
  6
Continuous
 62
     7
370
    25
100
AcDbLine
 10
0.1226973185
 20
0.1649013516
 30
0.0
 11
0.122750939
 21
0.1649013516
 31
0.0
  0
LINE
  5
FE
330
1F
100
AcDbEntity
  8
0
  6
Continuous
 62
     7
370
    25
100
AcDbLine
 10
0.122750939
 20
0.1649013516
 30
0.0
 11
0.122844065
 21
0.1649013516
 31
0.0
  0
LINE
  5
FF
330
1F
100
AcDbEntity
  8
0
  6
Continuous
 62
     7
370
    25
100
AcDbLine
 10
0.122844065
 20
0.1649013516
 30
0.0
 11
0.1231575017
 21
0.1649013516
 31
0.0
  0
LINE
  5
100
330
1F
100
AcDbEntity
  8
0
  6
Continuous
 62
     7
370
    25
100
AcDbLine
 10
0.1231575017
 20
0.1649013516
 30
0.0
 11
0.1233446459
 21
0.1649013516
 31
0.0
  0
LINE
  5
101
330
1F
100
AcDbEntity
  8
0
  6
Continuous
 62
     7
370
    25
100
AcDbLine
 10
0.1233446459
 20
0.1649013516
 30
0.0
 11
0.1235491675
 21
0.1649013516
 31
0.0
  0
LINE
  5
102
330
1F
100
AcDbEntity
  8
0
  6
Continuous
 62
     7
370
    25
100
AcDbLine
 10
0.1235491675
 20
0.1649013516
 30
0.0
 11
0.1235916917
 21
0.1649013516
 31
0.0
  0
LINE
  5
103
330
1F
100
AcDbEntity
  8
0
  6
Continuous
 62
     7
370
    25
100
AcDbLine
 10
0.1235916917
 20
0.1649013516
 30
0.0
 11
0.1237221725
 21
0.1649013516
 31
0.0
  0
LINE
  5
104
330
1F
100
AcDbEntity
  8
0
  6
Continuous
 62
     7
370
    25
100
AcDbLine
 10
0.1237221725
 20
0.1649013516
 30
0.0
 11
0.1237445805
 21
0.1649013516
 31
0.0
  0
LINE
  5
105
330
1F
100
AcDbEntity
  8
0
  6
Continuous
 62
     7
370
    25
100
AcDbLine
 10
0.1237445805
 20
0.1649013516
 30
0.0
 11
0.1237865341
 21
0.1649013516
 31
0.0
  0
LINE
  5
106
330
1F
100
AcDbEntity
  8
0
  6
Continuous
 62
     7
370
    25
100
AcDbLine
 10
0.0789231137
 20
0.1649010816
 30
0.0
 11
0.0788811602
 21
0.1649010816
 31
0.0
  0
LINE
  5
107
330
1F
100
AcDbEntity
  8
0
  6
Continuous
 62
     7
370
    25
100
AcDbLine
 10
0.0789455218
 20
0.1649010816
 30
0.0
 11
0.0789231137
 21
0.1649010816
 31
0.0
  0
LINE
  5
108
330
1F
100
AcDbEntity
  8
0
  6
Continuous
 62
     7
370
    25
100
AcDbLine
 10
0.0790760025
 20
0.1649010816
 30
0.0
 11
0.0789455218
 21
0.1649010816
 31
0.0
  0
LINE
  5
109
330
1F
100
AcDbEntity
  8
0
  6
Continuous
 62
     7
370
    25
100
AcDbLine
 10
0.0791185267
 20
0.1649010816
 30
0.0
 11
0.0790760025
 21
0.1649010816
 31
0.0
  0
LINE
  5
10A
330
1F
100
AcDbEntity
  8
0
  6
Continuous
 62
     7
370
    25
100
AcDbLine
 10
0.0793230483
 20
0.1649010816
 30
0.0
 11
0.0791185267
 21
0.1649010816
 31
0.0
  0
LINE
  5
10B
330
1F
100
AcDbEntity
  8
0
  6
Continuous
 62
     7
370
    25
100
AcDbLine
 10
0.0795101926
 20
0.1649010816
 30
0.0
 11
0.0793230483
 21
0.1649010816
 31
0.0
  0
LINE
  5
10C
330
1F
100
AcDbEntity
  8
0
  6
Continuous
 62
     7
370
    25
100
AcDbLine
 10
0.0798236293
 20
0.1649010816
 30
0.0
 11
0.0795101926
 21
0.1649010816
 31
0.0
  0
LINE
  5
10D
330
1F
100
AcDbEntity
  8
0
  6
Continuous
 62
     7
370
    25
100
AcDbLine
 10
0.0799167552
 20
0.1649010816
 30
0.0
 11
0.0798236293
 21
0.1649010816
 31
0.0
  0
LINE
  5
10E
330
1F
100
AcDbEntity
  8
0
  6
Continuous
 62
     7
370
    25
100
AcDbLine
 10
0.0799703758
 20
0.1649010816
 30
0.0
 11
0.0799167552
 21
0.1649010816
 31
0.0
  0
LINE
  5
10F
330
1F
100
AcDbEntity
  8
0
  6
Continuous
 62
     7
370
    25
100
AcDbLine
 10
0.0800913926
 20
0.1649010816
 30
0.0
 11
0.0799703758
 21
0.1649010816
 31
0.0
  0
LINE
  5
110
330
1F
100
AcDbEntity
  8
0
  6
Continuous
 62
     7
370
    25
100
AcDbLine
 10
0.0801091501
 20
0.1649010816
 30
0.0
 11
0.0800913926
 21
0.1649010816
 31
0.0
  0
LINE
  5
111
330
1F
100
AcDbEntity
  8
0
  6
Continuous
 62
     7
370
    25
100
AcDbLine
 10
0.0801816506
 20
0.1649010815
 30
0.0
 11
0.0801091501
 21
0.1649010816
 31
0.0
  0
ARC
  5
112
330
1F
100
AcDbEntity
  8
0
  6
Continuous
 62
     7
370
    25
100
AcDbCircle
 10
0.0731385476
 20
0.1481073266
 30
0.0
 40
0.0006009804016503
100
AcDbArc
 50
330.2329280049
 51
37.2347815792
  0
CIRCLE
  5
113
330
1F
100
AcDbEntity
  8
0
  6
Continuous
 62
     7
370
    25
100
AcDbCircle
 10
0.1040038471
 20
0.1649010816
 30
0.0
 40
0.00017
  0
ARC
  5
114
330
1F
100
AcDbEntity
  8
0
  6
Continuous
 62
     7
370
    25
100
AcDbCircle
 10
0.1040038471
 20
0.1649010816
 30
0.0
 40
0.00018
100
AcDbArc
 50
162.1890353252
 51
222.1890353252
  0
LINE
  5
115
330
1F
100
AcDbEntity
  8
0
  6
Continuous
 62
     7
370
    25
100
AcDbLine
 10
0.1038006867
 20
0.1648571975
 30
0.0
 11
0.1038704792
 21
0.1647801975
 31
0.0
  0
LINE
  5
116
330
1F
100
AcDbEntity
  8
0
  6
Continuous
 62
     7
370
    25
100
AcDbLine
 10
0.1038324744
 20
0.1649561396
 30
0.0
 11
0.1038006867
 21
0.1648571975
 31
0.0
  0
LINE
  5
117
330
1F
100
AcDbEntity
  8
0
  6
Continuous
 62
     7
370
    25
100
AcDbLine
 10
0.1041434322
 20
0.1647470816
 30
0.0
 11
0.1040418519
 21
0.1647251395
 31
0.0
  0
ARC
  5
118
330
1F
100
AcDbEntity
  8
0
  6
Continuous
 62
     7
370
    25
100
AcDbCircle
 10
0.1040038471
 20
0.1649010816
 30
0.0
 40
0.00018
100
AcDbArc
 50
282.1890353252
 51
342.1890353252
  0
LINE
  5
119
330
1F
100
AcDbEntity
  8
0
  6
Continuous
 62
     7
370
    25
100
AcDbLine
 10
0.1041434322
 20
0.1647470816
 30
0.0
 11
0.1041752199
 21
0.1648460237
 31
0.0
  0
LINE
  5
11A
330
1F
100
AcDbEntity
  8
0
  6
Continuous
 62
     7
370
    25
100
AcDbLine
 10
0.1041752199
 20
0.1648460237
 30
0.0
 11
0.1042070076
 21
0.1649449658
 31
0.0
  0
ARC
  5
11B
330
1F
100
AcDbEntity
  8
0
  6
Continuous
 62
     7
370
    25
100
AcDbCircle
 10
0.1040038471
 20
0.1649010816
 30
0.0
 40
0.00018
100
AcDbArc
 50
342.1890353252
 51
42.1890353252
  0
LINE
  5
11C
330
1F
100
AcDbEntity
  8
0
  6
Continuous
 62
     7
370
    25
100
AcDbLine
 10
0.1042070076
 20
0.1649449658
 30
0.0
 11
0.1041372151
 21
0.1650219658
 31
0.0
  0
ARC
  5
11D
330
1F
100
AcDbEntity
  8
0
  6
Continuous
 62
     7
370
    25
100
AcDbCircle
 10
0.1040038471
 20
0.1649010816
 30
0.0
 40
0.00018
100
AcDbArc
 50
102.1890353252
 51
162.1890353252
  0
ARC
  5
11E
330
1F
100
AcDbEntity
  8
0
  6
Continuous
 62
     7
370
    25
100
AcDbCircle
 10
0.1040038471
 20
0.1649010816
 30
0.0
 40
0.00018
100
AcDbArc
 50
42.1890353252
 51
102.1890353252
  0
ARC
  5
11F
330
1F
100
AcDbEntity
  8
0
  6
Continuous
 62
     7
370
    25
100
AcDbCircle
 10
0.1040038471
 20
0.1649010816
 30
0.0
 40
0.00018
100
AcDbArc
 50
222.1890353252
 51
282.1890353252
  0
LINE
  5
120
330
1F
100
AcDbEntity
  8
0
  6
Continuous
 62
     7
370
    25
100
AcDbLine
 10
0.1038642621
 20
0.1650550817
 30
0.0
 11
0.1038324744
 21
0.1649561396
 31
0.0
  0
LINE
  5
121
330
1F
100
AcDbEntity
  8
0
  6
Continuous
 62
     7
370
    25
100
AcDbLine
 10
0.1039658423
 20
0.1650770238
 30
0.0
 11
0.1038642621
 21
0.1650550817
 31
0.0
  0
LINE
  5
122
330
1F
100
AcDbEntity
  8
0
  6
Continuous
 62
     7
370
    25
100
AcDbLine
 10
0.1041372151
 20
0.1650219658
 30
0.0
 11
0.1040674226
 21
0.1650989659
 31
0.0
  0
LINE
  5
123
330
1F
100
AcDbEntity
  8
0
  6
Continuous
 62
     7
370
    25
100
AcDbLine
 10
0.1040674226
 20
0.1650989659
 30
0.0
 11
0.1039658423
 21
0.1650770238
 31
0.0
  0
LINE
  5
124
330
1F
100
AcDbEntity
  8
0
  6
Continuous
 62
     7
370
    25
100
AcDbLine
 10
0.1040418519
 20
0.1647251395
 30
0.0
 11
0.1039402717
 21
0.1647031974
 31
0.0
  0
LINE
  5
125
330
1F
100
AcDbEntity
  8
0
  6
Continuous
 62
     7
370
    25
100
AcDbLine
 10
0.1038704792
 20
0.1647801975
 30
0.0
 11
0.1039402717
 21
0.1647031974
 31
0.0
  0
CIRCLE
  5
126
330
1F
100
AcDbEntity
  8
0
  6
Continuous
 62
     7
370
    25
100
AcDbCircle
 10
0.0812038471
 20
0.1649010816
 30
0.0
 40
0.00017
  0
ARC
  5
127
330
1F
100
AcDbEntity
  8
0
  6
Continuous
 62
     7
370
    25
100
AcDbCircle
 10
0.0812038471
 20
0.1649010816
 30
0.0
 40
0.00018
100
AcDbArc
 50
70.4238110279
 51
130.4238110279
  0
LINE
  5
128
330
1F
100
AcDbEntity
  8
0
  6
Continuous
 62
     7
370
    25
100
AcDbLine
 10
0.081166242
 20
0.1651054975
 30
0.0
 11
0.0810871286
 21
0.16503811
 31
0.0
  0
LINE
  5
129
330
1F
100
AcDbEntity
  8
0
  6
Continuous
 62
     7
370
    25
100
AcDbLine
 10
0.0812641579
 20
0.1650706771
 30
0.0
 11
0.081166242
 21
0.1651054975
 31
0.0
  0
ARC
  5
12A
330
1F
100
AcDbEntity
  8
0
  6
Continuous
 62
     7
370
    25
100
AcDbCircle
 10
0.0812038471
 20
0.1649010816
 30
0.0
 40
0.00018
100
AcDbArc
 50
250.4238110279
 51
310.4238110279
  0
LINE
  5
12B
330
1F
100
AcDbEntity
  8
0
  6
Continuous
 62
     7
370
    25
100
AcDbLine
 10
0.0811435363
 20
0.1647314862
 30
0.0
 11
0.0812414523
 21
0.1646966658
 31
0.0
  0
LINE
  5
12C
330
1F
100
AcDbEntity
  8
0
  6
Continuous
 62
     7
370
    25
100
AcDbLine
 10
0.0813205657
 20
0.1647640532
 30
0.0
 11
0.0812414523
 21
0.1646966658
 31
0.0
  0
LINE
  5
12D
330
1F
100
AcDbEntity
  8
0
  6
Continuous
 62
     7
370
    25
100
AcDbLine
 10
0.0813808765
 20
0.1649336487
 30
0.0
 11
0.0813620739
 21
0.1650358566
 31
0.0
  0
ARC
  5
12E
330
1F
100
AcDbEntity
  8
0
  6
Continuous
 62
     7
370
    25
100
AcDbCircle
 10
0.0812038471
 20
0.1649010816
 30
0.0
 40
0.00018
100
AcDbArc
 50
10.4238110279
 51
70.4238110279
  0
LINE
  5
12F
330
1F
100
AcDbEntity
  8
0
  6
Continuous
 62
     7
370
    25
100
AcDbLine
 10
0.0813620739
 20
0.1650358566
 30
0.0
 11
0.0812641579
 21
0.1650706771
 31
0.0
  0
ARC
  5
130
330
1F
100
AcDbEntity
  8
0
  6
Continuous
 62
     7
370
    25
100
AcDbCircle
 10
0.0812038471
 20
0.1649010816
 30
0.0
 40
0.00018
100
AcDbArc
 50
310.4238110279
 51
10.4238110279
  0
LINE
  5
131
330
1F
100
AcDbEntity
  8
0
  6
Continuous
 62
     7
370
    25
100
AcDbLine
 10
0.0813996791
 20
0.1648314407
 30
0.0
 11
0.0813808765
 21
0.1649336487
 31
0.0
  0
LINE
  5
132
330
1F
100
AcDbEntity
  8
0
  6
Continuous
 62
     7
370
    25
100
AcDbLine
 10
0.0813996791
 20
0.1648314407
 30
0.0
 11
0.0813205657
 21
0.1647640532
 31
0.0
  0
ARC
  5
133
330
1F
100
AcDbEntity
  8
0
  6
Continuous
 62
     7
370
    25
100
AcDbCircle
 10
0.0812038471
 20
0.1649010816
 30
0.0
 40
0.00018
100
AcDbArc
 50
130.4238110279
 51
190.4238110279
  0
LINE
  5
134
330
1F
100
AcDbEntity
  8
0
  6
Continuous
 62
     7
370
    25
100
AcDbLine
 10
0.0810080152
 20
0.1649707226
 30
0.0
 11
0.0810268178
 21
0.1648685146
 31
0.0
  0
LINE
  5
135
330
1F
100
AcDbEntity
  8
0
  6
Continuous
 62
     7
370
    25
100
AcDbLine
 10
0.0810871286
 20
0.16503811
 30
0.0
 11
0.0810080152
 21
0.1649707226
 31
0.0
  0
ARC
  5
136
330
1F
100
AcDbEntity
  8
0
  6
Continuous
 62
     7
370
    25
100
AcDbCircle
 10
0.0812038471
 20
0.1649010816
 30
0.0
 40
0.00018
100
AcDbArc
 50
190.4238110279
 51
250.4238110279
  0
LINE
  5
137
330
1F
100
AcDbEntity
  8
0
  6
Continuous
 62
     7
370
    25
100
AcDbLine
 10
0.0810456204
 20
0.1647663067
 30
0.0
 11
0.0811435363
 21
0.1647314862
 31
0.0
  0
LINE
  5
138
330
1F
100
AcDbEntity
  8
0
  6
Continuous
 62
     7
370
    25
100
AcDbLine
 10
0.0810268178
 20
0.1648685146
 30
0.0
 11
0.0810456204
 21
0.1647663067
 31
0.0
  0
CIRCLE
  5
139
330
1F
100
AcDbEntity
  8
0
  6
Continuous
 62
     7
370
    25
100
AcDbCircle
 10
0.0986638471
 20
0.1649010816
 30
0.0
 40
0.00017
  0
ARC
  5
13A
330
1F
100
AcDbEntity
  8
0
  6
Continuous
 62
     7
370
    25
100
AcDbCircle
 10
0.0986638471
 20
0.1649010816
 30
0.0
 40
0.00018
100
AcDbArc
 50
116.0023210129
 51
176.0023210129
  0
LINE
  5
13B
330
1F
100
AcDbEntity
  8
0
  6
Continuous
 62
     7
370
    25
100
AcDbLine
 10
0.0984915302
 20
0.1650173007
 30
0.0
 11
0.0984842851
 21
0.1649136305
 31
0.0
  0
LINE
  5
13C
330
1F
100
AcDbEntity
  8
0
  6
Continuous
 62
     7
370
    25
100
AcDbLine
 10
0.0985849338
 20
0.1650628614
 30
0.0
 11
0.0984915302
 21
0.1650173007
 31
0.0
  0
ARC
  5
13D
330
1F
100
AcDbEntity
  8
0
  6
Continuous
 62
     7
370
    25
100
AcDbCircle
 10
0.0986638471
 20
0.1649010816
 30
0.0
 40
0.00018
100
AcDbArc
 50
56.0023210129
 51
116.0023210129
  0
LINE
  5
13E
330
1F
100
AcDbEntity
  8
0
  6
Continuous
 62
     7
370
    25
100
AcDbLine
 10
0.0986783373
 20
0.165108422
 30
0.0
 11
0.0985849338
 21
0.1650628614
 31
0.0
  0
LINE
  5
13F
330
1F
100
AcDbEntity
  8
0
  6
Continuous
 62
     7
370
    25
100
AcDbLine
 10
0.0987644958
 20
0.1650503125
 30
0.0
 11
0.0986783373
 21
0.165108422
 31
0.0
  0
ARC
  5
140
330
1F
100
AcDbEntity
  8
0
  6
Continuous
 62
     7
370
    25
100
AcDbCircle
 10
0.0986638471
 20
0.1649010816
 30
0.0
 40
0.00018
100
AcDbArc
 50
176.0023210129
 51
236.0023210129
  0
LINE
  5
141
330
1F
100
AcDbEntity
  8
0
  6
Continuous
 62
     7
370
    25
100
AcDbLine
 10
0.09847704
 20
0.1648099603
 30
0.0
 11
0.0985631985
 21
0.1647518508
 31
0.0
  0
LINE
  5
142
330
1F
100
AcDbEntity
  8
0
  6
Continuous
 62
     7
370
    25
100
AcDbLine
 10
0.0984842851
 20
0.1649136305
 30
0.0
 11
0.09847704
 21
0.1648099603
 31
0.0
  0
LINE
  5
143
330
1F
100
AcDbEntity
  8
0
  6
Continuous
 62
     7
370
    25
100
AcDbLine
 10
0.0988434092
 20
0.1648885328
 30
0.0
 11
0.0988506543
 21
0.1649922029
 31
0.0
  0
ARC
  5
144
330
1F
100
AcDbEntity
  8
0
  6
Continuous
 62
     7
370
    25
100
AcDbCircle
 10
0.0986638471
 20
0.1649010816
 30
0.0
 40
0.00018
100
AcDbArc
 50
356.0023210129
 51
56.0023210129
  0
LINE
  5
145
330
1F
100
AcDbEntity
  8
0
  6
Continuous
 62
     7
370
    25
100
AcDbLine
 10
0.0988506543
 20
0.1649922029
 30
0.0
 11
0.0987644958
 21
0.1650503125
 31
0.0
  0
ARC
  5
146
330
1F
100
AcDbEntity
  8
0
  6
Continuous
 62
     7
370
    25
100
AcDbCircle
 10
0.0986638471
 20
0.1649010816
 30
0.0
 40
0.00018
100
AcDbArc
 50
236.0023210129
 51
296.0023210129
  0
LINE
  5
147
330
1F
100
AcDbEntity
  8
0
  6
Continuous
 62
     7
370
    25
100
AcDbLine
 10
0.0987427605
 20
0.1647393019
 30
0.0
 11
0.0986493569
 21
0.1646937413
 31
0.0
  0
LINE
  5
148
330
1F
100
AcDbEntity
  8
0
  6
Continuous
 62
     7
370
    25
100
AcDbLine
 10
0.0985631985
 20
0.1647518508
 30
0.0
 11
0.0986493569
 21
0.1646937413
 31
0.0
  0
ARC
  5
149
330
1F
100
AcDbEntity
  8
0
  6
Continuous
 62
     7
370
    25
100
AcDbCircle
 10
0.0986638471
 20
0.1649010816
 30
0.0
 40
0.00018
100
AcDbArc
 50
296.0023210129
 51
356.0023210129
  0
LINE
  5
14A
330
1F
100
AcDbEntity
  8
0
  6
Continuous
 62
     7
370
    25
100
AcDbLine
 10
0.0988361641
 20
0.1647848626
 30
0.0
 11
0.0987427605
 21
0.1647393019
 31
0.0
  0
LINE
  5
14B
330
1F
100
AcDbEntity
  8
0
  6
Continuous
 62
     7
370
    25
100
AcDbLine
 10
0.0988361641
 20
0.1647848626
 30
0.0
 11
0.0988434092
 21
0.1648885328
 31
0.0
  0
CIRCLE
  5
14C
330
1F
100
AcDbEntity
  8
0
  6
Continuous
 62
     7
370
    25
100
AcDbCircle
 10
0.1214638471
 20
0.1649010816
 30
0.0
 40
0.00017
  0
ARC
  5
14D
330
1F
100
AcDbEntity
  8
0
  6
Continuous
 62
     7
370
    25
100
AcDbCircle
 10
0.1214638471
 20
0.1649010816
 30
0.0
 40
0.00018
100
AcDbArc
 50
90.6182399357
 51
150.6182399357
  0
LINE
  5
14E
330
1F
100
AcDbEntity
  8
0
  6
Continuous
 62
     7
370
    25
100
AcDbLine
 10
0.1213579879
 20
0.1650799498
 30
0.0
 11
0.1213070005
 21
0.1649893944
 31
0.0
  0
LINE
  5
14F
330
1F
100
AcDbEntity
  8
0
  6
Continuous
 62
     7
370
    25
100
AcDbLine
 10
0.1214619049
 20
0.1650810712
 30
0.0
 11
0.1213579879
 21
0.1650799498
 31
0.0
  0
LINE
  5
150
330
1F
100
AcDbEntity
  8
0
  6
Continuous
 62
     7
370
    25
100
AcDbLine
 10
0.1216206937
 20
0.1648127689
 30
0.0
 11
0.1216716811
 21
0.1649033243
 31
0.0
  0
ARC
  5
151
330
1F
100
AcDbEntity
  8
0
  6
Continuous
 62
     7
370
    25
100
AcDbCircle
 10
0.1214638471
 20
0.1649010816
 30
0.0
 40
0.00018
100
AcDbArc
 50
330.6182399357
 51
30.6182399357
  0
LINE
  5
152
330
1F
100
AcDbEntity
  8
0
  6
Continuous
 62
     7
370
    25
100
AcDbLine
 10
0.1216716811
 20
0.1649033243
 30
0.0
 11
0.1216187515
 21
0.1649927584
 31
0.0
  0
ARC
  5
153
330
1F
100
AcDbEntity
  8
0
  6
Continuous
 62
     7
370
    25
100
AcDbCircle
 10
0.1214638471
 20
0.1649010816
 30
0.0
 40
0.00018
100
AcDbArc
 50
30.6182399357
 51
90.6182399357
  0
LINE
  5
154
330
1F
100
AcDbEntity
  8
0
  6
Continuous
 62
     7
370
    25
100
AcDbLine
 10
0.1215658219
 20
0.1650821925
 30
0.0
 11
0.1214619049
 21
0.1650810712
 31
0.0
  0
LINE
  5
155
330
1F
100
AcDbEntity
  8
0
  6
Continuous
 62
     7
370
    25
100
AcDbLine
 10
0.1216187515
 20
0.1649927584
 30
0.0
 11
0.1215658219
 21
0.1650821925
 31
0.0
  0
LINE
  5
156
330
1F
100
AcDbEntity
  8
0
  6
Continuous
 62
     7
370
    25
100
AcDbLine
 10
0.1215697064
 20
0.1647222135
 30
0.0
 11
0.1214657894
 21
0.1647210921
 31
0.0
  0
ARC
  5
157
330
1F
100
AcDbEntity
  8
0
  6
Continuous
 62
     7
370
    25
100
AcDbCircle
 10
0.1214638471
 20
0.1649010816
 30
0.0
 40
0.00018
100
AcDbArc
 50
270.6182399357
 51
330.6182399357
  0
LINE
  5
158
330
1F
100
AcDbEntity
  8
0
  6
Continuous
 62
     7
370
    25
100
AcDbLine
 10
0.1215697064
 20
0.1647222135
 30
0.0
 11
0.1216206937
 21
0.1648127689
 31
0.0
  0
ARC
  5
159
330
1F
100
AcDbEntity
  8
0
  6
Continuous
 62
     7
370
    25
100
AcDbCircle
 10
0.1214638471
 20
0.1649010816
 30
0.0
 40
0.00018
100
AcDbArc
 50
150.6182399357
 51
210.6182399357
  0
ARC
  5
15A
330
1F
100
AcDbEntity
  8
0
  6
Continuous
 62
     7
370
    25
100
AcDbCircle
 10
0.1214638471
 20
0.1649010816
 30
0.0
 40
0.00018
100
AcDbArc
 50
210.6182399357
 51
270.6182399357
  0
LINE
  5
15B
330
1F
100
AcDbEntity
  8
0
  6
Continuous
 62
     7
370
    25
100
AcDbLine
 10
0.1214657894
 20
0.1647210921
 30
0.0
 11
0.1213618724
 21
0.1647199708
 31
0.0
  0
LINE
  5
15C
330
1F
100
AcDbEntity
  8
0
  6
Continuous
 62
     7
370
    25
100
AcDbLine
 10
0.1213089427
 20
0.1648094049
 30
0.0
 11
0.1213618724
 21
0.1647199708
 31
0.0
  0
LINE
  5
15D
330
1F
100
AcDbEntity
  8
0
  6
Continuous
 62
     7
370
    25
100
AcDbLine
 10
0.1212560131
 20
0.164898839
 30
0.0
 11
0.1213089427
 21
0.1648094049
 31
0.0
  0
LINE
  5
15E
330
1F
100
AcDbEntity
  8
0
  6
Continuous
 62
     7
370
    25
100
AcDbLine
 10
0.1213070005
 20
0.1649893944
 30
0.0
 11
0.1212560131
 21
0.164898839
 31
0.0
  0
LWPOLYLINE
  5
15F
330
1F
100
AcDbEntity
  8
0
  6
Continuous
 62
     7
370
    25
100
AcDbPolyline
 90
        3
 70
   128
 43
0.0
 10
0.1083949501
 20
0.1656051866
 10
0.1083929666
 20
0.1655843108
 10
0.1083924911
 20
0.1655763019
  0
ARC
  5
160
330
1F
100
AcDbEntity
  8
0
  6
Continuous
 62
     7
370
    25
100
AcDbCircle
 10
0.1095636076
 20
0.1655482803
 30
0.0
 40
0.0011886592881352
100
AcDbArc
 50
172.6483397197
 51
182.1309578177
  0
LINE
  5
161
330
1F
100
AcDbEntity
  8
0
  6
Continuous
 62
     7
370
    25
100
AcDbLine
 10
0.1083856724
 20
0.1657065373
 30
0.0
 11
0.1083847197
 21
0.1657003799
 31
0.0
  0
ARC
  5
162
330
1F
100
AcDbEntity
  8
0
  6
Continuous
 62
     7
370
    25
100
AcDbCircle
 10
0.1094118229
 20
0.165550833
 30
0.0
 40
0.0011556713443566
100
AcDbArc
 50
172.5649266636
 51
181.4706891387
  0
LINE
  5
163
330
1F
100
AcDbEntity
  8
0
  6
Continuous
 62
     7
370
    25
100
AcDbLine
 10
0.108266821
 20
0.1657065373
 30
0.0
 11
0.1082658683
 21
0.1657003799
 31
0.0
  0
LINE
  5
164
330
1F
100
AcDbEntity
  8
0
  6
Continuous
 62
     7
370
    25
100
AcDbLine
 10
0.108266821
 20
0.1657065373
 30
0.0
 11
0.1083856724
 21
0.1657065373
 31
0.0
  0
LINE
  5
165
330
1F
100
AcDbEntity
  8
0
  6
Continuous
 62
     7
370
    25
100
AcDbLine
 10
0.10840917
 20
0.1657830738
 30
0.0
 11
0.1083856724
 21
0.1657065373
 31
0.0
  0
LINE
  5
166
330
1F
100
AcDbEntity
  8
0
  6
Continuous
 62
     7
370
    25
100
AcDbLine
 10
0.1082903187
 20
0.1657830738
 30
0.0
 11
0.108266821
 21
0.1657065373
 31
0.0
  0
LINE
  5
167
330
1F
100
AcDbEntity
  8
0
  6
Continuous
 62
     7
370
    25
100
AcDbLine
 10
0.108415962
 20
0.1656736266
 30
0.0
 11
0.1083949501
 21
0.1656051866
 31
0.0
  0
LINE
  5
168
330
1F
100
AcDbEntity
  8
0
  6
Continuous
 62
     7
370
    25
100
AcDbLine
 10
0.1084326677
 20
0.1658596103
 30
0.0
 11
0.10840917
 21
0.1657830738
 31
0.0
  0
LINE
  5
169
330
1F
100
AcDbEntity
  8
0
  6
Continuous
 62
     7
370
    25
100
AcDbLine
 10
0.1083138163
 20
0.1658596103
 30
0.0
 11
0.1082903187
 21
0.1657830738
 31
0.0
  0
LINE
  5
16A
330
1F
100
AcDbEntity
  8
0
  6
Continuous
 62
     7
370
    25
100
AcDbLine
 10
0.1083138163
 20
0.1658596103
 30
0.0
 11
0.1084326677
 21
0.1658596103
 31
0.0
  0
LINE
  5
16B
330
1F
100
AcDbEntity
  8
0
  6
Continuous
 62
     7
370
    25
100
AcDbLine
 10
0.108436974
 20
0.1657420665
 30
0.0
 11
0.108415962
 21
0.1656736266
 31
0.0
  0
ARC
  5
16C
330
1F
100
AcDbEntity
  8
0
  6
Continuous
 62
     7
370
    25
100
AcDbCircle
 10
0.1083443627
 20
0.1657792925
 30
0.0
 40
0.0001210301307359
100
AcDbArc
 50
347.3117168509
 51
42.2610475756
  0
LWPOLYLINE
  5
16D
330
1F
100
AcDbEntity
  8
0
  6
Continuous
 62
     7
370
    25
100
AcDbPolyline
 90
        3
 70
   128
 43
0.0
 10
0.10844176
 20
0.1657357274
 10
0.1084404458
 20
0.1657389601
 10
0.108436974
 20
0.1657420665
  0
LINE
  5
16E
330
1F
100
AcDbEntity
  8
0
  6
Continuous
 62
     7
370
    25
100
AcDbLine
 10
0.1084339357
 20
0.1658606864
 30
0.0
 11
0.1084326677
 21
0.1658596103
 31
0.0
  0
LINE
  5
16F
330
1F
100
AcDbEntity
  8
0
  6
Continuous
 62
     7
370
    25
100
AcDbLine
 10
0.1083198518
 20
0.1658618251
 30
0.0
 11
0.1083150844
 21
0.1658606864
 31
0.0
  0
LINE
  5
170
330
1F
100
AcDbEntity
  8
0
  6
Continuous
 62
     7
370
    25
100
AcDbLine
 10
0.1083150844
 20
0.1658606864
 30
0.0
 11
0.1083138163
 21
0.1658596103
 31
0.0
  0
LWPOLYLINE
  5
171
330
1F
100
AcDbEntity
  8
0
  6
Continuous
 62
     7
370
    25
100
AcDbPolyline
 90
        3
 70
   128
 43
0.0
 10
0.1084444446
 20
0.1657444714
 10
0.1084521581
 20
0.1657474888
 10
0.1084679072
 20
0.1657563735
  0
LINE
  5
172
330
1F
100
AcDbEntity
  8
0
  6
Continuous
 62
     7
370
    25
100
AcDbLine
 10
0.1085804034
 20
0.1657446602
 30
0.0
 11
0.1085842728
 21
0.165748277
 31
0.0
  0
ARC
  5
173
330
1F
100
AcDbEntity
  8
0
  6
Continuous
 62
     7
370
    25
100
AcDbCircle
 10
0.108283815
 20
0.1658111149
 30
0.0
 40
0.0001151711397806
100
AcDbArc
 50
215.2403543759
 51
260.8096058168
  0
ARC
  5
174
330
1F
100
AcDbEntity
  8
0
  6
Continuous
 62
     7
370
    25
100
AcDbCircle
 10
0.1084029155
 20
0.1659929448
 30
0.0
 40
0.0003052002280565
100
AcDbArc
 50
273.2938214982
 51
305.5593386268
  0
LINE
  5
175
330
1F
100
AcDbEntity
  8
0
  6
Continuous
 62
     7
370
    25
100
AcDbLine
 10
0.1081881016
 20
0.165748277
 30
0.0
 11
0.1081897503
 21
0.1657446602
 31
0.0
  0
LINE
  5
176
330
1F
100
AcDbEntity
  8
0
  6
Continuous
 62
     7
370
    25
100
AcDbLine
 10
0.1085910649
 20
0.1656388297
 30
0.0
 11
0.1085842728
 21
0.165748277
 31
0.0
  0
LINE
  5
177
330
1F
100
AcDbEntity
  8
0
  6
Continuous
 62
     7
370
    25
100
AcDbLine
 10
0.1085871955
 20
0.165635213
 30
0.0
 11
0.1085910649
 21
0.1656388297
 31
0.0
  0
LWPOLYLINE
  5
178
330
1F
100
AcDbEntity
  8
0
  6
Continuous
 62
     7
370
    25
100
AcDbPolyline
 90
        3
 70
   128
 43
0.0
 10
0.1081965423
 20
0.165635213
 10
0.108207505
 20
0.1656200573
 10
0.1082233231
 20
0.1656078813
  0
ARC
  5
179
330
1F
100
AcDbEntity
  8
0
  6
Continuous
 62
     7
370
    25
100
AcDbCircle
 10
0.1084454813
 20
0.1658133954
 30
0.0
 40
0.0002276661340048
100
AcDbArc
 50
283.427373831
 51
308.4963464775
  0
LINE
  5
17A
330
1F
100
AcDbEntity
  8
0
  6
Continuous
 62
     7
370
    25
100
AcDbLine
 10
0.1081948937
 20
0.1656388297
 30
0.0
 11
0.1081965423
 21
0.165635213
 31
0.0
  0
LINE
  5
17B
330
1F
100
AcDbEntity
  8
0
  6
Continuous
 62
     7
370
    25
100
AcDbLine
 10
0.1081948937
 20
0.1656388297
 30
0.0
 11
0.1081881016
 21
0.165748277
 31
0.0
  0
LINE
  5
17C
330
1F
100
AcDbEntity
  8
0
  6
Continuous
 62
     7
370
    25
100
AcDbLine
 10
0.1085842728
 20
0.165748277
 30
0.0
 11
0.1086312681
 21
0.16590135
 31
0.0
  0
LINE
  5
17D
330
1F
100
AcDbEntity
  8
0
  6
Continuous
 62
     7
370
    25
100
AcDbLine
 10
0.1086380601
 20
0.1657919027
 30
0.0
 11
0.1086312681
 21
0.16590135
 31
0.0
  0
LINE
  5
17E
330
1F
100
AcDbEntity
  8
0
  6
Continuous
 62
     7
370
    25
100
AcDbLine
 10
0.1085910649
 20
0.1656388297
 30
0.0
 11
0.1086380601
 21
0.1657919027
 31
0.0
  0
LINE
  5
17F
330
1F
100
AcDbEntity
  8
0
  6
Continuous
 62
     7
370
    25
100
AcDbLine
 10
0.1084679072
 20
0.1657563735
 30
0.0
 11
0.108509931
 21
0.1658932535
 31
0.0
  0
LINE
  5
180
330
1F
100
AcDbEntity
  8
0
  6
Continuous
 62
     7
370
    25
100
AcDbLine
 10
0.1082115993
 20
0.1658248135
 30
0.0
 11
0.1081881016
 21
0.165748277
 31
0.0
  0
LINE
  5
181
330
1F
100
AcDbEntity
  8
0
  6
Continuous
 62
     7
370
    25
100
AcDbLine
 10
0.1083514626
 20
0.1658932535
 30
0.0
 11
0.1083418138
 21
0.1658618254
 31
0.0
  0
LINE
  5
182
330
1F
100
AcDbEntity
  8
0
  6
Continuous
 62
     7
370
    25
100
AcDbLine
 10
0.1083534129
 20
0.1658618254
 30
0.0
 11
0.1083514626
 21
0.1658932535
 31
0.0
  0
LINE
  5
183
330
1F
100
AcDbEntity
  8
0
  6
Continuous
 62
     7
370
    25
100
AcDbLine
 10
0.1082350969
 20
0.16590135
 30
0.0
 11
0.1082115993
 21
0.1658248135
 31
0.0
  0
ARC
  5
184
330
1F
100
AcDbEntity
  8
0
  6
Continuous
 62
     7
370
    25
100
AcDbCircle
 10
0.1085033508
 20
0.1657918637
 30
0.0
 40
0.0001695172414246
100
AcDbArc
 50
41.851854854
 51
89.6773676524
  0
ARC
  5
185
330
1F
100
AcDbEntity
  8
0
  6
Continuous
 62
     7
370
    25
100
AcDbCircle
 10
0.1083979365
 20
0.1656957291
 30
0.0
 40
0.0002627773439471
100
AcDbArc
 50
97.7532720641
 51
127.2260645187
  0
LINE
  5
186
330
1F
100
AcDbEntity
  8
0
  6
Continuous
 62
     7
370
    25
100
AcDbLine
 10
0.1086312681
 20
0.16590135
 30
0.0
 11
0.1086296195
 21
0.1659049668
 31
0.0
  0
LWPOLYLINE
  5
187
330
1F
100
AcDbEntity
  8
0
  6
Continuous
 62
     7
370
    25
100
AcDbPolyline
 90
        3
 70
   128
 43
0.0
 10
0.108509931
 20
0.1658932535
 10
0.1084996373
 20
0.1659021382
 10
0.1084937766
 20
0.1659051556
  0
LINE
  5
188
330
1F
100
AcDbEntity
  8
0
  6
Continuous
 62
     7
370
    25
100
AcDbLine
 10
0.1083608695
 20
0.1658991207
 30
0.0
 11
0.1083514626
 21
0.1658932535
 31
0.0
  0
LINE
  5
189
330
1F
100
AcDbEntity
  8
0
  6
Continuous
 62
     7
370
    25
100
AcDbLine
 10
0.1082389663
 20
0.1659049668
 30
0.0
 11
0.1082350969
 21
0.16590135
 31
0.0
  0
LWPOLYLINE
  5
18A
330
1F
100
AcDbEntity
  8
0
  6
Continuous
 62
     7
370
    25
100
AcDbPolyline
 90
        3
 70
   128
 43
0.0
 10
0.1085489349
 20
0.1660848174
 10
0.1085566484
 20
0.1660878348
 10
0.1085723976
 20
0.1660967195
  0
LINE
  5
18B
330
1F
100
AcDbEntity
  8
0
  6
Continuous
 62
     7
370
    25
100
AcDbLine
 10
0.1086848938
 20
0.1660850062
 30
0.0
 11
0.1086887632
 21
0.166088623
 31
0.0
  0
ARC
  5
18C
330
1F
100
AcDbEntity
  8
0
  6
Continuous
 62
     7
370
    25
100
AcDbCircle
 10
0.1083883053
 20
0.1661514608
 30
0.0
 40
0.0001151711397852
100
AcDbArc
 50
215.2403543764
 51
260.8096058192
  0
ARC
  5
18D
330
1F
100
AcDbEntity
  8
0
  6
Continuous
 62
     7
370
    25
100
AcDbCircle
 10
0.1085074059
 20
0.1663332907
 30
0.0
 40
0.0003052002280565
100
AcDbArc
 50
273.2938214982
 51
305.5593386268
  0
LINE
  5
18E
330
1F
100
AcDbEntity
  8
0
  6
Continuous
 62
     7
370
    25
100
AcDbLine
 10
0.108292592
 20
0.166088623
 30
0.0
 11
0.1082942406
 21
0.1660850062
 31
0.0
  0
LINE
  5
18F
330
1F
100
AcDbEntity
  8
0
  6
Continuous
 62
     7
370
    25
100
AcDbLine
 10
0.1086955552
 20
0.1659791757
 30
0.0
 11
0.1086887632
 21
0.166088623
 31
0.0
  0
LINE
  5
190
330
1F
100
AcDbEntity
  8
0
  6
Continuous
 62
     7
370
    25
100
AcDbLine
 10
0.1086916858
 20
0.1659755589
 30
0.0
 11
0.1086955552
 21
0.1659791757
 31
0.0
  0
LWPOLYLINE
  5
191
330
1F
100
AcDbEntity
  8
0
  6
Continuous
 62
     7
370
    25
100
AcDbPolyline
 90
        3
 70
   128
 43
0.0
 10
0.1083010326
 20
0.1659755589
 10
0.1083119953
 20
0.1659604033
 10
0.1083278135
 20
0.1659482273
  0
ARC
  5
192
330
1F
100
AcDbEntity
  8
0
  6
Continuous
 62
     7
370
    25
100
AcDbCircle
 10
0.1085499717
 20
0.1661537413
 30
0.0
 40
0.0002276661340088
100
AcDbArc
 50
283.42737383
 51
308.4963464774
  0
LINE
  5
193
330
1F
100
AcDbEntity
  8
0
  6
Continuous
 62
     7
370
    25
100
AcDbLine
 10
0.108299384
 20
0.1659791757
 30
0.0
 11
0.1083010326
 21
0.1659755589
 31
0.0
  0
LINE
  5
194
330
1F
100
AcDbEntity
  8
0
  6
Continuous
 62
     7
370
    25
100
AcDbLine
 10
0.108299384
 20
0.1659791757
 30
0.0
 11
0.108292592
 21
0.166088623
 31
0.0
  0
LINE
  5
195
330
1F
100
AcDbEntity
  8
0
  6
Continuous
 62
     7
370
    25
100
AcDbLine
 10
0.1086887632
 20
0.166088623
 30
0.0
 11
0.1087341085
 21
0.1662363214
 31
0.0
  0
LINE
  5
196
330
1F
100
AcDbEntity
  8
0
  6
Continuous
 62
     7
370
    25
100
AcDbLine
 10
0.1086955552
 20
0.1659791757
 30
0.0
 11
0.1087341085
 21
0.1661047512
 31
0.0
  0
LINE
  5
197
330
1F
100
AcDbEntity
  8
0
  6
Continuous
 62
     7
370
    25
100
AcDbLine
 10
0.1085723976
 20
0.1660967195
 30
0.0
 11
0.1086129487
 21
0.1662288026
 31
0.0
  0
LINE
  5
198
330
1F
100
AcDbEntity
  8
0
  6
Continuous
 62
     7
370
    25
100
AcDbLine
 10
0.1083160897
 20
0.1661651595
 30
0.0
 11
0.108292592
 21
0.166088623
 31
0.0
  0
LINE
  5
199
330
1F
100
AcDbEntity
  8
0
  6
Continuous
 62
     7
370
    25
100
AcDbLine
 10
0.1084514024
 20
0.1662187774
 30
0.0
 11
0.1084463041
 21
0.1662021714
 31
0.0
  0
LINE
  5
19A
330
1F
100
AcDbEntity
  8
0
  6
Continuous
 62
     7
370
    25
100
AcDbLine
 10
0.1083338441
 20
0.1662229893
 30
0.0
 11
0.1083160897
 21
0.1661651595
 31
0.0
  0
LWPOLYLINE
  5
19B
330
1F
100
AcDbEntity
  8
0
  6
Continuous
 62
     7
370
    25
100
AcDbPolyline
 90
        3
 70
   128
 43
0.0
 10
0.1084994405
 20
0.1659455325
 10
0.1084974569
 20
0.1659246567
 10
0.1084969815
 20
0.1659166478
  0
ARC
  5
19C
330
1F
100
AcDbEntity
  8
0
  6
Continuous
 62
     7
370
    25
100
AcDbCircle
 10
0.1097453523
 20
0.1658841299
 30
0.0
 40
0.0012658656240678
100
AcDbArc
 50
172.8939306285
 51
183.6908598411
  0
LINE
  5
19D
330
1F
100
AcDbEntity
  8
0
  6
Continuous
 62
     7
370
    25
100
AcDbLine
 10
0.1084901628
 20
0.1660468833
 30
0.0
 11
0.10848921
 21
0.1660407258
 31
0.0
  0
ARC
  5
19E
330
1F
100
AcDbEntity
  8
0
  6
Continuous
 62
     7
370
    25
100
AcDbCircle
 10
0.1095163133
 20
0.1658911789
 30
0.0
 40
0.0011556713443546
100
AcDbArc
 50
172.5649266635
 51
181.4706891387
  0
LINE
  5
19F
330
1F
100
AcDbEntity
  8
0
  6
Continuous
 62
     7
370
    25
100
AcDbLine
 10
0.1083713114
 20
0.1660468833
 30
0.0
 11
0.1083703587
 21
0.1660407258
 31
0.0
  0
LINE
  5
1A0
330
1F
100
AcDbEntity
  8
0
  6
Continuous
 62
     7
370
    25
100
AcDbLine
 10
0.1083713114
 20
0.1660468833
 30
0.0
 11
0.1084901628
 21
0.1660468833
 31
0.0
  0
LINE
  5
1A1
330
1F
100
AcDbEntity
  8
0
  6
Continuous
 62
     7
370
    25
100
AcDbLine
 10
0.1085136604
 20
0.1661234198
 30
0.0
 11
0.1084901628
 21
0.1660468833
 31
0.0
  0
LINE
  5
1A2
330
1F
100
AcDbEntity
  8
0
  6
Continuous
 62
     7
370
    25
100
AcDbLine
 10
0.108394809
 20
0.1661234198
 30
0.0
 11
0.1083713114
 21
0.1660468833
 31
0.0
  0
LINE
  5
1A3
330
1F
100
AcDbEntity
  8
0
  6
Continuous
 62
     7
370
    25
100
AcDbLine
 10
0.1085204524
 20
0.1660139725
 30
0.0
 11
0.1084994405
 21
0.1659455325
 31
0.0
  0
LINE
  5
1A4
330
1F
100
AcDbEntity
  8
0
  6
Continuous
 62
     7
370
    25
100
AcDbLine
 10
0.108537158
 20
0.1661999563
 30
0.0
 11
0.1085136604
 21
0.1661234198
 31
0.0
  0
LINE
  5
1A5
330
1F
100
AcDbEntity
  8
0
  6
Continuous
 62
     7
370
    25
100
AcDbLine
 10
0.1084183067
 20
0.1661999563
 30
0.0
 11
0.108394809
 21
0.1661234198
 31
0.0
  0
LINE
  5
1A6
330
1F
100
AcDbEntity
  8
0
  6
Continuous
 62
     7
370
    25
100
AcDbLine
 10
0.1084183067
 20
0.1661999563
 30
0.0
 11
0.108537158
 21
0.1661999563
 31
0.0
  0
LINE
  5
1A7
330
1F
100
AcDbEntity
  8
0
  6
Continuous
 62
     7
370
    25
100
AcDbLine
 10
0.1085414643
 20
0.1660824125
 30
0.0
 11
0.1085204524
 21
0.1660139725
 31
0.0
  0
ARC
  5
1A8
330
1F
100
AcDbEntity
  8
0
  6
Continuous
 62
     7
370
    25
100
AcDbCircle
 10
0.1084488531
 20
0.1661196384
 30
0.0
 40
0.0001210301306681
100
AcDbArc
 50
347.3117168628
 51
42.2610475787
  0
LWPOLYLINE
  5
1A9
330
1F
100
AcDbEntity
  8
0
  6
Continuous
 62
     7
370
    25
100
AcDbPolyline
 90
        3
 70
   128
 43
0.0
 10
0.1085462504
 20
0.1660760734
 10
0.1085449362
 20
0.1660793061
 10
0.1085414643
 20
0.1660824125
  0
LINE
  5
1AA
330
1F
100
AcDbEntity
  8
0
  6
Continuous
 62
     7
370
    25
100
AcDbLine
 10
0.1085384261
 20
0.1662010324
 30
0.0
 11
0.108537158
 21
0.1661999563
 31
0.0
  0
LINE
  5
1AB
330
1F
100
AcDbEntity
  8
0
  6
Continuous
 62
     7
370
    25
100
AcDbLine
 10
0.1084243422
 20
0.1662021711
 30
0.0
 11
0.1084195747
 21
0.1662010324
 31
0.0
  0
LINE
  5
1AC
330
1F
100
AcDbEntity
  8
0
  6
Continuous
 62
     7
370
    25
100
AcDbLine
 10
0.1084195747
 20
0.1662010324
 30
0.0
 11
0.1084183067
 21
0.1661999563
 31
0.0
  0
LINE
  5
1AD
330
1F
100
AcDbEntity
  8
0
  6
Continuous
 62
     7
370
    25
100
AcDbLine
 10
0.1085093019
 20
0.1655040816
 30
0.0
 11
0.1085267778
 21
0.1655610041
 31
0.0
  0
LINE
  5
1AE
330
1F
100
AcDbEntity
  8
0
  6
Continuous
 62
     7
370
    25
100
AcDbLine
 10
0.1085303102
 20
0.1655040816
 30
0.0
 11
0.1085267778
 21
0.1655610041
 31
0.0
  0
LINE
  5
1AF
330
1F
100
AcDbEntity
  8
0
  6
Continuous
 62
     7
370
    25
100
AcDbLine
 10
0.1083904505
 20
0.1655040816
 30
0.0
 11
0.1084054407
 21
0.1655529075
 31
0.0
  0
LINE
  5
1B0
330
1F
100
AcDbEntity
  8
0
  6
Continuous
 62
     7
370
    25
100
AcDbLine
 10
0.1082469722
 20
0.1655529075
 30
0.0
 11
0.1082373234
 21
0.1655214795
 31
0.0
  0
LINE
  5
1B1
330
1F
100
AcDbEntity
  8
0
  6
Continuous
 62
     7
370
    25
100
AcDbLine
 10
0.1082489225
 20
0.1655214795
 30
0.0
 11
0.1082469722
 21
0.1655529075
 31
0.0
  0
LINE
  5
1B2
330
1F
100
AcDbEntity
  8
0
  6
Continuous
 62
     7
370
    25
100
AcDbLine
 10
0.1081306066
 20
0.1655610041
 30
0.0
 11
0.1081131307
 21
0.1655040816
 31
0.0
  0
ARC
  5
1B3
330
1F
100
AcDbEntity
  8
0
  6
Continuous
 62
     7
370
    25
100
AcDbCircle
 10
0.1083988604
 20
0.1654515178
 30
0.0
 40
0.0001695172414246
100
AcDbArc
 50
41.851854854
 51
89.6773676524
  0
ARC
  5
1B4
330
1F
100
AcDbEntity
  8
0
  6
Continuous
 62
     7
370
    25
100
AcDbCircle
 10
0.1082934461
 20
0.1653553831
 30
0.0
 40
0.0002627773439657
100
AcDbArc
 50
97.7532720599
 51
127.2260645182
  0
LINE
  5
1B5
330
1F
100
AcDbEntity
  8
0
  6
Continuous
 62
     7
370
    25
100
AcDbLine
 10
0.1085267778
 20
0.1655610041
 30
0.0
 11
0.1085251291
 21
0.1655646208
 31
0.0
  0
LWPOLYLINE
  5
1B6
330
1F
100
AcDbEntity
  8
0
  6
Continuous
 62
     7
370
    25
100
AcDbPolyline
 90
        3
 70
   128
 43
0.0
 10
0.1084054407
 20
0.1655529075
 10
0.1083951469
 20
0.1655617922
 10
0.1083892862
 20
0.1655648096
  0
LINE
  5
1B7
330
1F
100
AcDbEntity
  8
0
  6
Continuous
 62
     7
370
    25
100
AcDbLine
 10
0.1082563791
 20
0.1655587747
 30
0.0
 11
0.1082469722
 21
0.1655529075
 31
0.0
  0
LINE
  5
1B8
330
1F
100
AcDbEntity
  8
0
  6
Continuous
 62
     7
370
    25
100
AcDbLine
 10
0.108134476
 20
0.1655646208
 30
0.0
 11
0.1081306066
 21
0.1655610041
 31
0.0
  0
LINE
  5
1B9
330
1F
100
AcDbEntity
  8
0
  6
Continuous
 62
     7
370
    25
100
AcDbLine
 10
0.1083281773
 20
0.1655192644
 30
0.0
 11
0.108323516
 21
0.1655040816
 31
0.0
  0
LINE
  5
1BA
330
1F
100
AcDbEntity
  8
0
  6
Continuous
 62
     7
370
    25
100
AcDbLine
 10
0.1082093259
 20
0.1655192644
 30
0.0
 11
0.1082046647
 21
0.1655040816
 31
0.0
  0
LINE
  5
1BB
330
1F
100
AcDbEntity
  8
0
  6
Continuous
 62
     7
370
    25
100
AcDbLine
 10
0.1082093259
 20
0.1655192644
 30
0.0
 11
0.1083281773
 21
0.1655192644
 31
0.0
  0
LWPOLYLINE
  5
1BC
330
1F
100
AcDbEntity
  8
0
  6
Continuous
 62
     7
370
    25
100
AcDbPolyline
 90
        4
 70
   128
 43
0.0
 10
0.10834431
 20
0.1655040816
 10
0.1083404521
 20
0.1655141083
 10
0.1083349907
 20
0.165521116
 10
0.1083294454
 20
0.1655203405
  0
LINE
  5
1BD
330
1F
100
AcDbEntity
  8
0
  6
Continuous
 62
     7
370
    25
100
AcDbLine
 10
0.1083294454
 20
0.1655203405
 30
0.0
 11
0.1083281773
 21
0.1655192644
 31
0.0
  0
LINE
  5
1BE
330
1F
100
AcDbEntity
  8
0
  6
Continuous
 62
     7
370
    25
100
AcDbLine
 10
0.1082153614
 20
0.1655214792
 30
0.0
 11
0.108210594
 21
0.1655203405
 31
0.0
  0
LINE
  5
1BF
330
1F
100
AcDbEntity
  8
0
  6
Continuous
 62
     7
370
    25
100
AcDbLine
 10
0.108210594
 20
0.1655203405
 30
0.0
 11
0.1082093259
 21
0.1655192644
 31
0.0
  0
ARC
  5
1C0
330
1F
100
AcDbEntity
  8
0
  6
Continuous
 62
     7
370
    25
100
AcDbCircle
 10
0.108450857
 20
0.16376691
 30
0.0
 40
0.0003052002280516
100
AcDbArc
 50
54.440661373
 51
86.706178502
  0
ARC
  5
1C1
330
1F
100
AcDbEntity
  8
0
  6
Continuous
 62
     7
370
    25
100
AcDbCircle
 10
0.1083316574
 20
0.1639488411
 30
0.0
 40
0.0001150318241489
100
AcDbArc
 50
99.2651337185
 51
144.7723321005
  0
LINE
  5
1C2
330
1F
100
AcDbEntity
  8
0
  6
Continuous
 62
     7
370
    25
100
AcDbLine
 10
0.1086322143
 20
0.1640115778
 30
0.0
 11
0.1086283449
 21
0.1640151946
 31
0.0
  0
LWPOLYLINE
  5
1C3
330
1F
100
AcDbEntity
  8
0
  6
Continuous
 62
     7
370
    25
100
AcDbPolyline
 90
        3
 70
   128
 43
0.0
 10
0.1085158487
 20
0.1640034813
 10
0.1085000996
 20
0.164012366
 10
0.1084923861
 20
0.1640153834
  0
LINE
  5
1C4
330
1F
100
AcDbEntity
  8
0
  6
Continuous
 62
     7
370
    25
100
AcDbLine
 10
0.1082376917
 20
0.1640151946
 30
0.0
 11
0.1082360431
 21
0.1640115778
 31
0.0
  0
ARC
  5
1C5
330
1F
100
AcDbEntity
  8
0
  6
Continuous
 62
     7
370
    25
100
AcDbCircle
 10
0.1084934228
 20
0.1639464595
 30
0.0
 40
0.0002276661340043
100
AcDbArc
 50
51.5036535226
 51
76.5726261676
  0
LWPOLYLINE
  5
1C6
330
1F
100
AcDbEntity
  8
0
  6
Continuous
 62
     7
370
    25
100
AcDbPolyline
 90
        3
 70
   128
 43
0.0
 10
0.1082712646
 20
0.1641519735
 10
0.1082554465
 20
0.1641397975
 10
0.1082444838
 20
0.1641246419
  0
LINE
  5
1C7
330
1F
100
AcDbEntity
  8
0
  6
Continuous
 62
     7
370
    25
100
AcDbLine
 10
0.1086390063
 20
0.1641210251
 30
0.0
 11
0.1086351369
 21
0.1641246419
 31
0.0
  0
LINE
  5
1C8
330
1F
100
AcDbEntity
  8
0
  6
Continuous
 62
     7
370
    25
100
AcDbLine
 10
0.1086390063
 20
0.1641210251
 30
0.0
 11
0.1086322143
 21
0.1640115778
 31
0.0
  0
LINE
  5
1C9
330
1F
100
AcDbEntity
  8
0
  6
Continuous
 62
     7
370
    25
100
AcDbLine
 10
0.1082428351
 20
0.1641210251
 30
0.0
 11
0.1082360431
 21
0.1640115778
 31
0.0
  0
LINE
  5
1CA
330
1F
100
AcDbEntity
  8
0
  6
Continuous
 62
     7
370
    25
100
AcDbLine
 10
0.1082444838
 20
0.1641246419
 30
0.0
 11
0.1082428351
 21
0.1641210251
 31
0.0
  0
LINE
  5
1CB
330
1F
100
AcDbEntity
  8
0
  6
Continuous
 62
     7
370
    25
100
AcDbLine
 10
0.1086860016
 20
0.1639679521
 30
0.0
 11
0.1086792096
 21
0.1638585048
 31
0.0
  0
LINE
  5
1CC
330
1F
100
AcDbEntity
  8
0
  6
Continuous
 62
     7
370
    25
100
AcDbLine
 10
0.1086792096
 20
0.1638585048
 30
0.0
 11
0.1086322143
 21
0.1640115778
 31
0.0
  0
LINE
  5
1CD
330
1F
100
AcDbEntity
  8
0
  6
Continuous
 62
     7
370
    25
100
AcDbLine
 10
0.1086860016
 20
0.1639679521
 30
0.0
 11
0.1086390063
 21
0.1641210251
 31
0.0
  0
LINE
  5
1CE
330
1F
100
AcDbEntity
  8
0
  6
Continuous
 62
     7
370
    25
100
AcDbLine
 10
0.1085578725
 20
0.1638666013
 30
0.0
 11
0.1085158487
 21
0.1640034813
 31
0.0
  0
LINE
  5
1CF
330
1F
100
AcDbEntity
  8
0
  6
Continuous
 62
     7
370
    25
100
AcDbLine
 10
0.1082360431
 20
0.1640115778
 30
0.0
 11
0.1082595408
 21
0.1639350413
 31
0.0
  0
LINE
  5
1D0
330
1F
100
AcDbEntity
  8
0
  6
Continuous
 62
     7
370
    25
100
AcDbLine
 10
0.1083892979
 20
0.163899519
 30
0.0
 11
0.1083994041
 21
0.1638666013
 31
0.0
  0
LINE
  5
1D1
330
1F
100
AcDbEntity
  8
0
  6
Continuous
 62
     7
370
    25
100
AcDbLine
 10
0.1082595408
 20
0.1639350413
 30
0.0
 11
0.1082830384
 21
0.1638585048
 31
0.0
  0
LINE
  5
1D2
330
1F
100
AcDbEntity
  8
0
  6
Continuous
 62
     7
370
    25
100
AcDbLine
 10
0.1084014468
 20
0.163899519
 30
0.0
 11
0.1083994041
 21
0.1638666013
 31
0.0
  0
LINE
  5
1D3
330
1F
100
AcDbEntity
  8
0
  6
Continuous
 62
     7
370
    25
100
AcDbLine
 10
0.1083994041
 20
0.1638666013
 30
0.0
 11
0.1084083648
 21
0.1638609693
 31
0.0
  0
LWPOLYLINE
  5
1D4
330
1F
100
AcDbEntity
  8
0
  6
Continuous
 62
     7
370
    25
100
AcDbPolyline
 90
        3
 70
   128
 43
0.0
 10
0.1085417181
 20
0.1638546993
 10
0.1085475788
 20
0.1638577166
 10
0.1085578725
 20
0.1638666013
  0
LINE
  5
1D5
330
1F
100
AcDbEntity
  8
0
  6
Continuous
 62
     7
370
    25
100
AcDbLine
 10
0.108677561
 20
0.1638548881
 30
0.0
 11
0.1086792096
 21
0.1638585048
 31
0.0
  0
ARC
  5
1D6
330
1F
100
AcDbEntity
  8
0
  6
Continuous
 62
     7
370
    25
100
AcDbCircle
 10
0.1084498767
 20
0.1640738625
 30
0.0
 40
0.000272962748308
100
AcDbArc
 50
233.3420088637
 51
261.6083586688
  0
ARC
  5
1D7
330
1F
100
AcDbEntity
  8
0
  6
Continuous
 62
     7
370
    25
100
AcDbCircle
 10
0.1085512923
 20
0.1639679911
 30
0.0
 40
0.0001695172414251
100
AcDbArc
 50
270.3226323476
 51
318.1481451459
  0
LINE
  5
1D8
330
1F
100
AcDbEntity
  8
0
  6
Continuous
 62
     7
370
    25
100
AcDbLine
 10
0.1082830384
 20
0.1638585048
 30
0.0
 11
0.1082869078
 21
0.1638548881
 31
0.0
  0
ARC
  5
1D9
330
1F
100
AcDbEntity
  8
0
  6
Continuous
 62
     7
370
    25
100
AcDbCircle
 10
0.1097443906
 20
0.1638757703
 30
0.0
 40
0.001217621670741
100
AcDbArc
 50
176.0945714043
 51
187.320638126
  0
LINE
  5
1DA
330
1F
100
AcDbEntity
  8
0
  6
Continuous
 62
     7
370
    25
100
AcDbLine
 10
0.108544704
 20
0.1639094938
 30
0.0
 11
0.1085438879
 21
0.163889665
 31
0.0
  0
LWPOLYLINE
  5
1DB
330
1F
100
AcDbEntity
  8
0
  6
Continuous
 62
     7
370
    25
100
AcDbPolyline
 90
        3
 70
   128
 43
0.0
 10
0.1085444026
 20
0.1638459552
 10
0.1085449411
 20
0.1638366877
 10
0.1085469247
 20
0.1638158119
  0
LINE
  5
1DC
330
1F
100
AcDbEntity
  8
0
  6
Continuous
 62
     7
370
    25
100
AcDbLine
 10
0.1085366942
 20
0.1637206186
 30
0.0
 11
0.1085376469
 21
0.1637144612
 31
0.0
  0
ARC
  5
1DD
330
1F
100
AcDbEntity
  8
0
  6
Continuous
 62
     7
370
    25
100
AcDbCircle
 10
0.1095343435
 20
0.1638686208
 30
0.0
 40
0.0011262673949608
100
AcDbArc
 50
178.4199074752
 51
187.5510445893
  0
LINE
  5
1DE
330
1F
100
AcDbEntity
  8
0
  6
Continuous
 62
     7
370
    25
100
AcDbLine
 10
0.1084187956
 20
0.1637144612
 30
0.0
 11
0.1085376469
 21
0.1637144612
 31
0.0
  0
LINE
  5
1DF
330
1F
100
AcDbEntity
  8
0
  6
Continuous
 62
     7
370
    25
100
AcDbLine
 10
0.1084178428
 20
0.1637206186
 30
0.0
 11
0.1084187956
 21
0.1637144612
 31
0.0
  0
LINE
  5
1E0
330
1F
100
AcDbEntity
  8
0
  6
Continuous
 62
     7
370
    25
100
AcDbLine
 10
0.1085469247
 20
0.1638158119
 30
0.0
 11
0.1085679366
 21
0.1637473719
 31
0.0
  0
LINE
  5
1E1
330
1F
100
AcDbEntity
  8
0
  6
Continuous
 62
     7
370
    25
100
AcDbLine
 10
0.1085376469
 20
0.1637144612
 30
0.0
 11
0.1085611446
 21
0.1636379247
 31
0.0
  0
LINE
  5
1E2
330
1F
100
AcDbEntity
  8
0
  6
Continuous
 62
     7
370
    25
100
AcDbLine
 10
0.1084187956
 20
0.1637144612
 30
0.0
 11
0.1084422932
 21
0.1636379247
 31
0.0
  0
LINE
  5
1E3
330
1F
100
AcDbEntity
  8
0
  6
Continuous
 62
     7
370
    25
100
AcDbLine
 10
0.1085679366
 20
0.1637473719
 30
0.0
 11
0.1085889485
 21
0.163678932
 31
0.0
  0
LINE
  5
1E4
330
1F
100
AcDbEntity
  8
0
  6
Continuous
 62
     7
370
    25
100
AcDbLine
 10
0.1085611446
 20
0.1636379247
 30
0.0
 11
0.1085846422
 21
0.1635613882
 31
0.0
  0
LINE
  5
1E5
330
1F
100
AcDbEntity
  8
0
  6
Continuous
 62
     7
370
    25
100
AcDbLine
 10
0.1084657908
 20
0.1635613882
 30
0.0
 11
0.1085846422
 21
0.1635613882
 31
0.0
  0
LINE
  5
1E6
330
1F
100
AcDbEntity
  8
0
  6
Continuous
 62
     7
370
    25
100
AcDbLine
 10
0.1084422932
 20
0.1636379247
 30
0.0
 11
0.1084657908
 21
0.1635613882
 31
0.0
  0
LWPOLYLINE
  5
1E7
330
1F
100
AcDbEntity
  8
0
  6
Continuous
 62
     7
370
    25
100
AcDbPolyline
 90
        3
 70
   128
 43
0.0
 10
0.1085889485
 20
0.163678932
 10
0.1085924203
 20
0.1636820384
 10
0.1085927554
 20
0.1636827468
  0
LWPOLYLINE
  5
1E8
330
1F
100
AcDbEntity
  8
0
  6
Continuous
 62
     7
370
    25
100
AcDbPolyline
 90
        3
 70
   128
 43
0.0
 10
0.1085859103
 20
0.1635603121
 10
0.1085914556
 20
0.1635595365
 10
0.1085927554
 20
0.1635604897
  0
LINE
  5
1E9
330
1F
100
AcDbEntity
  8
0
  6
Continuous
 62
     7
370
    25
100
AcDbLine
 10
0.1085846422
 20
0.1635613882
 30
0.0
 11
0.1085859103
 21
0.1635603121
 31
0.0
  0
LINE
  5
1EA
330
1F
100
AcDbEntity
  8
0
  6
Continuous
 62
     7
370
    25
100
AcDbLine
 10
0.1084670589
 20
0.1635603121
 30
0.0
 11
0.1084718227
 21
0.163559172
 31
0.0
  0
LINE
  5
1EB
330
1F
100
AcDbEntity
  8
0
  6
Continuous
 62
     7
370
    25
100
AcDbLine
 10
0.1084657908
 20
0.1635613882
 30
0.0
 11
0.1084670589
 21
0.1635603121
 31
0.0
  0
LINE
  5
1EC
330
1F
100
AcDbEntity
  8
0
  6
Continuous
 62
     7
370
    25
100
AcDbLine
 10
0.1085808773
 20
0.1642980816
 30
0.0
 11
0.1085747192
 21
0.1641988508
 31
0.0
  0
LINE
  5
1ED
330
1F
100
AcDbEntity
  8
0
  6
Continuous
 62
     7
370
    25
100
AcDbLine
 10
0.1085747192
 20
0.1641988508
 30
0.0
 11
0.1085442542
 21
0.1642980816
 31
0.0
  0
LINE
  5
1EE
330
1F
100
AcDbEntity
  8
0
  6
Continuous
 62
     7
370
    25
100
AcDbLine
 10
0.1084533822
 20
0.1642069473
 30
0.0
 11
0.1084113583
 21
0.1643438273
 31
0.0
  0
LINE
  5
1EF
330
1F
100
AcDbEntity
  8
0
  6
Continuous
 62
     7
370
    25
100
AcDbLine
 10
0.108148083
 20
0.1642980816
 30
0.0
 11
0.1081550504
 21
0.1642753873
 31
0.0
  0
LINE
  5
1F0
330
1F
100
AcDbEntity
  8
0
  6
Continuous
 62
     7
370
    25
100
AcDbLine
 10
0.1082848076
 20
0.164239865
 30
0.0
 11
0.1082949137
 21
0.1642069473
 31
0.0
  0
LINE
  5
1F1
330
1F
100
AcDbEntity
  8
0
  6
Continuous
 62
     7
370
    25
100
AcDbLine
 10
0.1081550504
 20
0.1642753873
 30
0.0
 11
0.108178548
 21
0.1641988508
 31
0.0
  0
LINE
  5
1F2
330
1F
100
AcDbEntity
  8
0
  6
Continuous
 62
     7
370
    25
100
AcDbLine
 10
0.1082969565
 20
0.164239865
 30
0.0
 11
0.1082949137
 21
0.1642069473
 31
0.0
  0
LINE
  5
1F3
330
1F
100
AcDbEntity
  8
0
  6
Continuous
 62
     7
370
    25
100
AcDbLine
 10
0.1082949137
 20
0.1642069473
 30
0.0
 11
0.1083038745
 21
0.1642013152
 31
0.0
  0
LWPOLYLINE
  5
1F4
330
1F
100
AcDbEntity
  8
0
  6
Continuous
 62
     7
370
    25
100
AcDbPolyline
 90
        3
 70
   128
 43
0.0
 10
0.1084372277
 20
0.1641950452
 10
0.1084430884
 20
0.1641980626
 10
0.1084533822
 20
0.1642069473
  0
LINE
  5
1F5
330
1F
100
AcDbEntity
  8
0
  6
Continuous
 62
     7
370
    25
100
AcDbLine
 10
0.1085730706
 20
0.164195234
 30
0.0
 11
0.1085747192
 21
0.1641988508
 31
0.0
  0
ARC
  5
1F6
330
1F
100
AcDbEntity
  8
0
  6
Continuous
 62
     7
370
    25
100
AcDbCircle
 10
0.1083453863
 20
0.1644142084
 30
0.0
 40
0.0002729627482734
100
AcDbArc
 50
233.3420088627
 51
261.6083586604
  0
ARC
  5
1F7
330
1F
100
AcDbEntity
  8
0
  6
Continuous
 62
     7
370
    25
100
AcDbCircle
 10
0.1084468019
 20
0.1643083371
 30
0.0
 40
0.0001695172414261
100
AcDbArc
 50
270.3226323478
 51
318.1481451457
  0
LINE
  5
1F8
330
1F
100
AcDbEntity
  8
0
  6
Continuous
 62
     7
370
    25
100
AcDbLine
 10
0.108178548
 20
0.1641988508
 30
0.0
 11
0.1081824174
 21
0.164195234
 31
0.0
  0
ARC
  5
1F9
330
1F
100
AcDbEntity
  8
0
  6
Continuous
 62
     7
370
    25
100
AcDbCircle
 10
0.1096399002
 20
0.1642161162
 30
0.0
 40
0.0012176216707411
100
AcDbArc
 50
176.0945714043
 51
187.320638126
  0
LINE
  5
1FA
330
1F
100
AcDbEntity
  8
0
  6
Continuous
 62
     7
370
    25
100
AcDbLine
 10
0.1084402136
 20
0.1642498398
 30
0.0
 11
0.1084393976
 21
0.164230011
 31
0.0
  0
LWPOLYLINE
  5
1FB
330
1F
100
AcDbEntity
  8
0
  6
Continuous
 62
     7
370
    25
100
AcDbPolyline
 90
        3
 70
   128
 43
0.0
 10
0.1084399122
 20
0.1641863012
 10
0.1084404507
 20
0.1641770337
 10
0.1084424343
 20
0.1641561579
  0
LINE
  5
1FC
330
1F
100
AcDbEntity
  8
0
  6
Continuous
 62
     7
370
    25
100
AcDbLine
 10
0.1084322038
 20
0.1640609646
 30
0.0
 11
0.1084331566
 21
0.1640548071
 31
0.0
  0
ARC
  5
1FD
330
1F
100
AcDbEntity
  8
0
  6
Continuous
 62
     7
370
    25
100
AcDbCircle
 10
0.1094325923
 20
0.1642092503
 30
0.0
 40
0.0011290200827655
100
AcDbArc
 50
178.3337129577
 51
187.547044645
  0
LINE
  5
1FE
330
1F
100
AcDbEntity
  8
0
  6
Continuous
 62
     7
370
    25
100
AcDbLine
 10
0.1083143052
 20
0.1640548071
 30
0.0
 11
0.1084331566
 21
0.1640548071
 31
0.0
  0
LINE
  5
1FF
330
1F
100
AcDbEntity
  8
0
  6
Continuous
 62
     7
370
    25
100
AcDbLine
 10
0.1083133525
 20
0.1640609646
 30
0.0
 11
0.1083143052
 21
0.1640548071
 31
0.0
  0
LINE
  5
200
330
1F
100
AcDbEntity
  8
0
  6
Continuous
 62
     7
370
    25
100
AcDbLine
 10
0.1084424343
 20
0.1641561579
 30
0.0
 11
0.1084634462
 21
0.1640877179
 31
0.0
  0
LINE
  5
201
330
1F
100
AcDbEntity
  8
0
  6
Continuous
 62
     7
370
    25
100
AcDbLine
 10
0.1084331566
 20
0.1640548071
 30
0.0
 11
0.1084566542
 21
0.1639782706
 31
0.0
  0
LINE
  5
202
330
1F
100
AcDbEntity
  8
0
  6
Continuous
 62
     7
370
    25
100
AcDbLine
 10
0.1083143052
 20
0.1640548071
 30
0.0
 11
0.1083378028
 21
0.1639782706
 31
0.0
  0
LINE
  5
203
330
1F
100
AcDbEntity
  8
0
  6
Continuous
 62
     7
370
    25
100
AcDbLine
 10
0.1084634462
 20
0.1640877179
 30
0.0
 11
0.1084844581
 21
0.1640192779
 31
0.0
  0
LINE
  5
204
330
1F
100
AcDbEntity
  8
0
  6
Continuous
 62
     7
370
    25
100
AcDbLine
 10
0.1084566542
 20
0.1639782706
 30
0.0
 11
0.1084801518
 21
0.1639017341
 31
0.0
  0
LINE
  5
205
330
1F
100
AcDbEntity
  8
0
  6
Continuous
 62
     7
370
    25
100
AcDbLine
 10
0.1083613005
 20
0.1639017341
 30
0.0
 11
0.1084801518
 21
0.1639017341
 31
0.0
  0
LINE
  5
206
330
1F
100
AcDbEntity
  8
0
  6
Continuous
 62
     7
370
    25
100
AcDbLine
 10
0.1083378028
 20
0.1639782706
 30
0.0
 11
0.1083613005
 21
0.1639017341
 31
0.0
  0
LWPOLYLINE
  5
207
330
1F
100
AcDbEntity
  8
0
  6
Continuous
 62
     7
370
    25
100
AcDbPolyline
 90
        3
 70
   128
 43
0.0
 10
0.1084844581
 20
0.1640192779
 10
0.10848793
 20
0.1640223843
 10
0.1084892442
 20
0.164025617
  0
ARC
  5
208
330
1F
100
AcDbEntity
  8
0
  6
Continuous
 62
     7
370
    25
100
AcDbCircle
 10
0.1083386622
 20
0.1639958208
 30
0.0
 40
0.0001715684152224
100
AcDbArc
 50
326.3124594054
 51
3.8928923386
  0
LINE
  5
209
330
1F
100
AcDbEntity
  8
0
  6
Continuous
 62
     7
370
    25
100
AcDbLine
 10
0.1084801518
 20
0.1639017341
 30
0.0
 11
0.1084814199
 21
0.163900658
 31
0.0
  0
LINE
  5
20A
330
1F
100
AcDbEntity
  8
0
  6
Continuous
 62
     7
370
    25
100
AcDbLine
 10
0.1083625685
 20
0.163900658
 30
0.0
 11
0.1083673323
 21
0.163899518
 31
0.0
  0
LINE
  5
20B
330
1F
100
AcDbEntity
  8
0
  6
Continuous
 62
     7
370
    25
100
AcDbLine
 10
0.1083613005
 20
0.1639017341
 30
0.0
 11
0.1083625685
 21
0.163900658
 31
0.0
  0
LINE
  5
20C
330
1F
100
AcDbEntity
  8
0
  6
Continuous
 62
     7
370
    25
100
AcDbLine
 10
0.1083584683
 20
0.1642980816
 30
0.0
 11
0.1083756615
 21
0.1642420801
 31
0.0
  0
LINE
  5
20D
330
1F
100
AcDbEntity
  8
0
  6
Continuous
 62
     7
370
    25
100
AcDbLine
 10
0.1082568101
 20
0.1642420801
 30
0.0
 11
0.1083756615
 21
0.1642420801
 31
0.0
  0
LINE
  5
20E
330
1F
100
AcDbEntity
  8
0
  6
Continuous
 62
     7
370
    25
100
AcDbLine
 10
0.1082396169
 20
0.1642980816
 30
0.0
 11
0.1082568101
 21
0.1642420801
 31
0.0
  0
ARC
  5
20F
330
1F
100
AcDbEntity
  8
0
  6
Continuous
 62
     7
370
    25
100
AcDbCircle
 10
0.1083377304
 20
0.1642902058
 30
0.0
 40
0.0000629078136452
100
AcDbArc
 50
308.5443974314
 51
7.1921076685
  0
LINE
  5
210
330
1F
100
AcDbEntity
  8
0
  6
Continuous
 62
     7
370
    25
100
AcDbLine
 10
0.1083756615
 20
0.1642420801
 30
0.0
 11
0.1083769295
 21
0.164241004
 31
0.0
  0
LINE
  5
211
330
1F
100
AcDbEntity
  8
0
  6
Continuous
 62
     7
370
    25
100
AcDbLine
 10
0.1082580782
 20
0.164241004
 30
0.0
 11
0.1082628419
 21
0.1642398639
 31
0.0
  0
LINE
  5
212
330
1F
100
AcDbEntity
  8
0
  6
Continuous
 62
     7
370
    25
100
AcDbLine
 10
0.1082568101
 20
0.1642420801
 30
0.0
 11
0.1082580782
 21
0.164241004
 31
0.0
  0
ARC
  5
213
330
1F
100
AcDbEntity
  8
0
  6
Continuous
 62
     7
370
    25
100
AcDbCircle
 10
0.1170211741
 20
0.1637525113
 30
0.0
 40
0.0003213871525094
100
AcDbArc
 50
89.2695498491
 51
125.1803679976
  0
ARC
  5
214
330
1F
100
AcDbEntity
  8
0
  6
Continuous
 62
     7
370
    25
100
AcDbCircle
 10
0.1171180943
 20
0.1639303339
 30
0.0
 40
0.0001377958683411
100
AcDbArc
 50
38.0132421929
 51
86.404639373
  0
LINE
  5
215
330
1F
100
AcDbEntity
  8
0
  6
Continuous
 62
     7
370
    25
100
AcDbLine
 10
0.1168321368
 20
0.1640115778
 30
0.0
 11
0.1168360062
 21
0.1640151946
 31
0.0
  0
LINE
  5
216
330
1F
100
AcDbEntity
  8
0
  6
Continuous
 62
     7
370
    25
100
AcDbLine
 10
0.1168321368
 20
0.1640115778
 30
0.0
 11
0.1168253448
 21
0.1641210251
 31
0.0
  0
LINE
  5
217
330
1F
100
AcDbEntity
  8
0
  6
Continuous
 62
     7
370
    25
100
AcDbLine
 10
0.1168253448
 20
0.1641210251
 30
0.0
 11
0.1168292142
 21
0.1641246419
 31
0.0
  0
LINE
  5
218
330
1F
100
AcDbEntity
  8
0
  6
Continuous
 62
     7
370
    25
100
AcDbLine
 10
0.1168292142
 20
0.1641246419
 30
0.0
 11
0.1168315738
 21
0.1641267769
 31
0.0
  0
LINE
  5
219
330
1F
100
AcDbEntity
  8
0
  6
Continuous
 62
     7
370
    25
100
AcDbLine
 10
0.117228308
 20
0.1640115778
 30
0.0
 11
0.1172275575
 21
0.1640236708
 31
0.0
  0
LINE
  5
21A
330
1F
100
AcDbEntity
  8
0
  6
Continuous
 62
     7
370
    25
100
AcDbLine
 10
0.1172266594
 20
0.1640151946
 30
0.0
 11
0.117228308
 21
0.1640115778
 31
0.0
  0
ARC
  5
21B
330
1F
100
AcDbEntity
  8
0
  6
Continuous
 62
     7
370
    25
100
AcDbCircle
 10
0.1170277366
 20
0.1638805992
 30
0.0
 40
0.0001462124653891
100
AcDbArc
 50
57.1861308381
 51
122.8138691619
  0
LINE
  5
21C
330
1F
100
AcDbEntity
  8
0
  6
Continuous
 62
     7
370
    25
100
AcDbLine
 10
0.1167851415
 20
0.1638585048
 30
0.0
 11
0.1167783495
 21
0.1639679521
 31
0.0
  0
LINE
  5
21D
330
1F
100
AcDbEntity
  8
0
  6
Continuous
 62
     7
370
    25
100
AcDbLine
 10
0.1167783495
 20
0.1639679521
 30
0.0
 11
0.1168253448
 21
0.1641210251
 31
0.0
  0
LINE
  5
21E
330
1F
100
AcDbEntity
  8
0
  6
Continuous
 62
     7
370
    25
100
AcDbLine
 10
0.1167851415
 20
0.1638585048
 30
0.0
 11
0.1168321368
 21
0.1640115778
 31
0.0
  0
LINE
  5
21F
330
1F
100
AcDbEntity
  8
0
  6
Continuous
 62
     7
370
    25
100
AcDbLine
 10
0.1169064786
 20
0.1638666013
 30
0.0
 11
0.1169485024
 21
0.1640034813
 31
0.0
  0
LINE
  5
220
330
1F
100
AcDbEntity
  8
0
  6
Continuous
 62
     7
370
    25
100
AcDbLine
 10
0.117228308
 20
0.1640115778
 30
0.0
 11
0.1172048103
 21
0.1639350413
 31
0.0
  0
LINE
  5
221
330
1F
100
AcDbEntity
  8
0
  6
Continuous
 62
     7
370
    25
100
AcDbLine
 10
0.1171069709
 20
0.1640034813
 30
0.0
 11
0.117085959
 21
0.1639350413
 31
0.0
  0
LINE
  5
222
330
1F
100
AcDbEntity
  8
0
  6
Continuous
 62
     7
370
    25
100
AcDbLine
 10
0.117085959
 20
0.1639350413
 30
0.0
 11
0.117064947
 21
0.1638666013
 31
0.0
  0
LINE
  5
223
330
1F
100
AcDbEntity
  8
0
  6
Continuous
 62
     7
370
    25
100
AcDbLine
 10
0.117064947
 20
0.1638666013
 30
0.0
 11
0.1170586349
 21
0.1639683157
 31
0.0
  0
LINE
  5
224
330
1F
100
AcDbEntity
  8
0
  6
Continuous
 62
     7
370
    25
100
AcDbLine
 10
0.1172048103
 20
0.1639350413
 30
0.0
 11
0.1171813127
 21
0.1638585048
 31
0.0
  0
ARC
  5
225
330
1F
100
AcDbEntity
  8
0
  6
Continuous
 62
     7
370
    25
100
AcDbCircle
 10
0.1170144744
 20
0.1640738625
 30
0.0
 40
0.0002729627483205
100
AcDbArc
 50
278.3916413267
 51
306.6579911361
  0
ARC
  5
226
330
1F
100
AcDbEntity
  8
0
  6
Continuous
 62
     7
370
    25
100
AcDbCircle
 10
0.1169130588
 20
0.1639679911
 30
0.0
 40
0.00016951724142
100
AcDbArc
 50
221.8518548534
 51
269.6773676531
  0
LINE
  5
227
330
1F
100
AcDbEntity
  8
0
  6
Continuous
 62
     7
370
    25
100
AcDbLine
 10
0.1167867901
 20
0.1638548881
 30
0.0
 11
0.1167851415
 21
0.1638585048
 31
0.0
  0
LINE
  5
228
330
1F
100
AcDbEntity
  8
0
  6
Continuous
 62
     7
370
    25
100
AcDbLine
 10
0.117064947
 20
0.1638666013
 30
0.0
 11
0.1170559863
 21
0.1638609693
 31
0.0
  0
LWPOLYLINE
  5
229
330
1F
100
AcDbEntity
  8
0
  6
Continuous
 62
     7
370
    25
100
AcDbPolyline
 90
        3
 70
   128
 43
0.0
 10
0.116922633
 20
0.1638546993
 10
0.1169167723
 20
0.1638577166
 10
0.1169064786
 20
0.1638666013
  0
LINE
  5
22A
330
1F
100
AcDbEntity
  8
0
  6
Continuous
 62
     7
370
    25
100
AcDbLine
 10
0.1171813127
 20
0.1638585048
 30
0.0
 11
0.1171774433
 21
0.1638548881
 31
0.0
  0
ARC
  5
22B
330
1F
100
AcDbEntity
  8
0
  6
Continuous
 62
     7
370
    25
100
AcDbCircle
 10
0.1159007435
 20
0.1655482803
 30
0.0
 40
0.001188659288138
100
AcDbArc
 50
357.8690421823
 51
7.3516602803
  0
LINE
  5
22C
330
1F
100
AcDbEntity
  8
0
  6
Continuous
 62
     7
370
    25
100
AcDbLine
 10
0.1170796314
 20
0.1657003799
 30
0.0
 11
0.1170786787
 21
0.1657065373
 31
0.0
  0
LINE
  5
22D
330
1F
100
AcDbEntity
  8
0
  6
Continuous
 62
     7
370
    25
100
AcDbLine
 10
0.1171975301
 20
0.1657065373
 30
0.0
 11
0.1170786787
 21
0.1657065373
 31
0.0
  0
LINE
  5
22E
330
1F
100
AcDbEntity
  8
0
  6
Continuous
 62
     7
370
    25
100
AcDbLine
 10
0.1171984828
 20
0.1657003799
 30
0.0
 11
0.1171975301
 21
0.1657065373
 31
0.0
  0
ARC
  5
22F
330
1F
100
AcDbEntity
  8
0
  6
Continuous
 62
     7
370
    25
100
AcDbCircle
 10
0.1160819822
 20
0.1655523777
 30
0.0
 40
0.0011262673949606
100
AcDbArc
 50
358.4199074752
 51
7.5510445893
  0
LWPOLYLINE
  5
230
330
1F
100
AcDbEntity
  8
0
  6
Continuous
 62
     7
370
    25
100
AcDbPolyline
 90
        3
 70
   128
 43
0.0
 10
0.11707186
 20
0.1655763019
 10
0.1170713845
 20
0.1655843108
 10
0.117069401
 20
0.1656051866
  0
LINE
  5
231
330
1F
100
AcDbEntity
  8
0
  6
Continuous
 62
     7
370
    25
100
AcDbLine
 10
0.1170786787
 20
0.1657065373
 30
0.0
 11
0.1170316834
 21
0.1658596103
 31
0.0
  0
LINE
  5
232
330
1F
100
AcDbEntity
  8
0
  6
Continuous
 62
     7
370
    25
100
AcDbLine
 10
0.1171505348
 20
0.1658596103
 30
0.0
 11
0.1170316834
 21
0.1658596103
 31
0.0
  0
LINE
  5
233
330
1F
100
AcDbEntity
  8
0
  6
Continuous
 62
     7
370
    25
100
AcDbLine
 10
0.1171975301
 20
0.1657065373
 30
0.0
 11
0.1171505348
 21
0.1658596103
 31
0.0
  0
LINE
  5
234
330
1F
100
AcDbEntity
  8
0
  6
Continuous
 62
     7
370
    25
100
AcDbLine
 10
0.117069401
 20
0.1656051866
 30
0.0
 11
0.1170273771
 21
0.1657420665
 31
0.0
  0
ARC
  5
235
330
1F
100
AcDbEntity
  8
0
  6
Continuous
 62
     7
370
    25
100
AcDbCircle
 10
0.1171744041
 20
0.1657649291
 30
0.0
 40
0.0001729225746469
100
AcDbArc
 50
146.3747598401
 51
184.0524757419
  0
LINE
  5
236
330
1F
100
AcDbEntity
  8
0
  6
Continuous
 62
     7
370
    25
100
AcDbLine
 10
0.1170316834
 20
0.1658596103
 30
0.0
 11
0.1170304154
 21
0.1658606864
 31
0.0
  0
LWPOLYLINE
  5
237
330
1F
100
AcDbEntity
  8
0
  6
Continuous
 62
     7
370
    25
100
AcDbPolyline
 90
        3
 70
   128
 43
0.0
 10
0.1170273771
 20
0.1657420665
 10
0.1170239053
 20
0.1657389601
 10
0.1170225911
 20
0.1657357274
  0
LINE
  5
238
330
1F
100
AcDbEntity
  8
0
  6
Continuous
 62
     7
370
    25
100
AcDbLine
 10
0.1171505348
 20
0.1658596103
 30
0.0
 11
0.1171492667
 21
0.1658606864
 31
0.0
  0
LINE
  5
239
330
1F
100
AcDbEntity
  8
0
  6
Continuous
 62
     7
370
    25
100
AcDbLine
 10
0.1171492667
 20
0.1658606864
 30
0.0
 11
0.117144503
 21
0.1658618265
 31
0.0
  0
LINE
  5
23A
330
1F
100
AcDbEntity
  8
0
  6
Continuous
 62
     7
370
    25
100
AcDbLine
 10
0.1172694574
 20
0.1656388297
 30
0.0
 11
0.1172678088
 21
0.165635213
 31
0.0
  0
LWPOLYLINE
  5
23B
330
1F
100
AcDbEntity
  8
0
  6
Continuous
 62
     7
370
    25
100
AcDbPolyline
 90
        3
 70
   128
 43
0.0
 10
0.1172678088
 20
0.165635213
 10
0.1172568461
 20
0.1656200573
 10
0.117241028
 20
0.1656078813
  0
ARC
  5
23C
330
1F
100
AcDbEntity
  8
0
  6
Continuous
 62
     7
370
    25
100
AcDbCircle
 10
0.1170188698
 20
0.1658133954
 30
0.0
 40
0.0002276661340076
100
AcDbArc
 50
231.5036535229
 51
256.5726261666
  0
LINE
  5
23D
330
1F
100
AcDbEntity
  8
0
  6
Continuous
 62
     7
370
    25
100
AcDbLine
 10
0.1168771556
 20
0.165635213
 30
0.0
 11
0.1168732862
 21
0.1656388297
 31
0.0
  0
LINE
  5
23E
330
1F
100
AcDbEntity
  8
0
  6
Continuous
 62
     7
370
    25
100
AcDbLine
 10
0.1168800783
 20
0.165748277
 30
0.0
 11
0.1168732862
 21
0.1656388297
 31
0.0
  0
LINE
  5
23F
330
1F
100
AcDbEntity
  8
0
  6
Continuous
 62
     7
370
    25
100
AcDbLine
 10
0.1168839477
 20
0.1657446602
 30
0.0
 11
0.1168800783
 21
0.165748277
 31
0.0
  0
ARC
  5
240
330
1F
100
AcDbEntity
  8
0
  6
Continuous
 62
     7
370
    25
100
AcDbCircle
 10
0.1171805361
 20
0.1658111149
 30
0.0
 40
0.000115171139786
100
AcDbArc
 50
279.1903941796
 51
324.7596456237
  0
ARC
  5
241
330
1F
100
AcDbEntity
  8
0
  6
Continuous
 62
     7
370
    25
100
AcDbCircle
 10
0.1170614356
 20
0.1659929448
 30
0.0
 40
0.000305200228049
100
AcDbArc
 50
234.4406613728
 51
266.7061785022
  0
LINE
  5
242
330
1F
100
AcDbEntity
  8
0
  6
Continuous
 62
     7
370
    25
100
AcDbLine
 10
0.1172762495
 20
0.165748277
 30
0.0
 11
0.1172746008
 21
0.1657446602
 31
0.0
  0
LINE
  5
243
330
1F
100
AcDbEntity
  8
0
  6
Continuous
 62
     7
370
    25
100
AcDbLine
 10
0.1172762495
 20
0.165748277
 30
0.0
 11
0.1172694574
 21
0.1656388297
 31
0.0
  0
LWPOLYLINE
  5
244
330
1F
100
AcDbEntity
  8
0
  6
Continuous
 62
     7
370
    25
100
AcDbPolyline
 90
        3
 70
   128
 43
0.0
 10
0.1170199065
 20
0.1657444714
 10
0.117012193
 20
0.1657474888
 10
0.1169964439
 20
0.1657563735
  0
LINE
  5
245
330
1F
100
AcDbEntity
  8
0
  6
Continuous
 62
     7
370
    25
100
AcDbLine
 10
0.1168732862
 20
0.1656388297
 30
0.0
 11
0.116826291
 21
0.1657919027
 31
0.0
  0
LINE
  5
246
330
1F
100
AcDbEntity
  8
0
  6
Continuous
 62
     7
370
    25
100
AcDbLine
 10
0.116833083
 20
0.16590135
 30
0.0
 11
0.116826291
 21
0.1657919027
 31
0.0
  0
LINE
  5
247
330
1F
100
AcDbEntity
  8
0
  6
Continuous
 62
     7
370
    25
100
AcDbLine
 10
0.1168800783
 20
0.165748277
 30
0.0
 11
0.116833083
 21
0.16590135
 31
0.0
  0
LINE
  5
248
330
1F
100
AcDbEntity
  8
0
  6
Continuous
 62
     7
370
    25
100
AcDbLine
 10
0.1169964439
 20
0.1657563735
 30
0.0
 11
0.1169544201
 21
0.1658932535
 31
0.0
  0
LINE
  5
249
330
1F
100
AcDbEntity
  8
0
  6
Continuous
 62
     7
370
    25
100
AcDbLine
 10
0.1172527518
 20
0.1658248135
 30
0.0
 11
0.1172762495
 21
0.165748277
 31
0.0
  0
LINE
  5
24A
330
1F
100
AcDbEntity
  8
0
  6
Continuous
 62
     7
370
    25
100
AcDbLine
 10
0.1172292542
 20
0.16590135
 30
0.0
 11
0.1172527518
 21
0.1658248135
 31
0.0
  0
LINE
  5
24B
330
1F
100
AcDbEntity
  8
0
  6
Continuous
 62
     7
370
    25
100
AcDbLine
 10
0.1171128885
 20
0.1658932535
 30
0.0
 11
0.1171225373
 21
0.1658618254
 31
0.0
  0
LINE
  5
24C
330
1F
100
AcDbEntity
  8
0
  6
Continuous
 62
     7
370
    25
100
AcDbLine
 10
0.1171128885
 20
0.1658932535
 30
0.0
 11
0.1171109382
 21
0.1658618254
 31
0.0
  0
LINE
  5
24D
330
1F
100
AcDbEntity
  8
0
  6
Continuous
 62
     7
370
    25
100
AcDbLine
 10
0.116833083
 20
0.16590135
 30
0.0
 11
0.1168347316
 21
0.1659049668
 31
0.0
  0
ARC
  5
24E
330
1F
100
AcDbEntity
  8
0
  6
Continuous
 62
     7
370
    25
100
AcDbCircle
 10
0.1169610003
 20
0.1657918637
 30
0.0
 40
0.0001695172414216
100
AcDbArc
 50
90.3226323471
 51
138.1481451464
  0
ARC
  5
24F
330
1F
100
AcDbEntity
  8
0
  6
Continuous
 62
     7
370
    25
100
AcDbCircle
 10
0.1170664146
 20
0.1656957291
 30
0.0
 40
0.0002627773439736
100
AcDbArc
 50
52.7739354819
 51
82.246727943
  0
LINE
  5
250
330
1F
100
AcDbEntity
  8
0
  6
Continuous
 62
     7
370
    25
100
AcDbLine
 10
0.1172253848
 20
0.1659049668
 30
0.0
 11
0.1172292542
 21
0.16590135
 31
0.0
  0
LWPOLYLINE
  5
251
330
1F
100
AcDbEntity
  8
0
  6
Continuous
 62
     7
370
    25
100
AcDbPolyline
 90
        3
 70
   128
 43
0.0
 10
0.1169544201
 20
0.1658932535
 10
0.1169647138
 20
0.1659021382
 10
0.1169705745
 20
0.1659051556
  0
LINE
  5
252
330
1F
100
AcDbEntity
  8
0
  6
Continuous
 62
     7
370
    25
100
AcDbLine
 10
0.1171034816
 20
0.1658991207
 30
0.0
 11
0.1171128885
 21
0.1658932535
 31
0.0
  0
ARC
  5
253
330
1F
100
AcDbEntity
  8
0
  6
Continuous
 62
     7
370
    25
100
AcDbCircle
 10
0.1157903895
 20
0.1638773509
 30
0.0
 40
0.0012658591575187
100
AcDbArc
 50
352.8876731872
 51
4.1008473485
  0
LINE
  5
254
330
1F
100
AcDbEntity
  8
0
  6
Continuous
 62
     7
370
    25
100
AcDbLine
 10
0.1170455555
 20
0.1637144612
 30
0.0
 11
0.1170465083
 21
0.1637206186
 31
0.0
  0
LINE
  5
255
330
1F
100
AcDbEntity
  8
0
  6
Continuous
 62
     7
370
    25
100
AcDbLine
 10
0.1170455555
 20
0.1637144612
 30
0.0
 11
0.1169267042
 21
0.1637144612
 31
0.0
  0
LINE
  5
256
330
1F
100
AcDbEntity
  8
0
  6
Continuous
 62
     7
370
    25
100
AcDbLine
 10
0.1169267042
 20
0.1637144612
 30
0.0
 11
0.1169276569
 21
0.1637206186
 31
0.0
  0
ARC
  5
257
330
1F
100
AcDbEntity
  8
0
  6
Continuous
 62
     7
370
    25
100
AcDbCircle
 10
0.1156715146
 20
0.1638772146
 30
0.0
 40
0.0012658656240549
100
AcDbArc
 50
352.8939306285
 51
3.6908598412
  0
LWPOLYLINE
  5
258
330
1F
100
AcDbEntity
  8
0
  6
Continuous
 62
     7
370
    25
100
AcDbPolyline
 90
        3
 70
   128
 43
0.0
 10
0.1169174264
 20
0.1638158119
 10
0.11691941
 20
0.1638366877
 10
0.1169199485
 20
0.1638459552
  0
LINE
  5
259
330
1F
100
AcDbEntity
  8
0
  6
Continuous
 62
     7
370
    25
100
AcDbLine
 10
0.1169204632
 20
0.163889665
 30
0.0
 11
0.1169196471
 21
0.1639094938
 31
0.0
  0
LINE
  5
25A
330
1F
100
AcDbEntity
  8
0
  6
Continuous
 62
     7
370
    25
100
AcDbLine
 10
0.1169985603
 20
0.1635613882
 30
0.0
 11
0.1168797089
 21
0.1635613882
 31
0.0
  0
LINE
  5
25B
330
1F
100
AcDbEntity
  8
0
  6
Continuous
 62
     7
370
    25
100
AcDbLine
 10
0.1168797089
 20
0.1635613882
 30
0.0
 11
0.1169267042
 21
0.1637144612
 31
0.0
  0
LINE
  5
25C
330
1F
100
AcDbEntity
  8
0
  6
Continuous
 62
     7
370
    25
100
AcDbLine
 10
0.1169985603
 20
0.1635613882
 30
0.0
 11
0.1170455555
 21
0.1637144612
 31
0.0
  0
LINE
  5
25D
330
1F
100
AcDbEntity
  8
0
  6
Continuous
 62
     7
370
    25
100
AcDbLine
 10
0.1168754026
 20
0.163678932
 30
0.0
 11
0.1169174264
 21
0.1638158119
 31
0.0
  0
LWPOLYLINE
  5
25E
330
1F
100
AcDbEntity
  8
0
  6
Continuous
 62
     7
370
    25
100
AcDbPolyline
 90
        3
 70
   128
 43
0.0
 10
0.1168715957
 20
0.1636827468
 10
0.1168719308
 20
0.1636820384
 10
0.1168754026
 20
0.163678932
  0
LINE
  5
25F
330
1F
100
AcDbEntity
  8
0
  6
Continuous
 62
     7
370
    25
100
AcDbLine
 10
0.1168784408
 20
0.1635603121
 30
0.0
 11
0.1168797089
 21
0.1635613882
 31
0.0
  0
LWPOLYLINE
  5
260
330
1F
100
AcDbEntity
  8
0
  6
Continuous
 62
     7
370
    25
100
AcDbPolyline
 90
        3
 70
   128
 43
0.0
 10
0.1168715957
 20
0.1635604897
 10
0.1168728955
 20
0.1635595365
 10
0.1168784408
 20
0.1635603121
  0
LINE
  5
261
330
1F
100
AcDbEntity
  8
0
  6
Continuous
 62
     7
370
    25
100
AcDbLine
 10
0.1169925248
 20
0.1635591734
 30
0.0
 11
0.1169972922
 21
0.1635603121
 31
0.0
  0
LINE
  5
262
330
1F
100
AcDbEntity
  8
0
  6
Continuous
 62
     7
370
    25
100
AcDbLine
 10
0.1169972922
 20
0.1635603121
 30
0.0
 11
0.1169985603
 21
0.1635613882
 31
0.0
  0
LINE
  5
263
330
1F
100
AcDbEntity
  8
0
  6
Continuous
 62
     7
370
    25
100
AcDbLine
 10
0.1171408351
 20
0.1655040816
 30
0.0
 11
0.1171361738
 21
0.1655192644
 31
0.0
  0
LINE
  5
264
330
1F
100
AcDbEntity
  8
0
  6
Continuous
 62
     7
370
    25
100
AcDbLine
 10
0.1172550252
 20
0.1655192644
 30
0.0
 11
0.1171361738
 21
0.1655192644
 31
0.0
  0
LINE
  5
265
330
1F
100
AcDbEntity
  8
0
  6
Continuous
 62
     7
370
    25
100
AcDbLine
 10
0.1172596864
 20
0.1655040816
 30
0.0
 11
0.1172550252
 21
0.1655192644
 31
0.0
  0
LWPOLYLINE
  5
266
330
1F
100
AcDbEntity
  8
0
  6
Continuous
 62
     7
370
    25
100
AcDbPolyline
 90
        4
 70
   128
 43
0.0
 10
0.1171349057
 20
0.1655203405
 10
0.1171293604
 20
0.165521116
 10
0.117123899
 20
0.1655141083
 10
0.1171200411
 20
0.1655040816
  0
LINE
  5
267
330
1F
100
AcDbEntity
  8
0
  6
Continuous
 62
     7
370
    25
100
AcDbLine
 10
0.1171361738
 20
0.1655192644
 30
0.0
 11
0.1171349057
 21
0.1655203405
 31
0.0
  0
LINE
  5
268
330
1F
100
AcDbEntity
  8
0
  6
Continuous
 62
     7
370
    25
100
AcDbLine
 10
0.1172550252
 20
0.1655192644
 30
0.0
 11
0.1172537571
 21
0.1655203405
 31
0.0
  0
LINE
  5
269
330
1F
100
AcDbEntity
  8
0
  6
Continuous
 62
     7
370
    25
100
AcDbLine
 10
0.1172537571
 20
0.1655203405
 30
0.0
 11
0.1172489933
 21
0.1655214805
 31
0.0
  0
LINE
  5
26A
330
1F
100
AcDbEntity
  8
0
  6
Continuous
 62
     7
370
    25
100
AcDbLine
 10
0.1169375733
 20
0.1655610041
 30
0.0
 11
0.1169340409
 21
0.1655040816
 31
0.0
  0
LINE
  5
26B
330
1F
100
AcDbEntity
  8
0
  6
Continuous
 62
     7
370
    25
100
AcDbLine
 10
0.1169550492
 20
0.1655040816
 30
0.0
 11
0.1169375733
 21
0.1655610041
 31
0.0
  0
LINE
  5
26C
330
1F
100
AcDbEntity
  8
0
  6
Continuous
 62
     7
370
    25
100
AcDbLine
 10
0.1170739006
 20
0.1655040816
 30
0.0
 11
0.1170589104
 21
0.1655529075
 31
0.0
  0
LINE
  5
26D
330
1F
100
AcDbEntity
  8
0
  6
Continuous
 62
     7
370
    25
100
AcDbLine
 10
0.1173337445
 20
0.1655610041
 30
0.0
 11
0.1173512204
 21
0.1655040816
 31
0.0
  0
LINE
  5
26E
330
1F
100
AcDbEntity
  8
0
  6
Continuous
 62
     7
370
    25
100
AcDbLine
 10
0.1172173789
 20
0.1655529075
 30
0.0
 11
0.1172270277
 21
0.1655214795
 31
0.0
  0
LINE
  5
26F
330
1F
100
AcDbEntity
  8
0
  6
Continuous
 62
     7
370
    25
100
AcDbLine
 10
0.1172173789
 20
0.1655529075
 30
0.0
 11
0.1172154286
 21
0.1655214795
 31
0.0
  0
LINE
  5
270
330
1F
100
AcDbEntity
  8
0
  6
Continuous
 62
     7
370
    25
100
AcDbLine
 10
0.1169375733
 20
0.1655610041
 30
0.0
 11
0.116939222
 21
0.1655646208
 31
0.0
  0
ARC
  5
271
330
1F
100
AcDbEntity
  8
0
  6
Continuous
 62
     7
370
    25
100
AcDbCircle
 10
0.1170654907
 20
0.1654515178
 30
0.0
 40
0.0001695172414227
100
AcDbArc
 50
90.3226323473
 51
138.1481451462
  0
ARC
  5
272
330
1F
100
AcDbEntity
  8
0
  6
Continuous
 62
     7
370
    25
100
AcDbCircle
 10
0.117170905
 20
0.1653553831
 30
0.0
 40
0.0002627773440012
100
AcDbArc
 50
52.7739354827
 51
82.2467279494
  0
LINE
  5
273
330
1F
100
AcDbEntity
  8
0
  6
Continuous
 62
     7
370
    25
100
AcDbLine
 10
0.1173298751
 20
0.1655646208
 30
0.0
 11
0.1173337445
 21
0.1655610041
 31
0.0
  0
LWPOLYLINE
  5
274
330
1F
100
AcDbEntity
  8
0
  6
Continuous
 62
     7
370
    25
100
AcDbPolyline
 90
        3
 70
   128
 43
0.0
 10
0.1170589104
 20
0.1655529075
 10
0.1170692042
 20
0.1655617922
 10
0.1170750649
 20
0.1655648096
  0
LINE
  5
275
330
1F
100
AcDbEntity
  8
0
  6
Continuous
 62
     7
370
    25
100
AcDbLine
 10
0.117207972
 20
0.1655587747
 30
0.0
 11
0.1172173789
 21
0.1655529075
 31
0.0
  0
ARC
  5
276
330
1F
100
AcDbEntity
  8
0
  6
Continuous
 62
     7
370
    25
100
AcDbCircle
 10
0.1163860709
 20
0.1643480786
 30
0.0
 40
0.000825377410085
100
AcDbArc
 50
351.802584407
 51
356.5272015475
  0
LINE
  5
277
330
1F
100
AcDbEntity
  8
0
  6
Continuous
 62
     7
370
    25
100
AcDbLine
 10
0.1172030151
 20
0.1642303927
 30
0.0
 11
0.1172020624
 21
0.1642242353
 31
0.0
  0
LINE
  5
278
330
1F
100
AcDbEntity
  8
0
  6
Continuous
 62
     7
370
    25
100
AcDbLine
 10
0.1170832111
 20
0.1642242353
 30
0.0
 11
0.1172020624
 21
0.1642242353
 31
0.0
  0
LINE
  5
279
330
1F
100
AcDbEntity
  8
0
  6
Continuous
 62
     7
370
    25
100
AcDbLine
 10
0.1170841638
 20
0.1642303927
 30
0.0
 11
0.1170832111
 21
0.1642242353
 31
0.0
  0
ARC
  5
27A
330
1F
100
AcDbEntity
  8
0
  6
Continuous
 62
     7
370
    25
100
AcDbCircle
 10
0.1162672195
 20
0.1643480786
 30
0.0
 40
0.0008253774098851
100
AcDbArc
 50
351.8025844064
 51
356.5272015481
  0
LINE
  5
27B
330
1F
100
AcDbEntity
  8
0
  6
Continuous
 62
     7
370
    25
100
AcDbLine
 10
0.1172020624
 20
0.1642242353
 30
0.0
 11
0.1171550671
 21
0.1640711623
 31
0.0
  0
LINE
  5
27C
330
1F
100
AcDbEntity
  8
0
  6
Continuous
 62
     7
370
    25
100
AcDbLine
 10
0.1170362158
 20
0.1640711623
 30
0.0
 11
0.1171550671
 21
0.1640711623
 31
0.0
  0
LINE
  5
27D
330
1F
100
AcDbEntity
  8
0
  6
Continuous
 62
     7
370
    25
100
AcDbLine
 10
0.1170832111
 20
0.1642242353
 30
0.0
 11
0.1170362158
 21
0.1640711623
 31
0.0
  0
LINE
  5
27E
330
1F
100
AcDbEntity
  8
0
  6
Continuous
 62
     7
370
    25
100
AcDbLine
 10
0.1170654891
 20
0.1642980816
 30
0.0
 11
0.1170319095
 21
0.1641887061
 31
0.0
  0
LINE
  5
27F
330
1F
100
AcDbEntity
  8
0
  6
Continuous
 62
     7
370
    25
100
AcDbLine
 10
0.1170362158
 20
0.1640711623
 30
0.0
 11
0.1170349477
 21
0.1640700862
 31
0.0
  0
ARC
  5
280
330
1F
100
AcDbEntity
  8
0
  6
Continuous
 62
     7
370
    25
100
AcDbCircle
 10
0.1171789364
 20
0.1641658435
 30
0.0
 40
0.0001729225743404
100
AcDbArc
 50
175.9475242939
 51
213.6252401739
  0
LWPOLYLINE
  5
281
330
1F
100
AcDbEntity
  8
0
  6
Continuous
 62
     7
370
    25
100
AcDbPolyline
 90
        3
 70
   128
 43
0.0
 10
0.1170319095
 20
0.1641887061
 10
0.1170284377
 20
0.1641918125
 10
0.1170271234
 20
0.1641950452
  0
LINE
  5
282
330
1F
100
AcDbEntity
  8
0
  6
Continuous
 62
     7
370
    25
100
AcDbLine
 10
0.1171537991
 20
0.1640700862
 30
0.0
 11
0.1171490353
 21
0.1640689462
 31
0.0
  0
LINE
  5
283
330
1F
100
AcDbEntity
  8
0
  6
Continuous
 62
     7
370
    25
100
AcDbLine
 10
0.1171550671
 20
0.1640711623
 30
0.0
 11
0.1171537991
 21
0.1640700862
 31
0.0
  0
LINE
  5
284
330
1F
100
AcDbEntity
  8
0
  6
Continuous
 62
     7
370
    25
100
AcDbLine
 10
0.1168778186
 20
0.1642919429
 30
0.0
 11
0.116881688
 21
0.1642955596
 31
0.0
  0
LINE
  5
285
330
1F
100
AcDbEntity
  8
0
  6
Continuous
 62
     7
370
    25
100
AcDbLine
 10
0.116881688
 20
0.1642955596
 30
0.0
 11
0.1168844917
 21
0.1642980816
 31
0.0
  0
LINE
  5
286
330
1F
100
AcDbEntity
  8
0
  6
Continuous
 62
     7
370
    25
100
AcDbLine
 10
0.1172710861
 20
0.1642980816
 30
0.0
 11
0.1172723412
 21
0.1642955596
 31
0.0
  0
LINE
  5
287
330
1F
100
AcDbEntity
  8
0
  6
Continuous
 62
     7
370
    25
100
AcDbLine
 10
0.1172723412
 20
0.1642955596
 30
0.0
 11
0.1172739898
 21
0.1642919429
 31
0.0
  0
LINE
  5
288
330
1F
100
AcDbEntity
  8
0
  6
Continuous
 62
     7
370
    25
100
AcDbLine
 10
0.1172807818
 20
0.1641824956
 30
0.0
 11
0.1172739898
 21
0.1642919429
 31
0.0
  0
LINE
  5
289
330
1F
100
AcDbEntity
  8
0
  6
Continuous
 62
     7
370
    25
100
AcDbLine
 10
0.1172791332
 20
0.1641861124
 30
0.0
 11
0.1172807818
 21
0.1641824956
 31
0.0
  0
ARC
  5
28A
330
1F
100
AcDbEntity
  8
0
  6
Continuous
 62
     7
370
    25
100
AcDbCircle
 10
0.1170659679
 20
0.1639378278
 30
0.0
 40
0.0003052002280485
100
AcDbArc
 50
93.2938214978
 51
125.5593386272
  0
ARC
  5
28B
330
1F
100
AcDbEntity
  8
0
  6
Continuous
 62
     7
370
    25
100
AcDbCircle
 10
0.1171850685
 20
0.1641196577
 30
0.0
 40
0.0001151711397734
100
AcDbArc
 50
35.2403543751
 51
80.8096058144
  0
LINE
  5
28C
330
1F
100
AcDbEntity
  8
0
  6
Continuous
 62
     7
370
    25
100
AcDbLine
 10
0.1168846106
 20
0.1641824956
 30
0.0
 11
0.11688848
 21
0.1641861124
 31
0.0
  0
LINE
  5
28D
330
1F
100
AcDbEntity
  8
0
  6
Continuous
 62
     7
370
    25
100
AcDbLine
 10
0.1168846106
 20
0.1641824956
 30
0.0
 11
0.1168778186
 21
0.1642919429
 31
0.0
  0
LWPOLYLINE
  5
28E
330
1F
100
AcDbEntity
  8
0
  6
Continuous
 62
     7
370
    25
100
AcDbPolyline
 90
        3
 70
   128
 43
0.0
 10
0.1170009762
 20
0.1641743991
 10
0.1170167254
 20
0.1641832838
 10
0.1170244389
 20
0.1641863012
  0
LINE
  5
28F
330
1F
100
AcDbEntity
  8
0
  6
Continuous
 62
     7
370
    25
100
AcDbLine
 10
0.1169799643
 20
0.1641059591
 30
0.0
 11
0.1170009762
 21
0.1641743991
 31
0.0
  0
LINE
  5
290
330
1F
100
AcDbEntity
  8
0
  6
Continuous
 62
     7
370
    25
100
AcDbLine
 10
0.116861113
 20
0.1641059591
 30
0.0
 11
0.1168846106
 21
0.1641824956
 31
0.0
  0
LINE
  5
291
330
1F
100
AcDbEntity
  8
0
  6
Continuous
 62
     7
370
    25
100
AcDbLine
 10
0.116854321
 20
0.1642154064
 30
0.0
 11
0.1168778186
 21
0.1642919429
 31
0.0
  0
LINE
  5
292
330
1F
100
AcDbEntity
  8
0
  6
Continuous
 62
     7
370
    25
100
AcDbLine
 10
0.1172807818
 20
0.1641824956
 30
0.0
 11
0.1172337865
 21
0.1640294226
 31
0.0
  0
LINE
  5
293
330
1F
100
AcDbEntity
  8
0
  6
Continuous
 62
     7
370
    25
100
AcDbLine
 10
0.1171267253
 20
0.1640678254
 30
0.0
 11
0.1171174209
 21
0.1640375191
 31
0.0
  0
LINE
  5
294
330
1F
100
AcDbEntity
  8
0
  6
Continuous
 62
     7
370
    25
100
AcDbLine
 10
0.1168308233
 20
0.1641388699
 30
0.0
 11
0.116854321
 21
0.1642154064
 31
0.0
  0
LINE
  5
295
330
1F
100
AcDbEntity
  8
0
  6
Continuous
 62
     7
370
    25
100
AcDbLine
 10
0.1168376153
 20
0.1640294226
 30
0.0
 11
0.116861113
 21
0.1641059591
 31
0.0
  0
LINE
  5
296
330
1F
100
AcDbEntity
  8
0
  6
Continuous
 62
     7
370
    25
100
AcDbLine
 10
0.1168376153
 20
0.1640294226
 30
0.0
 11
0.1168308233
 21
0.1641388699
 31
0.0
  0
LINE
  5
297
330
1F
100
AcDbEntity
  8
0
  6
Continuous
 62
     7
370
    25
100
AcDbLine
 10
0.1169589524
 20
0.1640375191
 30
0.0
 11
0.1169799643
 21
0.1641059591
 31
0.0
  0
LINE
  5
298
330
1F
100
AcDbEntity
  8
0
  6
Continuous
 62
     7
370
    25
100
AcDbLine
 10
0.1172337865
 20
0.1640294226
 30
0.0
 11
0.1172299171
 21
0.1640258058
 31
0.0
  0
ARC
  5
299
330
1F
100
AcDbEntity
  8
0
  6
Continuous
 62
     7
370
    25
100
AcDbCircle
 10
0.1170345905
 20
0.1642830104
 30
0.0
 40
0.0003229653928691
100
AcDbArc
 50
232.7861884457
 51
307.2138115543
  0
LINE
  5
29A
330
1F
100
AcDbEntity
  8
0
  6
Continuous
 62
     7
370
    25
100
AcDbLine
 10
0.1168392639
 20
0.1640258058
 30
0.0
 11
0.1168376153
 21
0.1640294226
 31
0.0
  0
ARC
  5
29B
330
1F
100
AcDbEntity
  8
0
  6
Continuous
 62
     7
370
    25
100
AcDbCircle
 10
0.1170381867
 20
0.1641604013
 30
0.0
 40
0.0001462124653888
100
AcDbArc
 50
237.186130838
 51
302.8138691619
  0
LWPOLYLINE
  5
29C
330
1F
100
AcDbEntity
  8
0
  6
Continuous
 62
     7
370
    25
100
AcDbPolyline
 90
        3
 70
   128
 43
0.0
 10
0.1169673696
 20
0.1659166478
 10
0.1169668942
 20
0.1659246567
 10
0.1169649106
 20
0.1659455325
  0
LINE
  5
29D
330
1F
100
AcDbEntity
  8
0
  6
Continuous
 62
     7
370
    25
100
AcDbLine
 10
0.1169751411
 20
0.1660407258
 30
0.0
 11
0.1169741883
 21
0.1660468833
 31
0.0
  0
ARC
  5
29E
330
1F
100
AcDbEntity
  8
0
  6
Continuous
 62
     7
370
    25
100
AcDbCircle
 10
0.1157674447
 20
0.1658855742
 30
0.0
 40
0.001217621670742
100
AcDbArc
 50
356.0945714043
 51
7.320638126
  0
LINE
  5
29F
330
1F
100
AcDbEntity
  8
0
  6
Continuous
 62
     7
370
    25
100
AcDbLine
 10
0.1170930397
 20
0.1660468833
 30
0.0
 11
0.1169741883
 21
0.1660468833
 31
0.0
  0
LINE
  5
2A0
330
1F
100
AcDbEntity
  8
0
  6
Continuous
 62
     7
370
    25
100
AcDbLine
 10
0.1170939924
 20
0.1660407258
 30
0.0
 11
0.1170930397
 21
0.1660468833
 31
0.0
  0
ARC
  5
2A1
330
1F
100
AcDbEntity
  8
0
  6
Continuous
 62
     7
370
    25
100
AcDbCircle
 10
0.1159774918
 20
0.1658927237
 30
0.0
 40
0.0011262673949603
100
AcDbArc
 50
358.4199074752
 51
7.5510445893
  0
LINE
  5
2A2
330
1F
100
AcDbEntity
  8
0
  6
Continuous
 62
     7
370
    25
100
AcDbLine
 10
0.1169741883
 20
0.1660468833
 30
0.0
 11
0.1169271931
 21
0.1661999563
 31
0.0
  0
LINE
  5
2A3
330
1F
100
AcDbEntity
  8
0
  6
Continuous
 62
     7
370
    25
100
AcDbLine
 10
0.1170460444
 20
0.1661999563
 30
0.0
 11
0.1169271931
 21
0.1661999563
 31
0.0
  0
LINE
  5
2A4
330
1F
100
AcDbEntity
  8
0
  6
Continuous
 62
     7
370
    25
100
AcDbLine
 10
0.1170930397
 20
0.1660468833
 30
0.0
 11
0.1170460444
 21
0.1661999563
 31
0.0
  0
LINE
  5
2A5
330
1F
100
AcDbEntity
  8
0
  6
Continuous
 62
     7
370
    25
100
AcDbLine
 10
0.1169649106
 20
0.1659455325
 30
0.0
 11
0.1169228868
 21
0.1660824125
 31
0.0
  0
ARC
  5
2A6
330
1F
100
AcDbEntity
  8
0
  6
Continuous
 62
     7
370
    25
100
AcDbCircle
 10
0.1170699137
 20
0.166105275
 30
0.0
 40
0.0001729225744997
100
AcDbArc
 50
146.3747598334
 51
184.0524757246
  0
LINE
  5
2A7
330
1F
100
AcDbEntity
  8
0
  6
Continuous
 62
     7
370
    25
100
AcDbLine
 10
0.1169271931
 20
0.1661999563
 30
0.0
 11
0.116925925
 21
0.1662010324
 31
0.0
  0
LWPOLYLINE
  5
2A8
330
1F
100
AcDbEntity
  8
0
  6
Continuous
 62
     7
370
    25
100
AcDbPolyline
 90
        3
 70
   128
 43
0.0
 10
0.1169228868
 20
0.1660824125
 10
0.1169194149
 20
0.1660793061
 10
0.1169181007
 20
0.1660760734
  0
LINE
  5
2A9
330
1F
100
AcDbEntity
  8
0
  6
Continuous
 62
     7
370
    25
100
AcDbLine
 10
0.1170460444
 20
0.1661999563
 30
0.0
 11
0.1170447764
 21
0.1662010324
 31
0.0
  0
LINE
  5
2AA
330
1F
100
AcDbEntity
  8
0
  6
Continuous
 62
     7
370
    25
100
AcDbLine
 10
0.1170447764
 20
0.1662010324
 30
0.0
 11
0.1170400126
 21
0.1662021724
 31
0.0
  0
LWPOLYLINE
  5
2AB
330
1F
100
AcDbEntity
  8
0
  6
Continuous
 62
     7
370
    25
100
AcDbPolyline
 90
        3
 70
   128
 43
0.0
 10
0.0941673696
 20
0.1659166478
 10
0.0941668942
 20
0.1659246567
 10
0.0941649106
 20
0.1659455325
  0
LINE
  5
2AC
330
1F
100
AcDbEntity
  8
0
  6
Continuous
 62
     7
370
    25
100
AcDbLine
 10
0.0941751411
 20
0.1660407258
 30
0.0
 11
0.0941741883
 21
0.1660468833
 31
0.0
  0
ARC
  5
2AD
330
1F
100
AcDbEntity
  8
0
  6
Continuous
 62
     7
370
    25
100
AcDbCircle
 10
0.0929674447
 20
0.1658855742
 30
0.0
 40
0.0012176216707423
100
AcDbArc
 50
356.0945714043
 51
7.320638126
  0
LINE
  5
2AE
330
1F
100
AcDbEntity
  8
0
  6
Continuous
 62
     7
370
    25
100
AcDbLine
 10
0.0942930397
 20
0.1660468833
 30
0.0
 11
0.0941741883
 21
0.1660468833
 31
0.0
  0
LINE
  5
2AF
330
1F
100
AcDbEntity
  8
0
  6
Continuous
 62
     7
370
    25
100
AcDbLine
 10
0.0942939924
 20
0.1660407258
 30
0.0
 11
0.0942930397
 21
0.1660468833
 31
0.0
  0
ARC
  5
2B0
330
1F
100
AcDbEntity
  8
0
  6
Continuous
 62
     7
370
    25
100
AcDbCircle
 10
0.0931774918
 20
0.1658927237
 30
0.0
 40
0.0011262673949582
100
AcDbArc
 50
358.4199074752
 51
7.5510445893
  0
LINE
  5
2B1
330
1F
100
AcDbEntity
  8
0
  6
Continuous
 62
     7
370
    25
100
AcDbLine
 10
0.0941741883
 20
0.1660468833
 30
0.0
 11
0.0941271931
 21
0.1661999563
 31
0.0
  0
LINE
  5
2B2
330
1F
100
AcDbEntity
  8
0
  6
Continuous
 62
     7
370
    25
100
AcDbLine
 10
0.0942460444
 20
0.1661999563
 30
0.0
 11
0.0941271931
 21
0.1661999563
 31
0.0
  0
LINE
  5
2B3
330
1F
100
AcDbEntity
  8
0
  6
Continuous
 62
     7
370
    25
100
AcDbLine
 10
0.0942930397
 20
0.1660468833
 30
0.0
 11
0.0942460444
 21
0.1661999563
 31
0.0
  0
LINE
  5
2B4
330
1F
100
AcDbEntity
  8
0
  6
Continuous
 62
     7
370
    25
100
AcDbLine
 10
0.0941649106
 20
0.1659455325
 30
0.0
 11
0.0941228868
 21
0.1660824125
 31
0.0
  0
ARC
  5
2B5
330
1F
100
AcDbEntity
  8
0
  6
Continuous
 62
     7
370
    25
100
AcDbCircle
 10
0.0942699137
 20
0.166105275
 30
0.0
 40
0.0001729225745317
100
AcDbArc
 50
146.3747598349
 51
184.052475728
  0
LINE
  5
2B6
330
1F
100
AcDbEntity
  8
0
  6
Continuous
 62
     7
370
    25
100
AcDbLine
 10
0.0941271931
 20
0.1661999563
 30
0.0
 11
0.094125925
 21
0.1662010324
 31
0.0
  0
LWPOLYLINE
  5
2B7
330
1F
100
AcDbEntity
  8
0
  6
Continuous
 62
     7
370
    25
100
AcDbPolyline
 90
        3
 70
   128
 43
0.0
 10
0.0941228868
 20
0.1660824125
 10
0.0941194149
 20
0.1660793061
 10
0.0941181007
 20
0.1660760734
  0
LINE
  5
2B8
330
1F
100
AcDbEntity
  8
0
  6
Continuous
 62
     7
370
    25
100
AcDbLine
 10
0.0942460444
 20
0.1661999563
 30
0.0
 11
0.0942447764
 21
0.1662010324
 31
0.0
  0
LINE
  5
2B9
330
1F
100
AcDbEntity
  8
0
  6
Continuous
 62
     7
370
    25
100
AcDbLine
 10
0.0942447764
 20
0.1662010324
 30
0.0
 11
0.0942400126
 21
0.1662021724
 31
0.0
  0
LINE
  5
2BA
330
1F
100
AcDbEntity
  8
0
  6
Continuous
 62
     7
370
    25
100
AcDbLine
 10
0.0943649671
 20
0.1659791757
 30
0.0
 11
0.0943633185
 21
0.1659755589
 31
0.0
  0
LWPOLYLINE
  5
2BB
330
1F
100
AcDbEntity
  8
0
  6
Continuous
 62
     7
370
    25
100
AcDbPolyline
 90
        3
 70
   128
 43
0.0
 10
0.0943633185
 20
0.1659755589
 10
0.0943523558
 20
0.1659604033
 10
0.0943365376
 20
0.1659482273
  0
ARC
  5
2BC
330
1F
100
AcDbEntity
  8
0
  6
Continuous
 62
     7
370
    25
100
AcDbCircle
 10
0.0941143794
 20
0.1661537413
 30
0.0
 40
0.0002276661340114
100
AcDbArc
 50
231.503653523
 51
256.5726261676
  0
LINE
  5
2BD
330
1F
100
AcDbEntity
  8
0
  6
Continuous
 62
     7
370
    25
100
AcDbLine
 10
0.0939726653
 20
0.1659755589
 30
0.0
 11
0.0939687959
 21
0.1659791757
 31
0.0
  0
LINE
  5
2BE
330
1F
100
AcDbEntity
  8
0
  6
Continuous
 62
     7
370
    25
100
AcDbLine
 10
0.0939755879
 20
0.166088623
 30
0.0
 11
0.0939687959
 21
0.1659791757
 31
0.0
  0
LINE
  5
2BF
330
1F
100
AcDbEntity
  8
0
  6
Continuous
 62
     7
370
    25
100
AcDbLine
 10
0.0939794573
 20
0.1660850062
 30
0.0
 11
0.0939755879
 21
0.166088623
 31
0.0
  0
ARC
  5
2C0
330
1F
100
AcDbEntity
  8
0
  6
Continuous
 62
     7
370
    25
100
AcDbCircle
 10
0.0942760458
 20
0.1661514608
 30
0.0
 40
0.0001151711397799
100
AcDbArc
 50
279.1903941829
 51
324.7596456242
  0
ARC
  5
2C1
330
1F
100
AcDbEntity
  8
0
  6
Continuous
 62
     7
370
    25
100
AcDbCircle
 10
0.0941569452
 20
0.1663332907
 30
0.0
 40
0.0003052002280488
100
AcDbArc
 50
234.4406613728
 51
266.7061785022
  0
LINE
  5
2C2
330
1F
100
AcDbEntity
  8
0
  6
Continuous
 62
     7
370
    25
100
AcDbLine
 10
0.0943717591
 20
0.166088623
 30
0.0
 11
0.0943701105
 21
0.1660850062
 31
0.0
  0
LINE
  5
2C3
330
1F
100
AcDbEntity
  8
0
  6
Continuous
 62
     7
370
    25
100
AcDbLine
 10
0.0943717591
 20
0.166088623
 30
0.0
 11
0.0943649671
 21
0.1659791757
 31
0.0
  0
LWPOLYLINE
  5
2C4
330
1F
100
AcDbEntity
  8
0
  6
Continuous
 62
     7
370
    25
100
AcDbPolyline
 90
        3
 70
   128
 43
0.0
 10
0.0941154162
 20
0.1660848174
 10
0.0941077027
 20
0.1660878348
 10
0.0940919535
 20
0.1660967195
  0
LINE
  5
2C5
330
1F
100
AcDbEntity
  8
0
  6
Continuous
 62
     7
370
    25
100
AcDbLine
 10
0.0939687959
 20
0.1659791757
 30
0.0
 11
0.0939302426
 21
0.1661047512
 31
0.0
  0
LINE
  5
2C6
330
1F
100
AcDbEntity
  8
0
  6
Continuous
 62
     7
370
    25
100
AcDbLine
 10
0.0939755879
 20
0.166088623
 30
0.0
 11
0.0939302426
 21
0.1662363214
 31
0.0
  0
LINE
  5
2C7
330
1F
100
AcDbEntity
  8
0
  6
Continuous
 62
     7
370
    25
100
AcDbLine
 10
0.0940919535
 20
0.1660967195
 30
0.0
 11
0.0940514024
 21
0.1662288026
 31
0.0
  0
LINE
  5
2C8
330
1F
100
AcDbEntity
  8
0
  6
Continuous
 62
     7
370
    25
100
AcDbLine
 10
0.0943482614
 20
0.1661651595
 30
0.0
 11
0.0943717591
 21
0.166088623
 31
0.0
  0
LINE
  5
2C9
330
1F
100
AcDbEntity
  8
0
  6
Continuous
 62
     7
370
    25
100
AcDbLine
 10
0.094330507
 20
0.1662229893
 30
0.0
 11
0.0943482614
 21
0.1661651595
 31
0.0
  0
LINE
  5
2CA
330
1F
100
AcDbEntity
  8
0
  6
Continuous
 62
     7
370
    25
100
AcDbLine
 10
0.0942129487
 20
0.1662187774
 30
0.0
 11
0.094218047
 21
0.1662021714
 31
0.0
  0
ARC
  5
2CB
330
1F
100
AcDbEntity
  8
0
  6
Continuous
 62
     7
370
    25
100
AcDbCircle
 10
0.0928715146
 20
0.1638772146
 30
0.0
 40
0.001265865624059
100
AcDbArc
 50
352.8939306285
 51
3.6908598412
  0
LINE
  5
2CC
330
1F
100
AcDbEntity
  8
0
  6
Continuous
 62
     7
370
    25
100
AcDbLine
 10
0.0941267042
 20
0.1637144612
 30
0.0
 11
0.0941276569
 21
0.1637206186
 31
0.0
  0
LWPOLYLINE
  5
2CD
330
1F
100
AcDbEntity
  8
0
  6
Continuous
 62
     7
370
    25
100
AcDbPolyline
 90
        3
 70
   128
 43
0.0
 10
0.0941174264
 20
0.1638158119
 10
0.09411941
 20
0.1638366877
 10
0.0941199485
 20
0.1638459552
  0
LINE
  5
2CE
330
1F
100
AcDbEntity
  8
0
  6
Continuous
 62
     7
370
    25
100
AcDbLine
 10
0.0941204632
 20
0.163889665
 30
0.0
 11
0.0941196471
 21
0.1639094938
 31
0.0
  0
ARC
  5
2CF
330
1F
100
AcDbEntity
  8
0
  6
Continuous
 62
     7
370
    25
100
AcDbCircle
 10
0.0929903895
 20
0.1638773509
 30
0.0
 40
0.0012658591575198
100
AcDbArc
 50
352.8876731872
 51
4.1008473478
  0
LINE
  5
2D0
330
1F
100
AcDbEntity
  8
0
  6
Continuous
 62
     7
370
    25
100
AcDbLine
 10
0.0942455555
 20
0.1637144612
 30
0.0
 11
0.0942465083
 21
0.1637206186
 31
0.0
  0
LINE
  5
2D1
330
1F
100
AcDbEntity
  8
0
  6
Continuous
 62
     7
370
    25
100
AcDbLine
 10
0.0942455555
 20
0.1637144612
 30
0.0
 11
0.0941267042
 21
0.1637144612
 31
0.0
  0
LINE
  5
2D2
330
1F
100
AcDbEntity
  8
0
  6
Continuous
 62
     7
370
    25
100
AcDbLine
 10
0.0941985603
 20
0.1635613882
 30
0.0
 11
0.0940797089
 21
0.1635613882
 31
0.0
  0
LINE
  5
2D3
330
1F
100
AcDbEntity
  8
0
  6
Continuous
 62
     7
370
    25
100
AcDbLine
 10
0.0940797089
 20
0.1635613882
 30
0.0
 11
0.0941267042
 21
0.1637144612
 31
0.0
  0
LINE
  5
2D4
330
1F
100
AcDbEntity
  8
0
  6
Continuous
 62
     7
370
    25
100
AcDbLine
 10
0.0941985603
 20
0.1635613882
 30
0.0
 11
0.0942455555
 21
0.1637144612
 31
0.0
  0
LINE
  5
2D5
330
1F
100
AcDbEntity
  8
0
  6
Continuous
 62
     7
370
    25
100
AcDbLine
 10
0.0940754026
 20
0.163678932
 30
0.0
 11
0.0941174264
 21
0.1638158119
 31
0.0
  0
LWPOLYLINE
  5
2D6
330
1F
100
AcDbEntity
  8
0
  6
Continuous
 62
     7
370
    25
100
AcDbPolyline
 90
        3
 70
   128
 43
0.0
 10
0.0940715957
 20
0.1636827468
 10
0.0940719308
 20
0.1636820384
 10
0.0940754026
 20
0.163678932
  0
LINE
  5
2D7
330
1F
100
AcDbEntity
  8
0
  6
Continuous
 62
     7
370
    25
100
AcDbLine
 10
0.0940784408
 20
0.1635603121
 30
0.0
 11
0.0940797089
 21
0.1635613882
 31
0.0
  0
LWPOLYLINE
  5
2D8
330
1F
100
AcDbEntity
  8
0
  6
Continuous
 62
     7
370
    25
100
AcDbPolyline
 90
        3
 70
   128
 43
0.0
 10
0.0940715957
 20
0.1635604897
 10
0.0940728955
 20
0.1635595365
 10
0.0940784408
 20
0.1635603121
  0
LINE
  5
2D9
330
1F
100
AcDbEntity
  8
0
  6
Continuous
 62
     7
370
    25
100
AcDbLine
 10
0.0941925248
 20
0.1635591734
 30
0.0
 11
0.0941972922
 21
0.1635603121
 31
0.0
  0
LINE
  5
2DA
330
1F
100
AcDbEntity
  8
0
  6
Continuous
 62
     7
370
    25
100
AcDbLine
 10
0.0941972922
 20
0.1635603121
 30
0.0
 11
0.0941985603
 21
0.1635613882
 31
0.0
  0
ARC
  5
2DB
330
1F
100
AcDbEntity
  8
0
  6
Continuous
 62
     7
370
    25
100
AcDbCircle
 10
0.0942211741
 20
0.1637525113
 30
0.0
 40
0.0003213871535421
100
AcDbArc
 50
89.2695495817
 51
125.1803679751
  0
ARC
  5
2DC
330
1F
100
AcDbEntity
  8
0
  6
Continuous
 62
     7
370
    25
100
AcDbCircle
 10
0.0943180943
 20
0.1639303339
 30
0.0
 40
0.0001377958683411
100
AcDbArc
 50
38.0132421929
 51
86.404639373
  0
LINE
  5
2DD
330
1F
100
AcDbEntity
  8
0
  6
Continuous
 62
     7
370
    25
100
AcDbLine
 10
0.0940321368
 20
0.1640115778
 30
0.0
 11
0.0940360062
 21
0.1640151946
 31
0.0
  0
LINE
  5
2DE
330
1F
100
AcDbEntity
  8
0
  6
Continuous
 62
     7
370
    25
100
AcDbLine
 10
0.0940321368
 20
0.1640115778
 30
0.0
 11
0.0940253448
 21
0.1641210251
 31
0.0
  0
LINE
  5
2DF
330
1F
100
AcDbEntity
  8
0
  6
Continuous
 62
     7
370
    25
100
AcDbLine
 10
0.0940253448
 20
0.1641210251
 30
0.0
 11
0.0940292142
 21
0.1641246419
 31
0.0
  0
LINE
  5
2E0
330
1F
100
AcDbEntity
  8
0
  6
Continuous
 62
     7
370
    25
100
AcDbLine
 10
0.0940292142
 20
0.1641246419
 30
0.0
 11
0.0940315738
 21
0.1641267769
 31
0.0
  0
LINE
  5
2E1
330
1F
100
AcDbEntity
  8
0
  6
Continuous
 62
     7
370
    25
100
AcDbLine
 10
0.094428308
 20
0.1640115778
 30
0.0
 11
0.0944275575
 21
0.1640236708
 31
0.0
  0
LINE
  5
2E2
330
1F
100
AcDbEntity
  8
0
  6
Continuous
 62
     7
370
    25
100
AcDbLine
 10
0.0944266594
 20
0.1640151946
 30
0.0
 11
0.094428308
 21
0.1640115778
 31
0.0
  0
ARC
  5
2E3
330
1F
100
AcDbEntity
  8
0
  6
Continuous
 62
     7
370
    25
100
AcDbCircle
 10
0.0942277366
 20
0.1638805992
 30
0.0
 40
0.0001462124653891
100
AcDbArc
 50
57.1861308381
 51
122.8138691619
  0
LINE
  5
2E4
330
1F
100
AcDbEntity
  8
0
  6
Continuous
 62
     7
370
    25
100
AcDbLine
 10
0.0939851415
 20
0.1638585048
 30
0.0
 11
0.0939783495
 21
0.1639679521
 31
0.0
  0
LINE
  5
2E5
330
1F
100
AcDbEntity
  8
0
  6
Continuous
 62
     7
370
    25
100
AcDbLine
 10
0.0939783495
 20
0.1639679521
 30
0.0
 11
0.0940253448
 21
0.1641210251
 31
0.0
  0
LINE
  5
2E6
330
1F
100
AcDbEntity
  8
0
  6
Continuous
 62
     7
370
    25
100
AcDbLine
 10
0.0939851415
 20
0.1638585048
 30
0.0
 11
0.0940321368
 21
0.1640115778
 31
0.0
  0
LINE
  5
2E7
330
1F
100
AcDbEntity
  8
0
  6
Continuous
 62
     7
370
    25
100
AcDbLine
 10
0.0941064786
 20
0.1638666013
 30
0.0
 11
0.0941485024
 21
0.1640034813
 31
0.0
  0
LINE
  5
2E8
330
1F
100
AcDbEntity
  8
0
  6
Continuous
 62
     7
370
    25
100
AcDbLine
 10
0.094428308
 20
0.1640115778
 30
0.0
 11
0.0944048103
 21
0.1639350413
 31
0.0
  0
LINE
  5
2E9
330
1F
100
AcDbEntity
  8
0
  6
Continuous
 62
     7
370
    25
100
AcDbLine
 10
0.0943069709
 20
0.1640034813
 30
0.0
 11
0.094285959
 21
0.1639350413
 31
0.0
  0
LINE
  5
2EA
330
1F
100
AcDbEntity
  8
0
  6
Continuous
 62
     7
370
    25
100
AcDbLine
 10
0.094285959
 20
0.1639350413
 30
0.0
 11
0.094264947
 21
0.1638666013
 31
0.0
  0
LINE
  5
2EB
330
1F
100
AcDbEntity
  8
0
  6
Continuous
 62
     7
370
    25
100
AcDbLine
 10
0.094264947
 20
0.1638666013
 30
0.0
 11
0.0942586349
 21
0.1639683157
 31
0.0
  0
LINE
  5
2EC
330
1F
100
AcDbEntity
  8
0
  6
Continuous
 62
     7
370
    25
100
AcDbLine
 10
0.0944048103
 20
0.1639350413
 30
0.0
 11
0.0943813127
 21
0.1638585048
 31
0.0
  0
ARC
  5
2ED
330
1F
100
AcDbEntity
  8
0
  6
Continuous
 62
     7
370
    25
100
AcDbCircle
 10
0.0942144744
 20
0.1640738625
 30
0.0
 40
0.0002729627482961
100
AcDbArc
 50
278.3916413322
 51
306.6579911368
  0
ARC
  5
2EE
330
1F
100
AcDbEntity
  8
0
  6
Continuous
 62
     7
370
    25
100
AcDbCircle
 10
0.0941130588
 20
0.1639679911
 30
0.0
 40
0.00016951724142
100
AcDbArc
 50
221.8518548534
 51
269.6773676531
  0
LINE
  5
2EF
330
1F
100
AcDbEntity
  8
0
  6
Continuous
 62
     7
370
    25
100
AcDbLine
 10
0.0939867901
 20
0.1638548881
 30
0.0
 11
0.0939851415
 21
0.1638585048
 31
0.0
  0
LINE
  5
2F0
330
1F
100
AcDbEntity
  8
0
  6
Continuous
 62
     7
370
    25
100
AcDbLine
 10
0.094264947
 20
0.1638666013
 30
0.0
 11
0.0942559863
 21
0.1638609693
 31
0.0
  0
LWPOLYLINE
  5
2F1
330
1F
100
AcDbEntity
  8
0
  6
Continuous
 62
     7
370
    25
100
AcDbPolyline
 90
        3
 70
   128
 43
0.0
 10
0.094122633
 20
0.1638546993
 10
0.0941167723
 20
0.1638577166
 10
0.0941064786
 20
0.1638666013
  0
LINE
  5
2F2
330
1F
100
AcDbEntity
  8
0
  6
Continuous
 62
     7
370
    25
100
AcDbLine
 10
0.0943813127
 20
0.1638585048
 30
0.0
 11
0.0943774433
 21
0.1638548881
 31
0.0
  0
LINE
  5
2F3
330
1F
100
AcDbEntity
  8
0
  6
Continuous
 62
     7
370
    25
100
AcDbLine
 10
0.0855584683
 20
0.1642980816
 30
0.0
 11
0.0855756615
 21
0.1642420801
 31
0.0
  0
LINE
  5
2F4
330
1F
100
AcDbEntity
  8
0
  6
Continuous
 62
     7
370
    25
100
AcDbLine
 10
0.0854568101
 20
0.1642420801
 30
0.0
 11
0.0855756615
 21
0.1642420801
 31
0.0
  0
LINE
  5
2F5
330
1F
100
AcDbEntity
  8
0
  6
Continuous
 62
     7
370
    25
100
AcDbLine
 10
0.0854396169
 20
0.1642980816
 30
0.0
 11
0.0854568101
 21
0.1642420801
 31
0.0
  0
ARC
  5
2F6
330
1F
100
AcDbEntity
  8
0
  6
Continuous
 62
     7
370
    25
100
AcDbCircle
 10
0.0855377304
 20
0.1642902058
 30
0.0
 40
0.0000629078136452
100
AcDbArc
 50
308.5443974314
 51
7.1921076685
  0
LINE
  5
2F7
330
1F
100
AcDbEntity
  8
0
  6
Continuous
 62
     7
370
    25
100
AcDbLine
 10
0.0855756615
 20
0.1642420801
 30
0.0
 11
0.0855769295
 21
0.164241004
 31
0.0
  0
LINE
  5
2F8
330
1F
100
AcDbEntity
  8
0
  6
Continuous
 62
     7
370
    25
100
AcDbLine
 10
0.0854580782
 20
0.164241004
 30
0.0
 11
0.0854628419
 21
0.1642398639
 31
0.0
  0
LINE
  5
2F9
330
1F
100
AcDbEntity
  8
0
  6
Continuous
 62
     7
370
    25
100
AcDbLine
 10
0.0854568101
 20
0.1642420801
 30
0.0
 11
0.0854580782
 21
0.164241004
 31
0.0
  0
ARC
  5
2FA
330
1F
100
AcDbEntity
  8
0
  6
Continuous
 62
     7
370
    25
100
AcDbCircle
 10
0.0868399002
 20
0.1642161162
 30
0.0
 40
0.0012176216707402
100
AcDbArc
 50
176.0945714043
 51
187.320638126
  0
LINE
  5
2FB
330
1F
100
AcDbEntity
  8
0
  6
Continuous
 62
     7
370
    25
100
AcDbLine
 10
0.0856402136
 20
0.1642498398
 30
0.0
 11
0.0856393976
 21
0.164230011
 31
0.0
  0
LWPOLYLINE
  5
2FC
330
1F
100
AcDbEntity
  8
0
  6
Continuous
 62
     7
370
    25
100
AcDbPolyline
 90
        3
 70
   128
 43
0.0
 10
0.0856399122
 20
0.1641863012
 10
0.0856404507
 20
0.1641770337
 10
0.0856424343
 20
0.1641561579
  0
LINE
  5
2FD
330
1F
100
AcDbEntity
  8
0
  6
Continuous
 62
     7
370
    25
100
AcDbLine
 10
0.0856322038
 20
0.1640609646
 30
0.0
 11
0.0856331566
 21
0.1640548071
 31
0.0
  0
ARC
  5
2FE
330
1F
100
AcDbEntity
  8
0
  6
Continuous
 62
     7
370
    25
100
AcDbCircle
 10
0.0866298531
 20
0.1642089667
 30
0.0
 40
0.0011262673949605
100
AcDbArc
 50
178.4199074752
 51
187.5510445893
  0
LINE
  5
2FF
330
1F
100
AcDbEntity
  8
0
  6
Continuous
 62
     7
370
    25
100
AcDbLine
 10
0.0855143052
 20
0.1640548071
 30
0.0
 11
0.0856331566
 21
0.1640548071
 31
0.0
  0
LINE
  5
300
330
1F
100
AcDbEntity
  8
0
  6
Continuous
 62
     7
370
    25
100
AcDbLine
 10
0.0855133525
 20
0.1640609646
 30
0.0
 11
0.0855143052
 21
0.1640548071
 31
0.0
  0
LINE
  5
301
330
1F
100
AcDbEntity
  8
0
  6
Continuous
 62
     7
370
    25
100
AcDbLine
 10
0.0856424343
 20
0.1641561579
 30
0.0
 11
0.0856634462
 21
0.1640877179
 31
0.0
  0
LINE
  5
302
330
1F
100
AcDbEntity
  8
0
  6
Continuous
 62
     7
370
    25
100
AcDbLine
 10
0.0856331566
 20
0.1640548071
 30
0.0
 11
0.0856566542
 21
0.1639782706
 31
0.0
  0
LINE
  5
303
330
1F
100
AcDbEntity
  8
0
  6
Continuous
 62
     7
370
    25
100
AcDbLine
 10
0.0855143052
 20
0.1640548071
 30
0.0
 11
0.0855378028
 21
0.1639782706
 31
0.0
  0
LINE
  5
304
330
1F
100
AcDbEntity
  8
0
  6
Continuous
 62
     7
370
    25
100
AcDbLine
 10
0.0856634462
 20
0.1640877179
 30
0.0
 11
0.0856844581
 21
0.1640192779
 31
0.0
  0
LINE
  5
305
330
1F
100
AcDbEntity
  8
0
  6
Continuous
 62
     7
370
    25
100
AcDbLine
 10
0.0856566542
 20
0.1639782706
 30
0.0
 11
0.0856801518
 21
0.1639017341
 31
0.0
  0
LINE
  5
306
330
1F
100
AcDbEntity
  8
0
  6
Continuous
 62
     7
370
    25
100
AcDbLine
 10
0.0855613005
 20
0.1639017341
 30
0.0
 11
0.0856801518
 21
0.1639017341
 31
0.0
  0
LINE
  5
307
330
1F
100
AcDbEntity
  8
0
  6
Continuous
 62
     7
370
    25
100
AcDbLine
 10
0.0855378028
 20
0.1639782706
 30
0.0
 11
0.0855613005
 21
0.1639017341
 31
0.0
  0
LWPOLYLINE
  5
308
330
1F
100
AcDbEntity
  8
0
  6
Continuous
 62
     7
370
    25
100
AcDbPolyline
 90
        3
 70
   128
 43
0.0
 10
0.0856844581
 20
0.1640192779
 10
0.08568793
 20
0.1640223843
 10
0.0856892442
 20
0.164025617
  0
ARC
  5
309
330
1F
100
AcDbEntity
  8
0
  6
Continuous
 62
     7
370
    25
100
AcDbCircle
 10
0.0855386622
 20
0.1639958208
 30
0.0
 40
0.0001715684152827
100
AcDbArc
 50
326.3124594081
 51
3.8928923463
  0
LINE
  5
30A
330
1F
100
AcDbEntity
  8
0
  6
Continuous
 62
     7
370
    25
100
AcDbLine
 10
0.0856801518
 20
0.1639017341
 30
0.0
 11
0.0856814199
 21
0.163900658
 31
0.0
  0
LINE
  5
30B
330
1F
100
AcDbEntity
  8
0
  6
Continuous
 62
     7
370
    25
100
AcDbLine
 10
0.0855625685
 20
0.163900658
 30
0.0
 11
0.0855673323
 21
0.163899518
 31
0.0
  0
LINE
  5
30C
330
1F
100
AcDbEntity
  8
0
  6
Continuous
 62
     7
370
    25
100
AcDbLine
 10
0.0855613005
 20
0.1639017341
 30
0.0
 11
0.0855625685
 21
0.163900658
 31
0.0
  0
LINE
  5
30D
330
1F
100
AcDbEntity
  8
0
  6
Continuous
 62
     7
370
    25
100
AcDbLine
 10
0.0857808773
 20
0.1642980816
 30
0.0
 11
0.0857747192
 21
0.1641988508
 31
0.0
  0
LINE
  5
30E
330
1F
100
AcDbEntity
  8
0
  6
Continuous
 62
     7
370
    25
100
AcDbLine
 10
0.0857747192
 20
0.1641988508
 30
0.0
 11
0.0857442542
 21
0.1642980816
 31
0.0
  0
LINE
  5
30F
330
1F
100
AcDbEntity
  8
0
  6
Continuous
 62
     7
370
    25
100
AcDbLine
 10
0.0856533822
 20
0.1642069473
 30
0.0
 11
0.0856113583
 21
0.1643438273
 31
0.0
  0
LINE
  5
310
330
1F
100
AcDbEntity
  8
0
  6
Continuous
 62
     7
370
    25
100
AcDbLine
 10
0.085348083
 20
0.1642980816
 30
0.0
 11
0.0853550504
 21
0.1642753873
 31
0.0
  0
LINE
  5
311
330
1F
100
AcDbEntity
  8
0
  6
Continuous
 62
     7
370
    25
100
AcDbLine
 10
0.0854848076
 20
0.164239865
 30
0.0
 11
0.0854949137
 21
0.1642069473
 31
0.0
  0
LINE
  5
312
330
1F
100
AcDbEntity
  8
0
  6
Continuous
 62
     7
370
    25
100
AcDbLine
 10
0.0853550504
 20
0.1642753873
 30
0.0
 11
0.085378548
 21
0.1641988508
 31
0.0
  0
LINE
  5
313
330
1F
100
AcDbEntity
  8
0
  6
Continuous
 62
     7
370
    25
100
AcDbLine
 10
0.0854969565
 20
0.164239865
 30
0.0
 11
0.0854949137
 21
0.1642069473
 31
0.0
  0
LINE
  5
314
330
1F
100
AcDbEntity
  8
0
  6
Continuous
 62
     7
370
    25
100
AcDbLine
 10
0.0854949137
 20
0.1642069473
 30
0.0
 11
0.0855038745
 21
0.1642013152
 31
0.0
  0
LWPOLYLINE
  5
315
330
1F
100
AcDbEntity
  8
0
  6
Continuous
 62
     7
370
    25
100
AcDbPolyline
 90
        3
 70
   128
 43
0.0
 10
0.0856372277
 20
0.1641950452
 10
0.0856430884
 20
0.1641980626
 10
0.0856533822
 20
0.1642069473
  0
LINE
  5
316
330
1F
100
AcDbEntity
  8
0
  6
Continuous
 62
     7
370
    25
100
AcDbLine
 10
0.0857730706
 20
0.164195234
 30
0.0
 11
0.0857747192
 21
0.1641988508
 31
0.0
  0
ARC
  5
317
330
1F
100
AcDbEntity
  8
0
  6
Continuous
 62
     7
370
    25
100
AcDbCircle
 10
0.0855453863
 20
0.1644142084
 30
0.0
 40
0.0002729627483045
100
AcDbArc
 50
233.3420088636
 51
261.6083586679
  0
ARC
  5
318
330
1F
100
AcDbEntity
  8
0
  6
Continuous
 62
     7
370
    25
100
AcDbCircle
 10
0.0856468019
 20
0.1643083371
 30
0.0
 40
0.0001695172414262
100
AcDbArc
 50
270.3226323478
 51
318.1481451457
  0
LINE
  5
319
330
1F
100
AcDbEntity
  8
0
  6
Continuous
 62
     7
370
    25
100
AcDbLine
 10
0.085378548
 20
0.1641988508
 30
0.0
 11
0.0853824174
 21
0.164195234
 31
0.0
  0
ARC
  5
31A
330
1F
100
AcDbEntity
  8
0
  6
Continuous
 62
     7
370
    25
100
AcDbCircle
 10
0.0869443906
 20
0.1638757703
 30
0.0
 40
0.0012176216707391
100
AcDbArc
 50
176.0945714043
 51
187.320638126
  0
LINE
  5
31B
330
1F
100
AcDbEntity
  8
0
  6
Continuous
 62
     7
370
    25
100
AcDbLine
 10
0.085744704
 20
0.1639094938
 30
0.0
 11
0.0857438879
 21
0.163889665
 31
0.0
  0
LWPOLYLINE
  5
31C
330
1F
100
AcDbEntity
  8
0
  6
Continuous
 62
     7
370
    25
100
AcDbPolyline
 90
        3
 70
   128
 43
0.0
 10
0.0857444026
 20
0.1638459552
 10
0.0857449411
 20
0.1638366877
 10
0.0857469247
 20
0.1638158119
  0
LINE
  5
31D
330
1F
100
AcDbEntity
  8
0
  6
Continuous
 62
     7
370
    25
100
AcDbLine
 10
0.0857366942
 20
0.1637206186
 30
0.0
 11
0.0857376469
 21
0.1637144612
 31
0.0
  0
ARC
  5
31E
330
1F
100
AcDbEntity
  8
0
  6
Continuous
 62
     7
370
    25
100
AcDbCircle
 10
0.0867343435
 20
0.1638686208
 30
0.0
 40
0.0011262673949608
100
AcDbArc
 50
178.4199074752
 51
187.5510445893
  0
LINE
  5
31F
330
1F
100
AcDbEntity
  8
0
  6
Continuous
 62
     7
370
    25
100
AcDbLine
 10
0.0856187956
 20
0.1637144612
 30
0.0
 11
0.0857376469
 21
0.1637144612
 31
0.0
  0
LINE
  5
320
330
1F
100
AcDbEntity
  8
0
  6
Continuous
 62
     7
370
    25
100
AcDbLine
 10
0.0856178428
 20
0.1637206186
 30
0.0
 11
0.0856187956
 21
0.1637144612
 31
0.0
  0
LINE
  5
321
330
1F
100
AcDbEntity
  8
0
  6
Continuous
 62
     7
370
    25
100
AcDbLine
 10
0.0857469247
 20
0.1638158119
 30
0.0
 11
0.0857679366
 21
0.1637473719
 31
0.0
  0
LINE
  5
322
330
1F
100
AcDbEntity
  8
0
  6
Continuous
 62
     7
370
    25
100
AcDbLine
 10
0.0857376469
 20
0.1637144612
 30
0.0
 11
0.0857611446
 21
0.1636379247
 31
0.0
  0
LINE
  5
323
330
1F
100
AcDbEntity
  8
0
  6
Continuous
 62
     7
370
    25
100
AcDbLine
 10
0.0856187956
 20
0.1637144612
 30
0.0
 11
0.0856422932
 21
0.1636379247
 31
0.0
  0
LINE
  5
324
330
1F
100
AcDbEntity
  8
0
  6
Continuous
 62
     7
370
    25
100
AcDbLine
 10
0.0857679366
 20
0.1637473719
 30
0.0
 11
0.0857889485
 21
0.163678932
 31
0.0
  0
LINE
  5
325
330
1F
100
AcDbEntity
  8
0
  6
Continuous
 62
     7
370
    25
100
AcDbLine
 10
0.0857611446
 20
0.1636379247
 30
0.0
 11
0.0857846422
 21
0.1635613882
 31
0.0
  0
LINE
  5
326
330
1F
100
AcDbEntity
  8
0
  6
Continuous
 62
     7
370
    25
100
AcDbLine
 10
0.0856657908
 20
0.1635613882
 30
0.0
 11
0.0857846422
 21
0.1635613882
 31
0.0
  0
LINE
  5
327
330
1F
100
AcDbEntity
  8
0
  6
Continuous
 62
     7
370
    25
100
AcDbLine
 10
0.0856422932
 20
0.1636379247
 30
0.0
 11
0.0856657908
 21
0.1635613882
 31
0.0
  0
LWPOLYLINE
  5
328
330
1F
100
AcDbEntity
  8
0
  6
Continuous
 62
     7
370
    25
100
AcDbPolyline
 90
        3
 70
   128
 43
0.0
 10
0.0857889485
 20
0.163678932
 10
0.0857924203
 20
0.1636820384
 10
0.0857927554
 20
0.1636827468
  0
LWPOLYLINE
  5
329
330
1F
100
AcDbEntity
  8
0
  6
Continuous
 62
     7
370
    25
100
AcDbPolyline
 90
        3
 70
   128
 43
0.0
 10
0.0857859103
 20
0.1635603121
 10
0.0857914556
 20
0.1635595365
 10
0.0857927554
 20
0.1635604897
  0
LINE
  5
32A
330
1F
100
AcDbEntity
  8
0
  6
Continuous
 62
     7
370
    25
100
AcDbLine
 10
0.0857846422
 20
0.1635613882
 30
0.0
 11
0.0857859103
 21
0.1635603121
 31
0.0
  0
LINE
  5
32B
330
1F
100
AcDbEntity
  8
0
  6
Continuous
 62
     7
370
    25
100
AcDbLine
 10
0.0856670589
 20
0.1635603121
 30
0.0
 11
0.0856718227
 21
0.163559172
 31
0.0
  0
LINE
  5
32C
330
1F
100
AcDbEntity
  8
0
  6
Continuous
 62
     7
370
    25
100
AcDbLine
 10
0.0856657908
 20
0.1635613882
 30
0.0
 11
0.0856670589
 21
0.1635603121
 31
0.0
  0
ARC
  5
32D
330
1F
100
AcDbEntity
  8
0
  6
Continuous
 62
     7
370
    25
100
AcDbCircle
 10
0.0856934228
 20
0.1639464595
 30
0.0
 40
0.0002276661340046
100
AcDbArc
 50
51.5036535226
 51
76.5726261681
  0
LWPOLYLINE
  5
32E
330
1F
100
AcDbEntity
  8
0
  6
Continuous
 62
     7
370
    25
100
AcDbPolyline
 90
        3
 70
   128
 43
0.0
 10
0.0854712646
 20
0.1641519735
 10
0.0854554465
 20
0.1641397975
 10
0.0854444838
 20
0.1641246419
  0
LINE
  5
32F
330
1F
100
AcDbEntity
  8
0
  6
Continuous
 62
     7
370
    25
100
AcDbLine
 10
0.0858390063
 20
0.1641210251
 30
0.0
 11
0.0858351369
 21
0.1641246419
 31
0.0
  0
LINE
  5
330
330
1F
100
AcDbEntity
  8
0
  6
Continuous
 62
     7
370
    25
100
AcDbLine
 10
0.0858390063
 20
0.1641210251
 30
0.0
 11
0.0858322143
 21
0.1640115778
 31
0.0
  0
LINE
  5
331
330
1F
100
AcDbEntity
  8
0
  6
Continuous
 62
     7
370
    25
100
AcDbLine
 10
0.0858322143
 20
0.1640115778
 30
0.0
 11
0.0858283449
 21
0.1640151946
 31
0.0
  0
ARC
  5
332
330
1F
100
AcDbEntity
  8
0
  6
Continuous
 62
     7
370
    25
100
AcDbCircle
 10
0.085650857
 20
0.16376691
 30
0.0
 40
0.0003052002280515
100
AcDbArc
 50
54.440661373
 51
86.706178502
  0
ARC
  5
333
330
1F
100
AcDbEntity
  8
0
  6
Continuous
 62
     7
370
    25
100
AcDbCircle
 10
0.0855316574
 20
0.1639488411
 30
0.0
 40
0.00011503182415
100
AcDbArc
 50
99.2651337178
 51
144.7723321004
  0
LINE
  5
334
330
1F
100
AcDbEntity
  8
0
  6
Continuous
 62
     7
370
    25
100
AcDbLine
 10
0.0854376917
 20
0.1640151946
 30
0.0
 11
0.0854360431
 21
0.1640115778
 31
0.0
  0
LINE
  5
335
330
1F
100
AcDbEntity
  8
0
  6
Continuous
 62
     7
370
    25
100
AcDbLine
 10
0.0854428351
 20
0.1641210251
 30
0.0
 11
0.0854360431
 21
0.1640115778
 31
0.0
  0
LINE
  5
336
330
1F
100
AcDbEntity
  8
0
  6
Continuous
 62
     7
370
    25
100
AcDbLine
 10
0.0854444838
 20
0.1641246419
 30
0.0
 11
0.0854428351
 21
0.1641210251
 31
0.0
  0
LWPOLYLINE
  5
337
330
1F
100
AcDbEntity
  8
0
  6
Continuous
 62
     7
370
    25
100
AcDbPolyline
 90
        3
 70
   128
 43
0.0
 10
0.0857158487
 20
0.1640034813
 10
0.0857000996
 20
0.164012366
 10
0.0856923861
 20
0.1640153834
  0
LINE
  5
338
330
1F
100
AcDbEntity
  8
0
  6
Continuous
 62
     7
370
    25
100
AcDbLine
 10
0.0858860016
 20
0.1639679521
 30
0.0
 11
0.0858792096
 21
0.1638585048
 31
0.0
  0
LINE
  5
339
330
1F
100
AcDbEntity
  8
0
  6
Continuous
 62
     7
370
    25
100
AcDbLine
 10
0.0858792096
 20
0.1638585048
 30
0.0
 11
0.0858322143
 21
0.1640115778
 31
0.0
  0
LINE
  5
33A
330
1F
100
AcDbEntity
  8
0
  6
Continuous
 62
     7
370
    25
100
AcDbLine
 10
0.0858860016
 20
0.1639679521
 30
0.0
 11
0.0858390063
 21
0.1641210251
 31
0.0
  0
LINE
  5
33B
330
1F
100
AcDbEntity
  8
0
  6
Continuous
 62
     7
370
    25
100
AcDbLine
 10
0.0857578725
 20
0.1638666013
 30
0.0
 11
0.0857158487
 21
0.1640034813
 31
0.0
  0
LINE
  5
33C
330
1F
100
AcDbEntity
  8
0
  6
Continuous
 62
     7
370
    25
100
AcDbLine
 10
0.0854360431
 20
0.1640115778
 30
0.0
 11
0.0854595408
 21
0.1639350413
 31
0.0
  0
LINE
  5
33D
330
1F
100
AcDbEntity
  8
0
  6
Continuous
 62
     7
370
    25
100
AcDbLine
 10
0.0855892979
 20
0.163899519
 30
0.0
 11
0.0855994041
 21
0.1638666013
 31
0.0
  0
LINE
  5
33E
330
1F
100
AcDbEntity
  8
0
  6
Continuous
 62
     7
370
    25
100
AcDbLine
 10
0.0854595408
 20
0.1639350413
 30
0.0
 11
0.0854830384
 21
0.1638585048
 31
0.0
  0
LINE
  5
33F
330
1F
100
AcDbEntity
  8
0
  6
Continuous
 62
     7
370
    25
100
AcDbLine
 10
0.0856014468
 20
0.163899519
 30
0.0
 11
0.0855994041
 21
0.1638666013
 31
0.0
  0
LINE
  5
340
330
1F
100
AcDbEntity
  8
0
  6
Continuous
 62
     7
370
    25
100
AcDbLine
 10
0.0855994041
 20
0.1638666013
 30
0.0
 11
0.0856083648
 21
0.1638609693
 31
0.0
  0
LWPOLYLINE
  5
341
330
1F
100
AcDbEntity
  8
0
  6
Continuous
 62
     7
370
    25
100
AcDbPolyline
 90
        3
 70
   128
 43
0.0
 10
0.0857417181
 20
0.1638546993
 10
0.0857475788
 20
0.1638577166
 10
0.0857578725
 20
0.1638666013
  0
LINE
  5
342
330
1F
100
AcDbEntity
  8
0
  6
Continuous
 62
     7
370
    25
100
AcDbLine
 10
0.085877561
 20
0.1638548881
 30
0.0
 11
0.0858792096
 21
0.1638585048
 31
0.0
  0
ARC
  5
343
330
1F
100
AcDbEntity
  8
0
  6
Continuous
 62
     7
370
    25
100
AcDbCircle
 10
0.0856498767
 20
0.1640738625
 30
0.0
 40
0.0002729627483053
100
AcDbArc
 50
233.3420088636
 51
261.608358668
  0
ARC
  5
344
330
1F
100
AcDbEntity
  8
0
  6
Continuous
 62
     7
370
    25
100
AcDbCircle
 10
0.0857512923
 20
0.1639679911
 30
0.0
 40
0.0001695172414252
100
AcDbArc
 50
270.3226323476
 51
318.1481451458
  0
LINE
  5
345
330
1F
100
AcDbEntity
  8
0
  6
Continuous
 62
     7
370
    25
100
AcDbLine
 10
0.0854830384
 20
0.1638585048
 30
0.0
 11
0.0854869078
 21
0.1638548881
 31
0.0
  0
LINE
  5
346
330
1F
100
AcDbEntity
  8
0
  6
Continuous
 62
     7
370
    25
100
AcDbLine
 10
0.0855281773
 20
0.1655192644
 30
0.0
 11
0.085523516
 21
0.1655040816
 31
0.0
  0
LINE
  5
347
330
1F
100
AcDbEntity
  8
0
  6
Continuous
 62
     7
370
    25
100
AcDbLine
 10
0.0854093259
 20
0.1655192644
 30
0.0
 11
0.0854046647
 21
0.1655040816
 31
0.0
  0
LINE
  5
348
330
1F
100
AcDbEntity
  8
0
  6
Continuous
 62
     7
370
    25
100
AcDbLine
 10
0.0854093259
 20
0.1655192644
 30
0.0
 11
0.0855281773
 21
0.1655192644
 31
0.0
  0
LWPOLYLINE
  5
349
330
1F
100
AcDbEntity
  8
0
  6
Continuous
 62
     7
370
    25
100
AcDbPolyline
 90
        4
 70
   128
 43
0.0
 10
0.08554431
 20
0.1655040816
 10
0.0855404521
 20
0.1655141083
 10
0.0855349907
 20
0.165521116
 10
0.0855294454
 20
0.1655203405
  0
LINE
  5
34A
330
1F
100
AcDbEntity
  8
0
  6
Continuous
 62
     7
370
    25
100
AcDbLine
 10
0.0855294454
 20
0.1655203405
 30
0.0
 11
0.0855281773
 21
0.1655192644
 31
0.0
  0
LINE
  5
34B
330
1F
100
AcDbEntity
  8
0
  6
Continuous
 62
     7
370
    25
100
AcDbLine
 10
0.0854153614
 20
0.1655214792
 30
0.0
 11
0.085410594
 21
0.1655203405
 31
0.0
  0
LINE
  5
34C
330
1F
100
AcDbEntity
  8
0
  6
Continuous
 62
     7
370
    25
100
AcDbLine
 10
0.085410594
 20
0.1655203405
 30
0.0
 11
0.0854093259
 21
0.1655192644
 31
0.0
  0
LINE
  5
34D
330
1F
100
AcDbEntity
  8
0
  6
Continuous
 62
     7
370
    25
100
AcDbLine
 10
0.0857093019
 20
0.1655040816
 30
0.0
 11
0.0857267778
 21
0.1655610041
 31
0.0
  0
LINE
  5
34E
330
1F
100
AcDbEntity
  8
0
  6
Continuous
 62
     7
370
    25
100
AcDbLine
 10
0.0857303102
 20
0.1655040816
 30
0.0
 11
0.0857267778
 21
0.1655610041
 31
0.0
  0
LINE
  5
34F
330
1F
100
AcDbEntity
  8
0
  6
Continuous
 62
     7
370
    25
100
AcDbLine
 10
0.0855904505
 20
0.1655040816
 30
0.0
 11
0.0856054407
 21
0.1655529075
 31
0.0
  0
LINE
  5
350
330
1F
100
AcDbEntity
  8
0
  6
Continuous
 62
     7
370
    25
100
AcDbLine
 10
0.0854469722
 20
0.1655529075
 30
0.0
 11
0.0854373234
 21
0.1655214795
 31
0.0
  0
LINE
  5
351
330
1F
100
AcDbEntity
  8
0
  6
Continuous
 62
     7
370
    25
100
AcDbLine
 10
0.0854489225
 20
0.1655214795
 30
0.0
 11
0.0854469722
 21
0.1655529075
 31
0.0
  0
LINE
  5
352
330
1F
100
AcDbEntity
  8
0
  6
Continuous
 62
     7
370
    25
100
AcDbLine
 10
0.0853306066
 20
0.1655610041
 30
0.0
 11
0.0853131307
 21
0.1655040816
 31
0.0
  0
ARC
  5
353
330
1F
100
AcDbEntity
  8
0
  6
Continuous
 62
     7
370
    25
100
AcDbCircle
 10
0.0855988604
 20
0.1654515178
 30
0.0
 40
0.0001695172414247
100
AcDbArc
 50
41.851854854
 51
89.6773676524
  0
ARC
  5
354
330
1F
100
AcDbEntity
  8
0
  6
Continuous
 62
     7
370
    25
100
AcDbCircle
 10
0.0854934461
 20
0.1653553831
 30
0.0
 40
0.0002627773439788
100
AcDbArc
 50
97.753272057
 51
127.2260645178
  0
LINE
  5
355
330
1F
100
AcDbEntity
  8
0
  6
Continuous
 62
     7
370
    25
100
AcDbLine
 10
0.0857267778
 20
0.1655610041
 30
0.0
 11
0.0857251291
 21
0.1655646208
 31
0.0
  0
LWPOLYLINE
  5
356
330
1F
100
AcDbEntity
  8
0
  6
Continuous
 62
     7
370
    25
100
AcDbPolyline
 90
        3
 70
   128
 43
0.0
 10
0.0856054407
 20
0.1655529075
 10
0.0855951469
 20
0.1655617922
 10
0.0855892862
 20
0.1655648096
  0
LINE
  5
357
330
1F
100
AcDbEntity
  8
0
  6
Continuous
 62
     7
370
    25
100
AcDbLine
 10
0.0854563791
 20
0.1655587747
 30
0.0
 11
0.0854469722
 21
0.1655529075
 31
0.0
  0
LINE
  5
358
330
1F
100
AcDbEntity
  8
0
  6
Continuous
 62
     7
370
    25
100
AcDbLine
 10
0.085334476
 20
0.1655646208
 30
0.0
 11
0.0853306066
 21
0.1655610041
 31
0.0
  0
LINE
  5
359
330
1F
100
AcDbEntity
  8
0
  6
Continuous
 62
     7
370
    25
100
AcDbLine
 10
0.0856901628
 20
0.1660468833
 30
0.0
 11
0.08568921
 21
0.1660407258
 31
0.0
  0
ARC
  5
35A
330
1F
100
AcDbEntity
  8
0
  6
Continuous
 62
     7
370
    25
100
AcDbCircle
 10
0.0869453523
 20
0.1658841299
 30
0.0
 40
0.0012658656240637
100
AcDbArc
 50
172.8939306285
 51
183.6908598412
  0
ARC
  5
35B
330
1F
100
AcDbEntity
  8
0
  6
Continuous
 62
     7
370
    25
100
AcDbCircle
 10
0.0867187459
 20
0.1658909429
 30
0.0
 40
0.0011581140693991
100
AcDbArc
 50
172.5689240377
 51
181.5503183597
  0
LINE
  5
35C
330
1F
100
AcDbEntity
  8
0
  6
Continuous
 62
     7
370
    25
100
AcDbLine
 10
0.0855713114
 20
0.1660468833
 30
0.0
 11
0.0855703587
 21
0.1660407258
 31
0.0
  0
LINE
  5
35D
330
1F
100
AcDbEntity
  8
0
  6
Continuous
 62
     7
370
    25
100
AcDbLine
 10
0.0855713114
 20
0.1660468833
 30
0.0
 11
0.0856901628
 21
0.1660468833
 31
0.0
  0
LWPOLYLINE
  5
35E
330
1F
100
AcDbEntity
  8
0
  6
Continuous
 62
     7
370
    25
100
AcDbPolyline
 90
        3
 70
   128
 43
0.0
 10
0.0856994405
 20
0.1659455325
 10
0.0856974569
 20
0.1659246567
 10
0.0856969815
 20
0.1659166478
  0
LINE
  5
35F
330
1F
100
AcDbEntity
  8
0
  6
Continuous
 62
     7
370
    25
100
AcDbLine
 10
0.0857136604
 20
0.1661234198
 30
0.0
 11
0.0856901628
 21
0.1660468833
 31
0.0
  0
LINE
  5
360
330
1F
100
AcDbEntity
  8
0
  6
Continuous
 62
     7
370
    25
100
AcDbLine
 10
0.085594809
 20
0.1661234198
 30
0.0
 11
0.0855713114
 21
0.1660468833
 31
0.0
  0
LINE
  5
361
330
1F
100
AcDbEntity
  8
0
  6
Continuous
 62
     7
370
    25
100
AcDbLine
 10
0.0857204524
 20
0.1660139725
 30
0.0
 11
0.0856994405
 21
0.1659455325
 31
0.0
  0
LINE
  5
362
330
1F
100
AcDbEntity
  8
0
  6
Continuous
 62
     7
370
    25
100
AcDbLine
 10
0.085737158
 20
0.1661999563
 30
0.0
 11
0.0857136604
 21
0.1661234198
 31
0.0
  0
LINE
  5
363
330
1F
100
AcDbEntity
  8
0
  6
Continuous
 62
     7
370
    25
100
AcDbLine
 10
0.0856183067
 20
0.1661999563
 30
0.0
 11
0.085594809
 21
0.1661234198
 31
0.0
  0
LINE
  5
364
330
1F
100
AcDbEntity
  8
0
  6
Continuous
 62
     7
370
    25
100
AcDbLine
 10
0.0856183067
 20
0.1661999563
 30
0.0
 11
0.085737158
 21
0.1661999563
 31
0.0
  0
LINE
  5
365
330
1F
100
AcDbEntity
  8
0
  6
Continuous
 62
     7
370
    25
100
AcDbLine
 10
0.0857414643
 20
0.1660824125
 30
0.0
 11
0.0857204524
 21
0.1660139725
 31
0.0
  0
ARC
  5
366
330
1F
100
AcDbEntity
  8
0
  6
Continuous
 62
     7
370
    25
100
AcDbCircle
 10
0.0856488531
 20
0.1661196384
 30
0.0
 40
0.0001210301306856
100
AcDbArc
 50
347.3117168597
 51
42.2610475779
  0
LWPOLYLINE
  5
367
330
1F
100
AcDbEntity
  8
0
  6
Continuous
 62
     7
370
    25
100
AcDbPolyline
 90
        3
 70
   128
 43
0.0
 10
0.0857462504
 20
0.1660760734
 10
0.0857449362
 20
0.1660793061
 10
0.0857414643
 20
0.1660824125
  0
LINE
  5
368
330
1F
100
AcDbEntity
  8
0
  6
Continuous
 62
     7
370
    25
100
AcDbLine
 10
0.0857384261
 20
0.1662010324
 30
0.0
 11
0.085737158
 21
0.1661999563
 31
0.0
  0
LINE
  5
369
330
1F
100
AcDbEntity
  8
0
  6
Continuous
 62
     7
370
    25
100
AcDbLine
 10
0.0856243422
 20
0.1662021711
 30
0.0
 11
0.0856195747
 21
0.1662010324
 31
0.0
  0
LINE
  5
36A
330
1F
100
AcDbEntity
  8
0
  6
Continuous
 62
     7
370
    25
100
AcDbLine
 10
0.0856195747
 20
0.1662010324
 30
0.0
 11
0.0856183067
 21
0.1661999563
 31
0.0
  0
LINE
  5
36B
330
1F
100
AcDbEntity
  8
0
  6
Continuous
 62
     7
370
    25
100
AcDbLine
 10
0.085492592
 20
0.166088623
 30
0.0
 11
0.0854942406
 21
0.1660850062
 31
0.0
  0
ARC
  5
36C
330
1F
100
AcDbEntity
  8
0
  6
Continuous
 62
     7
370
    25
100
AcDbCircle
 10
0.0855883053
 20
0.1661514608
 30
0.0
 40
0.0001151711397808
100
AcDbArc
 50
215.2403543759
 51
260.8096058169
  0
ARC
  5
36D
330
1F
100
AcDbEntity
  8
0
  6
Continuous
 62
     7
370
    25
100
AcDbCircle
 10
0.0857074059
 20
0.1663332907
 30
0.0
 40
0.0003052002280564
100
AcDbArc
 50
273.2938214982
 51
305.5593386268
  0
LINE
  5
36E
330
1F
100
AcDbEntity
  8
0
  6
Continuous
 62
     7
370
    25
100
AcDbLine
 10
0.0858848938
 20
0.1660850062
 30
0.0
 11
0.0858887632
 21
0.166088623
 31
0.0
  0
LINE
  5
36F
330
1F
100
AcDbEntity
  8
0
  6
Continuous
 62
     7
370
    25
100
AcDbLine
 10
0.0858955552
 20
0.1659791757
 30
0.0
 11
0.0858887632
 21
0.166088623
 31
0.0
  0
LINE
  5
370
330
1F
100
AcDbEntity
  8
0
  6
Continuous
 62
     7
370
    25
100
AcDbLine
 10
0.0858916858
 20
0.1659755589
 30
0.0
 11
0.0858955552
 21
0.1659791757
 31
0.0
  0
LWPOLYLINE
  5
371
330
1F
100
AcDbEntity
  8
0
  6
Continuous
 62
     7
370
    25
100
AcDbPolyline
 90
        3
 70
   128
 43
0.0
 10
0.0855010326
 20
0.1659755589
 10
0.0855119953
 20
0.1659604033
 10
0.0855278135
 20
0.1659482273
  0
ARC
  5
372
330
1F
100
AcDbEntity
  8
0
  6
Continuous
 62
     7
370
    25
100
AcDbCircle
 10
0.0857499717
 20
0.1661537413
 30
0.0
 40
0.0002276661340021
100
AcDbArc
 50
283.4273738316
 51
308.4963464776
  0
LINE
  5
373
330
1F
100
AcDbEntity
  8
0
  6
Continuous
 62
     7
370
    25
100
AcDbLine
 10
0.085499384
 20
0.1659791757
 30
0.0
 11
0.0855010326
 21
0.1659755589
 31
0.0
  0
LINE
  5
374
330
1F
100
AcDbEntity
  8
0
  6
Continuous
 62
     7
370
    25
100
AcDbLine
 10
0.085499384
 20
0.1659791757
 30
0.0
 11
0.085492592
 21
0.166088623
 31
0.0
  0
LWPOLYLINE
  5
375
330
1F
100
AcDbEntity
  8
0
  6
Continuous
 62
     7
370
    25
100
AcDbPolyline
 90
        3
 70
   128
 43
0.0
 10
0.0857489349
 20
0.1660848174
 10
0.0857566484
 20
0.1660878348
 10
0.0857723976
 20
0.1660967195
  0
LINE
  5
376
330
1F
100
AcDbEntity
  8
0
  6
Continuous
 62
     7
370
    25
100
AcDbLine
 10
0.0858887632
 20
0.166088623
 30
0.0
 11
0.0859341085
 21
0.1662363214
 31
0.0
  0
LINE
  5
377
330
1F
100
AcDbEntity
  8
0
  6
Continuous
 62
     7
370
    25
100
AcDbLine
 10
0.0858955552
 20
0.1659791757
 30
0.0
 11
0.0859341085
 21
0.1661047512
 31
0.0
  0
LINE
  5
378
330
1F
100
AcDbEntity
  8
0
  6
Continuous
 62
     7
370
    25
100
AcDbLine
 10
0.0857723976
 20
0.1660967195
 30
0.0
 11
0.0858129487
 21
0.1662288026
 31
0.0
  0
LINE
  5
379
330
1F
100
AcDbEntity
  8
0
  6
Continuous
 62
     7
370
    25
100
AcDbLine
 10
0.0855160897
 20
0.1661651595
 30
0.0
 11
0.085492592
 21
0.166088623
 31
0.0
  0
LINE
  5
37A
330
1F
100
AcDbEntity
  8
0
  6
Continuous
 62
     7
370
    25
100
AcDbLine
 10
0.0856514024
 20
0.1662187774
 30
0.0
 11
0.0856463041
 21
0.1662021714
 31
0.0
  0
LINE
  5
37B
330
1F
100
AcDbEntity
  8
0
  6
Continuous
 62
     7
370
    25
100
AcDbLine
 10
0.0855338441
 20
0.1662229893
 30
0.0
 11
0.0855160897
 21
0.1661651595
 31
0.0
  0
LWPOLYLINE
  5
37C
330
1F
100
AcDbEntity
  8
0
  6
Continuous
 62
     7
370
    25
100
AcDbPolyline
 90
        3
 70
   128
 43
0.0
 10
0.0855949501
 20
0.1656051866
 10
0.0855929666
 20
0.1655843108
 10
0.0855924911
 20
0.1655763019
  0
ARC
  5
37D
330
1F
100
AcDbEntity
  8
0
  6
Continuous
 62
     7
370
    25
100
AcDbCircle
 10
0.0867636076
 20
0.1655482803
 30
0.0
 40
0.0011886592881352
100
AcDbArc
 50
172.6483397197
 51
182.1309578177
  0
LINE
  5
37E
330
1F
100
AcDbEntity
  8
0
  6
Continuous
 62
     7
370
    25
100
AcDbLine
 10
0.0855856724
 20
0.1657065373
 30
0.0
 11
0.0855847197
 21
0.1657003799
 31
0.0
  0
ARC
  5
37F
330
1F
100
AcDbEntity
  8
0
  6
Continuous
 62
     7
370
    25
100
AcDbCircle
 10
0.0866118229
 20
0.165550833
 30
0.0
 40
0.0011556713443593
100
AcDbArc
 50
172.5649266636
 51
181.4706891387
  0
LINE
  5
380
330
1F
100
AcDbEntity
  8
0
  6
Continuous
 62
     7
370
    25
100
AcDbLine
 10
0.085466821
 20
0.1657065373
 30
0.0
 11
0.0854658683
 21
0.1657003799
 31
0.0
  0
LINE
  5
381
330
1F
100
AcDbEntity
  8
0
  6
Continuous
 62
     7
370
    25
100
AcDbLine
 10
0.085466821
 20
0.1657065373
 30
0.0
 11
0.0855856724
 21
0.1657065373
 31
0.0
  0
LINE
  5
382
330
1F
100
AcDbEntity
  8
0
  6
Continuous
 62
     7
370
    25
100
AcDbLine
 10
0.08560917
 20
0.1657830738
 30
0.0
 11
0.0855856724
 21
0.1657065373
 31
0.0
  0
LINE
  5
383
330
1F
100
AcDbEntity
  8
0
  6
Continuous
 62
     7
370
    25
100
AcDbLine
 10
0.0854903187
 20
0.1657830738
 30
0.0
 11
0.085466821
 21
0.1657065373
 31
0.0
  0
LINE
  5
384
330
1F
100
AcDbEntity
  8
0
  6
Continuous
 62
     7
370
    25
100
AcDbLine
 10
0.085615962
 20
0.1656736266
 30
0.0
 11
0.0855949501
 21
0.1656051866
 31
0.0
  0
LINE
  5
385
330
1F
100
AcDbEntity
  8
0
  6
Continuous
 62
     7
370
    25
100
AcDbLine
 10
0.0856326677
 20
0.1658596103
 30
0.0
 11
0.08560917
 21
0.1657830738
 31
0.0
  0
LINE
  5
386
330
1F
100
AcDbEntity
  8
0
  6
Continuous
 62
     7
370
    25
100
AcDbLine
 10
0.0855138163
 20
0.1658596103
 30
0.0
 11
0.0854903187
 21
0.1657830738
 31
0.0
  0
LINE
  5
387
330
1F
100
AcDbEntity
  8
0
  6
Continuous
 62
     7
370
    25
100
AcDbLine
 10
0.0855138163
 20
0.1658596103
 30
0.0
 11
0.0856326677
 21
0.1658596103
 31
0.0
  0
LINE
  5
388
330
1F
100
AcDbEntity
  8
0
  6
Continuous
 62
     7
370
    25
100
AcDbLine
 10
0.085636974
 20
0.1657420665
 30
0.0
 11
0.085615962
 21
0.1656736266
 31
0.0
  0
ARC
  5
389
330
1F
100
AcDbEntity
  8
0
  6
Continuous
 62
     7
370
    25
100
AcDbCircle
 10
0.0855443627
 20
0.1657792925
 30
0.0
 40
0.000121030130685
100
AcDbArc
 50
347.3117168598
 51
42.261047578
  0
LWPOLYLINE
  5
38A
330
1F
100
AcDbEntity
  8
0
  6
Continuous
 62
     7
370
    25
100
AcDbPolyline
 90
        3
 70
   128
 43
0.0
 10
0.08564176
 20
0.1657357274
 10
0.0856404458
 20
0.1657389601
 10
0.085636974
 20
0.1657420665
  0
LINE
  5
38B
330
1F
100
AcDbEntity
  8
0
  6
Continuous
 62
     7
370
    25
100
AcDbLine
 10
0.0856339357
 20
0.1658606864
 30
0.0
 11
0.0856326677
 21
0.1658596103
 31
0.0
  0
LINE
  5
38C
330
1F
100
AcDbEntity
  8
0
  6
Continuous
 62
     7
370
    25
100
AcDbLine
 10
0.0855198518
 20
0.1658618251
 30
0.0
 11
0.0855150844
 21
0.1658606864
 31
0.0
  0
LINE
  5
38D
330
1F
100
AcDbEntity
  8
0
  6
Continuous
 62
     7
370
    25
100
AcDbLine
 10
0.0855150844
 20
0.1658606864
 30
0.0
 11
0.0855138163
 21
0.1658596103
 31
0.0
  0
LINE
  5
38E
330
1F
100
AcDbEntity
  8
0
  6
Continuous
 62
     7
370
    25
100
AcDbLine
 10
0.0853881016
 20
0.165748277
 30
0.0
 11
0.0853897503
 21
0.1657446602
 31
0.0
  0
ARC
  5
38F
330
1F
100
AcDbEntity
  8
0
  6
Continuous
 62
     7
370
    25
100
AcDbCircle
 10
0.085483815
 20
0.1658111149
 30
0.0
 40
0.0001151711397808
100
AcDbArc
 50
215.240354376
 51
260.8096058169
  0
ARC
  5
390
330
1F
100
AcDbEntity
  8
0
  6
Continuous
 62
     7
370
    25
100
AcDbCircle
 10
0.0856029155
 20
0.1659929448
 30
0.0
 40
0.0003052002280565
100
AcDbArc
 50
273.2938214982
 51
305.5593386268
  0
LINE
  5
391
330
1F
100
AcDbEntity
  8
0
  6
Continuous
 62
     7
370
    25
100
AcDbLine
 10
0.0857804034
 20
0.1657446602
 30
0.0
 11
0.0857842728
 21
0.165748277
 31
0.0
  0
LINE
  5
392
330
1F
100
AcDbEntity
  8
0
  6
Continuous
 62
     7
370
    25
100
AcDbLine
 10
0.0857910649
 20
0.1656388297
 30
0.0
 11
0.0857842728
 21
0.165748277
 31
0.0
  0
LINE
  5
393
330
1F
100
AcDbEntity
  8
0
  6
Continuous
 62
     7
370
    25
100
AcDbLine
 10
0.0857871955
 20
0.165635213
 30
0.0
 11
0.0857910649
 21
0.1656388297
 31
0.0
  0
LWPOLYLINE
  5
394
330
1F
100
AcDbEntity
  8
0
  6
Continuous
 62
     7
370
    25
100
AcDbPolyline
 90
        3
 70
   128
 43
0.0
 10
0.0853965423
 20
0.165635213
 10
0.085407505
 20
0.1656200573
 10
0.0854233231
 20
0.1656078813
  0
ARC
  5
395
330
1F
100
AcDbEntity
  8
0
  6
Continuous
 62
     7
370
    25
100
AcDbCircle
 10
0.0856454813
 20
0.1658133954
 30
0.0
 40
0.0002276661340024
100
AcDbArc
 50
283.4273738318
 51
308.4963464776
  0
LINE
  5
396
330
1F
100
AcDbEntity
  8
0
  6
Continuous
 62
     7
370
    25
100
AcDbLine
 10
0.0853948937
 20
0.1656388297
 30
0.0
 11
0.0853965423
 21
0.165635213
 31
0.0
  0
LINE
  5
397
330
1F
100
AcDbEntity
  8
0
  6
Continuous
 62
     7
370
    25
100
AcDbLine
 10
0.0853948937
 20
0.1656388297
 30
0.0
 11
0.0853881016
 21
0.165748277
 31
0.0
  0
LWPOLYLINE
  5
398
330
1F
100
AcDbEntity
  8
0
  6
Continuous
 62
     7
370
    25
100
AcDbPolyline
 90
        3
 70
   128
 43
0.0
 10
0.0856444446
 20
0.1657444714
 10
0.0856521581
 20
0.1657474888
 10
0.0856679072
 20
0.1657563735
  0
LINE
  5
399
330
1F
100
AcDbEntity
  8
0
  6
Continuous
 62
     7
370
    25
100
AcDbLine
 10
0.0857842728
 20
0.165748277
 30
0.0
 11
0.0858312681
 21
0.16590135
 31
0.0
  0
LINE
  5
39A
330
1F
100
AcDbEntity
  8
0
  6
Continuous
 62
     7
370
    25
100
AcDbLine
 10
0.0858380601
 20
0.1657919027
 30
0.0
 11
0.0858312681
 21
0.16590135
 31
0.0
  0
LINE
  5
39B
330
1F
100
AcDbEntity
  8
0
  6
Continuous
 62
     7
370
    25
100
AcDbLine
 10
0.0857910649
 20
0.1656388297
 30
0.0
 11
0.0858380601
 21
0.1657919027
 31
0.0
  0
LINE
  5
39C
330
1F
100
AcDbEntity
  8
0
  6
Continuous
 62
     7
370
    25
100
AcDbLine
 10
0.0856679072
 20
0.1657563735
 30
0.0
 11
0.085709931
 21
0.1658932535
 31
0.0
  0
LINE
  5
39D
330
1F
100
AcDbEntity
  8
0
  6
Continuous
 62
     7
370
    25
100
AcDbLine
 10
0.0854115993
 20
0.1658248135
 30
0.0
 11
0.0853881016
 21
0.165748277
 31
0.0
  0
LINE
  5
39E
330
1F
100
AcDbEntity
  8
0
  6
Continuous
 62
     7
370
    25
100
AcDbLine
 10
0.0855514626
 20
0.1658932535
 30
0.0
 11
0.0855418138
 21
0.1658618254
 31
0.0
  0
LINE
  5
39F
330
1F
100
AcDbEntity
  8
0
  6
Continuous
 62
     7
370
    25
100
AcDbLine
 10
0.0855534129
 20
0.1658618254
 30
0.0
 11
0.0855514626
 21
0.1658932535
 31
0.0
  0
LINE
  5
3A0
330
1F
100
AcDbEntity
  8
0
  6
Continuous
 62
     7
370
    25
100
AcDbLine
 10
0.0854350969
 20
0.16590135
 30
0.0
 11
0.0854115993
 21
0.1658248135
 31
0.0
  0
ARC
  5
3A1
330
1F
100
AcDbEntity
  8
0
  6
Continuous
 62
     7
370
    25
100
AcDbCircle
 10
0.0857033508
 20
0.1657918637
 30
0.0
 40
0.0001695172414246
100
AcDbArc
 50
41.851854854
 51
89.6773676524
  0
ARC
  5
3A2
330
1F
100
AcDbEntity
  8
0
  6
Continuous
 62
     7
370
    25
100
AcDbCircle
 10
0.0855979365
 20
0.1656957291
 30
0.0
 40
0.0002627773439796
100
AcDbArc
 50
97.7532720567
 51
127.2260645178
  0
LINE
  5
3A3
330
1F
100
AcDbEntity
  8
0
  6
Continuous
 62
     7
370
    25
100
AcDbLine
 10
0.0858312681
 20
0.16590135
 30
0.0
 11
0.0858296195
 21
0.1659049668
 31
0.0
  0
LWPOLYLINE
  5
3A4
330
1F
100
AcDbEntity
  8
0
  6
Continuous
 62
     7
370
    25
100
AcDbPolyline
 90
        3
 70
   128
 43
0.0
 10
0.085709931
 20
0.1658932535
 10
0.0856996373
 20
0.1659021382
 10
0.0856937766
 20
0.1659051556
  0
LINE
  5
3A5
330
1F
100
AcDbEntity
  8
0
  6
Continuous
 62
     7
370
    25
100
AcDbLine
 10
0.0855608695
 20
0.1658991207
 30
0.0
 11
0.0855514626
 21
0.1658932535
 31
0.0
  0
LINE
  5
3A6
330
1F
100
AcDbEntity
  8
0
  6
Continuous
 62
     7
370
    25
100
AcDbLine
 10
0.0854389663
 20
0.1659049668
 30
0.0
 11
0.0854350969
 21
0.16590135
 31
0.0
  0
ARC
  5
3A7
330
1F
100
AcDbEntity
  8
0
  6
Continuous
 62
     7
370
    25
100
AcDbCircle
 10
0.0931007435
 20
0.1655482803
 30
0.0
 40
0.001188659288138
100
AcDbArc
 50
357.8690421823
 51
7.3516602803
  0
LINE
  5
3A8
330
1F
100
AcDbEntity
  8
0
  6
Continuous
 62
     7
370
    25
100
AcDbLine
 10
0.0942796314
 20
0.1657003799
 30
0.0
 11
0.0942786787
 21
0.1657065373
 31
0.0
  0
LINE
  5
3A9
330
1F
100
AcDbEntity
  8
0
  6
Continuous
 62
     7
370
    25
100
AcDbLine
 10
0.0943975301
 20
0.1657065373
 30
0.0
 11
0.0942786787
 21
0.1657065373
 31
0.0
  0
LINE
  5
3AA
330
1F
100
AcDbEntity
  8
0
  6
Continuous
 62
     7
370
    25
100
AcDbLine
 10
0.0943984828
 20
0.1657003799
 30
0.0
 11
0.0943975301
 21
0.1657065373
 31
0.0
  0
ARC
  5
3AB
330
1F
100
AcDbEntity
  8
0
  6
Continuous
 62
     7
370
    25
100
AcDbCircle
 10
0.093279243
 20
0.1655520941
 30
0.0
 40
0.0011290200827654
100
AcDbArc
 50
358.3337129577
 51
7.547044645
  0
LWPOLYLINE
  5
3AC
330
1F
100
AcDbEntity
  8
0
  6
Continuous
 62
     7
370
    25
100
AcDbPolyline
 90
        3
 70
   128
 43
0.0
 10
0.09427186
 20
0.1655763019
 10
0.0942713845
 20
0.1655843108
 10
0.094269401
 20
0.1656051866
  0
LINE
  5
3AD
330
1F
100
AcDbEntity
  8
0
  6
Continuous
 62
     7
370
    25
100
AcDbLine
 10
0.0942786787
 20
0.1657065373
 30
0.0
 11
0.0942316834
 21
0.1658596103
 31
0.0
  0
LINE
  5
3AE
330
1F
100
AcDbEntity
  8
0
  6
Continuous
 62
     7
370
    25
100
AcDbLine
 10
0.0943505348
 20
0.1658596103
 30
0.0
 11
0.0942316834
 21
0.1658596103
 31
0.0
  0
LINE
  5
3AF
330
1F
100
AcDbEntity
  8
0
  6
Continuous
 62
     7
370
    25
100
AcDbLine
 10
0.0943975301
 20
0.1657065373
 30
0.0
 11
0.0943505348
 21
0.1658596103
 31
0.0
  0
LINE
  5
3B0
330
1F
100
AcDbEntity
  8
0
  6
Continuous
 62
     7
370
    25
100
AcDbLine
 10
0.094269401
 20
0.1656051866
 30
0.0
 11
0.0942273771
 21
0.1657420665
 31
0.0
  0
ARC
  5
3B1
330
1F
100
AcDbEntity
  8
0
  6
Continuous
 62
     7
370
    25
100
AcDbCircle
 10
0.0943744041
 20
0.1657649291
 30
0.0
 40
0.0001729225745306
100
AcDbArc
 50
146.3747598348
 51
184.0524757282
  0
LINE
  5
3B2
330
1F
100
AcDbEntity
  8
0
  6
Continuous
 62
     7
370
    25
100
AcDbLine
 10
0.0942316834
 20
0.1658596103
 30
0.0
 11
0.0942304154
 21
0.1658606864
 31
0.0
  0
LWPOLYLINE
  5
3B3
330
1F
100
AcDbEntity
  8
0
  6
Continuous
 62
     7
370
    25
100
AcDbPolyline
 90
        3
 70
   128
 43
0.0
 10
0.0942273771
 20
0.1657420665
 10
0.0942239053
 20
0.1657389601
 10
0.0942225911
 20
0.1657357274
  0
LINE
  5
3B4
330
1F
100
AcDbEntity
  8
0
  6
Continuous
 62
     7
370
    25
100
AcDbLine
 10
0.0943505348
 20
0.1658596103
 30
0.0
 11
0.0943492667
 21
0.1658606864
 31
0.0
  0
LINE
  5
3B5
330
1F
100
AcDbEntity
  8
0
  6
Continuous
 62
     7
370
    25
100
AcDbLine
 10
0.0943492667
 20
0.1658606864
 30
0.0
 11
0.094344503
 21
0.1658618265
 31
0.0
  0
LINE
  5
3B6
330
1F
100
AcDbEntity
  8
0
  6
Continuous
 62
     7
370
    25
100
AcDbLine
 10
0.0944694574
 20
0.1656388297
 30
0.0
 11
0.0944678088
 21
0.165635213
 31
0.0
  0
LWPOLYLINE
  5
3B7
330
1F
100
AcDbEntity
  8
0
  6
Continuous
 62
     7
370
    25
100
AcDbPolyline
 90
        3
 70
   128
 43
0.0
 10
0.0944678088
 20
0.165635213
 10
0.0944568461
 20
0.1656200573
 10
0.094441028
 20
0.1656078813
  0
ARC
  5
3B8
330
1F
100
AcDbEntity
  8
0
  6
Continuous
 62
     7
370
    25
100
AcDbCircle
 10
0.0942188698
 20
0.1658133954
 30
0.0
 40
0.0002276661340111
100
AcDbArc
 50
231.5036535229
 51
256.5726261677
  0
LINE
  5
3B9
330
1F
100
AcDbEntity
  8
0
  6
Continuous
 62
     7
370
    25
100
AcDbLine
 10
0.0940771556
 20
0.165635213
 30
0.0
 11
0.0940732862
 21
0.1656388297
 31
0.0
  0
LINE
  5
3BA
330
1F
100
AcDbEntity
  8
0
  6
Continuous
 62
     7
370
    25
100
AcDbLine
 10
0.0940800783
 20
0.165748277
 30
0.0
 11
0.0940732862
 21
0.1656388297
 31
0.0
  0
LINE
  5
3BB
330
1F
100
AcDbEntity
  8
0
  6
Continuous
 62
     7
370
    25
100
AcDbLine
 10
0.0940839477
 20
0.1657446602
 30
0.0
 11
0.0940800783
 21
0.165748277
 31
0.0
  0
ARC
  5
3BC
330
1F
100
AcDbEntity
  8
0
  6
Continuous
 62
     7
370
    25
100
AcDbCircle
 10
0.0943805361
 20
0.1658111149
 30
0.0
 40
0.0001151711397797
100
AcDbArc
 50
279.190394183
 51
324.7596456243
  0
ARC
  5
3BD
330
1F
100
AcDbEntity
  8
0
  6
Continuous
 62
     7
370
    25
100
AcDbCircle
 10
0.0942614356
 20
0.1659929448
 30
0.0
 40
0.0003052002280489
100
AcDbArc
 50
234.4406613728
 51
266.7061785022
  0
LINE
  5
3BE
330
1F
100
AcDbEntity
  8
0
  6
Continuous
 62
     7
370
    25
100
AcDbLine
 10
0.0944762495
 20
0.165748277
 30
0.0
 11
0.0944746008
 21
0.1657446602
 31
0.0
  0
LINE
  5
3BF
330
1F
100
AcDbEntity
  8
0
  6
Continuous
 62
     7
370
    25
100
AcDbLine
 10
0.0944762495
 20
0.165748277
 30
0.0
 11
0.0944694574
 21
0.1656388297
 31
0.0
  0
LWPOLYLINE
  5
3C0
330
1F
100
AcDbEntity
  8
0
  6
Continuous
 62
     7
370
    25
100
AcDbPolyline
 90
        3
 70
   128
 43
0.0
 10
0.0942199065
 20
0.1657444714
 10
0.094212193
 20
0.1657474888
 10
0.0941964439
 20
0.1657563735
  0
LINE
  5
3C1
330
1F
100
AcDbEntity
  8
0
  6
Continuous
 62
     7
370
    25
100
AcDbLine
 10
0.0940732862
 20
0.1656388297
 30
0.0
 11
0.094026291
 21
0.1657919027
 31
0.0
  0
LINE
  5
3C2
330
1F
100
AcDbEntity
  8
0
  6
Continuous
 62
     7
370
    25
100
AcDbLine
 10
0.094033083
 20
0.16590135
 30
0.0
 11
0.094026291
 21
0.1657919027
 31
0.0
  0
LINE
  5
3C3
330
1F
100
AcDbEntity
  8
0
  6
Continuous
 62
     7
370
    25
100
AcDbLine
 10
0.0940800783
 20
0.165748277
 30
0.0
 11
0.094033083
 21
0.16590135
 31
0.0
  0
LINE
  5
3C4
330
1F
100
AcDbEntity
  8
0
  6
Continuous
 62
     7
370
    25
100
AcDbLine
 10
0.0941964439
 20
0.1657563735
 30
0.0
 11
0.0941544201
 21
0.1658932535
 31
0.0
  0
LINE
  5
3C5
330
1F
100
AcDbEntity
  8
0
  6
Continuous
 62
     7
370
    25
100
AcDbLine
 10
0.0944527518
 20
0.1658248135
 30
0.0
 11
0.0944762495
 21
0.165748277
 31
0.0
  0
LINE
  5
3C6
330
1F
100
AcDbEntity
  8
0
  6
Continuous
 62
     7
370
    25
100
AcDbLine
 10
0.0944292542
 20
0.16590135
 30
0.0
 11
0.0944527518
 21
0.1658248135
 31
0.0
  0
LINE
  5
3C7
330
1F
100
AcDbEntity
  8
0
  6
Continuous
 62
     7
370
    25
100
AcDbLine
 10
0.0943128885
 20
0.1658932535
 30
0.0
 11
0.0943225373
 21
0.1658618254
 31
0.0
  0
LINE
  5
3C8
330
1F
100
AcDbEntity
  8
0
  6
Continuous
 62
     7
370
    25
100
AcDbLine
 10
0.0943128885
 20
0.1658932535
 30
0.0
 11
0.0943109382
 21
0.1658618254
 31
0.0
  0
LINE
  5
3C9
330
1F
100
AcDbEntity
  8
0
  6
Continuous
 62
     7
370
    25
100
AcDbLine
 10
0.094033083
 20
0.16590135
 30
0.0
 11
0.0940347316
 21
0.1659049668
 31
0.0
  0
ARC
  5
3CA
330
1F
100
AcDbEntity
  8
0
  6
Continuous
 62
     7
370
    25
100
AcDbCircle
 10
0.0941610003
 20
0.1657918637
 30
0.0
 40
0.0001695172414216
100
AcDbArc
 50
90.3226323471
 51
138.1481451464
  0
ARC
  5
3CB
330
1F
100
AcDbEntity
  8
0
  6
Continuous
 62
     7
370
    25
100
AcDbCircle
 10
0.0942664146
 20
0.1656957291
 30
0.0
 40
0.000262777343978
100
AcDbArc
 50
52.7739354821
 51
82.2467279433
  0
LINE
  5
3CC
330
1F
100
AcDbEntity
  8
0
  6
Continuous
 62
     7
370
    25
100
AcDbLine
 10
0.0944253848
 20
0.1659049668
 30
0.0
 11
0.0944292542
 21
0.16590135
 31
0.0
  0
LWPOLYLINE
  5
3CD
330
1F
100
AcDbEntity
  8
0
  6
Continuous
 62
     7
370
    25
100
AcDbPolyline
 90
        3
 70
   128
 43
0.0
 10
0.0941544201
 20
0.1658932535
 10
0.0941647138
 20
0.1659021382
 10
0.0941705745
 20
0.1659051556
  0
LINE
  5
3CE
330
1F
100
AcDbEntity
  8
0
  6
Continuous
 62
     7
370
    25
100
AcDbLine
 10
0.0943034816
 20
0.1658991207
 30
0.0
 11
0.0943128885
 21
0.1658932535
 31
0.0
  0
LINE
  5
3CF
330
1F
100
AcDbEntity
  8
0
  6
Continuous
 62
     7
370
    25
100
AcDbLine
 10
0.1171649671
 20
0.1659791757
 30
0.0
 11
0.1171633185
 21
0.1659755589
 31
0.0
  0
LWPOLYLINE
  5
3D0
330
1F
100
AcDbEntity
  8
0
  6
Continuous
 62
     7
370
    25
100
AcDbPolyline
 90
        3
 70
   128
 43
0.0
 10
0.1171633185
 20
0.1659755589
 10
0.1171523558
 20
0.1659604033
 10
0.1171365376
 20
0.1659482273
  0
ARC
  5
3D1
330
1F
100
AcDbEntity
  8
0
  6
Continuous
 62
     7
370
    25
100
AcDbCircle
 10
0.1169143794
 20
0.1661537413
 30
0.0
 40
0.0002276661340071
100
AcDbArc
 50
231.5036535228
 51
256.5726261667
  0
LINE
  5
3D2
330
1F
100
AcDbEntity
  8
0
  6
Continuous
 62
     7
370
    25
100
AcDbLine
 10
0.1167726653
 20
0.1659755589
 30
0.0
 11
0.1167687959
 21
0.1659791757
 31
0.0
  0
LINE
  5
3D3
330
1F
100
AcDbEntity
  8
0
  6
Continuous
 62
     7
370
    25
100
AcDbLine
 10
0.1167755879
 20
0.166088623
 30
0.0
 11
0.1167687959
 21
0.1659791757
 31
0.0
  0
LINE
  5
3D4
330
1F
100
AcDbEntity
  8
0
  6
Continuous
 62
     7
370
    25
100
AcDbLine
 10
0.1167794573
 20
0.1660850062
 30
0.0
 11
0.1167755879
 21
0.166088623
 31
0.0
  0
ARC
  5
3D5
330
1F
100
AcDbEntity
  8
0
  6
Continuous
 62
     7
370
    25
100
AcDbCircle
 10
0.1170760458
 20
0.1661514608
 30
0.0
 40
0.0001151711397812
100
AcDbArc
 50
279.1903941822
 51
324.7596456241
  0
ARC
  5
3D6
330
1F
100
AcDbEntity
  8
0
  6
Continuous
 62
     7
370
    25
100
AcDbCircle
 10
0.1169569452
 20
0.1663332907
 30
0.0
 40
0.0003052002280489
100
AcDbArc
 50
234.4406613728
 51
266.7061785022
  0
LINE
  5
3D7
330
1F
100
AcDbEntity
  8
0
  6
Continuous
 62
     7
370
    25
100
AcDbLine
 10
0.1171717591
 20
0.166088623
 30
0.0
 11
0.1171701105
 21
0.1660850062
 31
0.0
  0
LINE
  5
3D8
330
1F
100
AcDbEntity
  8
0
  6
Continuous
 62
     7
370
    25
100
AcDbLine
 10
0.1171717591
 20
0.166088623
 30
0.0
 11
0.1171649671
 21
0.1659791757
 31
0.0
  0
LWPOLYLINE
  5
3D9
330
1F
100
AcDbEntity
  8
0
  6
Continuous
 62
     7
370
    25
100
AcDbPolyline
 90
        3
 70
   128
 43
0.0
 10
0.1169154162
 20
0.1660848174
 10
0.1169077027
 20
0.1660878348
 10
0.1168919535
 20
0.1660967195
  0
LINE
  5
3DA
330
1F
100
AcDbEntity
  8
0
  6
Continuous
 62
     7
370
    25
100
AcDbLine
 10
0.1167687959
 20
0.1659791757
 30
0.0
 11
0.1167302426
 21
0.1661047512
 31
0.0
  0
LINE
  5
3DB
330
1F
100
AcDbEntity
  8
0
  6
Continuous
 62
     7
370
    25
100
AcDbLine
 10
0.1167755879
 20
0.166088623
 30
0.0
 11
0.1167302426
 21
0.1662363214
 31
0.0
  0
LINE
  5
3DC
330
1F
100
AcDbEntity
  8
0
  6
Continuous
 62
     7
370
    25
100
AcDbLine
 10
0.1168919535
 20
0.1660967195
 30
0.0
 11
0.1168514024
 21
0.1662288026
 31
0.0
  0
LINE
  5
3DD
330
1F
100
AcDbEntity
  8
0
  6
Continuous
 62
     7
370
    25
100
AcDbLine
 10
0.1171482614
 20
0.1661651595
 30
0.0
 11
0.1171717591
 21
0.166088623
 31
0.0
  0
LINE
  5
3DE
330
1F
100
AcDbEntity
  8
0
  6
Continuous
 62
     7
370
    25
100
AcDbLine
 10
0.117130507
 20
0.1662229893
 30
0.0
 11
0.1171482614
 21
0.1661651595
 31
0.0
  0
LINE
  5
3DF
330
1F
100
AcDbEntity
  8
0
  6
Continuous
 62
     7
370
    25
100
AcDbLine
 10
0.1170129487
 20
0.1662187774
 30
0.0
 11
0.117018047
 21
0.1662021714
 31
0.0
  0
LINE
  5
3E0
330
1F
100
AcDbEntity
  8
0
  6
Continuous
 62
     7
370
    25
100
AcDbLine
 10
0.0943408351
 20
0.1655040816
 30
0.0
 11
0.0943361738
 21
0.1655192644
 31
0.0
  0
LINE
  5
3E1
330
1F
100
AcDbEntity
  8
0
  6
Continuous
 62
     7
370
    25
100
AcDbLine
 10
0.0944550252
 20
0.1655192644
 30
0.0
 11
0.0943361738
 21
0.1655192644
 31
0.0
  0
LINE
  5
3E2
330
1F
100
AcDbEntity
  8
0
  6
Continuous
 62
     7
370
    25
100
AcDbLine
 10
0.0944596864
 20
0.1655040816
 30
0.0
 11
0.0944550252
 21
0.1655192644
 31
0.0
  0
LWPOLYLINE
  5
3E3
330
1F
100
AcDbEntity
  8
0
  6
Continuous
 62
     7
370
    25
100
AcDbPolyline
 90
        4
 70
   128
 43
0.0
 10
0.0943349057
 20
0.1655203405
 10
0.0943293604
 20
0.165521116
 10
0.094323899
 20
0.1655141083
 10
0.0943200411
 20
0.1655040816
  0
LINE
  5
3E4
330
1F
100
AcDbEntity
  8
0
  6
Continuous
 62
     7
370
    25
100
AcDbLine
 10
0.0943361738
 20
0.1655192644
 30
0.0
 11
0.0943349057
 21
0.1655203405
 31
0.0
  0
LINE
  5
3E5
330
1F
100
AcDbEntity
  8
0
  6
Continuous
 62
     7
370
    25
100
AcDbLine
 10
0.0944550252
 20
0.1655192644
 30
0.0
 11
0.0944537571
 21
0.1655203405
 31
0.0
  0
LINE
  5
3E6
330
1F
100
AcDbEntity
  8
0
  6
Continuous
 62
     7
370
    25
100
AcDbLine
 10
0.0944537571
 20
0.1655203405
 30
0.0
 11
0.0944489933
 21
0.1655214805
 31
0.0
  0
LINE
  5
3E7
330
1F
100
AcDbEntity
  8
0
  6
Continuous
 62
     7
370
    25
100
AcDbLine
 10
0.0941375733
 20
0.1655610041
 30
0.0
 11
0.0941340409
 21
0.1655040816
 31
0.0
  0
LINE
  5
3E8
330
1F
100
AcDbEntity
  8
0
  6
Continuous
 62
     7
370
    25
100
AcDbLine
 10
0.0941550492
 20
0.1655040816
 30
0.0
 11
0.0941375733
 21
0.1655610041
 31
0.0
  0
LINE
  5
3E9
330
1F
100
AcDbEntity
  8
0
  6
Continuous
 62
     7
370
    25
100
AcDbLine
 10
0.0942739006
 20
0.1655040816
 30
0.0
 11
0.0942589104
 21
0.1655529075
 31
0.0
  0
LINE
  5
3EA
330
1F
100
AcDbEntity
  8
0
  6
Continuous
 62
     7
370
    25
100
AcDbLine
 10
0.0945337445
 20
0.1655610041
 30
0.0
 11
0.0945512204
 21
0.1655040816
 31
0.0
  0
LINE
  5
3EB
330
1F
100
AcDbEntity
  8
0
  6
Continuous
 62
     7
370
    25
100
AcDbLine
 10
0.0944173789
 20
0.1655529075
 30
0.0
 11
0.0944270277
 21
0.1655214795
 31
0.0
  0
LINE
  5
3EC
330
1F
100
AcDbEntity
  8
0
  6
Continuous
 62
     7
370
    25
100
AcDbLine
 10
0.0944173789
 20
0.1655529075
 30
0.0
 11
0.0944154286
 21
0.1655214795
 31
0.0
  0
LINE
  5
3ED
330
1F
100
AcDbEntity
  8
0
  6
Continuous
 62
     7
370
    25
100
AcDbLine
 10
0.0941375733
 20
0.1655610041
 30
0.0
 11
0.094139222
 21
0.1655646208
 31
0.0
  0
ARC
  5
3EE
330
1F
100
AcDbEntity
  8
0
  6
Continuous
 62
     7
370
    25
100
AcDbCircle
 10
0.0942654907
 20
0.1654515178
 30
0.0
 40
0.0001695172414227
100
AcDbArc
 50
90.3226323473
 51
138.1481451462
  0
ARC
  5
3EF
330
1F
100
AcDbEntity
  8
0
  6
Continuous
 62
     7
370
    25
100
AcDbCircle
 10
0.094370905
 20
0.1653553831
 30
0.0
 40
0.0002627773439754
100
AcDbArc
 50
52.773935482
 51
82.2467279433
  0
LINE
  5
3F0
330
1F
100
AcDbEntity
  8
0
  6
Continuous
 62
     7
370
    25
100
AcDbLine
 10
0.0945298751
 20
0.1655646208
 30
0.0
 11
0.0945337445
 21
0.1655610041
 31
0.0
  0
LWPOLYLINE
  5
3F1
330
1F
100
AcDbEntity
  8
0
  6
Continuous
 62
     7
370
    25
100
AcDbPolyline
 90
        3
 70
   128
 43
0.0
 10
0.0942589104
 20
0.1655529075
 10
0.0942692042
 20
0.1655617922
 10
0.0942750649
 20
0.1655648096
  0
LINE
  5
3F2
330
1F
100
AcDbEntity
  8
0
  6
Continuous
 62
     7
370
    25
100
AcDbLine
 10
0.094407972
 20
0.1655587747
 30
0.0
 11
0.0944173789
 21
0.1655529075
 31
0.0
  0
ARC
  5
3F3
330
1F
100
AcDbEntity
  8
0
  6
Continuous
 62
     7
370
    25
100
AcDbCircle
 10
0.0935860709
 20
0.1643480786
 30
0.0
 40
0.0008253774101283
100
AcDbArc
 50
351.8025844071
 51
356.5272015474
  0
LINE
  5
3F4
330
1F
100
AcDbEntity
  8
0
  6
Continuous
 62
     7
370
    25
100
AcDbLine
 10
0.0944030151
 20
0.1642303927
 30
0.0
 11
0.0944020624
 21
0.1642242353
 31
0.0
  0
LINE
  5
3F5
330
1F
100
AcDbEntity
  8
0
  6
Continuous
 62
     7
370
    25
100
AcDbLine
 10
0.0942832111
 20
0.1642242353
 30
0.0
 11
0.0944020624
 21
0.1642242353
 31
0.0
  0
LINE
  5
3F6
330
1F
100
AcDbEntity
  8
0
  6
Continuous
 62
     7
370
    25
100
AcDbLine
 10
0.0942841638
 20
0.1642303927
 30
0.0
 11
0.0942832111
 21
0.1642242353
 31
0.0
  0
ARC
  5
3F7
330
1F
100
AcDbEntity
  8
0
  6
Continuous
 62
     7
370
    25
100
AcDbCircle
 10
0.0934672195
 20
0.1643480786
 30
0.0
 40
0.0008253774098916
100
AcDbArc
 50
351.8025844064
 51
356.527201548
  0
LINE
  5
3F8
330
1F
100
AcDbEntity
  8
0
  6
Continuous
 62
     7
370
    25
100
AcDbLine
 10
0.0944020624
 20
0.1642242353
 30
0.0
 11
0.0943550671
 21
0.1640711623
 31
0.0
  0
LINE
  5
3F9
330
1F
100
AcDbEntity
  8
0
  6
Continuous
 62
     7
370
    25
100
AcDbLine
 10
0.0942362158
 20
0.1640711623
 30
0.0
 11
0.0943550671
 21
0.1640711623
 31
0.0
  0
LINE
  5
3FA
330
1F
100
AcDbEntity
  8
0
  6
Continuous
 62
     7
370
    25
100
AcDbLine
 10
0.0942832111
 20
0.1642242353
 30
0.0
 11
0.0942362158
 21
0.1640711623
 31
0.0
  0
LINE
  5
3FB
330
1F
100
AcDbEntity
  8
0
  6
Continuous
 62
     7
370
    25
100
AcDbLine
 10
0.0942654891
 20
0.1642980816
 30
0.0
 11
0.0942319095
 21
0.1641887061
 31
0.0
  0
LINE
  5
3FC
330
1F
100
AcDbEntity
  8
0
  6
Continuous
 62
     7
370
    25
100
AcDbLine
 10
0.0942362158
 20
0.1640711623
 30
0.0
 11
0.0942349477
 21
0.1640700862
 31
0.0
  0
ARC
  5
3FD
330
1F
100
AcDbEntity
  8
0
  6
Continuous
 62
     7
370
    25
100
AcDbCircle
 10
0.0943789364
 20
0.1641658435
 30
0.0
 40
0.0001729225745212
100
AcDbArc
 50
175.9475242724
 51
213.6252401657
  0
LWPOLYLINE
  5
3FE
330
1F
100
AcDbEntity
  8
0
  6
Continuous
 62
     7
370
    25
100
AcDbPolyline
 90
        3
 70
   128
 43
0.0
 10
0.0942319095
 20
0.1641887061
 10
0.0942284377
 20
0.1641918125
 10
0.0942271234
 20
0.1641950452
  0
LINE
  5
3FF
330
1F
100
AcDbEntity
  8
0
  6
Continuous
 62
     7
370
    25
100
AcDbLine
 10
0.0943537991
 20
0.1640700862
 30
0.0
 11
0.0943490353
 21
0.1640689462
 31
0.0
  0
LINE
  5
400
330
1F
100
AcDbEntity
  8
0
  6
Continuous
 62
     7
370
    25
100
AcDbLine
 10
0.0943550671
 20
0.1640711623
 30
0.0
 11
0.0943537991
 21
0.1640700862
 31
0.0
  0
LINE
  5
401
330
1F
100
AcDbEntity
  8
0
  6
Continuous
 62
     7
370
    25
100
AcDbLine
 10
0.0940778186
 20
0.1642919429
 30
0.0
 11
0.094081688
 21
0.1642955596
 31
0.0
  0
LINE
  5
402
330
1F
100
AcDbEntity
  8
0
  6
Continuous
 62
     7
370
    25
100
AcDbLine
 10
0.094081688
 20
0.1642955596
 30
0.0
 11
0.0940844917
 21
0.1642980816
 31
0.0
  0
LINE
  5
403
330
1F
100
AcDbEntity
  8
0
  6
Continuous
 62
     7
370
    25
100
AcDbLine
 10
0.0944710861
 20
0.1642980816
 30
0.0
 11
0.0944723412
 21
0.1642955596
 31
0.0
  0
LINE
  5
404
330
1F
100
AcDbEntity
  8
0
  6
Continuous
 62
     7
370
    25
100
AcDbLine
 10
0.0944723412
 20
0.1642955596
 30
0.0
 11
0.0944739898
 21
0.1642919429
 31
0.0
  0
LINE
  5
405
330
1F
100
AcDbEntity
  8
0
  6
Continuous
 62
     7
370
    25
100
AcDbLine
 10
0.0944807818
 20
0.1641824956
 30
0.0
 11
0.0944739898
 21
0.1642919429
 31
0.0
  0
LINE
  5
406
330
1F
100
AcDbEntity
  8
0
  6
Continuous
 62
     7
370
    25
100
AcDbLine
 10
0.0944791332
 20
0.1641861124
 30
0.0
 11
0.0944807818
 21
0.1641824956
 31
0.0
  0
ARC
  5
407
330
1F
100
AcDbEntity
  8
0
  6
Continuous
 62
     7
370
    25
100
AcDbCircle
 10
0.0942659679
 20
0.1639378278
 30
0.0
 40
0.0003052002280485
100
AcDbArc
 50
93.2938214978
 51
125.5593386272
  0
ARC
  5
408
330
1F
100
AcDbEntity
  8
0
  6
Continuous
 62
     7
370
    25
100
AcDbCircle
 10
0.0943850685
 20
0.1641196577
 30
0.0
 40
0.0001151711397785
100
AcDbArc
 50
35.2403543755
 51
80.8096058172
  0
LINE
  5
409
330
1F
100
AcDbEntity
  8
0
  6
Continuous
 62
     7
370
    25
100
AcDbLine
 10
0.0940846106
 20
0.1641824956
 30
0.0
 11
0.09408848
 21
0.1641861124
 31
0.0
  0
LINE
  5
40A
330
1F
100
AcDbEntity
  8
0
  6
Continuous
 62
     7
370
    25
100
AcDbLine
 10
0.0940846106
 20
0.1641824956
 30
0.0
 11
0.0940778186
 21
0.1642919429
 31
0.0
  0
LWPOLYLINE
  5
40B
330
1F
100
AcDbEntity
  8
0
  6
Continuous
 62
     7
370
    25
100
AcDbPolyline
 90
        3
 70
   128
 43
0.0
 10
0.0942009762
 20
0.1641743991
 10
0.0942167254
 20
0.1641832838
 10
0.0942244389
 20
0.1641863012
  0
LINE
  5
40C
330
1F
100
AcDbEntity
  8
0
  6
Continuous
 62
     7
370
    25
100
AcDbLine
 10
0.0941799643
 20
0.1641059591
 30
0.0
 11
0.0942009762
 21
0.1641743991
 31
0.0
  0
LINE
  5
40D
330
1F
100
AcDbEntity
  8
0
  6
Continuous
 62
     7
370
    25
100
AcDbLine
 10
0.094061113
 20
0.1641059591
 30
0.0
 11
0.0940846106
 21
0.1641824956
 31
0.0
  0
LINE
  5
40E
330
1F
100
AcDbEntity
  8
0
  6
Continuous
 62
     7
370
    25
100
AcDbLine
 10
0.094054321
 20
0.1642154064
 30
0.0
 11
0.0940778186
 21
0.1642919429
 31
0.0
  0
LINE
  5
40F
330
1F
100
AcDbEntity
  8
0
  6
Continuous
 62
     7
370
    25
100
AcDbLine
 10
0.0944807818
 20
0.1641824956
 30
0.0
 11
0.0944337865
 21
0.1640294226
 31
0.0
  0
LINE
  5
410
330
1F
100
AcDbEntity
  8
0
  6
Continuous
 62
     7
370
    25
100
AcDbLine
 10
0.0943267253
 20
0.1640678254
 30
0.0
 11
0.0943174209
 21
0.1640375191
 31
0.0
  0
LINE
  5
411
330
1F
100
AcDbEntity
  8
0
  6
Continuous
 62
     7
370
    25
100
AcDbLine
 10
0.0940308233
 20
0.1641388699
 30
0.0
 11
0.094054321
 21
0.1642154064
 31
0.0
  0
LINE
  5
412
330
1F
100
AcDbEntity
  8
0
  6
Continuous
 62
     7
370
    25
100
AcDbLine
 10
0.0940376153
 20
0.1640294226
 30
0.0
 11
0.094061113
 21
0.1641059591
 31
0.0
  0
LINE
  5
413
330
1F
100
AcDbEntity
  8
0
  6
Continuous
 62
     7
370
    25
100
AcDbLine
 10
0.0940376153
 20
0.1640294226
 30
0.0
 11
0.0940308233
 21
0.1641388699
 31
0.0
  0
LINE
  5
414
330
1F
100
AcDbEntity
  8
0
  6
Continuous
 62
     7
370
    25
100
AcDbLine
 10
0.0941589524
 20
0.1640375191
 30
0.0
 11
0.0941799643
 21
0.1641059591
 31
0.0
  0
LINE
  5
415
330
1F
100
AcDbEntity
  8
0
  6
Continuous
 62
     7
370
    25
100
AcDbLine
 10
0.0944337865
 20
0.1640294226
 30
0.0
 11
0.0944299171
 21
0.1640258058
 31
0.0
  0
ARC
  5
416
330
1F
100
AcDbEntity
  8
0
  6
Continuous
 62
     7
370
    25
100
AcDbCircle
 10
0.0942345905
 20
0.1642830104
 30
0.0
 40
0.0003229653928691
100
AcDbArc
 50
232.7861884457
 51
307.2138115543
  0
LINE
  5
417
330
1F
100
AcDbEntity
  8
0
  6
Continuous
 62
     7
370
    25
100
AcDbLine
 10
0.0940392639
 20
0.1640258058
 30
0.0
 11
0.0940376153
 21
0.1640294226
 31
0.0
  0
ARC
  5
418
330
1F
100
AcDbEntity
  8
0
  6
Continuous
 62
     7
370
    25
100
AcDbCircle
 10
0.0942381867
 20
0.1641604013
 30
0.0
 40
0.0001462124653888
100
AcDbArc
 50
237.186130838
 51
302.8138691619
  0
ARC
  5
419
330
1F
100
AcDbEntity
  8
0
  6
Continuous
 62
     7
370
    25
100
AcDbCircle
 10
0.0857321755
 20
0.1634580049
 30
0.0
 40
0.0003
100
AcDbArc
 50
180.0
 51
270.0
  0
ARC
  5
41A
330
1F
100
AcDbEntity
  8
0
  6
Continuous
 62
     7
370
    25
100
AcDbCircle
 10
0.0941321755
 20
0.1634580049
 30
0.0
 40
0.0003
100
AcDbArc
 50
270.0
 51
0.0
  0
ARC
  5
41B
330
1F
100
AcDbEntity
  8
0
  6
Continuous
 62
     7
370
    25
100
AcDbCircle
 10
0.0857321755
 20
0.1664580049
 30
0.0
 40
0.0003
100
AcDbArc
 50
90.0
 51
180.0
  0
ARC
  5
41C
330
1F
100
AcDbEntity
  8
0
  6
Continuous
 62
     7
370
    25
100
AcDbCircle
 10
0.0941321755
 20
0.1664580049
 30
0.0
 40
0.0003
100
AcDbArc
 50
0.0
 51
90.0
  0
LINE
  5
41D
330
1F
100
AcDbEntity
  8
0
  6
Continuous
 62
     7
370
    25
100
AcDbLine
 10
0.0854321755
 20
0.1634580049
 30
0.0
 11
0.0854321755
 21
0.1641652268
 31
0.0
  0
LINE
  5
41E
330
1F
100
AcDbEntity
  8
0
  6
Continuous
 62
     7
370
    25
100
AcDbLine
 10
0.0854321755
 20
0.1658918345
 30
0.0
 11
0.0854321755
 21
0.1664580049
 31
0.0
  0
LINE
  5
41F
330
1F
100
AcDbEntity
  8
0
  6
Continuous
 62
     7
370
    25
100
AcDbLine
 10
0.0857321755
 20
0.1667580049
 30
0.0
 11
0.0941321755
 21
0.1667580049
 31
0.0
  0
LINE
  5
420
330
1F
100
AcDbEntity
  8
0
  6
Continuous
 62
     7
370
    25
100
AcDbLine
 10
0.0941321755
 20
0.1631580049
 30
0.0
 11
0.0857321755
 21
0.1631580049
 31
0.0
  0
LINE
  5
421
330
1F
100
AcDbEntity
  8
0
  6
Continuous
 62
     7
370
    25
100
AcDbLine
 10
0.0944321755
 20
0.1664580049
 30
0.0
 11
0.0944321755
 21
0.1658918345
 31
0.0
  0
LINE
  5
422
330
1F
100
AcDbEntity
  8
0
  6
Continuous
 62
     7
370
    25
100
AcDbLine
 10
0.0944321755
 20
0.1640279168
 30
0.0
 11
0.0944321755
 21
0.1634580049
 31
0.0
  0
LINE
  5
423
330
1F
100
AcDbEntity
  8
0
  6
Continuous
 62
     7
370
    25
100
AcDbLine
 10
0.1169321755
 20
0.1631580049
 30
0.0
 11
0.1085321755
 21
0.1631580049
 31
0.0
  0
LINE
  5
424
330
1F
100
AcDbEntity
  8
0
  6
Continuous
 62
     7
370
    25
100
AcDbLine
 10
0.1082321755
 20
0.1634580049
 30
0.0
 11
0.1082321755
 21
0.1641652268
 31
0.0
  0
LINE
  5
425
330
1F
100
AcDbEntity
  8
0
  6
Continuous
 62
     7
370
    25
100
AcDbLine
 10
0.1082321755
 20
0.1658918345
 30
0.0
 11
0.1082321755
 21
0.1664580049
 31
0.0
  0
LINE
  5
426
330
1F
100
AcDbEntity
  8
0
  6
Continuous
 62
     7
370
    25
100
AcDbLine
 10
0.1085321755
 20
0.1667580049
 30
0.0
 11
0.1169321755
 21
0.1667580049
 31
0.0
  0
ARC
  5
427
330
1F
100
AcDbEntity
  8
0
  6
Continuous
 62
     7
370
    25
100
AcDbCircle
 10
0.1085321755
 20
0.1634580049
 30
0.0
 40
0.0003
100
AcDbArc
 50
180.0
 51
270.0
  0
LINE
  5
428
330
1F
100
AcDbEntity
  8
0
  6
Continuous
 62
     7
370
    25
100
AcDbLine
 10
0.1172321755
 20
0.1664580049
 30
0.0
 11
0.1172321755
 21
0.1658918345
 31
0.0
  0
LINE
  5
429
330
1F
100
AcDbEntity
  8
0
  6
Continuous
 62
     7
370
    25
100
AcDbLine
 10
0.1172321755
 20
0.1640279168
 30
0.0
 11
0.1172321755
 21
0.1634580049
 31
0.0
  0
ARC
  5
42A
330
1F
100
AcDbEntity
  8
0
  6
Continuous
 62
     7
370
    25
100
AcDbCircle
 10
0.1169321755
 20
0.1634580049
 30
0.0
 40
0.0003
100
AcDbArc
 50
270.0
 51
0.0
  0
ARC
  5
42B
330
1F
100
AcDbEntity
  8
0
  6
Continuous
 62
     7
370
    25
100
AcDbCircle
 10
0.1169321755
 20
0.1664580049
 30
0.0
 40
0.0003
100
AcDbArc
 50
0.0
 51
90.0
  0
ARC
  5
42C
330
1F
100
AcDbEntity
  8
0
  6
Continuous
 62
     7
370
    25
100
AcDbCircle
 10
0.1085321755
 20
0.1664580049
 30
0.0
 40
0.0003
100
AcDbArc
 50
90.0
 51
180.0
  0
LINE
  5
42D
330
1F
100
AcDbEntity
  8
0
  6
Continuous
 62
     7
370
    18
100
AcDbLine
 10
0.1303338471
 20
0.2399010816
 30
0.0
 11
0.0723338471
 21
0.2399010816
 31
0.0
  0
LINE
  5
42E
330
1F
100
AcDbEntity
  8
0
  6
Continuous
 62
     7
370
    18
100
AcDbLine
 10
0.0723338471
 20
0.2299010816
 30
0.0
 11
0.1303338471
 21
0.2299010816
 31
0.0
  0
LINE
  5
42F
330
1F
100
AcDbEntity
  8
0
  6
Continuous
 62
     7
370
    18
100
AcDbLine
 10
0.0723338471
 20
0.2299010816
 30
0.0
 11
0.0723338471
 21
0.0999010816
 31
0.0
  0
LINE
  5
430
330
1F
100
AcDbEntity
  8
0
  6
Continuous
 62
     7
370
    18
100
AcDbLine
 10
0.1303338471
 20
0.2299010816
 30
0.0
 11
0.1303338471
 21
0.0999010816
 31
0.0
  0
LINE
  5
431
330
1F
100
AcDbEntity
  8
0
  6
Continuous
 62
     7
370
    18
100
AcDbLine
 10
0.0723338471
 20
0.0999010816
 30
0.0
 11
0.1303338471
 21
0.0999010816
 31
0.0
  0
LINE
  5
432
330
1F
100
AcDbEntity
  8
0
  6
Continuous
 62
     7
370
    18
100
AcDbLine
 10
0.0723338471
 20
0.0899010816
 30
0.0
 11
0.0723338471
 21
0.0999010816
 31
0.0
  0
LINE
  5
433
330
1F
100
AcDbEntity
  8
0
  6
Continuous
 62
     7
370
    18
100
AcDbLine
 10
0.1303338471
 20
0.0999010816
 30
0.0
 11
0.1303338471
 21
0.0899010816
 31
0.0
  0
LINE
  5
434
330
1F
100
AcDbEntity
  8
0
  6
Continuous
 62
     7
370
    18
100
AcDbLine
 10
0.1303338471
 20
0.0899010816
 30
0.0
 11
0.0723338471
 21
0.0899010816
 31
0.0
  0
LINE
  5
435
330
1F
100
AcDbEntity
  8
0
  6
Continuous
 62
     7
370
    18
100
AcDbLine
 10
0.1303338471
 20
0.2299010816
 30
0.0
 11
0.1303338471
 21
0.2399010816
 31
0.0
  0
LINE
  5
436
330
1F
100
AcDbEntity
  8
0
  6
Continuous
 62
     7
370
    18
100
AcDbLine
 10
0.0723338471
 20
0.2399010816
 30
0.0
 11
0.0723338471
 21
0.2299010816
 31
0.0
  0
ENDSEC
  0
SECTION
  2
OBJECTS
  0
DICTIONARY
  5
C
330
0
100
AcDbDictionary
281
     1
  3
ACAD_DETAILVIEWSTYLE
350
43F
  3
ACAD_GROUP
350
D
  3
ACAD_LAYOUT
350
1A
  3
ACAD_MATERIAL
350
43
  3
ACAD_MLEADERSTYLE
350
6B
  3
ACAD_MLINESTYLE
350
17
  3
ACAD_PLOTSETTINGS
350
19
  3
ACAD_PLOTSTYLENAME
350
E
  3
ACAD_SCALELIST
350
47
  3
ACAD_SECTIONVIEWSTYLE
350
440
  3
ACAD_TABLESTYLE
350
69
  3
ACAD_VISUALSTYLE
350
2A
  3
ACDB_RECOMPOSE_DATA
350
43C
  3
AcDbVariableDictionary
350
437
  0
SUN
  5
6D
330
29
100
AcDbSun
 90
        1
290
     0
 63
     7
421
 16777215
 40
1.0
291
     1
 91
  2455826
 92
 54000000
292
     0
 70
     2
 71
   256
280
     1
  0
DICTIONARY
  5
43F
102
{ACAD_REACTORS
330
C
102
}
330
C
100
AcDbDictionary
281
     1
  0
DICTIONARY
  5
D
102
{ACAD_REACTORS
330
C
102
}
330
C
100
AcDbDictionary
281
     1
  0
DICTIONARY
  5
1A
102
{ACAD_REACTORS
330
C
102
}
330
C
100
AcDbDictionary
281
     1
  3
Layout1
350
1E
  3
Layout2
350
26
  3
Model
350
22
  0
DICTIONARY
  5
43
102
{ACAD_REACTORS
330
C
102
}
330
C
100
AcDbDictionary
281
     1
  3
ByBlock
350
45
  3
ByLayer
350
44
  3
Global
350
46
  0
DICTIONARY
  5
6B
102
{ACAD_REACTORS
330
C
102
}
330
C
100
AcDbDictionary
281
     1
  3
Standard
350
6C
  0
DICTIONARY
  5
17
102
{ACAD_REACTORS
330
C
102
}
330
C
100
AcDbDictionary
281
     1
  3
Standard
350
18
  0
DICTIONARY
  5
19
102
{ACAD_REACTORS
330
C
102
}
330
C
100
AcDbDictionary
281
     1
  0
ACDBDICTIONARYWDFLT
  5
E
102
{ACAD_REACTORS
330
C
102
}
330
C
100
AcDbDictionary
281
     1
  3
Normal
350
F
100
AcDbDictionaryWithDefault
340
F
  0
DICTIONARY
  5
47
102
{ACAD_REACTORS
330
C
102
}
330
C
100
AcDbDictionary
281
     1
  3
A0
350
48
  3
A1
350
49
  3
A2
350
4A
  3
A3
350
4B
  3
A4
350
4C
  3
A5
350
4D
  3
A6
350
4E
  3
A7
350
4F
  3
A8
350
50
  3
A9
350
51
  3
B0
350
52
  3
B1
350
53
  3
B2
350
54
  3
B3
350
55
  3
B4
350
56
  3
B5
350
57
  3
B6
350
58
  3
B7
350
59
  3
B8
350
5A
  3
B9
350
5B
  3
C0
350
5C
  3
C1
350
5D
  3
C2
350
5E
  3
C3
350
5F
  3
C4
350
60
  3
C5
350
61
  3
C6
350
62
  3
C7
350
63
  3
C8
350
64
  3
C9
350
65
  3
D0
350
66
  3
D1
350
67
  3
D2
350
68
  0
DICTIONARY
  5
440
102
{ACAD_REACTORS
330
C
102
}
330
C
100
AcDbDictionary
281
     1
  0
DICTIONARY
  5
69
102
{ACAD_REACTORS
330
C
102
}
330
C
100
AcDbDictionary
281
     1
  3
Standard
350
6A
  0
DICTIONARY
  5
2A
102
{ACAD_REACTORS
330
C
102
}
330
C
100
AcDbDictionary
281
     1
  3
2dWireframe
350
2F
  3
Basic
350
32
  3
Brighten
350
36
  3
ColorChange
350
3A
  3
Conceptual
350
34
  3
Dim
350
35
  3
EdgeColorOff
350
3D
  3
Facepattern
350
39
  3
Flat
350
2B
  3
FlatWithEdges
350
2C
  3
Gouraud
350
2D
  3
GouraudWithEdges
350
2E
  3
Hidden
350
31
  3
JitterOff
350
3B
  3
Linepattern
350
38
  3
OverhangOff
350
3C
  3
Realistic
350
33
  3
Shaded
350
42
  3
Shaded with edges
350
41
  3
Shades of Gray
350
3E
  3
Sketchy
350
3F
  3
Thicken
350
37
  3
Wireframe
350
30
  3
X-Ray
350
40
  0
XRECORD
  5
43C
102
{ACAD_REACTORS
330
C
102
}
330
C
100
AcDbXrecord
280
     1
 90
        1
330
6A
  0
DICTIONARY
  5
437
102
{ACAD_REACTORS
330
C
102
}
330
C
100
AcDbDictionary
281
     1
  3
CANNOSCALE
350
438
  3
CMLEADERSTYLE
350
43E
  3
CTABLESTYLE
350
43D
  0
LAYOUT
  5
1E
102
{ACAD_REACTORS
330
1A
102
}
330
1A
100
AcDbPlotSettings
  1

  2
none_device
  4

  6

 40
0.0
 41
0.0
 42
0.0
 43
0.0
 44
0.0
 45
0.0
 46
0.0
 47
0.0
 48
0.0
 49
0.0
140
0.0
141
0.0
142
1.0
143
1.0
 70
   688
 72
     1
 73
     0
 74
     5
  7

 75
    16
 76
     0
 77
     2
 78
   300
147
1.0
148
0.0
149
0.0
100
AcDbLayout
  1
Layout1
 70
     1
 71
     1
 10
0.0
 20
0.0
 11
420.0
 21
297.0
 12
0.0
 22
0.0
 32
0.0
 14
1.0000000000E+20
 24
1.0000000000E+20
 34
1.0000000000E+20
 15
-1.0000000000E+20
 25
-1.0000000000E+20
 35
-1.0000000000E+20
146
0.0
 13
0.0
 23
0.0
 33
0.0
 16
1.0
 26
0.0
 36
0.0
 17
0.0
 27
1.0
 37
0.0
 76
     0
330
1B
  0
LAYOUT
  5
26
102
{ACAD_REACTORS
330
1A
102
}
330
1A
100
AcDbPlotSettings
  1

  2
none_device
  4

  6

 40
0.0
 41
0.0
 42
0.0
 43
0.0
 44
0.0
 45
0.0
 46
0.0
 47
0.0
 48
0.0
 49
0.0
140
0.0
141
0.0
142
1.0
143
1.0
 70
   688
 72
     1
 73
     0
 74
     5
  7

 75
    16
 76
     0
 77
     2
 78
   300
147
1.0
148
0.0
149
0.0
100
AcDbLayout
  1
Layout2
 70
     1
 71
     2
 10
0.0
 20
0.0
 11
0.0
 21
0.0
 12
0.0
 22
0.0
 32
0.0
 14
0.0
 24
0.0
 34
0.0
 15
0.0
 25
0.0
 35
0.0
146
0.0
 13
0.0
 23
0.0
 33
0.0
 16
1.0
 26
0.0
 36
0.0
 17
0.0
 27
1.0
 37
0.0
 76
     0
330
23
  0
LAYOUT
  5
22
102
{ACAD_REACTORS
330
1A
102
}
330
1A
100
AcDbPlotSettings
  1

  2
none_device
  4
Letter_(8.50_x_11.00_Inches)
  6

 40
6.35
 41
6.35
 42
6.35000508
 43
6.35000508
 44
215.9
 45
279.4
 46
0.0
 47
0.0
 48
0.0
 49
0.0
140
0.0
141
0.0
142
1.0
143
1.0
 70
  1712
 72
     1
 73
     0
 74
     0
  7

 75
     0
 76
     0
 77
     2
 78
   300
147
1.0
148
0.0
149
0.0
100
AcDbLayout
  1
Model
 70
     1
 71
     0
 10
0.0
 20
0.0
 11
0.21
 21
0.297
 12
0.0
 22
0.0
 32
0.0
 14
0.0
 24
0.0
 34
0.0
 15
0.21
 25
0.297
 35
0.0
146
0.0
 13
0.0
 23
0.0
 33
0.0
 16
1.0
 26
0.0
 36
0.0
 17
0.0
 27
1.0
 37
0.0
 76
     0
330
1F
331
29
  0
MATERIAL
  5
45
102
{ACAD_REACTORS
330
43
102
}
330
43
100
AcDbMaterial
  1
ByBlock
 72
     1
 94
      127
  0
MATERIAL
  5
44
102
{ACAD_REACTORS
330
43
102
}
330
43
100
AcDbMaterial
  1
ByLayer
 72
     1
 94
      127
  0
MATERIAL
  5
46
102
{ACAD_REACTORS
330
43
102
}
330
43
100
AcDbMaterial
  1
Global
 72
     1
 94
      127
  0
MLEADERSTYLE
  5
6C
102
{ACAD_REACTORS
330
6B
102
}
330
6B
100
AcDbMLeaderStyle
170
     2
171
     1
172
     0
 90
        2
 40
0.0
 41
0.0
173
     1
 91
-1056964608
340
14
 92
       -2
290
     1
 42
2.0
291
     1
 43
8.0
  3
Standard
341
0
 44
4.0
300

342
11
174
     1
178
     6
175
     1
176
     0
 93
-1056964608
 45
4.0
292
     0
297
     0
 46
4.0
343
0
 94
-1056964608
 47
1.0
 49
1.0
140
1.0
293
     1
141
0.0
294
     1
177
     0
142
1.0
295
     0
296
     0
143
3.75
1001
ACAD_MLEADERVER
1070
     2
  0
MLINESTYLE
  5
18
102
{ACAD_REACTORS
330
17
102
}
330
17
100
AcDbMlineStyle
  2
Standard
 70
     0
  3

 62
   256
 51
90.0
 52
90.0
 71
     2
 49
0.5
 62
   256
  6
BYLAYER
 49
-0.5
 62
   256
  6
BYLAYER
  0
ACDBPLACEHOLDER
  5
F
102
{ACAD_REACTORS
330
E
102
}
330
E
  0
SCALE
  5
48
102
{ACAD_REACTORS
330
47
102
}
330
47
100
AcDbScale
 70
     0
300
1:1
140
1.0
141
1.0
290
     1
  0
SCALE
  5
49
102
{ACAD_REACTORS
330
47
102
}
330
47
100
AcDbScale
 70
     0
300
1:2
140
1.0
141
2.0
290
     0
  0
SCALE
  5
4A
102
{ACAD_REACTORS
330
47
102
}
330
47
100
AcDbScale
 70
     0
300
1:4
140
1.0
141
4.0
290
     0
  0
SCALE
  5
4B
102
{ACAD_REACTORS
330
47
102
}
330
47
100
AcDbScale
 70
     0
300
1:5
140
1.0
141
5.0
290
     0
  0
SCALE
  5
4C
102
{ACAD_REACTORS
330
47
102
}
330
47
100
AcDbScale
 70
     0
300
1:8
140
1.0
141
8.0
290
     0
  0
SCALE
  5
4D
102
{ACAD_REACTORS
330
47
102
}
330
47
100
AcDbScale
 70
     0
300
1:10
140
1.0
141
10.0
290
     0
  0
SCALE
  5
4E
102
{ACAD_REACTORS
330
47
102
}
330
47
100
AcDbScale
 70
     0
300
1:16
140
1.0
141
16.0
290
     0
  0
SCALE
  5
4F
102
{ACAD_REACTORS
330
47
102
}
330
47
100
AcDbScale
 70
     0
300
1:20
140
1.0
141
20.0
290
     0
  0
SCALE
  5
50
102
{ACAD_REACTORS
330
47
102
}
330
47
100
AcDbScale
 70
     0
300
1:30
140
1.0
141
30.0
290
     0
  0
SCALE
  5
51
102
{ACAD_REACTORS
330
47
102
}
330
47
100
AcDbScale
 70
     0
300
1:40
140
1.0
141
40.0
290
     0
  0
SCALE
  5
52
102
{ACAD_REACTORS
330
47
102
}
330
47
100
AcDbScale
 70
     0
300
1:50
140
1.0
141
50.0
290
     0
  0
SCALE
  5
53
102
{ACAD_REACTORS
330
47
102
}
330
47
100
AcDbScale
 70
     0
300
1:100
140
1.0
141
100.0
290
     0
  0
SCALE
  5
54
102
{ACAD_REACTORS
330
47
102
}
330
47
100
AcDbScale
 70
     0
300
2:1
140
2.0
141
1.0
290
     0
  0
SCALE
  5
55
102
{ACAD_REACTORS
330
47
102
}
330
47
100
AcDbScale
 70
     0
300
4:1
140
4.0
141
1.0
290
     0
  0
SCALE
  5
56
102
{ACAD_REACTORS
330
47
102
}
330
47
100
AcDbScale
 70
     0
300
8:1
140
8.0
141
1.0
290
     0
  0
SCALE
  5
57
102
{ACAD_REACTORS
330
47
102
}
330
47
100
AcDbScale
 70
     0
300
10:1
140
10.0
141
1.0
290
     0
  0
SCALE
  5
58
102
{ACAD_REACTORS
330
47
102
}
330
47
100
AcDbScale
 70
     0
300
100:1
140
100.0
141
1.0
290
     0
  0
SCALE
  5
59
102
{ACAD_REACTORS
330
47
102
}
330
47
100
AcDbScale
 70
     0
300
1/128" = 1'-0"
140
0.0078125
141
12.0
290
     0
  0
SCALE
  5
5A
102
{ACAD_REACTORS
330
47
102
}
330
47
100
AcDbScale
 70
     0
300
1/64" = 1'-0"
140
0.015625
141
12.0
290
     0
  0
SCALE
  5
5B
102
{ACAD_REACTORS
330
47
102
}
330
47
100
AcDbScale
 70
     0
300
1/32" = 1'-0"
140
0.03125
141
12.0
290
     0
  0
SCALE
  5
5C
102
{ACAD_REACTORS
330
47
102
}
330
47
100
AcDbScale
 70
     0
300
1/16" = 1'-0"
140
0.0625
141
12.0
290
     0
  0
SCALE
  5
5D
102
{ACAD_REACTORS
330
47
102
}
330
47
100
AcDbScale
 70
     0
300
3/32" = 1'-0"
140
0.09375
141
12.0
290
     0
  0
SCALE
  5
5E
102
{ACAD_REACTORS
330
47
102
}
330
47
100
AcDbScale
 70
     0
300
1/8" = 1'-0"
140
0.125
141
12.0
290
     0
  0
SCALE
  5
5F
102
{ACAD_REACTORS
330
47
102
}
330
47
100
AcDbScale
 70
     0
300
3/16" = 1'-0"
140
0.1875
141
12.0
290
     0
  0
SCALE
  5
60
102
{ACAD_REACTORS
330
47
102
}
330
47
100
AcDbScale
 70
     0
300
1/4" = 1'-0"
140
0.25
141
12.0
290
     0
  0
SCALE
  5
61
102
{ACAD_REACTORS
330
47
102
}
330
47
100
AcDbScale
 70
     0
300
3/8" = 1'-0"
140
0.375
141
12.0
290
     0
  0
SCALE
  5
62
102
{ACAD_REACTORS
330
47
102
}
330
47
100
AcDbScale
 70
     0
300
1/2" = 1'-0"
140
0.5
141
12.0
290
     0
  0
SCALE
  5
63
102
{ACAD_REACTORS
330
47
102
}
330
47
100
AcDbScale
 70
     0
300
3/4" = 1'-0"
140
0.75
141
12.0
290
     0
  0
SCALE
  5
64
102
{ACAD_REACTORS
330
47
102
}
330
47
100
AcDbScale
 70
     0
300
1" = 1'-0"
140
1.0
141
12.0
290
     0
  0
SCALE
  5
65
102
{ACAD_REACTORS
330
47
102
}
330
47
100
AcDbScale
 70
     0
300
1-1/2" = 1'-0"
140
1.5
141
12.0
290
     0
  0
SCALE
  5
66
102
{ACAD_REACTORS
330
47
102
}
330
47
100
AcDbScale
 70
     0
300
3" = 1'-0"
140
3.0
141
12.0
290
     0
  0
SCALE
  5
67
102
{ACAD_REACTORS
330
47
102
}
330
47
100
AcDbScale
 70
     0
300
6" = 1'-0"
140
6.0
141
12.0
290
     0
  0
SCALE
  5
68
102
{ACAD_REACTORS
330
47
102
}
330
47
100
AcDbScale
 70
     0
300
1'-0" = 1'-0"
140
12.0
141
12.0
290
     0
  0
TABLESTYLE
  5
6A
102
{ACAD_REACTORS
330
69
102
}
102
{ACAD_XDICTIONARY
360
439
102
}
330
69
100
AcDbTableStyle
  3
Standard
 70
     0
 71
     0
 40
0.06
 41
0.06
280
     0
281
     0
  7
Standard
140
4.5
170
     2
 62
     0
 63
   257
283
     0
 90
        4
 91
        0
  1

274
    -2
284
     1
 64
     0
275
    -2
285
     1
 65
     0
276
    -2
286
     1
 66
     0
277
    -2
287
     1
 67
     0
278
    -2
288
     1
 68
     0
279
    -2
289
     1
 69
     0
  7
Standard
140
6.0
170
     5
 62
     0
 63
   257
283
     0
 90
        4
 91
        0
  1

274
    -2
284
     1
 64
     0
275
    -2
285
     1
 65
     0
276
    -2
286
     1
 66
     0
277
    -2
287
     1
 67
     0
278
    -2
288
     1
 68
     0
279
    -2
289
     1
 69
     0
  7
Standard
140
4.5
170
     5
 62
     0
 63
   257
283
     0
 90
        4
 91
        0
  1

274
    -2
284
     1
 64
     0
275
    -2
285
     1
 65
     0
276
    -2
286
     1
 66
     0
277
    -2
287
     1
 67
     0
278
    -2
288
     1
 68
     0
279
    -2
289
     1
 69
     0
  0
VISUALSTYLE
  5
2F
102
{ACAD_REACTORS
330
2A
102
}
330
2A
100
AcDbVisualStyle
  2
2dWireframe
 70
     4
 71
     0
 72
     2
 73
     0
 90
        0
 40
0.6
 41
30.0
 62
     5
 63
     7
421
 16777215
 74
     1
 91
        4
 64
     7
 65
   257
 75
     1
175
     1
 42
1.0
 92
        0
 66
   257
 43
1.0
 76
     1
 77
     6
 78
     2
 67
     7
 79
     5
170
     0
171
     0
290
     0
174
     0
 93
        1
 44
0.0
173
     0
291
     0
 45
0.0
  0
VISUALSTYLE
  5
32
102
{ACAD_REACTORS
330
2A
102
}
330
2A
100
AcDbVisualStyle
  2
Basic
 70
     7
 71
     1
 72
     0
 73
     1
 90
        0
 40
0.6
 41
30.0
 62
     5
 63
     7
421
 16777215
 74
     0
 91
        4
 64
     7
 65
   257
 75
     1
175
     1
 42
1.0
 92
        8
 66
     7
 43
1.0
 76
     1
 77
     6
 78
     2
 67
     7
 79
     5
170
     0
171
     0
290
     0
174
     0
 93
        1
 44
0.0
173
     0
291
     1
 45
0.0
  0
VISUALSTYLE
  5
36
102
{ACAD_REACTORS
330
2A
102
}
330
2A
100
AcDbVisualStyle
  2
Brighten
 70
    12
 71
     2
 72
     2
 73
     0
 90
        0
 40
0.6
 41
30.0
 62
     5
 63
     7
421
 16777215
 74
     1
 91
        4
 64
     7
 65
   257
 75
     1
175
     1
 42
1.0
 92
        8
 66
     7
 43
1.0
 76
     1
 77
     6
 78
     2
 67
     7
 79
     5
170
     0
171
     0
290
     0
174
     0
 93
        1
 44
50.0
173
     0
291
     1
 45
0.0
  0
VISUALSTYLE
  5
3A
102
{ACAD_REACTORS
330
2A
102
}
330
2A
100
AcDbVisualStyle
  2
ColorChange
 70
    16
 71
     2
 72
     2
 73
     3
 90
        0
 40
0.6
 41
30.0
 62
     5
 63
     8
421
  8421504
 74
     1
 91
        4
 64
     7
 65
   257
 75
     1
175
     1
 42
1.0
 92
        8
 66
     8
424
  8421504
 43
1.0
 76
     1
 77
     6
 78
     2
 67
     7
 79
     5
170
     0
171
     0
290
     0
174
     0
 93
        1
 44
0.0
173
     0
291
     1
 45
0.0
  0
VISUALSTYLE
  5
34
102
{ACAD_REACTORS
330
2A
102
}
330
2A
100
AcDbVisualStyle
  2
Conceptual
 70
     9
 71
     3
 72
     2
 73
     0
 90
        0
 40
0.6
 41
30.0
 62
     5
 63
     7
421
 16777215
 74
     2
 91
        2
 64
     7
 65
   257
 75
     1
175
     1
 42
179.0
 92
        8
 66
     7
 43
1.0
 76
     1
 77
     6
 78
     2
 67
     7
 79
     3
170
     0
171
     0
290
     0
174
     0
 93
        1
 44
0.0
173
     0
291
     0
 45
0.0
  0
VISUALSTYLE
  5
35
102
{ACAD_REACTORS
330
2A
102
}
330
2A
100
AcDbVisualStyle
  2
Dim
 70
    11
 71
     2
 72
     2
 73
     0
 90
        0
 40
0.6
 41
30.0
 62
     5
 63
     7
421
 16777215
 74
     1
 91
        4
 64
     7
 65
   257
 75
     1
175
     1
 42
1.0
 92
        8
 66
     7
 43
1.0
 76
     1
 77
     6
 78
     2
 67
     7
 79
     5
170
     0
171
     0
290
     0
174
     0
 93
        1
 44
-50.0
173
     0
291
     1
 45
0.0
  0
VISUALSTYLE
  5
3D
102
{ACAD_REACTORS
330
2A
102
}
330
2A
100
AcDbVisualStyle
  2
EdgeColorOff
 70
    22
 71
     2
 72
     2
 73
     0
 90
        0
 40
0.6
 41
30.0
 62
     5
 63
     7
421
 16777215
 74
     1
 91
        4
 64
     7
 65
   257
 75
     1
175
     1
 42
1.0
 92
        8
 66
     7
 43
1.0
 76
     1
 77
     6
 78
     2
 67
     7
 79
     5
170
     0
171
     0
290
     0
174
     0
 93
        1
 44
0.0
173
     0
291
     1
 45
0.0
  0
VISUALSTYLE
  5
39
102
{ACAD_REACTORS
330
2A
102
}
330
2A
100
AcDbVisualStyle
  2
Facepattern
 70
    15
 71
     2
 72
     2
 73
     0
 90
        0
 40
0.6
 41
30.0
 62
     5
 63
     7
421
 16777215
 74
     1
 91
        4
 64
     7
 65
   257
 75
     1
175
     1
 42
1.0
 92
        8
 66
     7
 43
1.0
 76
     1
 77
     6
 78
     2
 67
     7
 79
     5
170
     0
171
     0
290
     0
174
     0
 93
        1
 44
0.0
173
     0
291
     1
 45
0.0
  0
VISUALSTYLE
  5
2B
102
{ACAD_REACTORS
330
2A
102
}
330
2A
100
AcDbVisualStyle
  2
Flat
 70
     0
 71
     2
 72
     1
 73
     1
 90
        2
 40
0.6
 41
30.0
 62
     5
 63
     7
421
 16777215
 74
     0
 91
        0
 64
     7
 65
   257
 75
     1
175
     1
 42
1.0
 92
        8
 66
     7
 43
1.0
 76
     1
 77
     6
 78
     2
 67
     7
 79
     5
170
     0
171
     0
290
     0
174
     0
 93
       13
 44
0.0
173
     0
291
     1
 45
0.0
  0
VISUALSTYLE
  5
2C
102
{ACAD_REACTORS
330
2A
102
}
330
2A
100
AcDbVisualStyle
  2
FlatWithEdges
 70
     1
 71
     2
 72
     1
 73
     1
 90
        2
 40
0.6
 41
30.0
 62
     5
 63
     7
421
 16777215
 74
     1
 91
        0
 64
     7
 65
   257
 75
     1
175
     1
 42
1.0
 92
        0
 66
   257
 43
1.0
 76
     1
 77
     6
 78
     2
 67
     7
 79
     5
170
     0
171
     0
290
     0
174
     0
 93
       13
 44
0.0
173
     0
291
     1
 45
0.0
  0
VISUALSTYLE
  5
2D
102
{ACAD_REACTORS
330
2A
102
}
330
2A
100
AcDbVisualStyle
  2
Gouraud
 70
     2
 71
     2
 72
     2
 73
     1
 90
        2
 40
0.6
 41
30.0
 62
     5
 63
     7
421
 16777215
 74
     0
 91
        0
 64
     7
 65
   257
 75
     1
175
     1
 42
1.0
 92
        0
 66
     7
 43
1.0
 76
     1
 77
     6
 78
     2
 67
     7
 79
     5
170
     0
171
     0
290
     0
174
     0
 93
       13
 44
0.0
173
     0
291
     1
 45
0.0
  0
VISUALSTYLE
  5
2E
102
{ACAD_REACTORS
330
2A
102
}
330
2A
100
AcDbVisualStyle
  2
GouraudWithEdges
 70
     3
 71
     2
 72
     2
 73
     1
 90
        2
 40
0.6
 41
30.0
 62
     5
 63
     7
421
 16777215
 74
     1
 91
        0
 64
     7
 65
   257
 75
     1
175
     1
 42
1.0
 92
        0
 66
   257
 43
1.0
 76
     1
 77
     6
 78
     2
 67
     7
 79
     5
170
     0
171
     0
290
     0
174
     0
 93
       13
 44
0.0
173
     0
291
     1
 45
0.0
  0
VISUALSTYLE
  5
31
102
{ACAD_REACTORS
330
2A
102
}
330
2A
100
AcDbVisualStyle
  2
Hidden
 70
     6
 71
     1
 72
     2
 73
     2
 90
        0
 40
0.6
 41
30.0
 62
     5
 63
     7
421
 16777215
 74
     2
 91
        2
 64
     7
 65
   257
 75
     2
175
     1
 42
40.0
 92
        0
 66
   257
 43
1.0
 76
     1
 77
     6
 78
     2
 67
     7
 79
     3
170
     0
171
     0
290
     0
174
     0
 93
        1
 44
0.0
173
     0
291
     0
 45
0.0
  0
VISUALSTYLE
  5
3B
102
{ACAD_REACTORS
330
2A
102
}
330
2A
100
AcDbVisualStyle
  2
JitterOff
 70
    20
 71
     2
 72
     2
 73
     0
 90
        0
 40
0.6
 41
30.0
 62
     5
 63
     7
421
 16777215
 74
     1
 91
        4
 64
     7
 65
   257
 75
     1
175
     1
 42
1.0
 92
       10
 66
     7
 43
1.0
 76
     1
 77
     6
 78
     2
 67
     7
 79
     5
170
     0
171
     0
290
     0
174
     0
 93
        1
 44
0.0
173
     0
291
     1
 45
0.0
  0
VISUALSTYLE
  5
38
102
{ACAD_REACTORS
330
2A
102
}
330
2A
100
AcDbVisualStyle
  2
Linepattern
 70
    14
 71
     2
 72
     2
 73
     0
 90
        0
 40
0.6
 41
30.0
 62
     5
 63
     7
421
 16777215
 74
     1
 91
        4
 64
     7
 65
   257
 75
     7
175
     7
 42
1.0
 92
        8
 66
     7
 43
1.0
 76
     1
 77
     6
 78
     2
 67
     7
 79
     5
170
     0
171
     0
290
     0
174
     0
 93
        1
 44
0.0
173
     0
291
     1
 45
0.0
  0
VISUALSTYLE
  5
3C
102
{ACAD_REACTORS
330
2A
102
}
330
2A
100
AcDbVisualStyle
  2
OverhangOff
 70
    21
 71
     2
 72
     2
 73
     0
 90
        0
 40
0.6
 41
30.0
 62
     5
 63
     7
421
 16777215
 74
     1
 91
        4
 64
     7
 65
   257
 75
     1
175
     1
 42
1.0
 92
        9
 66
     7
 43
1.0
 76
     1
 77
     6
 78
     2
 67
     7
 79
     5
170
     0
171
     0
290
     0
174
     0
 93
        1
 44
0.0
173
     0
291
     1
 45
0.0
  0
VISUALSTYLE
  5
33
102
{ACAD_REACTORS
330
2A
102
}
330
2A
100
AcDbVisualStyle
  2
Realistic
 70
     8
 71
     2
 72
     3
 73
     0
 90
        2
 40
0.6
 41
30.0
 62
     5
 63
     7
421
 16777215
 74
     0
 91
        0
 64
     7
 65
   257
 75
     1
175
     1
 42
1.0
 92
        8
 66
   257
 43
1.0
 76
     1
 77
     6
 78
     2
 67
     7
 79
     3
170
     0
171
     0
290
     0
174
     0
 93
       13
 44
0.0
173
     0
291
     0
 45
0.0
  0
VISUALSTYLE
  5
42
102
{ACAD_REACTORS
330
2A
102
}
330
2A
100
AcDbVisualStyle
  2
Shaded
 70
    27
 71
     2
 72
     2
 73
     1
 90
        2
 40
0.6
 41
30.0
 62
     5
 63
     7
421
 16777215
 74
     0
 91
        4
 64
     7
 65
   257
 75
     1
175
     1
 42
1.0
 92
        8
 66
   257
 43
1.0
 76
     1
 77
     6
 78
     2
 67
     8
425
  7895160
 79
     3
170
     0
171
     0
290
     0
174
     0
 93
        5
 44
0.0
173
     0
291
     0
 45
0.0
  0
VISUALSTYLE
  5
41
102
{ACAD_REACTORS
330
2A
102
}
330
2A
100
AcDbVisualStyle
  2
Shaded with edges
 70
    26
 71
     2
 72
     2
 73
     1
 90
        2
 40
0.6
 41
30.0
 62
     5
 63
     7
421
 16777215
 74
     1
 91
       10
 64
     7
 65
   257
 75
     2
175
     1
 42
1.0
 92
        8
 66
   257
 43
1.0
 76
     1
 77
     6
 78
     2
 67
     7
 79
     3
170
     0
171
     0
290
     0
174
     0
 93
        5
 44
0.0
173
     0
291
     0
 45
0.0
  0
VISUALSTYLE
  5
3E
102
{ACAD_REACTORS
330
2A
102
}
330
2A
100
AcDbVisualStyle
  2
Shades of Gray
 70
    23
 71
     2
 72
     2
 73
     3
 90
        0
 40
0.6
 41
30.0
 62
     5
 63
     7
421
 16777215
 74
     2
 91
        2
 64
     7
 65
     7
 75
     1
175
     1
 42
40.0
 92
        8
 66
     7
 43
1.0
 76
     1
 77
     6
 78
     2
 67
     7
 79
     3
170
     0
171
     0
290
     0
174
     0
 93
        1
 44
0.0
173
     0
291
     0
 45
0.0
  0
VISUALSTYLE
  5
3F
102
{ACAD_REACTORS
330
2A
102
}
330
2A
100
AcDbVisualStyle
  2
Sketchy
 70
    24
 71
     1
 72
     2
 73
     2
 90
        0
 40
0.6
 41
30.0
 62
     5
 63
     7
421
 16777215
 74
     2
 91
        2
 64
     7
 65
     7
 75
     1
175
     1
 42
40.0
 92
       11
 66
     7
 43
1.0
 76
     1
 77
     6
 78
     2
 67
     7
 79
     6
170
     0
171
     0
290
     0
174
     0
 93
        1
 44
0.0
173
     0
291
     0
 45
0.0
  0
VISUALSTYLE
  5
37
102
{ACAD_REACTORS
330
2A
102
}
330
2A
100
AcDbVisualStyle
  2
Thicken
 70
    13
 71
     2
 72
     2
 73
     0
 90
        0
 40
0.6
 41
30.0
 62
     5
 63
     7
421
 16777215
 74
     1
 91
        4
 64
     7
 65
   257
 75
     1
175
     1
 42
1.0
 92
       12
 66
     7
 43
1.0
 76
     1
 77
     6
 78
     2
 67
     7
 79
     5
170
     0
171
     0
290
     0
174
     0
 93
        1
 44
0.0
173
     0
291
     1
 45
0.0
  0
VISUALSTYLE
  5
30
102
{ACAD_REACTORS
330
2A
102
}
330
2A
100
AcDbVisualStyle
  2
Wireframe
 70
     5
 71
     0
 72
     2
 73
     0
 90
        0
 40
0.6
 41
30.0
 62
     5
 63
     7
421
 16777215
 74
     1
 91
        4
 64
     7
 65
   257
 75
     1
175
     1
 42
1.0
 92
        0
 66
   257
 43
1.0
 76
     1
 77
     6
 78
     2
 67
     7
 79
     3
170
     0
171
     0
290
     0
174
     0
 93
        1
 44
0.0
173
     0
291
     0
 45
0.0
  0
VISUALSTYLE
  5
40
102
{ACAD_REACTORS
330
2A
102
}
330
2A
100
AcDbVisualStyle
  2
X-Ray
 70
    25
 71
     2
 72
     2
 73
     1
 90
        1
 40
0.5
 41
30.0
 62
     5
 63
     7
421
 16777215
 74
     1
 91
        0
 64
     7
 65
   257
 75
     1
175
     1
 42
1.0
 92
        8
 66
     7
 43
1.0
 76
     1
 77
     6
 78
     2
 67
     7
 79
     3
170
     0
171
     0
290
     0
174
     0
 93
       13
 44
0.0
173
     0
291
     0
 45
0.0
  0
DICTIONARYVAR
  5
438
102
{ACAD_REACTORS
330
437
102
}
330
437
100
DictionaryVariables
280
     0
  1
1:1
  0
DICTIONARYVAR
  5
43E
102
{ACAD_REACTORS
330
437
102
}
330
437
100
DictionaryVariables
280
     0
  1
Standard
  0
DICTIONARYVAR
  5
43D
102
{ACAD_REACTORS
330
437
102
}
330
437
100
DictionaryVariables
280
     0
  1
Standard
  0
DICTIONARY
  5
439
330
6A
100
AcDbDictionary
280
     1
281
     1
  3
ACAD_ROUNDTRIP_2008_TABLESTYLE_CELLSTYLEMAP
360
43A
  0
CELLSTYLEMAP
  5
43A
102
{ACAD_REACTORS
330
439
102
}
330
439
100
AcDbCellStyleMap
 90
        3
300
CELLSTYLE
  1
TABLEFORMAT_BEGIN
 90
        5
170
     1
 91
        0
 92
    32768
 62
   257
 93
        1
300
CONTENTFORMAT
  1
CONTENTFORMAT_BEGIN
 90
        0
 91
        0
 92
        4
 93
        0
300

 40
0.0
140
1.0
 94
        5
 62
     0
340
11
144
6.0
309
CONTENTFORMAT_END
171
     1
301
MARGIN
  1
CELLMARGIN_BEGIN
 40
1.5
 40
1.5
 40
1.5
 40
1.5
 40
1.5
 40
1.5
309
CELLMARGIN_END
 94
        6
 95
        1
302
GRIDFORMAT
  1
GRIDFORMAT_BEGIN
 90
        0
 91
        1
 62
     0
 92
       -2
340
14
 93
        0
 40
0.045
309
GRIDFORMAT_END
 95
        2
302
GRIDFORMAT
  1
GRIDFORMAT_BEGIN
 90
        0
 91
        1
 62
     0
 92
       -2
340
14
 93
        0
 40
0.045
309
GRIDFORMAT_END
 95
        4
302
GRIDFORMAT
  1
GRIDFORMAT_BEGIN
 90
        0
 91
        1
 62
     0
 92
       -2
340
14
 93
        0
 40
0.045
309
GRIDFORMAT_END
 95
        8
302
GRIDFORMAT
  1
GRIDFORMAT_BEGIN
 90
        0
 91
        1
 62
     0
 92
       -2
340
14
 93
        0
 40
0.045
309
GRIDFORMAT_END
 95
       16
302
GRIDFORMAT
  1
GRIDFORMAT_BEGIN
 90
        0
 91
        1
 62
     0
 92
       -2
340
14
 93
        0
 40
0.045
309
GRIDFORMAT_END
 95
       32
302
GRIDFORMAT
  1
GRIDFORMAT_BEGIN
 90
        0
 91
        1
 62
     0
 92
       -2
340
14
 93
        0
 40
0.045
309
GRIDFORMAT_END
309
TABLEFORMAT_END
  1
CELLSTYLE_BEGIN
 90
        1
 91
        1
300
_TITLE
309
CELLSTYLE_END
300
CELLSTYLE
  1
TABLEFORMAT_BEGIN
 90
        5
170
     1
 91
        0
 92
        0
 62
   257
 93
        1
300
CONTENTFORMAT
  1
CONTENTFORMAT_BEGIN
 90
        0
 91
        0
 92
        4
 93
        0
300

 40
0.0
140
1.0
 94
        5
 62
     0
340
11
144
4.5
309
CONTENTFORMAT_END
171
     1
301
MARGIN
  1
CELLMARGIN_BEGIN
 40
1.5
 40
1.5
 40
1.5
 40
1.5
 40
1.5
 40
1.5
309
CELLMARGIN_END
 94
        6
 95
        1
302
GRIDFORMAT
  1
GRIDFORMAT_BEGIN
 90
        0
 91
        1
 62
     0
 92
       -2
340
14
 93
        0
 40
0.045
309
GRIDFORMAT_END
 95
        2
302
GRIDFORMAT
  1
GRIDFORMAT_BEGIN
 90
        0
 91
        1
 62
     0
 92
       -2
340
14
 93
        0
 40
0.045
309
GRIDFORMAT_END
 95
        4
302
GRIDFORMAT
  1
GRIDFORMAT_BEGIN
 90
        0
 91
        1
 62
     0
 92
       -2
340
14
 93
        0
 40
0.045
309
GRIDFORMAT_END
 95
        8
302
GRIDFORMAT
  1
GRIDFORMAT_BEGIN
 90
        0
 91
        1
 62
     0
 92
       -2
340
14
 93
        0
 40
0.045
309
GRIDFORMAT_END
 95
       16
302
GRIDFORMAT
  1
GRIDFORMAT_BEGIN
 90
        0
 91
        1
 62
     0
 92
       -2
340
14
 93
        0
 40
0.045
309
GRIDFORMAT_END
 95
       32
302
GRIDFORMAT
  1
GRIDFORMAT_BEGIN
 90
        0
 91
        1
 62
     0
 92
       -2
340
14
 93
        0
 40
0.045
309
GRIDFORMAT_END
309
TABLEFORMAT_END
  1
CELLSTYLE_BEGIN
 90
        2
 91
        1
300
_HEADER
309
CELLSTYLE_END
300
CELLSTYLE
  1
TABLEFORMAT_BEGIN
 90
        5
170
     1
 91
        0
 92
        0
 62
   257
 93
        1
300
CONTENTFORMAT
  1
CONTENTFORMAT_BEGIN
 90
        0
 91
        0
 92
        4
 93
        0
300

 40
0.0
140
1.0
 94
        2
 62
     0
340
11
144
4.5
309
CONTENTFORMAT_END
171
     1
301
MARGIN
  1
CELLMARGIN_BEGIN
 40
1.5
 40
1.5
 40
1.5
 40
1.5
 40
1.5
 40
1.5
309
CELLMARGIN_END
 94
        6
 95
        1
302
GRIDFORMAT
  1
GRIDFORMAT_BEGIN
 90
        0
 91
        1
 62
     0
 92
       -2
340
14
 93
        0
 40
0.045
309
GRIDFORMAT_END
 95
        2
302
GRIDFORMAT
  1
GRIDFORMAT_BEGIN
 90
        0
 91
        1
 62
     0
 92
       -2
340
14
 93
        0
 40
0.045
309
GRIDFORMAT_END
 95
        4
302
GRIDFORMAT
  1
GRIDFORMAT_BEGIN
 90
        0
 91
        1
 62
     0
 92
       -2
340
14
 93
        0
 40
0.045
309
GRIDFORMAT_END
 95
        8
302
GRIDFORMAT
  1
GRIDFORMAT_BEGIN
 90
        0
 91
        1
 62
     0
 92
       -2
340
14
 93
        0
 40
0.045
309
GRIDFORMAT_END
 95
       16
302
GRIDFORMAT
  1
GRIDFORMAT_BEGIN
 90
        0
 91
        1
 62
     0
 92
       -2
340
14
 93
        0
 40
0.045
309
GRIDFORMAT_END
 95
       32
302
GRIDFORMAT
  1
GRIDFORMAT_BEGIN
 90
        0
 91
        1
 62
     0
 92
       -2
340
14
 93
        0
 40
0.045
309
GRIDFORMAT_END
309
TABLEFORMAT_END
  1
CELLSTYLE_BEGIN
 90
        3
 91
        2
300
_DATA
309
CELLSTYLE_END
  0
ENDSEC
  0
EOF
