  0
SECTION
  2
HEADER
  9
$ACADVER
  1
AC1015
  9
$ACADMAINTVER
 70
     6
  9
$DWGCODEPAGE
  3
ANSI_1250
  9
$INSBASE
 10
0.0
 20
0.0
 30
0.0
  9
$EXTMIN
 10
0.0
 20
0.0
 30
0.0
  9
$EXTMAX
 10
0.4318
 20
0.2794
 30
0.0
  9
$LIMMIN
 10
0.0
 20
0.0
  9
$LIMMAX
 10
0.4318
 20
0.2794
  9
$ORTHOMODE
 70
     0
  9
$REGENMODE
 70
     1
  9
$FILLMODE
 70
     1
  9
$QTEXTMODE
 70
     0
  9
$MIRRTEXT
 70
     1
  9
$LTSCALE
 40
1.0
  9
$ATTMODE
 70
     1
  9
$TEXTSIZE
 40
0.0035
  9
$TRACEWID
 40
1.0
  9
$TEXTSTYLE
  7
Standard
  9
$CLAYER
  8
0
  9
$CELTYPE
  6
ByLayer
  9
$CECOLOR
 62
   256
  9
$CELTSCALE
 40
1.0
  9
$DISPSILH
 70
     0
  9
$DIMSCALE
 40
1.0
  9
$DIMASZ
 40
0.003302
  9
$DIMEXO
 40
0.001
  9
$DIMDLI
 40
3.75
  9
$DIMRND
 40
0.0
  9
$DIMDLE
 40
0.0
  9
$DIMEXE
 40
0.001
  9
$DIMTP
 40
0.0
  9
$DIMTM
 40
0.0
  9
$DIMTXT
 40
0.0035
  9
$DIMCEN
 40
2.5
  9
$DIMTSZ
 40
0.0
  9
$DIMTOL
 70
     0
  9
$DIMLIM
 70
     0
  9
$DIMTIH
 70
     1
  9
$DIMTOH
 70
     1
  9
$DIMSE1
 70
     0
  9
$DIMSE2
 70
     0
  9
$DIMTAD
 70
     1
  9
$DIMZIN
 70
     0
  9
$DIMBLK
  1

  9
$DIMASO
 70
     1
  9
$DIMSHO
 70
     1
  9
$DIMPOST
  1

  9
$DIMAPOST
  1

  9
$DIMALT
 70
     0
  9
$DIMALTD
 70
     3
  9
$DIMALTF
 40
39.3700787402
  9
$DIMLFAC
 40
1.0
  9
$DIMTOFL
 70
     1
  9
$DIMTVP
 40
0.0
  9
$DIMTIX
 70
     0
  9
$DIMSOXD
 70
     0
  9
$DIMSAH
 70
     0
  9
$DIMBLK1
  1

  9
$DIMBLK2
  1

  9
$DIMSTYLE
  2
ISO-25
  9
$DIMCLRD
 70
     0
  9
$DIMCLRE
 70
     0
  9
$DIMCLRT
 70
     0
  9
$DIMTFAC
 40
1.0
  9
$DIMGAP
 40
0.001524
  9
$DIMJUST
 70
     0
  9
$DIMSD1
 70
     0
  9
$DIMSD2
 70
     0
  9
$DIMTOLJ
 70
     0
  9
$DIMTZIN
 70
     0
  9
$DIMALTZ
 70
     0
  9
$DIMALTTZ
 70
     0
  9
$DIMUPT
 70
     0
  9
$DIMDEC
 70
     2
  9
$DIMTDEC
 70
     2
  9
$DIMALTU
 70
     2
  9
$DIMALTTD
 70
     3
  9
$DIMTXSTY
  7
Standard
  9
$DIMAUNIT
 70
     0
  9
$DIMADEC
 70
     2
  9
$DIMALTRND
 40
0.0
  9
$DIMAZIN
 70
     0
  9
$DIMDSEP
 70
    44
  9
$DIMATFIT
 70
     3
  9
$DIMFRAC
 70
     0
  9
$DIMLDRBLK
  1

  9
$DIMLUNIT
 70
     2
  9
$DIMLWD
 70
    -2
  9
$DIMLWE
 70
    -2
  9
$DIMTMOVE
 70
     0
  9
$LUNITS
 70
     2
  9
$LUPREC
 70
     2
  9
$SKETCHINC
 40
1.0
  9
$FILLETRAD
 40
10.0
  9
$AUNITS
 70
     0
  9
$AUPREC
 70
     2
  9
$MENU
  1
.
  9
$ELEVATION
 40
0.0
  9
$PELEVATION
 40
0.0
  9
$THICKNESS
 40
0.0
  9
$LIMCHECK
 70
     0
  9
$CHAMFERA
 40
0.0
  9
$CHAMFERB
 40
0.0
  9
$CHAMFERC
 40
0.0
  9
$CHAMFERD
 40
0.0
  9
$SKPOLY
 70
     0
  9
$TDCREATE
 40
2458715.570551146
  9
$TDUCREATE
 40
2458715.487217812
  9
$TDUPDATE
 40
2458715.570552049
  9
$TDUUPDATE
 40
2458715.487218715
  9
$TDINDWG
 40
0.0000000116
  9
$TDUSRTIMER
 40
0.0000000116
  9
$USRTIMER
 70
     1
  9
$ANGBASE
 50
0.0
  9
$ANGDIR
 70
     0
  9
$PDMODE
 70
     0
  9
$PDSIZE
 40
-1.0
  9
$PLINEWID
 40
0.0
  9
$SPLFRAME
 70
     0
  9
$SPLINETYPE
 70
     6
  9
$SPLINESEGS
 70
     8
  9
$HANDSEED
  5
153
  9
$SURFTAB1
 70
     6
  9
$SURFTAB2
 70
     6
  9
$SURFTYPE
 70
     6
  9
$SURFU
 70
     6
  9
$SURFV
 70
     6
  9
$UCSBASE
  2

  9
$UCSNAME
  2

  9
$UCSORG
 10
0.0
 20
0.0
 30
0.0
  9
$UCSXDIR
 10
1.0
 20
0.0
 30
0.0
  9
$UCSYDIR
 10
0.0
 20
1.0
 30
0.0
  9
$UCSORTHOREF
  2

  9
$UCSORTHOVIEW
 70
     0
  9
$UCSORGTOP
 10
0.0
 20
0.0
 30
0.0
  9
$UCSORGBOTTOM
 10
0.0
 20
0.0
 30
0.0
  9
$UCSORGLEFT
 10
0.0
 20
0.0
 30
0.0
  9
$UCSORGRIGHT
 10
0.0
 20
0.0
 30
0.0
  9
$UCSORGFRONT
 10
0.0
 20
0.0
 30
0.0
  9
$UCSORGBACK
 10
0.0
 20
0.0
 30
0.0
  9
$PUCSBASE
  2

  9
$PUCSNAME
  2

  9
$PUCSORG
 10
0.0
 20
0.0
 30
0.0
  9
$PUCSXDIR
 10
1.0
 20
0.0
 30
0.0
  9
$PUCSYDIR
 10
0.0
 20
1.0
 30
0.0
  9
$PUCSORTHOREF
  2

  9
$PUCSORTHOVIEW
 70
     0
  9
$PUCSORGTOP
 10
0.0
 20
0.0
 30
0.0
  9
$PUCSORGBOTTOM
 10
0.0
 20
0.0
 30
0.0
  9
$PUCSORGLEFT
 10
0.0
 20
0.0
 30
0.0
  9
$PUCSORGRIGHT
 10
0.0
 20
0.0
 30
0.0
  9
$PUCSORGFRONT
 10
0.0
 20
0.0
 30
0.0
  9
$PUCSORGBACK
 10
0.0
 20
0.0
 30
0.0
  9
$USERI1
 70
     0
  9
$USERI2
 70
     0
  9
$USERI3
 70
     0
  9
$USERI4
 70
     0
  9
$USERI5
 70
     0
  9
$USERR1
 40
0.0
  9
$USERR2
 40
0.0
  9
$USERR3
 40
0.0
  9
$USERR4
 40
0.0
  9
$USERR5
 40
0.0
  9
$WORLDVIEW
 70
     1
  9
$SHADEDGE
 70
     3
  9
$SHADEDIF
 70
    70
  9
$TILEMODE
 70
     1
  9
$MAXACTVP
 70
    64
  9
$PINSBASE
 10
0.0
 20
0.0
 30
0.0
  9
$PLIMCHECK
 70
     0
  9
$PEXTMIN
 10
1.0000000000E+20
 20
1.0000000000E+20
 30
1.0000000000E+20
  9
$PEXTMAX
 10
-1.0000000000E+20
 20
-1.0000000000E+20
 30
-1.0000000000E+20
  9
$PLIMMIN
 10
0.0
 20
0.0
  9
$PLIMMAX
 10
420.0
 20
297.0
  9
$UNITMODE
 70
     0
  9
$VISRETAIN
 70
     1
  9
$PLINEGEN
 70
     0
  9
$PSLTSCALE
 70
     1
  9
$TREEDEPTH
 70
  3020
  9
$CMLSTYLE
  2
Standard
  9
$CMLJUST
 70
     0
  9
$CMLSCALE
 40
20.0
  9
$PROXYGRAPHICS
 70
     1
  9
$MEASUREMENT
 70
     1
  9
$CELWEIGHT
370
    -1
  9
$ENDCAPS
280
     0
  9
$JOINSTYLE
280
     0
  9
$LWDISPLAY
290
     1
  9
$INSUNITS
 70
     4
  9
$HYPERLINKBASE
  1

  9
$STYLESHEET
  1

  9
$XEDIT
290
     1
  9
$CEPSNTYPE
380
     0
  9
$PSTYLEMODE
290
     1
  9
$FINGERPRINTGUID
  2
{BDCBA58F-E452-45DC-A742-49C7C92F4559}
  9
$VERSIONGUID
  2
{FAEB1C32-E019-11D5-929B-00C0DF256EC4}
  9
$EXTNAMES
290
     1
  9
$PSVPSCALE
 40
0.0
  9
$OLESTARTUP
290
     0
  0
ENDSEC
  0
SECTION
  2
CLASSES
  0
CLASS
  1
ACDBDICTIONARYWDFLT
  2
AcDbDictionaryWithDefault
  3
ObjectDBX Classes
 90
        0
280
     0
281
     0
  0
CLASS
  1
VISUALSTYLE
  2
AcDbVisualStyle
  3
ObjectDBX Classes
 90
     4095
280
     0
281
     0
  0
CLASS
  1
MATERIAL
  2
AcDbMaterial
  3
ObjectDBX Classes
 90
     1153
280
     0
281
     0
  0
CLASS
  1
SCALE
  2
AcDbScale
  3
ObjectDBX Classes
 90
     1153
280
     0
281
     0
  0
CLASS
  1
TABLESTYLE
  2
AcDbTableStyle
  3
ObjectDBX Classes
 90
     4095
280
     0
281
     0
  0
CLASS
  1
MLEADERSTYLE
  2
AcDbMLeaderStyle
  3
ACDB_MLEADERSTYLE_CLASS
 90
     4095
280
     0
281
     0
  0
CLASS
  1
SUN
  2
AcDbSun
  3
SCENEOE
 90
     1153
280
     0
281
     0
  0
CLASS
  1
ACDBPLACEHOLDER
  2
AcDbPlaceHolder
  3
ObjectDBX Classes
 90
        0
280
     0
281
     0
  0
CLASS
  1
LAYOUT
  2
AcDbLayout
  3
ObjectDBX Classes
 90
        0
280
     0
281
     0
  0
ENDSEC
  0
SECTION
  2
TABLES
  0
TABLE
  2
VPORT
  5
8
330
0
100
AcDbSymbolTable
 70
     1
  0
VPORT
  5
29
330
8
100
AcDbSymbolTableRecord
100
AcDbViewportTableRecord
  2
*Active
 70
     0
 10
0.0
 20
0.0
 11
1.0
 21
1.0
 12
0.2159
 22
0.1397
 13
0.0
 23
0.0
 14
10.0
 24
10.0
 15
10.0
 25
10.0
 16
0.0
 26
0.0
 36
1.0
 17
0.0
 27
0.0
 37
0.0
 40
0.2794
 41
1.5454545455
 42
50.0
 43
0.0
 44
0.0
 50
0.0
 51
0.0
 71
     0
 72
  2000
 73
     1
 74
     3
 75
     0
 76
     0
 77
     0
 78
     0
281
     0
 65
     1
110
0.0
120
0.0
130
0.0
111
1.0
121
0.0
131
0.0
112
0.0
122
1.0
132
0.0
 79
     0
146
0.0
  0
ENDTAB
  0
TABLE
  2
LTYPE
  5
5
330
0
100
AcDbSymbolTable
 70
     6
  0
LTYPE
  5
14
330
5
100
AcDbSymbolTableRecord
100
AcDbLinetypeTableRecord
  2
ByBlock
 70
     0
  3

 72
    65
 73
     0
 40
0.0
  0
LTYPE
  5
15
330
5
100
AcDbSymbolTableRecord
100
AcDbLinetypeTableRecord
  2
ByLayer
 70
     0
  3

 72
    65
 73
     0
 40
0.0
  0
LTYPE
  5
16
330
5
100
AcDbSymbolTableRecord
100
AcDbLinetypeTableRecord
  2
Continuous
 70
     0
  3
Solid line
 72
    65
 73
     0
 40
0.0
  0
LTYPE
  5
6E
330
5
100
AcDbSymbolTableRecord
100
AcDbLinetypeTableRecord
  2
HIDDEN
 70
     0
  3
Hidden __ __ __ __ __ __ __ __ __ __ __ __ __ __
 72
    65
 73
     2
 40
0.001905
 49
0.00127
 74
     0
 49
-0.000635
 74
     0
  0
LTYPE
  5
6F
330
5
100
AcDbSymbolTableRecord
100
AcDbLinetypeTableRecord
  2
PHANTOM
 70
     0
  3
Phantom ______  __  __  ______  __  __  ______
 72
    65
 73
     6
 40
0.0127
 49
0.00635
 74
     0
 49
-0.00127
 74
     0
 49
0.00127
 74
     0
 49
-0.00127
 74
     0
 49
0.00127
 74
     0
 49
-0.00127
 74
     0
  0
LTYPE
  5
70
330
5
100
AcDbSymbolTableRecord
100
AcDbLinetypeTableRecord
  2
CENTER
 70
     0
  3
Center ____ _ ____ _ ____ _ ____ _ ____ _ ____
 72
    65
 73
     4
 40
0.01016
 49
0.00635
 74
     0
 49
-0.00127
 74
     0
 49
0.00127
 74
     0
 49
-0.00127
 74
     0
  0
LTYPE
  5
71
330
5
100
AcDbSymbolTableRecord
100
AcDbLinetypeTableRecord
  2
CENTERX2
 70
     0
  3
Center (2x) ________  __  ________  __  _____
 72
    65
 73
     4
 40
0.02032
 49
0.0127
 74
     0
 49
-0.00254
 74
     0
 49
0.00254
 74
     0
 49
-0.00254
 74
     0
  0
LTYPE
  5
72
330
5
100
AcDbSymbolTableRecord
100
AcDbLinetypeTableRecord
  2
DOT2
 70
     0
  3
Dot (.5x) ........................................
 72
    65
 73
     2
 40
0.000635
 49
0.0
 74
     0
 49
-0.000635
 74
     0
  0
ENDTAB
  0
TABLE
  2
LAYER
  5
2
330
0
100
AcDbSymbolTable
 70
     1
  0
LAYER
  5
10
330
2
100
AcDbSymbolTableRecord
100
AcDbLayerTableRecord
  2
0
 70
     0
 62
     7
  6
Continuous
370
    -3
390
F
  0
ENDTAB
  0
TABLE
  2
STYLE
  5
3
330
0
100
AcDbSymbolTable
 70
     1
  0
STYLE
  5
11
330
3
100
AcDbSymbolTableRecord
100
AcDbTextStyleTableRecord
  2
Standard
 70
     0
 40
0.0
 41
1.0
 50
0.0
 71
     0
 42
0.0035
  3
txt
  4

  0
ENDTAB
  0
TABLE
  2
VIEW
  5
6
330
0
100
AcDbSymbolTable
 70
     0
  0
ENDTAB
  0
TABLE
  2
UCS
  5
7
330
0
100
AcDbSymbolTable
 70
     0
  0
ENDTAB
  0
TABLE
  2
APPID
  5
9
330
0
100
AcDbSymbolTable
 70
     1
  0
APPID
  5
12
330
9
100
AcDbSymbolTableRecord
100
AcDbRegAppTableRecord
  2
ACAD
 70
     0
  0
ENDTAB
  0
TABLE
  2
DIMSTYLE
  5
A
330
0
100
AcDbSymbolTable
 70
     1
100
AcDbDimStyleTable
  0
DIMSTYLE
105
27
330
A
100
AcDbSymbolTableRecord
100
AcDbDimStyleTableRecord
  2
ISO-25
 70
     0
 41
2.5
 42
0.625
 43
3.75
 44
1.25
 73
     0
 74
     0
 77
     1
 78
     8
140
2.5
141
2.5
143
0.0393700787
147
0.625
171
     3
172
     1
178
     0
271
     2
272
     2
274
     3
278
    44
283
     0
284
     8
340
11
  0
ENDTAB
  0
TABLE
  2
BLOCK_RECORD
  5
1
330
0
100
AcDbSymbolTable
 70
     1
  0
BLOCK_RECORD
  5
1F
330
1
100
AcDbSymbolTableRecord
100
AcDbBlockTableRecord
  2
*Model_Space
340
22
  0
BLOCK_RECORD
  5
1B
330
1
100
AcDbSymbolTableRecord
100
AcDbBlockTableRecord
  2
*Paper_Space
340
1E
  0
BLOCK_RECORD
  5
23
330
1
100
AcDbSymbolTableRecord
100
AcDbBlockTableRecord
  2
*Paper_Space0
340
26
  0
ENDTAB
  0
ENDSEC
  0
SECTION
  2
BLOCKS
  0
BLOCK
  5
20
330
1F
100
AcDbEntity
  8
0
100
AcDbBlockBegin
  2
*Model_Space
 70
     0
 10
0.0
 20
0.0
 30
0.0
  3
*Model_Space
  1

  0
ENDBLK
  5
21
330
1F
100
AcDbEntity
  8
0
100
AcDbBlockEnd
  0
BLOCK
  5
1C
330
1B
100
AcDbEntity
 67
     1
  8
0
100
AcDbBlockBegin
  2
*Paper_Space
 70
     0
 10
0.0
 20
0.0
 30
0.0
  3
*Paper_Space
  1

  0
ENDBLK
  5
1D
330
1B
100
AcDbEntity
 67
     1
  8
0
100
AcDbBlockEnd
  0
BLOCK
  5
24
330
23
100
AcDbEntity
  8
0
100
AcDbBlockBegin
  2
*Paper_Space0
 70
     0
 10
0.0
 20
0.0
 30
0.0
  3
*Paper_Space0
  1

  0
ENDBLK
  5
25
330
23
100
AcDbEntity
  8
0
100
AcDbBlockEnd
  0
ENDSEC
  0
SECTION
  2
ENTITIES
  0
LINE
  5
73
330
1F
100
AcDbEntity
  8
0
  6
Continuous
 62
     7
370
    25
100
AcDbLine
 10
0.1676031685
 20
1.119687747
 30
0.0
 11
0.1676031685
 21
1.0518377533
 31
0.0
  0
LINE
  5
74
330
1F
100
AcDbEntity
  8
0
  6
Continuous
 62
     7
370
    25
100
AcDbLine
 10
0.1676031685
 20
0.9915376415
 30
0.0
 11
0.1676031685
 21
-0.6361622105
 31
0.0
  0
LINE
  5
75
330
1F
100
AcDbEntity
  8
0
  6
Continuous
 62
     7
370
    25
100
AcDbLine
 10
0.1676031685
 20
-0.6964623223
 30
0.0
 11
0.1676031685
 21
-0.7643121968
 31
0.0
  0
LINE
  5
76
330
1F
100
AcDbEntity
  8
0
  6
Continuous
 62
     7
370
    25
100
AcDbLine
 10
0.2565031385
 20
-0.7643121968
 30
0.0
 11
0.2565031385
 21
-0.6964623223
 31
0.0
  0
LINE
  5
77
330
1F
100
AcDbEntity
  8
0
  6
Continuous
 62
     7
370
    25
100
AcDbLine
 10
0.2565031385
 20
-0.6361622105
 30
0.0
 11
0.2565031385
 21
0.9915376415
 31
0.0
  0
LINE
  5
78
330
1F
100
AcDbEntity
  8
0
  6
Continuous
 62
     7
370
    25
100
AcDbLine
 10
0.2565031385
 20
1.0518377533
 30
0.0
 11
0.2565031385
 21
1.119687747
 31
0.0
  0
LINE
  5
79
330
1F
100
AcDbEntity
  8
0
  6
Continuous
 62
     7
370
    25
100
AcDbLine
 10
0.1676031685
 20
-0.7643121968
 30
0.0
 11
0.1676031685
 21
-0.7693123112
 31
0.0
  0
LINE
  5
7A
330
1F
100
AcDbEntity
  8
0
  6
Continuous
 62
     7
370
    25
100
AcDbLine
 10
0.2565031385
 20
-0.7693123112
 30
0.0
 11
0.2565031385
 21
-0.7643121968
 31
0.0
  0
SPLINE
  5
7B
330
1F
100
AcDbEntity
  8
0
  6
Continuous
 62
     7
370
    25
100
AcDbSpline
210
0.0
220
0.0
230
1.0
 70
     8
 71
     3
 72
    23
 73
    19
 74
     0
 42
0.000000001
 43
0.00000001
 40
0.0
 40
0.0
 40
0.0
 40
0.0
 40
0.0171475049852018
 40
0.0345442197401209
 40
0.0706057416325628
 40
0.1181598668455329
 40
0.1605179673382212
 40
0.2025566686620381
 40
0.2421675493773887
 40
0.349665183965586
 40
0.4587948078047828
 40
0.5212702319547848
 40
0.5830331500538877
 40
0.6437280761421424
 40
0.7033192484788561
 40
0.779246576370956
 40
0.8790870903731797
 40
1.0
 40
1.0
 40
1.0
 40
1.0
 10
0.1676031684609511
 20
-0.7693123112159319
 30
0.0
 10
0.1676317553735271
 20
-0.7695803001976049
 30
0.0
 10
0.1676893446607482
 20
-0.7701201729242104
 30
0.0
 10
0.1682333262668048
 20
-0.7711008542588735
 30
0.0
 10
0.1693713755548276
 20
-0.7722131599624111
 30
0.0
 10
0.1710546087047695
 20
-0.7732406597419552
 30
0.0
 10
0.1729207848357266
 20
-0.7741037130528436
 30
0.0
 10
0.174729002500628
 20
-0.7747849761431018
 30
0.0
 10
0.1775341438638754
 20
-0.77568457933552
 30
0.0
 10
0.1814131055825293
 20
-0.7766398573046756
 30
0.0
 10
0.1856900203889262
 20
-0.7774191164720268
 30
0.0
 10
0.1892862716499029
 20
-0.7779418039196195
 30
0.0
 10
0.1921447937387967
 20
-0.7782908771224877
 30
0.0
 10
0.1949649667475723
 20
-0.7785783678664382
 30
0.0
 10
0.1980096564428794
 20
-0.7788332840481984
 30
0.0
 10
0.2016669556945826
 20
-0.7790687403765131
 30
0.0
 10
0.2062829566274577
 20
-0.7792683037207659
 30
0.0
 10
0.2097203697722861
 20
-0.7792967311630079
 30
0.0
 10
0.21160313842021
 20
-0.7793123016791892
 30
0.0
  0
SPLINE
  5
7C
330
1F
100
AcDbEntity
  8
0
  6
Continuous
 62
     7
370
    25
100
AcDbSpline
210
0.0
220
0.0
230
1.0
 70
     8
 71
     3
 72
    23
 73
    19
 74
     0
 42
0.000000001
 43
0.00000001
 40
0.0
 40
0.0
 40
0.0
 40
0.0
 40
0.1209086869955653
 40
0.2207480426106869
 40
0.2966735200600026
 40
0.3562632400862253
 40
0.4169554176047516
 40
0.4787168304652361
 40
0.5411907320119671
 40
0.6503189509143985
 40
0.7578139656524344
 40
0.8112274080733453
 40
0.8678220731705854
 40
0.8958691952017447
 40
0.9293966428825793
 40
0.9654564036209737
 40
0.9828526943964617
 40
1.0
 40
1.0
 40
1.0
 40
1.0
 10
0.2125031685563185
 20
-0.7793123016791887
 30
0.0
 10
0.2143859173083373
 20
-0.7792967303997744
 30
0.0
 10
0.2178233303847954
 20
-0.7792683012642243
 30
0.0
 10
0.2224393315251872
 20
-0.7790687424975724
 30
0.0
 10
0.2260966504467286
 20
-0.7788332831606484
 30
0.0
 10
0.2291413207732016
 20
-0.7785783718317609
 30
0.0
 10
0.2319614729933517
 20
-0.7782908724314326
 30
0.0
 10
0.2348199759497044
 20
-0.7779418051307361
 30
0.0
 10
0.2384162454460654
 20
-0.7774191101948658
 30
0.0
 10
0.2426931859935052
 20
-0.7766398718686442
 30
0.0
 10
0.2467811193235933
 20
-0.7756331000963104
 30
0.0
 10
0.2500006141543085
 20
-0.7745776734070806
 30
0.0
 10
0.2519928017142974
 20
-0.7737589226258876
 30
0.0
 10
0.2536214333612322
 20
-0.7728992808788
 30
0.0
 10
0.2548933405397859
 20
-0.7720595507381582
 30
0.0
 10
0.2558728849954284
 20
-0.7711007389330011
 30
0.0
 10
0.256416897556345
 20
-0.7701201849006005
 30
0.0
 10
0.2564745299978928
 20
-0.7695803053198995
 30
0.0
 10
0.2565031385155775
 20
-0.7693123112159319
 30
0.0
  0
LINE
  5
7D
330
1F
100
AcDbEntity
  8
0
  6
Continuous
 62
     7
370
    25
100
AcDbLine
 10
0.2565031385
 20
1.119687747
 30
0.0
 11
0.2565031385
 21
1.1246877422
 31
0.0
  0
LINE
  5
7E
330
1F
100
AcDbEntity
  8
0
  6
Continuous
 62
     7
370
    25
100
AcDbLine
 10
0.1676031685
 20
1.1246877422
 30
0.0
 11
0.1676031685
 21
1.119687747
 31
0.0
  0
SPLINE
  5
7F
330
1F
100
AcDbEntity
  8
0
  6
Continuous
 62
     7
370
    25
100
AcDbSpline
210
0.0
220
0.0
230
1.0
 70
     8
 71
     3
 72
    23
 73
    19
 74
     0
 42
0.000000001
 43
0.00000001
 40
0.0
 40
0.0
 40
0.0
 40
0.0
 40
0.0171452239237393
 40
0.0345442267688479
 40
0.0706048972416237
 40
0.1181590631927545
 40
0.1605194398608332
 40
0.2025569847246381
 40
0.2421671155039487
 40
0.3496648421820729
 40
0.4587953500798559
 40
0.5212708277506378
 40
0.5830341092489164
 40
0.6437275585308511
 40
0.703318995306276
 40
0.779246388242989
 40
0.8790882626572527
 40
1.0
 40
1.0
 40
1.0
 40
1.0
 10
0.2565031385155775
 20
1.12468774218983
 30
0.0
 10
0.2564745157895627
 20
1.124955686659167
 30
0.0
 10
0.2564168466717605
 20
1.125495541638688
 30
0.0
 10
0.2558729918060271
 20
1.126476260929055
 30
0.0
 10
0.2547349200335074
 20
1.127588612554917
 30
0.0
 10
0.2530516555603394
 20
1.128616079563333
 30
0.0
 10
0.2511855181541345
 20
1.129479252335896
 30
0.0
 10
0.2493773100121859
 20
1.130160565851235
 30
0.0
 10
0.2465721140775385
 20
1.131059895636891
 30
0.0
 10
0.2426932113888988
 20
1.132015375004602
 30
0.0
 10
0.2384162357459872
 20
1.132794423137907
 30
0.0
 10
0.2348199656352506
 20
1.133317065612682
 30
0.0
 10
0.2319614921084324
 20
1.133666398447773
 30
0.0
 10
0.2291413043488138
 20
1.133953589419366
 30
0.0
 10
0.2260966603298374
 20
1.134208787516496
 30
0.0
 10
0.222439328931875
 20
1.134444144409529
 30
0.0
 10
0.2178233312828363
 20
1.13464374230201
 30
0.0
 10
0.2143859176261447
 20
1.134672164935175
 30
0.0
 10
0.2125031685563185
 20
1.134687732653087
 30
0.0
  0
SPLINE
  5
80
330
1F
100
AcDbEntity
  8
0
  6
Continuous
 62
     7
370
    25
100
AcDbSpline
210
0.0
220
0.0
230
1.0
 70
     8
 71
     3
 72
    23
 73
    19
 74
     0
 42
0.000000001
 43
0.00000001
 40
0.0
 40
0.0
 40
0.0
 40
0.0
 40
0.1209099533287008
 40
0.2207480262489531
 40
0.2966734977320279
 40
0.3562634264590586
 40
0.4169566091692823
 40
0.478718327657462
 40
0.5411922242949799
 40
0.6503187157935493
 40
0.757813722084603
 40
0.8112271603082736
 40
0.8678239876332817
 40
0.8958687807383515
 40
0.9293962257845918
 40
0.9654568659795402
 40
0.9828554285174548
 40
1.0
 40
1.0
 40
1.0
 40
1.0
 10
0.2116031384202101
 20
1.134687732653087
 30
0.0
 10
0.2097203694543493
 20
1.134672165699185
 30
0.0
 10
0.2062829557290569
 20
1.134643744760678
 30
0.0
 10
0.201666958288878
 20
1.134444142282981
 30
0.0
 10
0.198009646557185
 20
1.134208788419037
 30
0.0
 10
0.194964983179522
 20
1.133953585408828
 30
0.0
 10
0.1921447745939565
 20
1.133666403312948
 30
0.0
 10
0.1892862820786319
 20
1.133317063737015
 30
0.0
 10
0.1856900295206601
 20
1.132794432720586
 30
0.0
 10
0.1814130841032891
 20
1.132015337667854
 30
0.0
 10
0.1773252004485763
 20
1.131008501712709
 30
0.0
 10
0.1741056394953567
 20
1.129953139389439
 30
0.0
 10
0.1721135441404186
 20
1.129134197657393
 30
0.0
 10
0.1704848225378197
 20
1.128274727113295
 30
0.0
 10
0.1692129800926095
 20
1.127434947582219
 30
0.0
 10
0.1682333139442406
 20
1.126476177539927
 30
0.0
 10
0.1676893794976461
 20
1.125495563403663
 30
0.0
 10
0.1676317642607999
 20
1.124955692728762
 30
0.0
 10
0.1676031684609511
 20
1.12468774218983
 30
0.0
  0
ARC
  5
81
330
1F
100
AcDbEntity
  8
0
  6
Continuous
 62
     7
370
    25
100
AcDbCircle
 10
0.2637548595
 20
0.9931877143
 30
0.0
 40
0.0085
100
AcDbArc
 50
211.4448027403
 51
348.8068163943
  0
ARC
  5
82
330
1F
100
AcDbEntity
  8
0
  6
Continuous
 62
     7
370
    25
100
AcDbCircle
 10
0.1603514263
 20
0.9931877143
 30
0.0
 40
0.0085
100
AcDbArc
 50
191.1931836057
 51
328.5551972611
  0
ARC
  5
83
330
1F
100
AcDbEntity
  8
0
  6
Continuous
 62
     7
370
    25
100
AcDbCircle
 10
0.1603514263
 20
-0.6378122857
 30
0.0
 40
0.0085
100
AcDbArc
 50
31.4448027389
 51
168.8068163943
  0
ARC
  5
84
330
1F
100
AcDbEntity
  8
0
  6
Continuous
 62
     7
370
    25
100
AcDbCircle
 10
0.2120531429
 20
0.9931877143
 30
0.0
 40
0.0085
100
AcDbArc
 50
191.1931836057
 51
348.8068163943
  0
ARC
  5
85
330
1F
100
AcDbEntity
  8
0
  6
Continuous
 62
     7
370
    25
100
AcDbCircle
 10
0.2120531429
 20
-0.6378122857
 30
0.0
 40
0.0085
100
AcDbArc
 50
11.1931836057
 51
168.8068163943
  0
ARC
  5
86
330
1F
100
AcDbEntity
  8
0
  6
Continuous
 62
     7
370
    25
100
AcDbCircle
 10
0.2637548595
 20
-0.6378122857
 30
0.0
 40
0.0085
100
AcDbArc
 50
11.1931836057
 51
148.5551972597
  0
LINE
  5
87
330
1F
100
AcDbEntity
  8
0
  6
Continuous
 62
     7
370
    25
100
AcDbLine
 10
0.0393557286
 20
-0.6964623223
 30
0.0
 11
0.3847505784
 21
-0.6964623223
 31
0.0
  0
LINE
  5
88
330
1F
100
AcDbEntity
  8
0
  6
Continuous
 62
     7
370
    25
100
AcDbLine
 10
0.3847505784
 20
-0.6361622105
 30
0.0
 11
0.0393557286
 21
-0.6361622105
 31
0.0
  0
LINE
  5
89
330
1F
100
AcDbEntity
  8
0
  6
Continuous
 62
     7
370
    25
100
AcDbLine
 10
0.0393557286
 20
0.9915376415
 30
0.0
 11
0.3847505784
 21
0.9915376415
 31
0.0
  0
LINE
  5
8A
330
1F
100
AcDbEntity
  8
0
  6
Continuous
 62
     7
370
    25
100
AcDbLine
 10
0.3847505784
 20
1.0518377533
 30
0.0
 11
0.0393557286
 21
1.0518377533
 31
0.0
  0
LINE
  5
8B
330
1F
100
AcDbEntity
  8
0
  6
Continuous
 62
     7
370
    25
100
AcDbLine
 10
0.0393557286
 20
-0.6361622105
 30
0.0
 11
-0.627653029
 21
-0.6361622105
 31
0.0
  0
LINE
  5
8C
330
1F
100
AcDbEntity
  8
0
  6
Continuous
 62
     7
370
    25
100
AcDbLine
 10
-0.627653029
 20
-0.6964623223
 30
0.0
 11
0.0393557286
 21
-0.6964623223
 31
0.0
  0
LINE
  5
8D
330
1F
100
AcDbEntity
  8
0
  6
Continuous
 62
     7
370
    25
100
AcDbLine
 10
0.0393557286
 20
1.0518377533
 30
0.0
 11
-0.627653029
 21
1.0518377533
 31
0.0
  0
LINE
  5
8E
330
1F
100
AcDbEntity
  8
0
  6
Continuous
 62
     7
370
    25
100
AcDbLine
 10
-0.627653029
 20
0.9915376415
 30
0.0
 11
0.0393557286
 21
0.9915376415
 31
0.0
  0
LINE
  5
8F
330
1F
100
AcDbEntity
  8
0
  6
Continuous
 62
     7
370
    25
100
AcDbLine
 10
1.0517592764
 20
-0.6361622105
 30
0.0
 11
0.3847505784
 21
-0.6361622105
 31
0.0
  0
LINE
  5
90
330
1F
100
AcDbEntity
  8
0
  6
Continuous
 62
     7
370
    25
100
AcDbLine
 10
0.3847505784
 20
-0.6964623223
 30
0.0
 11
1.0517592764
 21
-0.6964623223
 31
0.0
  0
LINE
  5
91
330
1F
100
AcDbEntity
  8
0
  6
Continuous
 62
     7
370
    25
100
AcDbLine
 10
1.0517592764
 20
1.0518377533
 30
0.0
 11
0.3847505784
 21
1.0518377533
 31
0.0
  0
LINE
  5
92
330
1F
100
AcDbEntity
  8
0
  6
Continuous
 62
     7
370
    25
100
AcDbLine
 10
0.3847505784
 20
0.9915376415
 30
0.0
 11
1.0517592764
 21
0.9915376415
 31
0.0
  0
LINE
  5
93
330
1F
100
AcDbEntity
  8
0
  6
Continuous
 62
     7
370
    25
100
AcDbLine
 10
0.279243443
 20
-0.0337459336
 30
0.0
 11
0.279243443
 21
-0.0295268784
 31
0.0
  0
LINE
  5
94
330
1F
100
AcDbEntity
  8
0
  6
Continuous
 62
     7
370
    25
100
AcDbLine
 10
0.2640353775
 20
-0.0250579606
 30
0.0
 11
0.2587039804
 21
-0.0247270356
 31
0.0
  0
LINE
  5
95
330
1F
100
AcDbEntity
  8
0
  6
Continuous
 62
     7
370
    25
100
AcDbLine
 10
0.2565031385
 20
-0.0471779595
 30
0.0
 11
0.256514225
 21
-0.0471784363
 31
0.0
  0
LINE
  5
96
330
1F
100
AcDbEntity
  8
0
  6
Continuous
 62
     7
370
    25
100
AcDbLine
 10
0.2622261381
 20
-0.0405408631
 30
0.0
 11
0.2622261381
 21
-0.0347513447
 31
0.0
  0
LINE
  5
97
330
1F
100
AcDbEntity
  8
0
  6
Continuous
 62
     7
370
    25
100
AcDbLine
 10
0.1639227009
 20
-0.0371252785
 30
0.0
 11
0.1639227009
 21
-0.0429145585
 31
0.0
  0
LWPOLYLINE
  5
98
330
1F
100
AcDbEntity
  8
0
  6
Continuous
 62
     7
370
    25
100
AcDbPolyline
 90
        3
 70
   128
 43
0.0
 10
0.1675133443
 20
-0.027124096
 10
0.1648477053
 20
-0.0272895585
 10
0.1621820068
 20
-0.0274547825
  0
LINE
  5
99
330
1F
100
AcDbEntity
  8
0
  6
Continuous
 62
     7
370
    25
100
AcDbLine
 10
0.1469054556
 20
-0.0319005738
 30
0.0
 11
0.1469054556
 21
-0.0376900921
 31
0.0
  0
LINE
  5
9A
330
1F
100
AcDbEntity
  8
0
  6
Continuous
 62
     7
370
    25
100
AcDbLine
 10
0.1526747679
 20
-0.0443526993
 30
0.0
 11
0.158006165
 21
-0.0440217743
 31
0.0
  0
LINE
  5
9B
330
1F
100
AcDbEntity
  8
0
  6
Continuous
 62
     7
370
    25
100
AcDbLine
 10
0.2587039804
 20
0.3799353351
 30
0.0
 11
0.2640353775
 21
0.3802662601
 31
0.0
  0
LINE
  5
9C
330
1F
100
AcDbEntity
  8
0
  6
Continuous
 62
     7
370
    25
100
AcDbLine
 10
0.256514225
 20
0.4023867359
 30
0.0
 11
0.2565031385
 21
0.4023860206
 31
0.0
  0
LINE
  5
9D
330
1F
100
AcDbEntity
  8
0
  6
Continuous
 62
     7
370
    25
100
AcDbLine
 10
0.2792436218
 20
0.3847358932
 30
0.0
 11
0.2792436218
 21
0.3889995327
 31
0.0
  0
LINE
  5
9E
330
1F
100
AcDbEntity
  8
0
  6
Continuous
 62
     7
370
    25
100
AcDbLine
 10
0.158006165
 20
0.3992300739
 30
0.0
 11
0.1526747679
 21
0.3995609989
 31
0.0
  0
LINE
  5
9F
330
1F
100
AcDbEntity
  8
0
  6
Continuous
 62
     7
370
    25
100
AcDbLine
 10
0.1469037866
 20
0.3928988685
 30
0.0
 11
0.1469037866
 21
0.3871093502
 31
0.0
  0
LWPOLYLINE
  5
A0
330
1F
100
AcDbEntity
  8
0
  6
Continuous
 62
     7
370
    25
100
AcDbPolyline
 90
        3
 70
   128
 43
0.0
 10
0.1621820068
 20
0.3826630821
 10
0.1648477053
 20
0.3824976196
 10
0.1675133443
 20
0.3823323955
  0
LINE
  5
A1
330
1F
100
AcDbEntity
  8
0
  6
Continuous
 62
     7
370
    25
100
AcDbLine
 10
0.1639210915
 20
0.3981233348
 30
0.0
 11
0.1639210915
 21
0.3923338165
 31
0.0
  0
LINE
  5
A2
330
1F
100
AcDbEntity
  8
0
  6
Continuous
 62
     7
370
    25
100
AcDbLine
 10
3.512053225
 20
-0.6973122845
 30
0.0
 11
0.2565031385
 21
-0.6973122845
 31
0.0
  0
LINE
  5
A3
330
1F
100
AcDbEntity
  8
0
  6
Continuous
 62
     7
370
    25
100
AcDbLine
 10
0.1676031685
 20
-0.6973122845
 30
0.0
 11
-3.087946918
 21
-0.6973122845
 31
0.0
  0
LINE
  5
A4
330
1F
100
AcDbEntity
  8
0
  6
Continuous
 62
     7
370
    25
100
AcDbLine
 10
-3.087946918
 20
-0.6973122845
 30
0.0
 11
-3.087946918
 21
1.0526877155
 31
0.0
  0
LINE
  5
A5
330
1F
100
AcDbEntity
  8
0
  6
Continuous
 62
     7
370
    25
100
AcDbLine
 10
-3.087946918
 20
1.0526877155
 30
0.0
 11
0.1676031685
 21
1.0526877155
 31
0.0
  0
LINE
  5
A6
330
1F
100
AcDbEntity
  8
0
  6
Continuous
 62
     7
370
    25
100
AcDbLine
 10
0.2565031385
 20
1.0526877155
 30
0.0
 11
3.512053225
 21
1.0526877155
 31
0.0
  0
LINE
  5
A7
330
1F
100
AcDbEntity
  8
0
  6
Continuous
 62
     7
370
    25
100
AcDbLine
 10
3.512053225
 20
1.0526877155
 30
0.0
 11
3.512053225
 21
-0.6973122845
 31
0.0
  0
LINE
  5
A8
330
1F
100
AcDbEntity
  8
0
  6
Continuous
 62
     7
370
    25
100
AcDbLine
 10
4.012053225
 20
-0.6973122845
 30
0.0
 11
0.2565031385
 21
-0.6973122845
 31
0.0
  0
LINE
  5
A9
330
1F
100
AcDbEntity
  8
0
  6
Continuous
 62
     7
370
    25
100
AcDbLine
 10
0.1676031685
 20
-0.6973122845
 30
0.0
 11
-3.587946918
 21
-0.6973122845
 31
0.0
  0
LINE
  5
AA
330
1F
100
AcDbEntity
  8
0
  6
Continuous
 62
     7
370
    25
100
AcDbLine
 10
-3.587946918
 20
-0.6973122845
 30
0.0
 11
-3.587946918
 21
1.0526877155
 31
0.0
  0
LINE
  5
AB
330
1F
100
AcDbEntity
  8
0
  6
Continuous
 62
     7
370
    25
100
AcDbLine
 10
-3.587946918
 20
1.0526877155
 30
0.0
 11
0.1676031685
 21
1.0526877155
 31
0.0
  0
LINE
  5
AC
330
1F
100
AcDbEntity
  8
0
  6
Continuous
 62
     7
370
    25
100
AcDbLine
 10
0.2565031385
 20
1.0526877155
 30
0.0
 11
4.012053225
 21
1.0526877155
 31
0.0
  0
LINE
  5
AD
330
1F
100
AcDbEntity
  8
0
  6
Continuous
 62
     7
370
    25
100
AcDbLine
 10
4.012053225
 20
1.0526877155
 30
0.0
 11
4.012053225
 21
-0.6973122845
 31
0.0
  0
LINE
  5
AE
330
1F
100
AcDbEntity
  8
0
  6
Continuous
 62
     7
370
    25
100
AcDbLine
 10
0.2565031385
 20
1.119687747
 30
0.0
 11
0.1676031685
 21
1.119687747
 31
0.0
  0
LINE
  5
AF
330
1F
100
AcDbEntity
  8
0
  6
Continuous
 62
     7
370
    25
100
AcDbLine
 10
0.2565031385
 20
-0.7643121968
 30
0.0
 11
0.1676031685
 21
-0.7643121968
 31
0.0
  0
LINE
  5
B0
330
1F
100
AcDbEntity
  8
0
  6
Continuous
 62
     7
370
    25
100
AcDbLine
 10
0.2125031686
 20
-0.7793123017
 30
0.0
 11
0.2116031384
 21
-0.7793123017
 31
0.0
  0
LINE
  5
B1
330
1F
100
AcDbEntity
  8
0
  6
Continuous
 62
     7
370
    25
100
AcDbLine
 10
0.2116031384
 20
1.1346877327
 30
0.0
 11
0.2125031686
 21
1.1346877327
 31
0.0
  0
CIRCLE
  5
B2
330
1F
100
AcDbEntity
  8
0
  6
Continuous
 62
     7
370
    25
100
AcDbCircle
 10
0.2120531429
 20
0.6141877143
 30
0.0
 40
0.0085000000000002
  0
CIRCLE
  5
B3
330
1F
100
AcDbEntity
  8
0
  6
Continuous
 62
     7
370
    25
100
AcDbCircle
 10
0.2120531429
 20
0.6141877143
 30
0.0
 40
0.00875
  0
ARC
  5
B4
330
1F
100
AcDbEntity
  8
0
  6
Continuous
 62
     7
370
    25
100
AcDbCircle
 10
0.2120531429
 20
0.6141877143
 30
0.0
 40
0.009
100
AcDbArc
 50
150.0
 51
210.0
  0
SPLINE
  5
B5
330
1F
100
AcDbEntity
  8
0
  6
Continuous
 62
     7
370
    25
100
AcDbSpline
210
0.0
220
0.0
230
1.0
 70
     8
 71
     3
 72
     9
 73
     5
 74
     0
 42
0.000000001
 43
0.00000001
 40
0.0
 40
0.0
 40
0.0
 40
0.0
 40
0.4954413676527011
 40
1.0
 40
1.0
 40
1.0
 40
1.0
 10
0.2016608452530958
 20
0.614187787966197
 30
0.0
 10
0.2020827869686279
 20
0.6134569781314227
 30
0.0
 10
0.2029344351011428
 20
0.6119819098741308
 30
0.0
 10
0.2038147314086094
 20
0.6104570290624753
 30
0.0
 10
0.2042588925095656
 20
0.609687637285655
 30
0.0
  0
SPLINE
  5
B6
330
1F
100
AcDbEntity
  8
0
  6
Continuous
 62
     7
370
    25
100
AcDbSpline
210
0.0
220
0.0
230
1.0
 70
     8
 71
     3
 72
    10
 73
     6
 74
     0
 42
0.000000001
 43
0.00000001
 40
0.0
 40
0.0
 40
0.0
 40
0.0
 40
0.0700800437309678
 40
0.5307907782685203
 40
1.0
 40
1.0
 40
1.0
 40
1.0
 10
0.2042588925095656
 20
0.6186877002281599
 30
0.0
 10
0.2041973233169754
 20
0.618581051056343
 30
0.0
 10
0.2037309942750331
 20
0.6177732833396434
 30
0.0
 10
0.202851659064874
 20
0.6162503596131157
 30
0.0
 10
0.2020601942414788
 20
0.6148794879553283
 30
0.0
 10
0.2016608452530958
 20
0.614187787966197
 30
0.0
  0
ARC
  5
B7
330
1F
100
AcDbEntity
  8
0
  6
Continuous
 62
     7
370
    25
100
AcDbCircle
 10
0.2120531429
 20
0.6141877143
 30
0.0
 40
0.009
100
AcDbArc
 50
90.0
 51
150.0
  0
ARC
  5
B8
330
1F
100
AcDbEntity
  8
0
  6
Continuous
 62
     7
370
    25
100
AcDbCircle
 10
0.2120531429
 20
0.6141877143
 30
0.0
 40
0.0090000000000001
100
AcDbArc
 50
30.0
 51
90.0
  0
ARC
  5
B9
330
1F
100
AcDbEntity
  8
0
  6
Continuous
 62
     7
370
    25
100
AcDbCircle
 10
0.2120531429
 20
0.6141877143
 30
0.0
 40
0.0090000000000001
100
AcDbArc
 50
330.0
 51
30.0
  0
ARC
  5
BA
330
1F
100
AcDbEntity
  8
0
  6
Continuous
 62
     7
370
    25
100
AcDbCircle
 10
0.2120531429
 20
0.6141877143
 30
0.0
 40
0.0090000000000001
100
AcDbArc
 50
270.0
 51
330.0
  0
ARC
  5
BB
330
1F
100
AcDbEntity
  8
0
  6
Continuous
 62
     7
370
    25
100
AcDbCircle
 10
0.2120531429
 20
0.6141877143
 30
0.0
 40
0.009
100
AcDbArc
 50
210.0
 51
270.0
  0
SPLINE
  5
BC
330
1F
100
AcDbEntity
  8
0
  6
Continuous
 62
     7
370
    25
100
AcDbSpline
210
0.0
220
0.0
230
1.0
 70
    24
 71
     3
 72
     9
 73
     5
 74
     0
 42
0.000000001
 43
0.00000001
 40
0.0
 40
0.0
 40
0.0
 40
0.0
 40
0.7459183611521053
 40
1.0
 40
1.0
 40
1.0
 40
1.0
 10
0.2068569993706801
 20
0.6051877250236921
 30
0.0
 10
0.2081347526327461
 20
0.6051877250236926
 30
0.0
 10
0.209847746076281
 20
0.6051877250236926
 30
0.0
 10
0.2116063296833332
 20
0.6051877250236917
 30
0.0
 10
0.2120531534882643
 20
0.6051877250236921
 30
0.0
  0
SPLINE
  5
BD
330
1F
100
AcDbEntity
  8
0
  6
Continuous
 62
     7
370
    25
100
AcDbSpline
210
0.0
220
0.0
230
1.0
 70
     8
 71
     3
 72
    10
 73
     6
 74
     0
 42
0.000000001
 43
0.00000001
 40
0.0
 40
0.0
 40
0.0
 40
0.0
 40
0.0700853086519198
 40
0.53078786866767
 40
1.0
 40
1.0
 40
1.0
 40
1.0
 10
0.2042588925095656
 20
0.609687637285655
 30
0.0
 10
0.2043204829239761
 20
0.6095809888922026
 30
0.0
 10
0.2047869351009602
 20
0.6087732921787765
 30
0.0
 10
0.2056660681771394
 20
0.60725024172016
 30
0.0
 10
0.2064576078683995
 20
0.6058794120383153
 30
0.0
 10
0.2068569993706801
 20
0.6051877250236921
 30
0.0
  0
SPLINE
  5
BE
330
1F
100
AcDbEntity
  8
0
  6
Continuous
 62
     7
370
    25
100
AcDbSpline
210
0.0
220
0.0
230
1.0
 70
    24
 71
     3
 72
     9
 73
     5
 74
     0
 42
0.000000001
 43
0.00000001
 40
0.0
 40
0.0
 40
0.0
 40
0.0
 40
0.7459183611521053
 40
1.0
 40
1.0
 40
1.0
 40
1.0
 10
0.2068569993706801
 20
0.6231876124901228
 30
0.0
 10
0.2081347526327461
 20
0.6231876124901232
 30
0.0
 10
0.209847746076281
 20
0.6231876124901232
 30
0.0
 10
0.2116063296833332
 20
0.6231876124901223
 30
0.0
 10
0.2120531534882643
 20
0.6231876124901228
 30
0.0
  0
SPLINE
  5
BF
330
1F
100
AcDbEntity
  8
0
  6
Continuous
 62
     7
370
    25
100
AcDbSpline
210
0.0
220
0.0
230
1.0
 70
     8
 71
     3
 72
     9
 73
     5
 74
     0
 42
0.000000001
 43
0.00000001
 40
0.0
 40
0.0
 40
0.0
 40
0.0
 40
0.4954579161266832
 40
1.0
 40
1.0
 40
1.0
 40
1.0
 10
0.2068569993706801
 20
0.6231876124901228
 30
0.0
 10
0.2064350696802436
 20
0.6224567957802107
 30
0.0
 10
0.2055834742637548
 20
0.620981762914401
 30
0.0
 10
0.2047030856269814
 20
0.6194570048429382
 30
0.0
 10
0.2042588925095656
 20
0.6186877002281599
 30
0.0
  0
SPLINE
  5
C0
330
1F
100
AcDbEntity
  8
0
  6
Continuous
 62
     7
370
    25
100
AcDbSpline
210
0.0
220
0.0
230
1.0
 70
     8
 71
     3
 72
     9
 73
     5
 74
     0
 42
0.000000001
 43
0.00000001
 40
0.0
 40
0.0
 40
0.0
 40
0.0
 40
0.4954607077878891
 40
1.0
 40
1.0
 40
1.0
 40
1.0
 10
0.2172493076058485
 20
0.6051877250236921
 30
0.0
 10
0.2176712409162816
 20
0.605918539632134
 30
0.0
 10
0.2185228388408002
 20
0.607393559945459
 30
0.0
 10
0.2194031854215604
 20
0.6089183305859276
 30
0.0
 10
0.2198473548623182
 20
0.609687637285655
 30
0.0
  0
SPLINE
  5
C1
330
1F
100
AcDbEntity
  8
0
  6
Continuous
 62
     7
370
    25
100
AcDbSpline
210
0.0
220
0.0
230
1.0
 70
    24
 71
     3
 72
     9
 73
     5
 74
     0
 42
0.000000001
 43
0.00000001
 40
0.0
 40
0.0
 40
0.0
 40
0.0
 40
0.7607978942827
 40
1.0
 40
1.0
 40
1.0
 40
1.0
 10
0.2120531534882643
 20
0.6051877250236921
 30
0.0
 10
0.2133917850118523
 20
0.6051877250236917
 30
0.0
 10
0.2151512950389537
 20
0.6051877250236908
 30
0.0
 10
0.2168443300630353
 20
0.6051877250236926
 30
0.0
 10
0.2172493076058485
 20
0.6051877250236921
 30
0.0
  0
SPLINE
  5
C2
330
1F
100
AcDbEntity
  8
0
  6
Continuous
 62
     7
370
    25
100
AcDbSpline
210
0.0
220
0.0
230
1.0
 70
     8
 71
     3
 72
    10
 73
     6
 74
     0
 42
0.000000001
 43
0.00000001
 40
0.0
 40
0.0
 40
0.0
 40
0.0
 40
0.0700800437309678
 40
0.5307907782685203
 40
1.0
 40
1.0
 40
1.0
 40
1.0
 10
0.2198473548623182
 20
0.6186877002281599
 30
0.0
 10
0.219785785669728
 20
0.6187943493999777
 30
0.0
 10
0.2193194566277859
 20
0.6196021171166732
 30
0.0
 10
0.2184401214176268
 20
0.6211250408432045
 30
0.0
 10
0.2176486565942315
 20
0.6224959125009915
 30
0.0
 10
0.2172493076058485
 20
0.6231876124901228
 30
0.0
  0
SPLINE
  5
C3
330
1F
100
AcDbEntity
  8
0
  6
Continuous
 62
     7
370
    25
100
AcDbSpline
210
0.0
220
0.0
230
1.0
 70
    24
 71
     3
 72
     9
 73
     5
 74
     0
 42
0.000000001
 43
0.00000001
 40
0.0
 40
0.0
 40
0.0
 40
0.0
 40
0.7607978942827
 40
1.0
 40
1.0
 40
1.0
 40
1.0
 10
0.2120531534882643
 20
0.6231876124901228
 30
0.0
 10
0.2133917850118523
 20
0.6231876124901232
 30
0.0
 10
0.2151512950389537
 20
0.6231876124901228
 30
0.0
 10
0.2168443300630353
 20
0.6231876124901228
 30
0.0
 10
0.2172493076058485
 20
0.6231876124901228
 30
0.0
  0
SPLINE
  5
C4
330
1F
100
AcDbEntity
  8
0
  6
Continuous
 62
     7
370
    25
100
AcDbSpline
210
0.0
220
0.0
230
1.0
 70
     8
 71
     3
 72
     9
 73
     5
 74
     0
 42
0.000000001
 43
0.00000001
 40
0.0
 40
0.0
 40
0.0
 40
0.0
 40
0.4954579161266832
 40
1.0
 40
1.0
 40
1.0
 40
1.0
 10
0.2224454617234327
 20
0.614187787966197
 30
0.0
 10
0.2220235320329962
 20
0.614918604676109
 30
0.0
 10
0.2211719366165074
 20
0.6163936375419174
 30
0.0
 10
0.2202915479797341
 20
0.6179183956133811
 30
0.0
 10
0.2198473548623182
 20
0.6186877002281599
 30
0.0
  0
SPLINE
  5
C5
330
1F
100
AcDbEntity
  8
0
  6
Continuous
 62
     7
370
    25
100
AcDbSpline
210
0.0
220
0.0
230
1.0
 70
     8
 71
     3
 72
    10
 73
     6
 74
     0
 42
0.000000001
 43
0.00000001
 40
0.0
 40
0.0
 40
0.0
 40
0.0
 40
0.07012178212037
 40
0.5307677110613166
 40
1.0
 40
1.0
 40
1.0
 40
1.0
 10
0.2198473548623182
 20
0.609687637285655
 30
0.0
 10
0.2199089421619264
 20
0.6097943669723205
 30
0.0
 10
0.2203751104345386
 20
0.6106022282356958
 30
0.0
 10
0.2212547502971657
 20
0.612125055557037
 30
0.0
 10
0.2220461221106647
 20
0.6134959908242981
 30
0.0
 10
0.2224454617234327
 20
0.614187787966197
 30
0.0
  0
CIRCLE
  5
C6
330
1F
100
AcDbEntity
  8
0
  6
Continuous
 62
     7
370
    25
100
AcDbCircle
 10
0.2120531429
 20
-0.2588122857
 30
0.0
 40
0.0084999999999998
  0
CIRCLE
  5
C7
330
1F
100
AcDbEntity
  8
0
  6
Continuous
 62
     7
370
    25
100
AcDbCircle
 10
0.2120531429
 20
-0.2588122857
 30
0.0
 40
0.0087499999999998
  0
ARC
  5
C8
330
1F
100
AcDbEntity
  8
0
  6
Continuous
 62
     7
370
    25
100
AcDbCircle
 10
0.2120531429
 20
-0.2588122857
 30
0.0
 40
0.009
100
AcDbArc
 50
160.8626260897
 51
220.8626260897
  0
SPLINE
  5
C9
330
1F
100
AcDbEntity
  8
0
  6
Continuous
 62
     7
370
    25
100
AcDbSpline
210
0.0
220
0.0
230
1.0
 70
     8
 71
     3
 72
     9
 73
     5
 74
     0
 42
0.000000001
 43
0.00000001
 40
0.0
 40
0.0
 40
0.0
 40
0.0
 40
0.495439853717731
 40
1.0
 40
1.0
 40
1.0
 40
1.0
 10
0.2018470501633741
 20
-0.2607707272010393
 30
0.0
 10
0.202399160747657
 20
-0.2614089068147826
 30
0.0
 10
0.2035135454305605
 20
-0.2626970139562545
 30
0.0
 10
0.2046654140692855
 20
-0.264028676694409
 30
0.0
 10
0.2052466010781386
 20
-0.2647005806403703
 30
0.0
  0
SPLINE
  5
CA
330
1F
100
AcDbEntity
  8
0
  6
Continuous
 62
     7
370
    25
100
AcDbSpline
210
0.0
220
0.0
230
1.0
 70
     8
 71
     3
 72
    10
 73
     6
 74
     0
 42
0.000000001
 43
0.00000001
 40
0.0
 40
0.0
 40
0.0
 40
0.0
 40
0.070126874738252
 40
0.5307782211034566
 40
1.0
 40
1.0
 40
1.0
 40
1.0
 10
0.2035505509110548
 20
-0.2558616886573381
 30
0.0
 10
0.2035101609990929
 20
-0.2559781127718609
 30
0.0
 10
0.2032044567209306
 20
-0.2568593068166622
 30
0.0
 10
0.2026277995971114
 20
-0.2585206730840501
 30
0.0
 10
0.2021088941863078
 20
-0.2600161147782156
 30
0.0
 10
0.2018470501633741
 20
-0.2607707272010393
 30
0.0
  0
ARC
  5
CB
330
1F
100
AcDbEntity
  8
0
  6
Continuous
 62
     7
370
    25
100
AcDbCircle
 10
0.2120531429
 20
-0.2588122857
 30
0.0
 40
0.0090000000000002
100
AcDbArc
 50
100.8626260897
 51
160.8626260897
  0
ARC
  5
CC
330
1F
100
AcDbEntity
  8
0
  6
Continuous
 62
     7
370
    25
100
AcDbCircle
 10
0.2120531429
 20
-0.2588122857
 30
0.0
 40
0.0090000000000002
100
AcDbArc
 50
40.8626260897
 51
100.8626260897
  0
ARC
  5
CD
330
1F
100
AcDbEntity
  8
0
  6
Continuous
 62
     7
370
    25
100
AcDbCircle
 10
0.2120531429
 20
-0.2588122857
 30
0.0
 40
0.0090000000000001
100
AcDbArc
 50
340.8626260897
 51
40.8626260897
  0
ARC
  5
CE
330
1F
100
AcDbEntity
  8
0
  6
Continuous
 62
     7
370
    25
100
AcDbCircle
 10
0.2120531429
 20
-0.2588122857
 30
0.0
 40
0.0090000000000002
100
AcDbArc
 50
280.8626260897
 51
340.8626260897
  0
ARC
  5
CF
330
1F
100
AcDbEntity
  8
0
  6
Continuous
 62
     7
370
    25
100
AcDbCircle
 10
0.2120531429
 20
-0.2588122857
 30
0.0
 40
0.0090000000000002
100
AcDbArc
 50
220.8626260897
 51
280.8626260897
  0
SPLINE
  5
D0
330
1F
100
AcDbEntity
  8
0
  6
Continuous
 62
     7
370
    25
100
AcDbSpline
210
0.0
220
0.0
230
1.0
 70
     8
 71
     3
 72
     9
 73
     5
 74
     0
 42
0.000000001
 43
0.00000001
 40
0.0
 40
0.0
 40
0.0
 40
0.0
 40
0.7459126958971284
 40
1.0
 40
1.0
 40
1.0
 40
1.0
 10
0.2052539920540906
 20
-0.2509528885322165
 30
0.0
 10
0.2065088620303886
 20
-0.2507121538662295
 30
0.0
 10
0.2081911902481556
 20
-0.2503894154716275
 30
0.0
 10
0.209918225886978
 20
-0.2500577396297618
 30
0.0
 10
0.2103570437165358
 20
-0.2499734650092668
 30
0.0
  0
SPLINE
  5
D1
330
1F
100
AcDbEntity
  8
0
  6
Continuous
 62
     7
370
    25
100
AcDbSpline
210
0.0
220
0.0
230
1.0
 70
     8
 71
     3
 72
     9
 73
     5
 74
     0
 42
0.000000001
 43
0.00000001
 40
0.0
 40
0.0
 40
0.0
 40
0.0
 40
0.4954528882242477
 40
0.9999999999999999
 40
0.9999999999999999
 40
0.9999999999999999
 40
0.9999999999999999
 10
0.2052539920540907
 20
-0.250952888532216
 30
0.0
 10
0.204977334198208
 20
-0.2517500876666005
 30
0.0
 10
0.204418940327755
 20
-0.2533591188244192
 30
0.0
 10
0.2038417637076921
 20
-0.2550224564582701
 30
0.0
 10
0.2035505509110548
 20
-0.2558616886573381
 30
0.0
  0
SPLINE
  5
D2
330
1F
100
AcDbEntity
  8
0
  6
Continuous
 62
     7
370
    25
100
AcDbSpline
210
0.0
220
0.0
230
1.0
 70
     8
 71
     3
 72
     9
 73
     5
 74
     0
 42
0.000000001
 43
0.00000001
 40
0.0
 40
0.0
 40
0.0
 40
0.0
 40
0.7459190524292816
 40
1.0
 40
1.0
 40
1.0
 40
1.0
 10
0.2086462115975477
 20
-0.2686301956611223
 30
0.0
 10
0.209901065424229
 20
-0.268389377080727
 30
0.0
 10
0.2115833576549935
 20
-0.2680665289384105
 30
0.0
 10
0.2133104436211705
 20
-0.2677351959551104
 30
0.0
 10
0.2137492632599928
 20
-0.2676510105567522
 30
0.0
  0
SPLINE
  5
D3
330
1F
100
AcDbEntity
  8
0
  6
Continuous
 62
     7
370
    25
100
AcDbSpline
210
0.0
220
0.0
230
1.0
 70
     8
 71
     3
 72
    10
 73
     6
 74
     0
 42
0.000000001
 43
0.00000001
 40
0.0
 40
0.0
 40
0.0
 40
0.0
 40
0.0700882810570786
 40
0.530784110642491
 40
1.0
 40
1.0
 40
1.0
 40
1.0
 10
0.2052466010781386
 20
-0.2647005806403703
 30
0.0
 10
0.2053271840179273
 20
-0.2647937195460832
 30
0.0
 10
0.2059374450114007
 20
-0.2654990678652215
 30
0.0
 10
0.2070880031966768
 20
-0.2668290128497132
 30
0.0
 10
0.2081236458671014
 20
-0.2680261452587604
 30
0.0
 10
0.2086462115975477
 20
-0.2686301956611223
 30
0.0
  0
SPLINE
  5
D4
330
1F
100
AcDbEntity
  8
0
  6
Continuous
 62
     7
370
    25
100
AcDbSpline
210
0.0
220
0.0
230
1.0
 70
     8
 71
     3
 72
    10
 73
     6
 74
     0
 42
0.000000001
 43
0.00000001
 40
0.0
 40
0.0
 40
0.0
 40
0.0
 40
0.0700864115581805
 40
0.5307966262667131
 40
1.0
 40
1.0
 40
1.0
 40
1.0
 10
0.2188596462937452
 20
-0.2529241333442278
 30
0.0
 10
0.2187790626472418
 20
-0.252830995059929
 30
0.0
 10
0.2181687656332381
 20
-0.2521256160002338
 30
0.0
 10
0.217018395733282
 20
-0.2507954429055771
 30
0.0
 10
0.2159826819841714
 20
-0.2495983121476692
 30
0.0
 10
0.2154600953789808
 20
-0.2489942799048967
 30
0.0
  0
SPLINE
  5
D5
330
1F
100
AcDbEntity
  8
0
  6
Continuous
 62
     7
370
    25
100
AcDbSpline
210
0.0
220
0.0
230
1.0
 70
     8
 71
     3
 72
     9
 73
     5
 74
     0
 42
0.000000001
 43
0.00000001
 40
0.0
 40
0.0
 40
0.0
 40
0.0
 40
0.7608071217880925
 40
1.0
 40
1.0
 40
1.0
 40
1.0
 10
0.2103570437165357
 20
-0.2499734650092673
 30
0.0
 10
0.2116716988018808
 20
-0.2497211547631166
 30
0.0
 10
0.2133996730120263
 20
-0.2493895197942479
 30
0.0
 10
0.2150623862209077
 20
-0.2490705703423099
 30
0.0
 10
0.2154600953789808
 20
-0.2489942799048967
 30
0.0
  0
SPLINE
  5
D6
330
1F
100
AcDbEntity
  8
0
  6
Continuous
 62
     7
370
    25
100
AcDbSpline
210
0.0
220
0.0
230
1.0
 70
     8
 71
     3
 72
     9
 73
     5
 74
     0
 42
0.000000001
 43
0.00000001
 40
0.0
 40
0.0
 40
0.0
 40
0.0
 40
0.4954720727728933
 40
0.9999999999999999
 40
0.9999999999999999
 40
0.9999999999999999
 40
0.9999999999999999
 10
0.2188522553177931
 20
-0.266671825452382
 30
0.0
 10
0.2191289028731353
 20
-0.2658745429116788
 30
0.0
 10
0.2196872543333777
 20
-0.2642654057180515
 30
0.0
 10
0.2202645129647261
 20
-0.2626020143219314
 30
0.0
 10
0.2205557560654738
 20
-0.2617627869086809
 30
0.0
  0
SPLINE
  5
D7
330
1F
100
AcDbEntity
  8
0
  6
Continuous
 62
     7
370
    25
100
AcDbSpline
210
0.0
220
0.0
230
1.0
 70
     8
 71
     3
 72
     9
 73
     5
 74
     0
 42
0.000000001
 43
0.00000001
 40
0.0
 40
0.0
 40
0.0
 40
0.0
 40
0.7608044827624636
 40
0.9999999999999999
 40
0.9999999999999999
 40
0.9999999999999999
 40
0.9999999999999999
 10
0.2137492632599928
 20
-0.2676510105567522
 30
0.0
 10
0.2150638978756929
 20
-0.2673986989762311
 30
0.0
 10
0.2167918511744518
 20
-0.2670670611031167
 30
0.0
 10
0.2184545461363687
 20
-0.2667481157508806
 30
0.0
 10
0.2188522553177931
 20
-0.266671825452382
 30
0.0
  0
SPLINE
  5
D8
330
1F
100
AcDbEntity
  8
0
  6
Continuous
 62
     7
370
    25
100
AcDbSpline
210
0.0
220
0.0
230
1.0
 70
     8
 71
     3
 72
    10
 73
     6
 74
     0
 42
0.000000001
 43
0.00000001
 40
0.0
 40
0.0
 40
0.0
 40
0.0
 40
0.0700804656201476
 40
0.5307781168063266
 40
1.0
 40
1.0
 40
1.0
 40
1.0
 10
0.2205557560654738
 20
-0.2617627869086809
 30
0.0
 10
0.2205961267125358
 20
-0.261646442485846
 30
0.0
 10
0.2209018874667233
 20
-0.2607652686365167
 30
0.0
 10
0.2214784564293542
 20
-0.2591038675883696
 30
0.0
 10
0.2219974043500057
 20
-0.2576083577033547
 30
0.0
 10
0.2222592568131544
 20
-0.2568537483649797
 30
0.0
  0
SPLINE
  5
D9
330
1F
100
AcDbEntity
  8
0
  6
Continuous
 62
     7
370
    25
100
AcDbSpline
210
0.0
220
0.0
230
1.0
 70
     8
 71
     3
 72
     9
 73
     5
 74
     0
 42
0.000000001
 43
0.00000001
 40
0.0
 40
0.0
 40
0.0
 40
0.0
 40
0.4954603815550578
 40
1.0
 40
1.0
 40
1.0
 40
1.0
 10
0.2222592568131543
 20
-0.2568537483649802
 30
0.0
 10
0.2217071331121674
 20
-0.2562155629136366
 30
0.0
 10
0.2205927681265073
 20
-0.2549274973586457
 30
0.0
 10
0.219440839781441
 20
-0.2535959511568317
 30
0.0
 10
0.2188596462937452
 20
-0.2529241333442278
 30
0.0
  0
ARC
  5
DA
330
1F
100
AcDbEntity
  8
0
  6
Continuous
 62
     7
370
    25
100
AcDbCircle
 10
0.2842069793
 20
-0.0323958649
 30
0.0
 40
0.0150000000000001
100
AcDbArc
 50
270.0
 51
0.0
  0
LINE
  5
DB
330
1F
100
AcDbEntity
  8
0
  6
Continuous
 62
     7
370
    25
100
AcDbLine
 10
0.2842069602
 20
-0.0473958741
 30
0.0
 11
0.2842069602
 21
-0.0373958836
 31
0.0
  0
ARC
  5
DC
330
1F
100
AcDbEntity
  8
0
  6
Continuous
 62
     7
370
    25
100
AcDbCircle
 10
0.2842069793
 20
-0.0323958649
 30
0.0
 40
0.0050000000000003
100
AcDbArc
 50
270.0
 51
0.0
  0
LINE
  5
DD
330
1F
100
AcDbEntity
  8
0
  6
Continuous
 62
     7
370
    25
100
AcDbLine
 10
0.2992070055
 20
-0.0323957692
 30
0.0
 11
0.2892069554
 21
-0.0323957692
 31
0.0
  0
LINE
  5
DE
330
1F
100
AcDbEntity
  8
0
  6
Continuous
 62
     7
370
    25
100
AcDbLine
 10
0.134206984
 20
0.3926041832
 30
0.0
 11
0.134206984
 21
0.4026041736
 31
0.0
  0
LINE
  5
DF
330
1F
100
AcDbEntity
  8
0
  6
Continuous
 62
     7
370
    25
100
AcDbLine
 10
0.134206984
 20
0.4026041736
 30
0.0
 11
0.1625188327
 21
0.4026041736
 31
0.0
  0
LINE
  5
E0
330
1F
100
AcDbEntity
  8
0
  6
Continuous
 62
     7
370
    25
100
AcDbLine
 10
0.2565031385
 20
0.4026041736
 30
0.0
 11
0.2842069602
 21
0.4026041736
 31
0.0
  0
LINE
  5
E1
330
1F
100
AcDbEntity
  8
0
  6
Continuous
 62
     7
370
    25
100
AcDbLine
 10
0.2842069602
 20
0.3926041832
 30
0.0
 11
0.2842069602
 21
0.4026041736
 31
0.0
  0
LINE
  5
E2
330
1F
100
AcDbEntity
  8
0
  6
Continuous
 62
     7
370
    25
100
AcDbLine
 10
0.2842069602
 20
-0.0473958741
 30
0.0
 11
0.2565031385
 21
-0.0473958741
 31
0.0
  0
LINE
  5
E3
330
1F
100
AcDbEntity
  8
0
  6
Continuous
 62
     7
370
    25
100
AcDbLine
 10
0.1625188327
 20
-0.0473958741
 30
0.0
 11
0.134206984
 21
-0.0473958741
 31
0.0
  0
LINE
  5
E4
330
1F
100
AcDbEntity
  8
0
  6
Continuous
 62
     7
370
    25
100
AcDbLine
 10
0.134206984
 20
-0.0473958741
 30
0.0
 11
0.134206984
 21
-0.0373958836
 31
0.0
  0
LINE
  5
E5
330
1F
100
AcDbEntity
  8
0
  6
Continuous
 62
     7
370
    25
100
AcDbLine
 10
0.2992070055
 20
0.3876040687
 30
0.0
 11
0.2992070055
 21
-0.0323957692
 31
0.0
  0
LINE
  5
E6
330
1F
100
AcDbEntity
  8
0
  6
Continuous
 62
     7
370
    25
100
AcDbLine
 10
0.2892069554
 20
-0.0323957692
 30
0.0
 11
0.2892069554
 21
0.3876040687
 31
0.0
  0
LINE
  5
E7
330
1F
100
AcDbEntity
  8
0
  6
Continuous
 62
     7
370
    25
100
AcDbLine
 10
0.2992070055
 20
0.3876040687
 30
0.0
 11
0.2892069554
 21
0.3876040687
 31
0.0
  0
ARC
  5
E8
330
1F
100
AcDbEntity
  8
0
  6
Continuous
 62
     7
370
    25
100
AcDbCircle
 10
0.1342069793
 20
0.3876041351
 30
0.0
 40
0.0050000000000003
100
AcDbArc
 50
90.0
 51
180.0
  0
LINE
  5
E9
330
1F
100
AcDbEntity
  8
0
  6
Continuous
 62
     7
370
    25
100
AcDbLine
 10
0.1292069888
 20
0.3876040687
 30
0.0
 11
0.1192069983
 21
0.3876040687
 31
0.0
  0
ARC
  5
EA
330
1F
100
AcDbEntity
  8
0
  6
Continuous
 62
     7
370
    25
100
AcDbCircle
 10
0.1342069793
 20
0.3876041351
 30
0.0
 40
0.0150000000000001
100
AcDbArc
 50
90.0
 51
180.0
  0
LINE
  5
EB
330
1F
100
AcDbEntity
  8
0
  6
Continuous
 62
     7
370
    25
100
AcDbLine
 10
0.1292069888
 20
0.3876040687
 30
0.0
 11
0.1292069888
 21
-0.0323957692
 31
0.0
  0
LINE
  5
EC
330
1F
100
AcDbEntity
  8
0
  6
Continuous
 62
     7
370
    25
100
AcDbLine
 10
0.1292069888
 20
-0.0323957692
 30
0.0
 11
0.1192069983
 21
-0.0323957692
 31
0.0
  0
LINE
  5
ED
330
1F
100
AcDbEntity
  8
0
  6
Continuous
 62
     7
370
    25
100
AcDbLine
 10
0.1192069983
 20
-0.0323957692
 30
0.0
 11
0.1192069983
 21
0.3876040687
 31
0.0
  0
ARC
  5
EE
330
1F
100
AcDbEntity
  8
0
  6
Continuous
 62
     7
370
    25
100
AcDbCircle
 10
0.2842069793
 20
0.3876041351
 30
0.0
 40
0.0050000000000003
100
AcDbArc
 50
0.0
 51
90.0
  0
ARC
  5
EF
330
1F
100
AcDbEntity
  8
0
  6
Continuous
 62
     7
370
    25
100
AcDbCircle
 10
0.2842069793
 20
0.3876041351
 30
0.0
 40
0.0150000000000001
100
AcDbArc
 50
0.0
 51
90.0
  0
ARC
  5
F0
330
1F
100
AcDbEntity
  8
0
  6
Continuous
 62
     7
370
    25
100
AcDbCircle
 10
0.1342069793
 20
-0.0323958649
 30
0.0
 40
0.0050000000000003
100
AcDbArc
 50
180.0
 51
270.0
  0
ARC
  5
F1
330
1F
100
AcDbEntity
  8
0
  6
Continuous
 62
     7
370
    25
100
AcDbCircle
 10
0.1342069793
 20
-0.0323958649
 30
0.0
 40
0.0150000000000001
100
AcDbArc
 50
180.0
 51
270.0
  0
LWPOLYLINE
  5
F2
330
1F
100
AcDbEntity
  8
0
  6
Continuous
 62
     7
370
    25
100
AcDbPolyline
 90
       16
 70
   128
 43
0.0
 10
0.4136773681
 20
-0.6663123856
 10
0.4135077929
 20
-0.6695720444
 10
0.4130010938
 20
-0.6727935563
 10
0.4121631717
 20
-0.675939251
 10
0.4110038614
 20
-0.6789719353
 10
0.4095366931
 20
-0.6818563233
 10
0.4077790117
 20
-0.684558321
 10
0.4057513213
 20
-0.6870464573
 10
0.4034774041
 20
-0.6892914067
 10
0.4009839034
 20
-0.6912671814
 10
0.3983001446
 20
-0.6929501782
 10
0.3954574799
 20
-0.6943208466
 10
0.3924892878
 20
-0.6953632126
 10
0.3894303775
 20
-0.6960651169
 10
0.3863166308
 20
-0.6964179764
 10
0.3847505784
 20
-0.6964623223
  0
LWPOLYLINE
  5
F3
330
1F
100
AcDbEntity
  8
0
  6
Continuous
 62
     7
370
    25
100
AcDbPolyline
 90
       16
 70
   128
 43
0.0
 10
0.3847505784
 20
-0.6361622105
 10
0.3863166308
 20
-0.6362065564
 10
0.3894303775
 20
-0.6365594159
 10
0.3924892878
 20
-0.6372613202
 10
0.3954574799
 20
-0.6383036862
 10
0.3983001446
 20
-0.6396743546
 10
0.4009839034
 20
-0.6413573513
 10
0.4034774041
 20
-0.6433331261
 10
0.4057513213
 20
-0.6455780755
 10
0.4077790117
 20
-0.6480662117
 10
0.4095366931
 20
-0.6507684479
 10
0.4110038614
 20
-0.6536525975
 10
0.4121631717
 20
-0.6566852818
 10
0.4130010938
 20
-0.6598309765
 10
0.4135077929
 20
-0.6630524884
 10
0.4136773681
 20
-0.6663123856
  0
LWPOLYLINE
  5
F4
330
1F
100
AcDbEntity
  8
0
  6
Continuous
 62
     7
370
    25
100
AcDbPolyline
 90
       31
 70
   128
 43
0.0
 10
0.0393557286
 20
-0.6964623223
 10
0.0377896762
 20
-0.6964179764
 10
0.0346759295
 20
-0.6960651169
 10
0.0316170191
 20
-0.6953632126
 10
0.028648827
 20
-0.6943208466
 10
0.0258061623
 20
-0.6929501782
 10
0.0231224036
 20
-0.6912671814
 10
0.0206289029
 20
-0.6892914067
 10
0.0183549857
 20
-0.6870464573
 10
0.0163272357
 20
-0.684558321
 10
0.0145696139
 20
-0.6818563233
 10
0.0131025052
 20
-0.6789719353
 10
0.0119430756
 20
-0.675939251
 10
0.0111051535
 20
-0.6727935563
 10
0.0105985141
 20
-0.6695720444
 10
0.0104288792
 20
-0.6663123856
 10
0.0105985141
 20
-0.6630524884
 10
0.0111051535
 20
-0.6598309765
 10
0.0119430756
 20
-0.6566852818
 10
0.0131025052
 20
-0.6536525975
 10
0.0145696139
 20
-0.6507684479
 10
0.0163272357
 20
-0.6480662117
 10
0.0183549857
 20
-0.6455780755
 10
0.0206289029
 20
-0.6433331261
 10
0.0231224036
 20
-0.6413573513
 10
0.0258061623
 20
-0.6396743546
 10
0.028648827
 20
-0.6383036862
 10
0.0316170191
 20
-0.6372613202
 10
0.0346759295
 20
-0.6365594159
 10
0.0377896762
 20
-0.6362065564
 10
0.0393557286
 20
-0.6361622105
  0
LWPOLYLINE
  5
F5
330
1F
100
AcDbEntity
  8
0
  6
Continuous
 62
     7
370
    25
100
AcDbPolyline
 90
       16
 70
   128
 43
0.0
 10
0.4136773681
 20
1.0216878166
 10
0.4135077929
 20
1.0184279193
 10
0.4130010938
 20
1.0152064075
 10
0.4121631717
 20
1.0120607128
 10
0.4110038614
 20
1.0090280284
 10
0.4095366931
 20
1.0061438789
 10
0.4077790117
 20
1.0034416427
 10
0.4057513213
 20
1.0009535064
 10
0.4034774041
 20
0.9987085571
 10
0.4009839034
 20
0.9967327823
 10
0.3983001446
 20
0.9950497856
 10
0.3954574799
 20
0.9936791172
 10
0.3924892878
 20
0.9926367511
 10
0.3894303775
 20
0.9919348468
 10
0.3863166308
 20
0.9915819873
 10
0.3847505784
 20
0.9915376415
  0
LWPOLYLINE
  5
F6
330
1F
100
AcDbEntity
  8
0
  6
Continuous
 62
     7
370
    25
100
AcDbPolyline
 90
       16
 70
   128
 43
0.0
 10
0.3847505784
 20
1.0518377533
 10
0.3863166308
 20
1.0517935266
 10
0.3894303775
 20
1.0514405479
 10
0.3924892878
 20
1.0507387628
 10
0.3954574799
 20
1.0496963968
 10
0.3983001446
 20
1.0483256092
 10
0.4009839034
 20
1.0466424932
 10
0.4034774041
 20
1.0446669569
 10
0.4057513213
 20
1.0424218883
 10
0.4077790117
 20
1.039933752
 10
0.4095366931
 20
1.0372316351
 10
0.4110038614
 20
1.0343473663
 10
0.4121631717
 20
1.031314682
 10
0.4130010938
 20
1.0281691064
 10
0.4135077929
 20
1.0249474754
 10
0.4136773681
 20
1.0216878166
  0
LWPOLYLINE
  5
F7
330
1F
100
AcDbEntity
  8
0
  6
Continuous
 62
     7
370
    25
100
AcDbPolyline
 90
       31
 70
   128
 43
0.0
 10
0.0393557286
 20
0.9915376415
 10
0.0377896762
 20
0.9915819873
 10
0.0346759295
 20
0.9919348468
 10
0.0316170191
 20
0.9926367511
 10
0.028648827
 20
0.9936791172
 10
0.0258061623
 20
0.9950497856
 10
0.0231224036
 20
0.9967327823
 10
0.0206289029
 20
0.9987085571
 10
0.0183549857
 20
1.0009535064
 10
0.0163272357
 20
1.0034416427
 10
0.0145696139
 20
1.0061438789
 10
0.0131025052
 20
1.0090280284
 10
0.0119430756
 20
1.0120607128
 10
0.0111051535
 20
1.0152064075
 10
0.0105985141
 20
1.0184279193
 10
0.0104288792
 20
1.0216878166
 10
0.0105985141
 20
1.0249474754
 10
0.0111051535
 20
1.0281691064
 10
0.0119430756
 20
1.031314682
 10
0.0131025052
 20
1.0343473663
 10
0.0145696139
 20
1.0372316351
 10
0.0163272357
 20
1.039933752
 10
0.0183549857
 20
1.0424218883
 10
0.0206289029
 20
1.0446669569
 10
0.0231224036
 20
1.0466424932
 10
0.0258061623
 20
1.0483256092
 10
0.028648827
 20
1.0496963968
 10
0.0316170191
 20
1.0507387628
 10
0.0346759295
 20
1.0514405479
 10
0.0377896762
 20
1.0517935266
 10
0.0393557286
 20
1.0518377533
  0
LWPOLYLINE
  5
F8
330
1F
100
AcDbEntity
  8
0
  6
Continuous
 62
     7
370
    25
100
AcDbPolyline
 90
       16
 70
   128
 43
0.0
 10
0.0104288792
 20
-0.6663123856
 10
0.0105985141
 20
-0.6695720444
 10
0.0111051535
 20
-0.6727935563
 10
0.0119430756
 20
-0.675939251
 10
0.0131025052
 20
-0.6789719353
 10
0.0145696139
 20
-0.6818563233
 10
0.0163272357
 20
-0.684558321
 10
0.0183549857
 20
-0.6870464573
 10
0.0206289029
 20
-0.6892914067
 10
0.0231224036
 20
-0.6912671814
 10
0.0258061623
 20
-0.6929501782
 10
0.028648827
 20
-0.6943208466
 10
0.0316170191
 20
-0.6953632126
 10
0.0346759295
 20
-0.6960651169
 10
0.0377896762
 20
-0.6964179764
 10
0.0393557286
 20
-0.6964623223
  0
LWPOLYLINE
  5
F9
330
1F
100
AcDbEntity
  8
0
  6
Continuous
 62
     7
370
    25
100
AcDbPolyline
 90
       16
 70
   128
 43
0.0
 10
0.0393557286
 20
-0.6361622105
 10
0.0377896762
 20
-0.6362065564
 10
0.0346759295
 20
-0.6365594159
 10
0.0316170191
 20
-0.6372613202
 10
0.028648827
 20
-0.6383036862
 10
0.0258061623
 20
-0.6396743546
 10
0.0231224036
 20
-0.6413573513
 10
0.0206289029
 20
-0.6433331261
 10
0.0183549857
 20
-0.6455780755
 10
0.0163272357
 20
-0.6480662117
 10
0.0145696139
 20
-0.6507684479
 10
0.0131025052
 20
-0.6536525975
 10
0.0119430756
 20
-0.6566852818
 10
0.0111051535
 20
-0.6598309765
 10
0.0105985141
 20
-0.6630524884
 10
0.0104288792
 20
-0.6663123856
  0
LWPOLYLINE
  5
FA
330
1F
100
AcDbEntity
  8
0
  6
Continuous
 62
     7
370
    25
100
AcDbPolyline
 90
       16
 70
   128
 43
0.0
 10
0.0104288792
 20
1.0216878166
 10
0.0105985141
 20
1.0184279193
 10
0.0111051535
 20
1.0152064075
 10
0.0119430756
 20
1.0120607128
 10
0.0131025052
 20
1.0090280284
 10
0.0145696139
 20
1.0061438789
 10
0.0163272357
 20
1.0034416427
 10
0.0183549857
 20
1.0009535064
 10
0.0206289029
 20
0.9987085571
 10
0.0231224036
 20
0.9967327823
 10
0.0258061623
 20
0.9950497856
 10
0.028648827
 20
0.9936791172
 10
0.0316170191
 20
0.9926367511
 10
0.0346759295
 20
0.9919348468
 10
0.0377896762
 20
0.9915819873
 10
0.0393557286
 20
0.9915376415
  0
LWPOLYLINE
  5
FB
330
1F
100
AcDbEntity
  8
0
  6
Continuous
 62
     7
370
    25
100
AcDbPolyline
 90
       16
 70
   128
 43
0.0
 10
0.0393557286
 20
1.0518377533
 10
0.0377896762
 20
1.0517935266
 10
0.0346759295
 20
1.0514405479
 10
0.0316170191
 20
1.0507387628
 10
0.028648827
 20
1.0496963968
 10
0.0258061623
 20
1.0483256092
 10
0.0231224036
 20
1.0466424932
 10
0.0206289029
 20
1.0446669569
 10
0.0183549857
 20
1.0424218883
 10
0.0163272357
 20
1.039933752
 10
0.0145696139
 20
1.0372316351
 10
0.0131025052
 20
1.0343473663
 10
0.0119430756
 20
1.031314682
 10
0.0111051535
 20
1.0281691064
 10
0.0105985141
 20
1.0249474754
 10
0.0104288792
 20
1.0216878166
  0
LWPOLYLINE
  5
FC
330
1F
100
AcDbEntity
  8
0
  6
Continuous
 62
     7
370
    25
100
AcDbPolyline
 90
       31
 70
   128
 43
0.0
 10
0.3847505784
 20
-0.6964623223
 10
0.3863166308
 20
-0.6964179764
 10
0.3894303775
 20
-0.6960651169
 10
0.3924892878
 20
-0.6953632126
 10
0.3954574799
 20
-0.6943208466
 10
0.3983001446
 20
-0.6929501782
 10
0.4009839034
 20
-0.6912671814
 10
0.4034774041
 20
-0.6892914067
 10
0.4057513213
 20
-0.6870464573
 10
0.4077790117
 20
-0.684558321
 10
0.4095366931
 20
-0.6818563233
 10
0.4110038614
 20
-0.6789719353
 10
0.4121631717
 20
-0.675939251
 10
0.4130010938
 20
-0.6727935563
 10
0.4135077929
 20
-0.6695720444
 10
0.4136773681
 20
-0.6663123856
 10
0.4135077929
 20
-0.6630524884
 10
0.4130010938
 20
-0.6598309765
 10
0.4121631717
 20
-0.6566852818
 10
0.4110038614
 20
-0.6536525975
 10
0.4095366931
 20
-0.6507684479
 10
0.4077790117
 20
-0.6480662117
 10
0.4057513213
 20
-0.6455780755
 10
0.4034774041
 20
-0.6433331261
 10
0.4009839034
 20
-0.6413573513
 10
0.3983001446
 20
-0.6396743546
 10
0.3954574799
 20
-0.6383036862
 10
0.3924892878
 20
-0.6372613202
 10
0.3894303775
 20
-0.6365594159
 10
0.3863166308
 20
-0.6362065564
 10
0.3847505784
 20
-0.6361622105
  0
LWPOLYLINE
  5
FD
330
1F
100
AcDbEntity
  8
0
  6
Continuous
 62
     7
370
    25
100
AcDbPolyline
 90
       31
 70
   128
 43
0.0
 10
0.3847505784
 20
0.9915376415
 10
0.3863166308
 20
0.9915819873
 10
0.3894303775
 20
0.9919348468
 10
0.3924892878
 20
0.9926367511
 10
0.3954574799
 20
0.9936791172
 10
0.3983001446
 20
0.9950497856
 10
0.4009839034
 20
0.9967327823
 10
0.4034774041
 20
0.9987085571
 10
0.4057513213
 20
1.0009535064
 10
0.4077790117
 20
1.0034416427
 10
0.4095366931
 20
1.0061438789
 10
0.4110038614
 20
1.0090280284
 10
0.4121631717
 20
1.0120607128
 10
0.4130010938
 20
1.0152064075
 10
0.4135077929
 20
1.0184279193
 10
0.4136773681
 20
1.0216878166
 10
0.4135077929
 20
1.0249474754
 10
0.4130010938
 20
1.0281691064
 10
0.4121631717
 20
1.031314682
 10
0.4110038614
 20
1.0343473663
 10
0.4095366931
 20
1.0372316351
 10
0.4077790117
 20
1.039933752
 10
0.4057513213
 20
1.0424218883
 10
0.4034774041
 20
1.0446669569
 10
0.4009839034
 20
1.0466424932
 10
0.3983001446
 20
1.0483256092
 10
0.3954574799
 20
1.0496963968
 10
0.3924892878
 20
1.0507387628
 10
0.3894303775
 20
1.0514405479
 10
0.3863166308
 20
1.0517935266
 10
0.3847505784
 20
1.0518377533
  0
SPLINE
  5
FE
330
1F
100
AcDbEntity
  8
0
  6
Continuous
 62
     7
370
    25
100
AcDbSpline
210
0.0
220
0.0
230
1.0
 70
     8
 71
     3
 72
    17
 73
    13
 74
     0
 42
0.000000001
 43
0.00000001
 40
0.0
 40
0.0
 40
0.0
 40
0.0
 40
0.014775367001476
 40
0.1027577318411073
 40
0.1996891576513522
 40
0.3457520217662168
 40
0.499745631646522
 40
0.6537519124666328
 40
0.7998404194259807
 40
0.8684560988103612
 40
0.9414518976575265
 40
1.0
 40
1.0
 40
1.0
 40
1.0
 10
0.2565031385155775
 20
0.4015286674065047
 30
0.0
 10
0.2565456615498103
 20
0.4014788223377286
 30
0.0
 10
0.2568413950194657
 20
0.4011321665686767
 30
0.0
 10
0.2573138260059545
 20
0.3999923051404708
 30
0.0
 10
0.258011152983703
 20
0.3980252052793825
 30
0.0
 10
0.2585877126038507
 20
0.3952027263467515
 30
0.0
 10
0.2588204206498373
 20
0.3917771676907874
 30
0.0
 10
0.2585893177201433
 20
0.3884826825390025
 30
0.0
 10
0.2580463901438284
 20
0.386218906208081
 30
0.0
 10
0.2574758473526322
 20
0.384775362891054
 30
0.0
 10
0.2570020863812453
 20
0.3839752716490255
 30
0.0
 10
0.2566568138420503
 20
0.3835861156627916
 30
0.0
 10
0.2565031385155774
 20
0.3834129085106302
 30
0.0
  0
SPLINE
  5
FF
330
1F
100
AcDbEntity
  8
0
  6
Continuous
 62
     7
370
    25
100
AcDbSpline
210
0.0
220
0.0
230
1.0
 70
     8
 71
     3
 72
    16
 73
    12
 74
     0
 42
0.000000001
 43
0.00000001
 40
0.0
 40
0.0
 40
0.0
 40
0.0
 40
0.1035912013990821
 40
0.2071863465304337
 40
0.3107775479295158
 40
0.4143682938414303
 40
0.5177991064546748
 40
0.6213942515860263
 40
0.7688985883142715
 40
0.9890682591827857
 40
1.0
 40
1.0
 40
1.0
 40
1.0
 10
0.2752824163170912
 20
-0.0310284386115617
 30
0.0
 10
0.2754556995135506
 20
-0.0309751619056712
 30
0.0
 10
0.2758022725033863
 20
-0.0308686064656362
 30
0.0
 10
0.2763222614280082
 20
-0.0307093123548316
 30
0.0
 10
0.2768419575154459
 20
-0.0305493333133566
 30
0.0
 10
0.2773621750630035
 20
-0.03039017412671
 30
0.0
 10
0.2778798791391678
 20
-0.0302301828592681
 30
0.0
 10
0.2784811610713493
 20
-0.0300488359969537
 30
0.0
 10
0.2792182344621659
 20
-0.0298039547743482
 30
0.0
 10
0.2793778021917173
 20
-0.0295820349147715
 30
0.0
 10
0.279182070152511
 20
-0.0294544727344794
 30
0.0
 10
0.2791728114815809
 20
-0.0294484386878557
 30
0.0
  0
SPLINE
  5
100
330
1F
100
AcDbEntity
  8
0
  6
Continuous
 62
     7
370
    25
100
AcDbSpline
210
0.0
220
0.0
230
1.0
 70
     8
 71
     3
 72
    20
 73
    16
 74
     0
 42
0.000000001
 43
0.00000001
 40
0.0
 40
0.0
 40
0.0
 40
0.0
 40
0.0007989851258323
 40
0.1505441072985587
 40
0.2925863261468833
 40
0.3593012086618439
 40
0.4302724127861106
 40
0.500477750511857
 40
0.5899398682205373
 40
0.6777885848941735
 40
0.742231124094003
 40
0.8066736632938325
 40
0.871116202493662
 40
0.9355563959869021
 40
1.0
 40
1.0
 40
1.0
 40
1.0
 10
0.2590734100075819
 20
-0.032606531186635
 30
0.0
 10
0.2590784939319547
 20
-0.0326070086459071
 30
0.0
 10
0.2600364026983683
 20
-0.0326969711215672
 30
0.0
 10
0.2623822133609715
 20
-0.0327430404402542
 30
0.0
 10
0.2651131286828599
 20
-0.0327264726898572
 30
0.0
 10
0.2671848719690062
 20
-0.0326435255851236
 30
0.0
 10
0.2686042580363072
 20
-0.0325428436330987
 30
0.0
 10
0.270098104439579
 20
-0.0324121581279537
 30
0.0
 10
0.2714063282527223
 20
-0.0322155030228721
 30
0.0
 10
0.2721783940172384
 20
-0.0319818846369561
 30
0.0
 10
0.2728557083818528
 20
-0.0317732868462736
 30
0.0
 10
0.2734628813643616
 20
-0.0315870450232549
 30
0.0
 10
0.2740692355039798
 20
-0.0314008553742168
 30
0.0
 10
0.274675833702255
 20
-0.0312146366025354
 30
0.0
 10
0.2750802185452053
 20
-0.0310905057034691
 30
0.0
 10
0.2752824163170912
 20
-0.0310284386115617
 30
0.0
  0
SPLINE
  5
101
330
1F
100
AcDbEntity
  8
0
  6
Continuous
 62
     7
370
    25
100
AcDbSpline
210
0.0
220
0.0
230
1.0
 70
     8
 71
     3
 72
    17
 73
    13
 74
     0
 42
0.000000001
 43
0.00000001
 40
0.0
 40
0.0
 40
0.0
 40
0.0
 40
0.5066308106118688
 40
0.573373834586037
 40
0.611254270787252
 40
0.6915793511891833
 40
0.8611022245142534
 40
0.868318300576421
 40
0.8961146641114306
 40
0.9196403041709144
 40
0.9614595534477549
 40
1.0
 40
1.0
 40
1.0
 40
1.0
 10
0.2696672415467359
 20
-0.0306798706489153
 30
0.0
 10
0.2703341489830011
 20
-0.0304749467033529
 30
0.0
 10
0.2710889141217092
 20
-0.030243026287136
 30
0.0
 10
0.2718930917428747
 20
-0.0299966107353708
 30
0.0
 10
0.2721370254006038
 20
-0.0299216402772697
 30
0.0
 10
0.2725096164980375
 20
-0.0298054843018689
 30
0.0
 10
0.2728809037651013
 20
-0.0297026777496975
 30
0.0
 10
0.2730973479381911
 20
-0.0296175496107968
 30
0.0
 10
0.2731141272500965
 20
-0.0295910348001808
 30
0.0
 10
0.2730649761382634
 20
-0.0295503541710551
 30
0.0
 10
0.2730076051799869
 20
-0.0295050485684105
 30
0.0
 10
0.2729417402319888
 20
-0.0294704944452903
 30
0.0
 10
0.2729101514550306
 20
-0.029453922315175
 30
0.0
  0
LINE
  5
102
330
1F
100
AcDbEntity
  8
0
  6
Continuous
 62
     7
370
    25
100
AcDbLine
 10
0.2611654734
 20
-0.0317918549
 30
0.0
 11
0.2615977859
 21
-0.0318316708
 31
0.0
  0
ARC
  5
103
330
1F
100
AcDbEntity
  8
0
  6
Continuous
 62
     7
370
    25
100
AcDbCircle
 10
0.2629378764
 20
-0.0131786031
 30
0.0
 40
0.0187504325884992
100
AcDbArc
 50
275.3949531892
 51
291.0321160016
  0
LINE
  5
104
330
1F
100
AcDbEntity
  8
0
  6
Continuous
 62
     7
370
    25
100
AcDbLine
 10
0.2696672415
 20
-0.0306798706
 30
0.0
 11
0.2752824163
 21
-0.0310284386
 31
0.0
  0
SPLINE
  5
105
330
1F
100
AcDbEntity
  8
0
  6
Continuous
 62
     7
370
    25
100
AcDbSpline
210
0.0
220
0.0
230
1.0
 70
     8
 71
     3
 72
    15
 73
    11
 74
     0
 42
0.000000001
 43
0.00000001
 40
0.0
 40
0.0
 40
0.0
 40
0.0
 40
0.1086318669036468
 40
0.2172632561564825
 40
0.3258951230601293
 40
0.4345311255949226
 40
0.5429947993219228
 40
0.6516261885747586
 40
0.806307969061527
 40
0.9999999999999999
 40
0.9999999999999999
 40
0.9999999999999999
 40
0.9999999999999999
 10
0.2752824163170912
 20
-0.036817956967885
 30
0.0
 10
0.2754557004735202
 20
-0.0367646809343309
 30
0.0
 10
0.2758022680244537
 20
-0.0366581291014758
 30
0.0
 10
0.2763222351860551
 20
-0.0364988271491211
 30
0.0
 10
0.2768421184718839
 20
-0.0363388458103295
 30
0.0
 10
0.2773616093677759
 20
-0.0361797036469253
 30
0.0
 10
0.2778819274027382
 20
-0.0360196782617307
 30
0.0
 10
0.2784720916874581
 20
-0.0358384675851732
 30
0.0
 10
0.2792185546392953
 20
-0.0356111730815835
 30
0.0
 10
0.2791897311154365
 20
-0.0354212671326403
 30
0.0
 10
0.2791737055512525
 20
-0.035315681500966
 30
0.0
  0
SPLINE
  5
106
330
1F
100
AcDbEntity
  8
0
  6
Continuous
 62
     7
370
    25
100
AcDbSpline
210
0.0
220
0.0
230
1.0
 70
     8
 71
     3
 72
    19
 73
    15
 74
     0
 42
0.000000001
 43
0.00000001
 40
0.0
 40
0.0
 40
0.0
 40
0.0
 40
0.0098230740114326
 40
0.1753959823513741
 40
0.2531628925772819
 40
0.3358912292196909
 40
0.4177277543679147
 40
0.5220089855539177
 40
0.6244081130394067
 40
0.6995289765050611
 40
0.7746443713527573
 40
0.8497625004982124
 40
0.9248806296436676
 40
1.0
 40
1.0
 40
1.0
 40
1.0
 10
0.2622261380883314
 20
-0.0385112057166643
 30
0.0
 10
0.2622884180198338
 20
-0.0385135059903531
 30
0.0
 10
0.2634004578715091
 20
-0.0385545785469503
 30
0.0
 10
0.2651248241008928
 20
-0.0385102755937562
 30
0.0
 10
0.2671825942247709
 20
-0.0384341345896568
 30
0.0
 10
0.2686048825381688
 20
-0.0383321624579608
 30
0.0
 10
0.2700978697243197
 20
-0.0382013641329037
 30
0.0
 10
0.2714063785421186
 20
-0.0380051167938257
 30
0.0
 10
0.2721784157956818
 20
-0.0377713754696737
 30
0.0
 10
0.2728556800987755
 20
-0.0375628187319652
 30
0.0
 10
0.2734628963006774
 20
-0.0373765574962838
 30
0.0
 10
0.274069248200277
 20
-0.0371903701784419
 30
0.0
 10
0.274675819488098
 20
-0.0370041592358911
 30
0.0
 10
0.2750802162604307
 20
-0.0368800247324072
 30
0.0
 10
0.2752824163170912
 20
-0.036817956967885
 30
0.0
  0
LINE
  5
107
330
1F
100
AcDbEntity
  8
0
  6
Continuous
 62
     7
370
    25
100
AcDbLine
 10
0.2752824163
 20
-0.0310284386
 30
0.0
 11
0.2752824163
 21
-0.036817957
 31
0.0
  0
SPLINE
  5
108
330
1F
100
AcDbEntity
  8
0
  6
Continuous
 62
     7
370
    25
100
AcDbSpline
210
0.0
220
0.0
230
1.0
 70
     8
 71
     3
 72
    18
 73
    14
 74
     0
 42
0.000000001
 43
0.00000001
 40
0.0
 40
0.0
 40
0.0
 40
0.0
 40
0.0690038489744051
 40
0.1380076645516784
 40
0.2070098799451534
 40
0.2760123987404755
 40
0.3449064482141363
 40
0.4139132274570561
 40
0.5121673337839874
 40
0.65882448071361
 40
0.7656901078945658
 40
0.8834379507346795
 40
1.0
 40
1.0
 40
1.0
 40
1.0
 10
0.2602846359940626
 20
-0.0461007843452043
 30
0.0
 10
0.260457954180543
 20
-0.0460475166106615
 30
0.0
 10
0.2608045904696193
 20
-0.0459409811673565
 30
0.0
 10
0.2613244013848478
 20
-0.0457815557812191
 30
0.0
 10
0.2618444106699147
 20
-0.0456220553349893
 30
0.0
 10
0.2623639069283831
 20
-0.0454625451303498
 30
0.0
 10
0.2628837907768252
 20
-0.0453020599726197
 30
0.0
 10
0.2634760178405483
 20
-0.0451249810139531
 30
0.0
 10
0.264269858107757
 20
-0.0448497149063915
 30
0.0
 10
0.2651119016107435
 20
-0.0437611127903556
 30
0.0
 10
0.2658620775512081
 20
-0.042193554076602
 30
0.0
 10
0.266468636184327
 20
-0.0404993240313777
 30
0.0
 10
0.2667167594582097
 20
-0.0391242263027624
 30
0.0
 10
0.2668401932450392
 20
-0.038440156980092
 30
0.0
  0
SPLINE
  5
109
330
1F
100
AcDbEntity
  8
0
  6
Continuous
 62
     7
370
    25
100
AcDbSpline
210
0.0
220
0.0
230
1.0
 70
     8
 71
     3
 72
    26
 73
    22
 74
     0
 42
0.000000001
 43
0.00000001
 40
0.0
 40
0.0
 40
0.0
 40
0.0
 40
0.0277445973751199
 40
0.1381050988122649
 40
0.1899393058757381
 40
0.2450792717963502
 40
0.29959085791462
 40
0.369339082550178
 40
0.4373989977968048
 40
0.4874686223367465
 40
0.5375374195672699
 40
0.5876043942950017
 40
0.637673191525525
 40
0.6877428160654667
 40
0.7306584913003407
 40
0.7735739778363763
 40
0.8164896530712502
 40
0.8594069621121907
 40
0.9021744855010287
 40
0.9451690280407427
 40
1.0
 40
1.0
 40
1.0
 40
1.0
 10
0.2671105003090956
 20
-0.0314649830298967
 30
0.0
 10
0.2670952657008477
 20
-0.0312005921953506
 30
0.0
 10
0.2670194319430548
 20
-0.0298845261578319
 30
0.0
 10
0.2665815819826757
 20
-0.0283979255536239
 30
0.0
 10
0.2660249072694802
 20
-0.0269366661206298
 30
0.0
 10
0.2655105584251518
 20
-0.0261098405701232
 30
0.0
 10
0.2649052727466458
 20
-0.0253279492801103
 30
0.0
 10
0.2641524247776732
 20
-0.0249577021280287
 30
0.0
 10
0.2633894152284837
 20
-0.0251824202102071
 30
0.0
 10
0.2627109882739133
 20
-0.025392523398549
 30
0.0
 10
0.2621042844967222
 20
-0.0255783447684731
 30
0.0
 10
0.261497758410301
 20
-0.0257646528326875
 30
0.0
 10
0.2608912503418797
 20
-0.0259508578182723
 30
0.0
 10
0.2603134969557563
 20
-0.026128090927846
 30
0.0
 10
0.259764793644119
 20
-0.0262969098349579
 30
0.0
 10
0.2592448030085787
 20
-0.0264560824818023
 30
0.0
 10
0.2587249809489365
 20
-0.0266164768000218
 30
0.0
 10
0.2582055987199183
 20
-0.0267739970205975
 30
0.0
 10
0.2576861144337264
 20
-0.0269396802321635
 30
0.0
 10
0.2571179767662159
 20
-0.0270888314644492
 30
0.0
 10
0.2567239753739541
 20
-0.0272871309362501
 30
0.0
 10
0.2565031385155775
 20
-0.0273982773261613
 30
0.0
  0
SPLINE
  5
10A
330
1F
100
AcDbEntity
  8
0
  6
Continuous
 62
     7
370
    25
100
AcDbSpline
210
0.0
220
0.0
230
1.0
 70
     8
 71
     3
 72
    13
 73
     9
 74
     0
 42
0.000000001
 43
0.00000001
 40
0.0
 40
0.0
 40
0.0
 40
0.0
 40
0.1957942882396711
 40
0.356638727648289
 40
0.5174805093952841
 40
0.6783222911422793
 40
0.8391582182530049
 40
1.0
 40
1.0
 40
1.0
 40
1.0
 10
0.2565147018166639
 20
-0.0471576939063615
 30
0.0
 10
0.2567603122188087
 20
-0.0471255465024995
 30
0.0
 10
0.2572076908533212
 20
-0.0470669900996876
 30
0.0
 10
0.2578585628707989
 20
-0.0468402821591662
 30
0.0
 10
0.2584650065631137
 20
-0.0466608242266204
 30
0.0
 10
0.2590715525672316
 20
-0.0464728186601654
 30
0.0
 10
0.2596781125920476
 20
-0.046287079745487
 30
0.0
 10
0.2600824590736462
 20
-0.0461628835654352
 30
0.0
 10
0.2602846359940626
 20
-0.0461007843452043
 30
0.0
  0
SPLINE
  5
10B
330
1F
100
AcDbEntity
  8
0
  6
Continuous
 62
     7
370
    25
100
AcDbSpline
210
0.0
220
0.0
230
1.0
 70
     8
 71
     3
 72
    16
 73
    12
 74
     0
 42
0.000000001
 43
0.00000001
 40
0.0
 40
0.0
 40
0.0
 40
0.0
 40
0.0328849110911227
 40
0.1798817380410426
 40
0.2633087446452706
 40
0.4402242847967454
 40
0.8135813107182316
 40
0.8294874406575832
 40
0.8906966586760827
 40
0.9424998839663279
 40
1.0
 40
1.0
 40
1.0
 40
1.0
 10
0.2622261380883314
 20
-0.0394071827369279
 30
0.0
 10
0.2622457880015788
 20
-0.0394011458258964
 30
0.0
 10
0.2623532737885257
 20
-0.0393681236886096
 30
0.0
 10
0.2625105775263746
 20
-0.0393193886347735
 30
0.0
 10
0.2627541194253835
 20
-0.0392456370021174
 30
0.0
 10
0.2631325907578376
 20
-0.0391228536069085
 30
0.0
 10
0.2634716847848784
 20
-0.0390533078564936
 30
0.0
 10
0.2637400909975495
 20
-0.0389147228191588
 30
0.0
 10
0.2638144539361276
 20
-0.0388288724771292
 30
0.0
 10
0.2638997664369307
 20
-0.0386673526900214
 30
0.0
 10
0.2639531263419588
 20
-0.0385600329466324
 30
0.0
 10
0.2639811968537428
 20
-0.038503576322133
 30
0.0
  0
SPLINE
  5
10C
330
1F
100
AcDbEntity
  8
0
  6
Continuous
 62
     7
370
    25
100
AcDbSpline
210
0.0
220
0.0
230
1.0
 70
     8
 71
     3
 72
    24
 73
    20
 74
     0
 42
0.000000001
 43
0.00000001
 40
0.0
 40
0.0
 40
0.0
 40
0.0
 40
0.0645819013020459
 40
0.0760938681091397
 40
0.0897098044368197
 40
0.1160317035616851
 40
0.1253957584952227
 40
0.1414573042362343
 40
0.1739194851567085
 40
0.3132571705546323
 40
0.5192138072063442
 40
0.8162840119269389
 40
0.869290320097217
 40
0.944950817681127
 40
0.9485175498743548
 40
0.9622567959114939
 40
0.9738869089732751
 40
0.9945642589349719
 40
1.0
 40
1.0
 40
1.0
 40
1.0
 10
0.2642793392869093
 20
-0.032064367337758
 30
0.0
 10
0.2641582257146552
 20
-0.0318038302857241
 30
0.0
 10
0.2640155231926249
 20
-0.0314968515242557
 30
0.0
 10
0.2638149803980877
 20
-0.0312412055061486
 30
0.0
 10
0.2636823715559536
 20
-0.0311793504097894
 30
0.0
 10
0.2635496151552964
 20
-0.031233922475188
 30
0.0
 10
0.2634119945678225
 20
-0.0312743037285612
 30
0.0
 10
0.2632578424438557
 20
-0.0313222301425422
 30
0.0
 10
0.2627578817788064
 20
-0.0314752448735546
 30
0.0
 10
0.2617520576424521
 20
-0.0317840632649226
 30
0.0
 10
0.2600422161108864
 20
-0.0323122191166942
 30
0.0
 10
0.2585614745857465
 20
-0.0327531165758454
 30
0.0
 10
0.2574287500899302
 20
-0.0331186687532061
 30
0.0
 10
0.2570756930009026
 20
-0.0331954300291812
 30
0.0
 10
0.2568292810376021
 20
-0.0333231568700611
 30
0.0
 10
0.2567546424234608
 20
-0.033408652780865
 30
0.0
 10
0.2566527393870067
 20
-0.0336044900020233
 30
0.0
 10
0.2565687839047843
 20
-0.033764251046124
 30
0.0
 10
0.2565144489608199
 20
-0.0338856488747629
 30
0.0
 10
0.2565031385155774
 20
-0.0339109192329001
 30
0.0
  0
SPLINE
  5
10D
330
1F
100
AcDbEntity
  8
0
  6
Continuous
 62
     7
370
    25
100
AcDbSpline
210
0.0
220
0.0
230
1.0
 70
     8
 71
     3
 72
    11
 73
     7
 74
     0
 42
0.000000001
 43
0.00000001
 40
0.0
 40
0.0
 40
0.0
 40
0.0
 40
0.3263777205250097
 40
0.6019098226101621
 40
0.8774318953346549
 40
1.0
 40
1.0
 40
1.0
 40
1.0
 10
0.258703443977461
 20
-0.0247520695167131
 30
0.0
 10
0.2584644121542847
 20
-0.024783670166494
 30
0.0
 10
0.2580235867141939
 20
-0.0248419484750552
 30
0.0
 10
0.2573794576903798
 20
-0.0250668274682754
 30
0.0
 10
0.2568852170543467
 20
-0.0252124246398248
 30
0.0
 10
0.2565930835792485
 20
-0.0253026832415366
 30
0.0
 10
0.2565031385155775
 20
-0.0253304729896135
 30
0.0
  0
SPLINE
  5
10E
330
1F
100
AcDbEntity
  8
0
  6
Continuous
 62
     7
370
    25
100
AcDbSpline
210
0.0
220
0.0
230
1.0
 70
     8
 71
     3
 72
    19
 73
    15
 74
     0
 42
0.000000001
 43
0.00000001
 40
0.0
 40
0.0
 40
0.0
 40
0.0
 40
0.0570537951574003
 40
0.1141076179282463
 40
0.1711589901744077
 40
0.2282128129452537
 40
0.2851758511968461
 40
0.3422320967748688
 40
0.4234699233834139
 40
0.544728090724143
 40
0.633088839138905
 40
0.7304396420604737
 40
0.8771298007873205
 40
0.9999999999999999
 40
0.9999999999999999
 40
0.9999999999999999
 40
0.9999999999999999
 10
0.2582651114197827
 20
-0.0362529049354147
 30
0.0
 10
0.2584383944757745
 20
-0.0361997662352928
 30
0.0
 10
0.2587849606716254
 20
-0.0360934888093304
 30
0.0
 10
0.2593049378253048
 20
-0.0359335593726699
 30
0.0
 10
0.2598247301371676
 20
-0.0357742621380321
 30
0.0
 10
0.2603446273495564
 20
-0.0356144257550936
 30
0.0
 10
0.2608634261617422
 20
-0.035455058492912
 30
0.0
 10
0.2614601684076217
 20
-0.035273237838532
 30
0.0
 10
0.2622256302064161
 20
-0.0350278035245215
 30
0.0
 10
0.2622986371539773
 20
-0.0347223845992932
 30
0.0
 10
0.2618318587046879
 20
-0.0344139830915191
 30
0.0
 10
0.2608455130511503
 20
-0.0341009821027595
 30
0.0
 10
0.2591985469993308
 20
-0.0337891681985937
 30
0.0
 10
0.25745647032546
 20
-0.0336499084915073
 30
0.0
 10
0.2566624021264173
 20
-0.0335864315467424
 30
0.0
  0
LWPOLYLINE
  5
10F
330
1F
100
AcDbEntity
  8
0
  6
Continuous
 62
     7
370
    25
100
AcDbPolyline
 90
        4
 70
   128
 43
0.0
 10
0.2565031385
 20
-0.0367938767
 10
0.2570519781
 20
-0.0366253148
 10
0.2576585746
 20
-0.0364391098
 10
0.2582651114
 20
-0.0362529049
  0
SPLINE
  5
110
330
1F
100
AcDbEntity
  8
0
  6
Continuous
 62
     7
370
    25
100
AcDbSpline
210
0.0
220
0.0
230
1.0
 70
     8
 71
     3
 72
    15
 73
    11
 74
     0
 42
0.000000001
 43
0.00000001
 40
0.0
 40
0.0
 40
0.0
 40
0.0
 40
0.1086319011080817
 40
0.2172633245652018
 40
0.3258998389364101
 40
0.4345312623935303
 40
0.5429949702720072
 40
0.6516263937291273
 40
0.8063129568316533
 40
1.0
 40
1.0
 40
1.0
 40
1.0
 10
0.2582651114197828
 20
-0.0420424232917375
 30
0.0
 10
0.2584383947253622
 20
-0.0419891475199154
 30
0.0
 10
0.2587849605746004
 20
-0.0418825962105224
 30
0.0
 10
0.2593049478595537
 20
-0.041723288077132
 30
0.0
 10
0.2598247826431239
 20
-0.0415633216432356
 30
0.0
 10
0.2603443222996099
 20
-0.0414041644494855
 30
0.0
 10
0.2608646188782652
 20
-0.0412441458698142
 30
0.0
 10
0.2614547994339118
 20
-0.0410629292720558
 30
0.0
 10
0.2622012317702614
 20
-0.0408356495918384
 30
0.0
 10
0.2621724195373853
 20
-0.0406457353888014
 30
0.0
 10
0.2621564006539442
 20
-0.0405401478248186
 30
0.0
  0
LWPOLYLINE
  5
111
330
1F
100
AcDbEntity
  8
0
  6
Continuous
 62
     7
370
    25
100
AcDbPolyline
 90
        4
 70
   128
 43
0.0
 10
0.2565031385
 20
-0.042583395
 10
0.2570519781
 20
-0.0424148331
 10
0.2576585746
 20
-0.0422286282
 10
0.2582651114
 20
-0.0420424233
  0
LINE
  5
112
330
1F
100
AcDbEntity
  8
0
  6
Continuous
 62
     7
370
    25
100
AcDbLine
 10
0.2582651114
 20
-0.0362529049
 30
0.0
 11
0.2582651114
 21
-0.0420424233
 31
0.0
  0
SPLINE
  5
113
330
1F
100
AcDbEntity
  8
0
  6
Continuous
 62
     7
370
    25
100
AcDbSpline
210
0.0
220
0.0
230
1.0
 70
     8
 71
     3
 72
    19
 73
    15
 74
     0
 42
0.000000001
 43
0.00000001
 40
0.0
 40
0.0
 40
0.0
 40
0.0
 40
0.0244668824725268
 40
0.19348910403278
 40
0.2728735794939474
 40
0.3573283343042533
 40
0.4408707979202862
 40
0.5473244310429128
 40
0.6518548508626308
 40
0.7285389841143812
 40
0.8052218503003955
 40
0.881905983552146
 40
0.9585860584840176
 40
1.0
 40
1.0
 40
1.0
 40
1.0
 10
0.1676031684609509
 20
-0.036133934064443
 30
0.0
 10
0.1674703631946292
 20
-0.0361456934283204
 30
0.0
 10
0.1664201120226506
 20
-0.036238688879747
 30
0.0
 10
0.1654505161557657
 20
-0.0364546440154964
 30
0.0
 10
0.1645006903509974
 20
-0.0367182810967601
 30
0.0
 10
0.1641080593541085
 20
-0.036932485082409
 30
0.0
 10
0.1638252341686575
 20
-0.0371737049972482
 30
0.0
 10
0.1640211737770164
 20
-0.0374389650532074
 30
0.0
 10
0.1647751681520905
 20
-0.0376738358971784
 30
0.0
 10
0.1654560924941502
 20
-0.0378821809600857
 30
0.0
 10
0.1660623863001675
 20
-0.0380684832376574
 30
0.0
 10
0.1666690596350473
 20
-0.038254663450822
 30
0.0
 10
0.1671825913919133
 20
-0.0384123030440792
 30
0.0
 10
0.1674939716888124
 20
-0.0385079446760272
 30
0.0
 10
0.1676031684609511
 20
-0.0385414848762102
 30
0.0
  0
SPLINE
  5
114
330
1F
100
AcDbEntity
  8
0
  6
Continuous
 62
     7
370
    25
100
AcDbSpline
210
0.0
220
0.0
230
1.0
 70
     8
 71
     3
 72
    15
 73
    11
 74
     0
 42
0.000000001
 43
0.00000001
 40
0.0
 40
0.0
 40
0.0
 40
0.0
 40
0.0191393204150602
 40
0.2058895700545907
 40
0.3892680410220926
 40
0.5237918926999375
 40
0.6583086250325113
 40
0.7928324767103563
 40
0.927354105626387
 40
1.0
 40
1.0
 40
1.0
 40
1.0
 10
0.163939747783766
 20
-0.0429150352912492
 30
0.0
 10
0.1639295534540811
 20
-0.0429245591301623
 30
0.0
 10
0.163819888841634
 20
-0.043027010996619
 30
0.0
 10
0.1640441725343268
 20
-0.0432291830872397
 30
0.0
 10
0.1647708290190306
 20
-0.043463219836918
 30
0.0
 10
0.1654570848602804
 20
-0.0436717257580658
 30
0.0
 10
0.1660621282955776
 20
-0.0438579970198857
 30
0.0
 10
0.1666691507673409
 20
-0.0440441894778937
 30
0.0
 10
0.16718255256673
 20
-0.0442018119469587
 30
0.0
 10
0.1674939670578212
 20
-0.0442974622516749
 30
0.0
 10
0.1676031684609511
 20
-0.0443310032325334
 30
0.0
  0
SPLINE
  5
115
330
1F
100
AcDbEntity
  8
0
  6
Continuous
 62
     7
370
    25
100
AcDbSpline
210
0.0
220
0.0
230
1.0
 70
     8
 71
     3
 72
    11
 73
     7
 74
     0
 42
0.000000001
 43
0.00000001
 40
0.0
 40
0.0
 40
0.0
 40
0.0
 40
0.3120435389145701
 40
0.6241017014693154
 40
0.9361452403838856
 40
1.0
 40
1.0
 40
1.0
 40
1.0
 10
0.1659370398255444
 20
-0.0484978447394919
 30
0.0
 10
0.1661103599552925
 20
-0.0485509844199194
 30
0.0
 10
0.1664570083372804
 20
-0.0486572662711179
 30
0.0
 10
0.1669768024049947
 20
-0.0488171857510071
 30
0.0
 10
0.1673589323457341
 20
-0.0489342622717261
 30
0.0
 10
0.1675677039243484
 20
-0.0489983635511799
 30
0.0
 10
0.1676031684609511
 20
-0.0490092525916643
 30
0.0
  0
SPLINE
  5
116
330
1F
100
AcDbEntity
  8
0
  6
Continuous
 62
     7
370
    25
100
AcDbSpline
210
0.0
220
0.0
230
1.0
 70
     8
 71
     3
 72
    22
 73
    18
 74
     0
 42
0.000000001
 43
0.00000001
 40
0.0
 40
0.0
 40
0.0
 40
0.0
 40
0.045328625625478
 40
0.1060217895228943
 40
0.1667149275023271
 40
0.2187358562534693
 40
0.270759019456913
 40
0.322782157481697
 40
0.3748040891009813
 40
0.4266456835228286
 40
0.4787656556078909
 40
0.5528440501977959
 40
0.6634124511555852
 40
0.7439793250503011
 40
0.8327478788521298
 40
0.966501551240258
 40
1.0
 40
1.0
 40
1.0
 40
1.0
 10
0.1676031684609509
 20
-0.0290457497077536
 30
0.0
 10
0.167452174011264
 20
-0.0289994388728582
 30
0.0
 10
0.1670990042086744
 20
-0.0288911197362819
 30
0.0
 10
0.1665435563290791
 20
-0.0287202286293042
 30
0.0
 10
0.1659659283971643
 20
-0.0285429332564395
 30
0.0
 10
0.1654171755170772
 20
-0.0283746879741966
 30
0.0
 10
0.1648972140169509
 20
-0.0282147641996162
 30
0.0
 10
0.1643773863607203
 20
-0.0280554201071834
 30
0.0
 10
0.1638580600505809
 20
-0.0278959021482272
 30
0.0
 10
0.1633382584923361
 20
-0.0277371189544317
 30
0.0
 10
0.1627460853915338
 20
-0.0275503115188953
 30
0.0
 10
0.1619513739300199
 20
-0.0273377777885368
 30
0.0
 10
0.1611125174401669
 20
-0.0279132434512527
 30
0.0
 10
0.1603524236681792
 20
-0.0290078627051983
 30
0.0
 10
0.1596818999413441
 20
-0.0306200232151536
 30
0.0
 10
0.1592026211949576
 20
-0.0322845656877457
 30
0.0
 10
0.1591264843466427
 20
-0.0335988159915143
 30
0.0
 10
0.1591112351151563
 20
-0.0338620434241843
 30
0.0
  0
SPLINE
  5
117
330
1F
100
AcDbEntity
  8
0
  6
Continuous
 62
     7
370
    25
100
AcDbSpline
210
0.0
220
0.0
230
1.0
 70
     8
 71
     3
 72
    18
 73
    14
 74
     0
 42
0.000000001
 43
0.00000001
 40
0.0
 40
0.0
 40
0.0
 40
0.0
 40
0.1180262276064784
 40
0.2011999745293185
 40
0.2896831277668866
 40
0.3772196657596502
 40
0.4887571241371486
 40
0.5982808541636293
 40
0.6786250027232941
 40
0.7589691512829589
 40
0.8393146274053871
 40
0.9196558514403352
 40
1.0
 40
1.0
 40
1.0
 40
1.0
 10
0.1593759989472485
 20
-0.0408117065864157
 30
0.0
 10
0.1595010358581163
 20
-0.0415055283815544
 30
0.0
 10
0.1597141869838617
 20
-0.0426882903010086
 30
0.0
 10
0.1602018045783842
 20
-0.0441704477451767
 30
0.0
 10
0.1607098706737754
 20
-0.045317748712637
 30
0.0
 10
0.1613167758034892
 20
-0.0464668511755754
 30
0.0
 10
0.1620684510237636
 20
-0.0473022151173503
 30
0.0
 10
0.1628316116183342
 20
-0.0475460138956051
 30
0.0
 10
0.1635106639072052
 20
-0.0477526214599426
 30
0.0
 10
0.1641174033441179
 20
-0.0479393408029307
 30
0.0
 10
0.1647239531562314
 20
-0.0481253992841428
 30
0.0
 10
0.1653305163989341
 20
-0.0483116518706427
 30
0.0
 10
0.1657348628969295
 20
-0.0484357796968199
 30
0.0
 10
0.1659370398255446
 20
-0.0484978447394914
 30
0.0
  0
SPLINE
  5
118
330
1F
100
AcDbEntity
  8
0
  6
Continuous
 62
     7
370
    25
100
AcDbSpline
210
0.0
220
0.0
230
1.0
 70
     8
 71
     3
 72
    18
 73
    14
 74
     0
 42
0.000000001
 43
0.00000001
 40
0.0
 40
0.0
 40
0.0
 40
0.0
 40
0.003664364839106
 40
0.2868169300250599
 40
0.6952432073556543
 40
0.7681164477440956
 40
0.8721383006417535
 40
0.8770437118520672
 40
0.895932802372365
 40
0.9119214741185421
 40
0.9403506031119646
 40
0.9823141591871913
 40
0.9999999999999999
 40
0.9999999999999999
 40
0.9999999999999999
 40
0.9999999999999999
 10
0.1676031684609511
 20
-0.0351433048682756
 30
0.0
 10
0.167596075525868
 20
-0.0351411592602044
 30
0.0
 10
0.1670408977652728
 20
-0.0349732183626318
 30
0.0
 10
0.1656943627391514
 20
-0.0345590402434447
 30
0.0
 10
0.1642141090987198
 20
-0.034091943027414
 30
0.0
 10
0.1630810184000331
 20
-0.0337623593478308
 30
0.0
 10
0.1627285185189171
 20
-0.0336203441593849
 30
0.0
 10
0.1624815580052243
 20
-0.0335988813736833
 30
0.0
 10
0.1624071958525726
 20
-0.033638467563513
 30
0.0
 10
0.1623046915590333
 20
-0.0337702750732682
 30
0.0
 10
0.1621690712212052
 20
-0.0339628039125714
 30
0.0
 10
0.1620255366562825
 20
-0.0341516251009541
 30
0.0
 10
0.1619527665500773
 20
-0.0343469957916426
 30
0.0
 10
0.1619311904641249
 20
-0.0344049225287981
 30
0.0
  0
LWPOLYLINE
  5
119
330
1F
100
AcDbEntity
  8
0
  6
Continuous
 62
     7
370
    25
100
AcDbPolyline
 90
       19
 70
   128
 43
0.0
 10
0.1622485852
 20
-0.0408784638
 10
0.1623263097
 20
-0.0410715828
 10
0.1624036169
 20
-0.0412098656
 10
0.1625094151
 20
-0.0413252602
 10
0.1631559467
 20
-0.0415462742
 10
0.1636078691
 20
-0.0416850338
 10
0.1636078691
 20
-0.0416850338
 10
0.1636078691
 20
-0.0416850338
 10
0.1636078691
 20
-0.0416850338
 10
0.1636079287
 20
-0.0416850338
 10
0.1636079883
 20
-0.0416850338
 10
0.1636082267
 20
-0.0416852723
 10
0.1636088228
 20
-0.0416855107
 10
0.1636103725
 20
-0.0416859875
 10
0.1636147237
 20
-0.0416871796
 10
0.1636494136
 20
-0.0416979084
 10
0.16371176
 20
-0.0417169819
 10
0.163919363
 20
-0.0417806397
 10
0.1639227009
 20
-0.0417818318
  0
SPLINE
  5
11A
330
1F
100
AcDbEntity
  8
0
  6
Continuous
 62
     7
370
    25
100
AcDbSpline
210
0.0
220
0.0
230
1.0
 70
     8
 71
     3
 72
    20
 73
    16
 74
     0
 42
0.000000001
 43
0.00000001
 40
0.0
 40
0.0
 40
0.0
 40
0.0
 40
0.0552577684006319
 40
0.1105181264069477
 40
0.1657758948075796
 40
0.2210339061759033
 40
0.2762074007259184
 40
0.3314654120942421
 40
0.4101496636833685
 40
0.5275948503162257
 40
0.6131730489434556
 40
0.7074626700697612
 40
0.8495371884566533
 40
0.9993250565123984
 40
1.0
 40
1.0
 40
1.0
 40
1.0
 10
0.1508648133011915
 20
-0.0334026108222551
 30
0.0
 10
0.1510381353128495
 20
-0.0334557499516847
 30
0.0
 10
0.1513847874587459
 20
-0.0335620307008603
 30
0.0
 10
0.1519045532965764
 20
-0.0337219584460832
 30
0.0
 10
0.152424649359039
 20
-0.0338812405920965
 30
0.0
 10
0.1529438675004756
 20
-0.0340411287518871
 30
0.0
 10
0.1534648062556912
 20
-0.0342003308266813
 30
0.0
 10
0.1540523712382874
 20
-0.0343827949819579
 30
0.0
 10
0.1548753104616847
 20
-0.0346243166433466
 30
0.0
 10
0.156482532551375
 20
-0.034835370638726
 30
0.0
 10
0.1584615460985244
 20
-0.0349907496306855
 30
0.0
 10
0.1608240347157938
 20
-0.0351004821439819
 30
0.0
 10
0.1637691000272586
 20
-0.0351168768712111
 30
0.0
 10
0.1661133846346254
 20
-0.0350700192210697
 30
0.0
 10
0.1670697085632332
 20
-0.0349813396133642
 30
0.0
 10
0.1670739984246351
 20
-0.0349809418159074
 30
0.0
  0
SPLINE
  5
11B
330
1F
100
AcDbEntity
  8
0
  6
Continuous
 62
     7
370
    25
100
AcDbSpline
210
0.0
220
0.0
230
1.0
 70
     8
 71
     3
 72
    19
 73
    15
 74
     0
 42
0.000000001
 43
0.00000001
 40
0.0
 40
0.0
 40
0.0
 40
0.0
 40
0.1257956645897092
 40
0.2719775572246124
 40
0.3406364913389168
 40
0.4136755633268909
 40
0.4859267194773925
 40
0.577995782172736
 40
0.6684025365041064
 40
0.734721238308535
 40
0.8010423541199106
 40
0.8673623740955524
 40
0.9336823940711942
 40
1.0
 40
1.0
 40
1.0
 40
1.0
 10
0.1525273060532667
 20
-0.0307306538062639
 30
0.0
 10
0.1517100176646165
 20
-0.0307956705747982
 30
0.0
 10
0.1499429925432167
 20
-0.0309362406170352
 30
0.0
 10
0.1484195989054106
 20
-0.0312280106786721
 30
0.0
 10
0.147486055906356
 20
-0.0314942069106516
 30
0.0
 10
0.14709003418395
 20
-0.0317080085517011
 30
0.0
 10
0.1468081775043403
 20
-0.031948864027778
 30
0.0
 10
0.1470038033462851
 20
-0.0322146125135938
 30
0.0
 10
0.1477578543792701
 20
-0.0324493388017756
 30
0.0
 10
0.1484387817125335
 20
-0.0326577265140937
 30
0.0
 10
0.1490451672201141
 20
-0.0328440120473021
 30
0.0
 10
0.1496517496145296
 20
-0.0330301969252157
 30
0.0
 10
0.1502582610460886
 20
-0.0332164029772337
 30
0.0
 10
0.1506626316693817
 20
-0.0333405422937063
 30
0.0
 10
0.1508648133011915
 20
-0.0334026108222551
 30
0.0
  0
SPLINE
  5
11C
330
1F
100
AcDbEntity
  8
0
  6
Continuous
 62
     7
370
    25
100
AcDbSpline
210
0.0
220
0.0
230
1.0
 70
     8
 71
     3
 72
    18
 73
    14
 74
     0
 42
0.000000001
 43
0.00000001
 40
0.0
 40
0.0
 40
0.0
 40
0.0
 40
0.4828597559743285
 40
0.5464721418326537
 40
0.5825724808878968
 40
0.6591350612577551
 40
0.8207037163125588
 40
0.8275833234192612
 40
0.8540717792641664
 40
0.876501360964402
 40
0.9163570866205106
 40
0.9751915127289816
 40
1.0
 40
1.0
 40
1.0
 40
1.0
 10
0.1564799880715468
 20
-0.0330540428596086
 30
0.0
 10
0.1571466548134382
 20
-0.0332584281150456
 30
0.0
 10
0.1579011488416159
 20
-0.0334897392709567
 30
0.0
 10
0.1587061009130163
 20
-0.0337377107854686
 30
0.0
 10
0.1589489535577971
 20
-0.0338120914140476
 30
0.0
 10
0.1593336392133167
 20
-0.0339285100146247
 30
0.0
 10
0.159640119074322
 20
-0.0340339004653129
 30
0.0
 10
0.1599607714498415
 20
-0.034113581529549
 30
0.0
 10
0.1600930927912614
 20
-0.034132551497453
 30
0.0
 10
0.160345919736072
 20
-0.0341547923018654
 30
0.0
 10
0.1606971908966186
 20
-0.0341831127444414
 30
0.0
 10
0.1610551457204501
 20
-0.0342137281369541
 30
0.0
 10
0.1613284183493962
 20
-0.0342236442982803
 30
0.0
 10
0.1614094710084059
 20
-0.0342265854316301
 30
0.0
  0
LWPOLYLINE
  5
11D
330
1F
100
AcDbEntity
  8
0
  6
Continuous
 62
     7
370
    25
100
AcDbPolyline
 90
       19
 70
   128
 43
0.0
 10
0.1534575557
 20
-0.0317675362
 10
0.1530718541
 20
-0.0319329987
 10
0.1530436611
 20
-0.0319632779
 10
0.1530731058
 20
-0.0320004712
 10
0.153698895
 20
-0.0322002659
 10
0.1541508174
 20
-0.0323390255
 10
0.1541508174
 20
-0.0323390255
 10
0.154150877
 20
-0.0323390255
 10
0.154150877
 20
-0.0323390255
 10
0.154150877
 20
-0.0323390255
 10
0.1541509366
 20
-0.0323390255
 10
0.154151175
 20
-0.032339264
 10
0.154151771
 20
-0.032339264
 10
0.1541533208
 20
-0.0323397408
 10
0.1541576719
 20
-0.0323411713
 10
0.1541924214
 20
-0.0323519001
 10
0.1542547083
 20
-0.0323709736
 10
0.1544623112
 20
-0.0324346314
 10
0.1564799881
 20
-0.0330540429
  0
LINE
  5
11E
330
1F
100
AcDbEntity
  8
0
  6
Continuous
 62
     7
370
    25
100
AcDbLine
 10
0.1564799881
 20
-0.0330540429
 30
0.0
 11
0.1508648133
 21
-0.0334026108
 31
0.0
  0
SPLINE
  5
11F
330
1F
100
AcDbEntity
  8
0
  6
Continuous
 62
     7
370
    25
100
AcDbSpline
210
0.0
220
0.0
230
1.0
 70
     8
 71
     3
 72
    19
 73
    15
 74
     0
 42
0.000000001
 43
0.00000001
 40
0.0
 40
0.0
 40
0.0
 40
0.0
 40
0.0644102946584949
 40
0.128820872528221
 40
0.193231167186716
 40
0.2576444803758171
 40
0.3219538072794725
 40
0.3863671204685736
 40
0.4780814508052757
 40
0.6149782870666581
 40
0.7147334124526078
 40
0.8246405342160293
 40
0.9902473232274154
 40
1.0
 40
1.0
 40
1.0
 40
1.0
 10
0.1508648133011915
 20
-0.0391921291785783
 30
0.0
 10
0.1510381330676067
 20
-0.0392452676245684
 30
0.0
 10
0.151384773362522
 20
-0.0393515447501977
 30
0.0
 10
0.1519045655260167
 20
-0.0395114804724148
 30
0.0
 10
0.1524246660611715
 20
-0.0396707643811899
 30
0.0
 10
0.1529438326479444
 20
-0.0398306352584762
 30
0.0
 10
0.1534648479545768
 20
-0.0399898662847522
 30
0.0
 10
0.1540522996182521
 20
-0.0401722724811968
 30
0.0
 10
0.1548755772294467
 20
-0.0404140443720111
 30
0.0
 10
0.1564813287209514
 20
-0.0406238642407443
 30
0.0
 10
0.1584648785227612
 20
-0.0407820022533606
 30
0.0
 10
0.1608068747018137
 20
-0.0408816429815841
 30
0.0
 10
0.1627496218686514
 20
-0.0409289925827684
 30
0.0
 10
0.1638608969130144
 20
-0.0408876757757372
 30
0.0
 10
0.1639227008553602
 20
-0.0408853779273576
 30
0.0
  0
SPLINE
  5
120
330
1F
100
AcDbEntity
  8
0
  6
Continuous
 62
     7
370
    25
100
AcDbSpline
210
0.0
220
0.0
230
1.0
 70
     8
 71
     3
 72
    15
 73
    11
 74
     0
 42
0.000000001
 43
0.00000001
 40
0.0
 40
0.0
 40
0.0
 40
0.0
 40
0.0180218906598202
 40
0.1938877898453594
 40
0.3665811802347672
 40
0.4932691799356523
 40
0.6199499964911568
 40
0.7466333309941047
 40
0.8733166654970523
 40
1.0
 40
1.0
 40
1.0
 40
1.0
 10
0.1469224428864576
 20
-0.0376903305488176
 30
0.0
 10
0.1469122486374454
 20
-0.0376999386180627
 30
0.0
 10
0.1468025742171856
 20
-0.0378033066467375
 30
0.0
 10
0.1470268731833522
 20
-0.0380040917046322
 30
0.0
 10
0.1477535421217954
 20
-0.0382384763238556
 30
0.0
 10
0.1484397517879655
 20
-0.03844732365138
 30
0.0
 10
0.1490449160041285
 20
-0.0386335119495506
 30
0.0
 10
0.1496518170966672
 20
-0.0388197203531923
 30
0.0
 10
0.1502582570544711
 20
-0.0390059240195075
 30
0.0
 10
0.150662627885618
 20
-0.0391300607922211
 30
0.0
 10
0.1508648133011915
 20
-0.0391921291785783
 30
0.0
  0
LINE
  5
121
330
1F
100
AcDbEntity
  8
0
  6
Continuous
 62
     7
370
    25
100
AcDbLine
 10
0.1508648133
 20
-0.0334026108
 30
0.0
 11
0.1508648133
 21
-0.0391921292
 31
0.0
  0
SPLINE
  5
122
330
1F
100
AcDbEntity
  8
0
  6
Continuous
 62
     7
370
    25
100
AcDbSpline
210
0.0
220
0.0
230
1.0
 70
     8
 71
     3
 72
    18
 73
    14
 74
     0
 42
0.000000001
 43
0.00000001
 40
0.0
 40
0.0
 40
0.0
 40
0.0
 40
0.0728720763541816
 40
0.1457475677927682
 40
0.2186196441469499
 40
0.2914920409187071
 40
0.364252979768524
 40
0.4371267813199851
 40
0.5408923287352623
 40
0.6957697685735612
 40
0.8086356728197794
 40
0.9329822441435401
 40
1.0
 40
1.0
 40
1.0
 40
1.0
 10
0.1489197349282362
 20
-0.0432733784156389
 30
0.0
 10
0.1490930555325752
 20
-0.0433265161128346
 30
0.0
 10
0.1494397048637675
 20
-0.0434327939974758
 30
0.0
 10
0.149959491812306
 20
-0.0435927432271476
 30
0.0
 10
0.1504795076568121
 20
-0.0437519437350268
 30
0.0
 10
0.1509990254054737
 20
-0.0439121368062931
 30
0.0
 10
0.1515188503331643
 20
-0.0440702029494253
 30
0.0
 10
0.1521111816383096
 20
-0.0442575165171228
 30
0.0
 10
0.1529046735694791
 20
-0.0444684874736838
 30
0.0
 10
0.1537483038450978
 20
-0.0439001736791926
 30
0.0
 10
0.1544937615789808
 20
-0.0427844831722854
 30
0.0
 10
0.155020363129046
 20
-0.0416953327076541
 30
0.0
 10
0.1552182834281521
 20
-0.0407610193035234
 30
0.0
 10
0.1552875971528151
 20
-0.0404338131385393
 30
0.0
  0
SPLINE
  5
123
330
1F
100
AcDbEntity
  8
0
  6
Continuous
 62
     7
370
    25
100
AcDbSpline
210
0.0
220
0.0
230
1.0
 70
     8
 71
     3
 72
    26
 73
    22
 74
     0
 42
0.000000001
 43
0.00000001
 40
0.0
 40
0.0
 40
0.0
 40
0.0
 40
0.0278007710174254
 40
0.1384135849166108
 40
0.1903626756512693
 40
0.2456267288875573
 40
0.3002597667946011
 40
0.3701652392411847
 40
0.4383769997211392
 40
0.4885608983018636
 40
0.5387421411345614
 40
0.5889215573714509
 40
0.6391036293715567
 40
0.6892848722042545
 40
0.7322959101065649
 40
0.7753087954597943
 40
0.818321659995243
 40
0.8613345453484723
 40
0.9041962903745028
 40
0.9472892175604434
 40
1.0
 40
1.0
 40
1.0
 40
1.0
 10
0.1557455992432692
 20
-0.0328287373023576
 30
0.0
 10
0.1557303616241967
 20
-0.0325550675677712
 30
0.0
 10
0.1556544970562638
 20
-0.0311925294919945
 30
0.0
 10
0.1552167755387665
 20
-0.0294369688799349
 30
0.0
 10
0.154659892743421
 20
-0.0276339399125831
 30
0.0
 10
0.1541456952335386
 20
-0.026491219760139
 30
0.0
 10
0.1535403471574538
 20
-0.0253376585807418
 30
0.0
 10
0.152787545492358
 20
-0.0245054011013126
 30
0.0
 10
0.1520244863757159
 20
-0.0242611596135406
 30
0.0
 10
0.1513461050412023
 20
-0.024054880112498
 30
0.0
 10
0.1507393747485739
 20
-0.0238681454646676
 30
0.0
 10
0.1501328782616266
 20
-0.0236820649364251
 30
0.0
 10
0.1495262575818669
 20
-0.0234958566885108
 30
0.0
 10
0.1489486225976988
 20
-0.0233184371627275
 30
0.0
 10
0.1483998716144463
 20
-0.023150255990961
 30
0.0
 10
0.1478799059431181
 20
-0.0229901869039914
 30
0.0
 10
0.147360089072643
 20
-0.0228313620701601
 30
0.0
 10
0.1468407074479303
 20
-0.0226699096256353
 30
0.0
 10
0.1463211856421429
 20
-0.0225169282327985
 30
0.0
 10
0.145762133026396
 20
-0.0223195143443577
 30
0.0
 10
0.1453771267368011
 20
-0.022276739126898
 30
0.0
 10
0.1451652979584791
 20
-0.0222532043891496
 30
0.0
  0
LINE
  5
124
330
1F
100
AcDbEntity
  8
0
  6
Continuous
 62
     7
370
    25
100
AcDbLine
 10
0.1460283136
 20
-0.042385746
 30
0.0
 11
0.1489197349
 21
-0.0432733784
 31
0.0
  0
SPLINE
  5
125
330
1F
100
AcDbEntity
  8
0
  6
Continuous
 62
     7
370
    25
100
AcDbSpline
210
0.0
220
0.0
230
1.0
 70
     8
 71
     3
 72
    19
 73
    15
 74
     0
 42
0.000000001
 43
0.00000001
 40
0.0
 40
0.0
 40
0.0
 40
0.0
 40
0.071036046241818
 40
0.0837000863896128
 40
0.0986757040731933
 40
0.1276304215970281
 40
0.1379327044616671
 40
0.1555992748699569
 40
0.1913125244954384
 40
0.3445827456679589
 40
0.5711347282395537
 40
0.8979206179454258
 40
0.9562252167710915
 40
1.0
 40
1.0
 40
1.0
 40
1.0
 10
0.1529143786164381
 20
-0.0316895733314104
 30
0.0
 10
0.1527933534482091
 20
-0.031354746560245
 30
0.0
 10
0.1526507523664765
 20
-0.0309602281269327
 30
0.0
 10
0.1524499941376255
 20
-0.0305814002831357
 30
0.0
 10
0.1523175131528044
 20
-0.0304380589084183
 30
0.0
 10
0.1521846922903214
 20
-0.0304114528286718
 30
0.0
 10
0.1520471104655006
 20
-0.0303671352519772
 30
0.0
 10
0.1518929181281792
 20
-0.0303201947826288
 30
0.0
 10
0.1513929062162273
 20
-0.0301661524077529
 30
0.0
 10
0.1503872222598309
 20
-0.0298585059826561
 30
0.0
 10
0.1486771382923651
 20
-0.0293312508058152
 30
0.0
 10
0.1471969987850843
 20
-0.0288840066529036
 30
0.0
 10
0.1461590800210796
 20
-0.0285567030256799
 30
0.0
 10
0.1459120441045557
 20
-0.0284888250199335
 30
0.0
 10
0.1458061074944594
 20
-0.0284597168403215
 30
0.0
  0
ARC
  5
126
330
1F
100
AcDbEntity
  8
0
  6
Continuous
 62
     7
370
    25
100
AcDbCircle
 10
0.2759925472
 20
0.3847269057
 30
0.0
 40
0.4406176509859176
100
AcDbArc
 50
252.87978518
 51
252.9642404409
  0
SPLINE
  5
127
330
1F
100
AcDbEntity
  8
0
  6
Continuous
 62
     7
370
    25
100
AcDbSpline
210
0.0
220
0.0
230
1.0
 70
     8
 71
     3
 72
    10
 73
     6
 74
     0
 42
0.000000001
 43
0.00000001
 40
0.0
 40
0.0
 40
0.0
 40
0.0
 40
0.0532976686121678
 40
0.6239713458221786
 40
1.0
 40
1.0
 40
1.0
 40
1.0
 10
0.1580055689545728
 20
-0.0439988861518454
 30
0.0
 10
0.158039944058526
 20
-0.0440052186158141
 30
0.0
 10
0.158442383422855
 20
-0.0440793546177773
 30
0.0
 10
0.1590591249314765
 20
-0.0435864342527039
 30
0.0
 10
0.1595405129249995
 20
-0.0428352661826374
 30
0.0
 10
0.1597317194672682
 20
-0.0425369034247942
 30
0.0
  0
SPLINE
  5
128
330
1F
100
AcDbEntity
  8
0
  6
Continuous
 62
     7
370
    25
100
AcDbSpline
210
0.0
220
0.0
230
1.0
 70
     8
 71
     3
 72
    23
 73
    19
 74
     0
 42
0.000000001
 43
0.00000001
 40
0.0
 40
0.0
 40
0.0
 40
0.0
 40
0.0143819092178539
 40
0.08218175532241
 40
0.1543002628822675
 40
0.2255944841446129
 40
0.3168187032432355
 40
0.4058331346981385
 40
0.4713179176571431
 40
0.5368027006161478
 40
0.6022861820050409
 40
0.6677709649640455
 40
0.7332557479230503
 40
0.7893860727774487
 40
0.8455139867724177
 40
0.9016466952173853
 40
0.9577746092123544
 40
0.9999999999999999
 40
0.9999999999999999
 40
0.9999999999999999
 40
0.9999999999999999
 10
0.1604564523430922
 20
-0.0289396534400529
 30
0.0
 10
0.1604362692781663
 20
-0.0288377347635693
 30
0.0
 10
0.1603209382968433
 20
-0.0282553464584647
 30
0.0
 10
0.1599795974788546
 20
-0.0273143906696318
 30
0.0
 10
0.1594801728245537
 20
-0.0261572463005319
 30
0.0
 10
0.1588705820410955
 20
-0.0250078238273769
 30
0.0
 10
0.1581192036512316
 20
-0.0241740678716761
 30
0.0
 10
0.1573557650095836
 20
-0.0239306031437562
 30
0.0
 10
0.156677508836943
 20
-0.0237241596386845
 30
0.0
 10
0.1560707847387524
 20
-0.023537461996316
 30
0.0
 10
0.1554641894354516
 20
-0.0233513914359089
 30
0.0
 10
0.1548576676994186
 20
-0.0231651270458059
 30
0.0
 10
0.1542800291215048
 20
-0.0229878930630675
 30
0.0
 10
0.1537311932517315
 20
-0.022819112596299
 30
0.0
 10
0.1532113239324354
 20
-0.0226598113535181
 30
0.0
 10
0.1526914033868525
 20
-0.0224998654095278
 30
0.0
 10
0.1522144584605854
 20
-0.0223537125822397
 30
0.0
 10
0.151910777598086
 20
-0.0222603747538498
 30
0.0
 10
0.1517804002495863
 20
-0.0222203026252336
 30
0.0
  0
SPLINE
  5
129
330
1F
100
AcDbEntity
  8
0
  6
Continuous
 62
     7
370
    25
100
AcDbSpline
210
0.0
220
0.0
230
1.0
 70
     8
 71
     3
 72
    16
 73
    12
 74
     0
 42
0.000000001
 43
0.00000001
 40
0.0
 40
0.0
 40
0.0
 40
0.0
 40
0.4888549516519795
 40
0.733726216469231
 40
0.8108144525493177
 40
0.8452052533891353
 40
0.8654491690977418
 40
0.9211030138164543
 40
0.9505840817244651
 40
0.9754099139085796
 40
1.0
 40
1.0
 40
1.0
 40
1.0
 10
0.2602846359940626
 20
0.3952112903160506
 30
0.0
 10
0.2608911716790703
 20
0.3950248207877123
 30
0.0
 10
0.2618015258276998
 20
0.3947449472156999
 30
0.0
 10
0.2628076826497198
 20
0.3944376452214491
 30
0.0
 10
0.2632496791354515
 20
0.3943005890883896
 30
0.0
 10
0.263413254947519
 20
0.3942514801244528
 30
0.0
 10
0.263549831924182
 20
0.3942065452694697
 30
0.0
 10
0.2636824084536961
 20
0.394180802143902
 30
0.0
 10
0.263813795707846
 20
0.3940372009106024
 30
0.0
 10
0.2638981358645016
 20
0.3938871371398323
 30
0.0
 10
0.2639422949337519
 20
0.393770269395315
 30
0.0
 10
0.2639642691346266
 20
0.3937121142906599
 30
0.0
  0
SPLINE
  5
12A
330
1F
100
AcDbEntity
  8
0
  6
Continuous
 62
     7
370
    25
100
AcDbSpline
210
0.0
220
0.0
230
1.0
 70
     8
 71
     3
 72
    23
 73
    19
 74
     0
 42
0.000000001
 43
0.00000001
 40
0.0
 40
0.0
 40
0.0
 40
0.0
 40
0.0129238654532794
 40
0.0433815901660353
 40
0.0640342370950633
 40
0.0755595408075389
 40
0.0891446457096691
 40
0.1146266125126926
 40
0.5177495976391805
 40
0.7451278209185591
 40
0.8590702614697558
 40
0.8947585505645999
 40
0.91069140484141
 40
0.9201789466358953
 40
0.9461575356384454
 40
0.9598680151321973
 40
0.9714156896561076
 40
1.0
 40
1.0
 40
1.0
 40
1.0
 10
0.2642909025879957
 20
0.3872173537773543
 30
0.0
 10
0.2642691948151341
 20
0.3871590129460381
 30
0.0
 10
0.2641963282483093
 20
0.3869631800473404
 30
0.0
 10
0.2640526762546153
 20
0.3867736356908105
 30
0.0
 10
0.2639170596700467
 20
0.3865823252455072
 30
0.0
 10
0.2638152172755461
 20
0.3864486664090996
 30
0.0
 10
0.263684254520907
 20
0.3863895470296442
 30
0.0
 10
0.2624960530357339
 20
0.3868271877189727
 30
0.0
 10
0.260755333060528
 20
0.3872823713280998
 30
0.0
 10
0.2587673388575783
 20
0.3879110506990569
 30
0.0
 10
0.2577617803372181
 20
0.3882167498583731
 30
0.0
 10
0.2573201011013412
 20
0.3883537679474976
 30
0.0
 10
0.2571570556709259
 20
0.3884025452127178
 30
0.0
 10
0.257020102942598
 20
0.38844770568145
 30
0.0
 10
0.256887429382741
 20
0.3884738361083123
 30
0.0
 10
0.2567551179804562
 20
0.3886164273477185
 30
0.0
 10
0.256633408076118
 20
0.3888415002399884
 30
0.0
 10
0.2565573274897558
 20
0.3890482521286712
 30
0.0
 10
0.2565031385155774
 20
0.3891955127281595
 30
0.0
  0
SPLINE
  5
12B
330
1F
100
AcDbEntity
  8
0
  6
Continuous
 62
     7
370
    25
100
AcDbSpline
210
0.0
220
0.0
230
1.0
 70
     8
 71
     3
 72
    15
 73
    11
 74
     0
 42
0.000000001
 43
0.00000001
 40
0.0
 40
0.0
 40
0.0
 40
0.0
 40
0.0113015175984743
 40
0.0546232229466192
 40
0.0783286319326936
 40
0.1072823762035095
 40
0.1268572709860026
 40
0.1386802555220665
 40
0.4915884503978564
 40
1.0
 40
1.0
 40
1.0
 40
1.0
 10
0.2565031385155775
 20
0.3958571662468367
 30
0.0
 10
0.2565144502067519
 20
0.3958754764279551
 30
0.0
 10
0.2565691226012816
 20
0.3959639743749542
 30
0.0
 10
0.2566528407336708
 20
0.3960717475045033
 30
0.0
 10
0.2567549480037876
 20
0.3962068942153581
 30
0.0
 10
0.2568447077389985
 20
0.3962491022186475
 30
0.0
 10
0.2569219700652068
 20
0.3962378181405022
 30
0.0
 10
0.2574133502384395
 20
0.3961097250869515
 30
0.0
 10
0.2585317599924674
 20
0.3957389347867509
 30
0.0
 10
0.2596340102778486
 20
0.3954071393443575
 30
0.0
 10
0.2602846359940626
 20
0.3952112903160506
 30
0.0
  0
SPLINE
  5
12C
330
1F
100
AcDbEntity
  8
0
  6
Continuous
 62
     7
370
    25
100
AcDbSpline
210
0.0
220
0.0
230
1.0
 70
     8
 71
     3
 72
    18
 73
    14
 74
     0
 42
0.000000001
 43
0.00000001
 40
0.0
 40
0.0
 40
0.0
 40
0.0
 40
0.0689798897026763
 40
0.1379597460198169
 40
0.2069396357224932
 40
0.2759165626627419
 40
0.3447866909888673
 40
0.4137695099426209
 40
0.5119895008271972
 40
0.6585957259823613
 40
0.7654242476592307
 40
0.883131206510929
 40
1.0
 40
1.0
 40
1.0
 40
1.0
 10
0.2602846359940626
 20
0.4013090838951521
 30
0.0
 10
0.2604579537070066
 20
0.4012558071327162
 30
0.0
 10
0.260804589049011
 20
0.4011492536336304
 30
0.0
 10
0.2613244111692722
 20
0.4009899624077487
 30
0.0
 10
0.2618443934654752
 20
0.4008299473781572
 30
0.0
 10
0.2623639167155168
 20
0.4006709519621677
 30
0.0
 10
0.2628837893120393
 20
0.4005103308136718
 30
0.0
 10
0.2634760182415687
 20
0.4003332916551799
 30
0.0
 10
0.2642698591151301
 20
0.400058010508726
 30
0.0
 10
0.2651118951418544
 20
0.3989694060756901
 30
0.0
 10
0.2658620952020812
 20
0.3974018734789527
 30
0.0
 10
0.2664691797220576
 20
0.39570581442272
 30
0.0
 10
0.2667176524760391
 20
0.3943286285716603
 30
0.0
 10
0.2668414449425793
 20
0.3936424960655618
 30
0.0
  0
SPLINE
  5
12D
330
1F
100
AcDbEntity
  8
0
  6
Continuous
 62
     7
370
    25
100
AcDbSpline
210
0.0
220
0.0
230
1.0
 70
     8
 71
     3
 72
    26
 73
    22
 74
     0
 42
0.000000001
 43
0.00000001
 40
0.0
 40
0.0
 40
0.0
 40
0.0
 40
0.0277445973751199
 40
0.1381050988122649
 40
0.1899393058757381
 40
0.2450792717963502
 40
0.29959085791462
 40
0.369339082550178
 40
0.4373989977968048
 40
0.4874686223367465
 40
0.5375374195672699
 40
0.5876043942950017
 40
0.637673191525525
 40
0.6877428160654667
 40
0.7306584913003407
 40
0.7735739778363763
 40
0.8164896530712502
 40
0.8594069621121907
 40
0.9021744855010287
 40
0.9451690280407427
 40
1.0
 40
1.0
 40
1.0
 40
1.0
 10
0.2671105003090956
 20
0.3866732825798445
 30
0.0
 10
0.2670952657008477
 20
0.386408891745298
 30
0.0
 10
0.2670194319430548
 20
0.3850928257077793
 30
0.0
 10
0.2665815819826757
 20
0.38360622510357
 30
0.0
 10
0.2660249072694802
 20
0.3821449656705772
 30
0.0
 10
0.2655105584251518
 20
0.3813181401200705
 30
0.0
 10
0.2649052727466458
 20
0.3805362488300586
 30
0.0
 10
0.2641524247776732
 20
0.3801660016779769
 30
0.0
 10
0.2633894152284837
 20
0.3803907197601535
 30
0.0
 10
0.2627109882739133
 20
0.3806008229484986
 30
0.0
 10
0.2621042844967222
 20
0.3807866443184201
 30
0.0
 10
0.261497758410301
 20
0.3809729523826349
 30
0.0
 10
0.2608912503418797
 20
0.3811591573682205
 30
0.0
 10
0.2603134969557563
 20
0.3813363904777925
 30
0.0
 10
0.259764793644119
 20
0.3815052093849083
 30
0.0
 10
0.2592448030085787
 20
0.3816643820317487
 30
0.0
 10
0.2587249809489365
 20
0.381824776349971
 30
0.0
 10
0.2582055987199183
 20
0.3819822965705449
 30
0.0
 10
0.2576861144337264
 20
0.3821479797821122
 30
0.0
 10
0.2571179767662159
 20
0.3822971310143971
 30
0.0
 10
0.2567239753739541
 20
0.382495430486197
 30
0.0
 10
0.2565031385155775
 20
0.3826065768761092
 30
0.0
  0
SPLINE
  5
12E
330
1F
100
AcDbEntity
  8
0
  6
Continuous
 62
     7
370
    25
100
AcDbSpline
210
0.0
220
0.0
230
1.0
 70
     8
 71
     3
 72
    13
 73
     9
 74
     0
 42
0.000000001
 43
0.00000001
 40
0.0
 40
0.0
 40
0.0
 40
0.0
 40
0.1957942882396711
 40
0.356638727648289
 40
0.5174805093952841
 40
0.6783222911422793
 40
0.8391582182530049
 40
1.0
 40
1.0
 40
1.0
 40
1.0
 10
0.2565147018166639
 20
0.4023659934563094
 30
0.0
 10
0.2567603122188087
 20
0.4023338460524482
 30
0.0
 10
0.2572076908533212
 20
0.4022752896496358
 30
0.0
 10
0.2578585628707989
 20
0.402048581709114
 30
0.0
 10
0.2584650065631137
 20
0.4018691237765677
 30
0.0
 10
0.2590715525672316
 20
0.4016811182101133
 30
0.0
 10
0.2596781125920476
 20
0.4014953792954344
 30
0.0
 10
0.2600824590736462
 20
0.4013711831153831
 30
0.0
 10
0.2602846359940626
 20
0.4013090838951521
 30
0.0
  0
LINE
  5
12F
330
1F
100
AcDbEntity
  8
0
  6
Continuous
 62
     7
370
    25
100
AcDbLine
 10
0.260284636
 20
0.4013090839
 30
0.0
 11
0.260284636
 21
0.3952112903
 31
0.0
  0
SPLINE
  5
130
330
1F
100
AcDbEntity
  8
0
  6
Continuous
 62
     7
370
    25
100
AcDbSpline
210
0.0
220
0.0
230
1.0
 70
     8
 71
     3
 72
    11
 73
     7
 74
     0
 42
0.000000001
 43
0.00000001
 40
0.0
 40
0.0
 40
0.0
 40
0.0
 40
0.3263777205250097
 40
0.6019098226101621
 40
0.8774318953346549
 40
1.0
 40
1.0
 40
1.0
 40
1.0
 10
0.258703443977461
 20
0.3799603690666609
 30
0.0
 10
0.2584644121542847
 20
0.3799919697164414
 30
0.0
 10
0.2580235867141939
 20
0.3800502480250017
 30
0.0
 10
0.2573794576903798
 20
0.3802751270182255
 30
0.0
 10
0.2568852170543467
 20
0.380420724189774
 30
0.0
 10
0.2565930835792485
 20
0.3805109827914848
 30
0.0
 10
0.2565031385155775
 20
0.3805387725395613
 30
0.0
  0
SPLINE
  5
131
330
1F
100
AcDbEntity
  8
0
  6
Continuous
 62
     7
370
    25
100
AcDbSpline
210
0.0
220
0.0
230
1.0
 70
     8
 71
     3
 72
    28
 73
    24
 74
     0
 42
0.000000001
 43
0.00000001
 40
0.0
 40
0.0
 40
0.0
 40
0.0
 40
0.0194685753007231
 40
0.0781829269065613
 40
0.1354755799549414
 40
0.1776244511423374
 40
0.219774178030879
 40
0.2619208185925307
 40
0.3040689933465416
 40
0.3462171681005526
 40
0.3823436485879156
 40
0.4184702879229452
 40
0.4545983026044463
 40
0.490724941939476
 40
0.5267268662774965
 40
0.5629214306837693
 40
0.6143637013720807
 40
0.6911476625379018
 40
0.7470975322795946
 40
0.8087422974659746
 40
0.9016279217829501
 40
0.9995563877558483
 40
1.0
 40
1.0
 40
1.0
 40
1.0
 10
0.2791611885758497
 20
0.3846703280968123
 30
0.0
 10
0.2791979997181764
 20
0.3847013071208414
 30
0.0
 10
0.2793458278363324
 20
0.3848257143121186
 30
0.0
 10
0.2791293298097298
 20
0.3850492403599902
 30
0.0
 10
0.2783911191027092
 20
0.3852833990092344
 30
0.0
 10
0.277707860635044
 20
0.3854915527689587
 30
0.0
 10
0.2771022420150833
 20
0.3856782118707712
 30
0.0
 10
0.2764954248982135
 20
0.3858643120085126
 30
0.0
 10
0.2758889619647158
 20
0.3860505214092914
 30
0.0
 10
0.2753113235505691
 20
0.3862279327401744
 30
0.0
 10
0.274762454716947
 20
0.3863961404389578
 30
0.0
 10
0.2742426462405995
 20
0.3865560964373698
 30
0.0
 10
0.2737225997072568
 20
0.386715370036864
 30
0.0
 10
0.2732036841454537
 20
0.3868751232280668
 30
0.0
 10
0.2726827968460304
 20
0.3870344708470262
 30
0.0
 10
0.2720951731038597
 20
0.3872167673810112
 30
0.0
 10
0.2712719272610089
 20
0.3874585501207224
 30
0.0
 10
0.2696646879921121
 20
0.3876690652287441
 30
0.0
 10
0.2676857032987005
 20
0.3878249929384788
 30
0.0
 10
0.2653231446900614
 20
0.3879345267863821
 30
0.0
 10
0.2623784185531841
 20
0.3879512288263186
 30
0.0
 10
0.2600331684998232
 20
0.3879036792730331
 30
0.0
 10
0.2590774812930791
 20
0.3878154669516354
 30
0.0
 10
0.2590731715890028
 20
0.3878150691551619
 30
0.0
  0
SPLINE
  5
132
330
1F
100
AcDbEntity
  8
0
  6
Continuous
 62
     7
370
    25
100
AcDbSpline
210
0.0
220
0.0
230
1.0
 70
     8
 71
     3
 72
    25
 73
    21
 74
     0
 42
0.000000001
 43
0.00000001
 40
0.0
 40
0.0
 40
0.0
 40
0.0
 40
0.0385621697657234
 40
0.0499343631986561
 40
0.0633850484428645
 40
0.0893841948366599
 40
0.0986324200256711
 40
0.1144957392346959
 40
0.1465610263363523
 40
0.2841898008439891
 40
0.4876192371124992
 40
0.7810460161038878
 40
0.8334037182610982
 40
0.908135115224808
 40
0.9116586737022802
 40
0.9252300930779823
 40
0.9367209285421748
 40
0.9571423013815353
 40
0.987289412492154
 40
1.0
 40
1.0
 40
1.0
 40
1.0
 10
0.272841844532118
 20
0.3846667518181258
 30
0.0
 10
0.2729330940050526
 20
0.3846995170019874
 30
0.0
 10
0.2730512534434575
 20
0.3847419448166334
 30
0.0
 10
0.273114118024345
 20
0.3847992107190166
 30
0.0
 10
0.2730764909653302
 20
0.3848458318486566
 30
0.0
 10
0.2729305727753657
 20
0.384885860118192
 30
0.0
 10
0.2727949745702158
 20
0.3849280258668553
 30
0.0
 10
0.2726401874753867
 20
0.3849753046473579
 30
0.0
 10
0.2721407430644451
 20
0.3851289717918931
 30
0.0
 10
0.2711348300657379
 20
0.3854376729471741
 30
0.0
 10
0.2694221125752767
 20
0.3859622261632545
 30
0.0
 10
0.267954026531353
 20
0.3864185792310573
 30
0.0
 10
0.2668048050308339
 20
0.3867640265468531
 30
0.0
 10
0.2664813770720559
 20
0.3868763497987465
 30
0.0
 10
0.2661863673023858
 20
0.3869471666627642
 30
0.0
 10
0.2660541761969245
 20
0.3869668506080491
 30
0.0
 10
0.2658012719386947
 20
0.3869888406711977
 30
0.0
 10
0.2654500366205246
 20
0.3870172820233613
 30
0.0
 10
0.2650921105228679
 20
0.3870478497575248
 30
0.0
 10
0.264818812414351
 20
0.3870577705088799
 30
0.0
 10
0.2647377586098768
 20
0.3870607127708846
 30
0.0
  0
SPLINE
  5
133
330
1F
100
AcDbEntity
  8
0
  6
Continuous
 62
     7
370
    25
100
AcDbSpline
210
0.0
220
0.0
230
1.0
 70
     8
 71
     3
 72
     9
 73
     5
 74
     0
 42
0.000000001
 43
0.00000001
 40
0.0
 40
0.0
 40
0.0
 40
0.0
 40
0.4976133480345434
 40
1.0
 40
1.0
 40
1.0
 40
1.0
 10
0.2621310090752698
 20
0.3870599975151468
 30
0.0
 10
0.2619523446811238
 20
0.3870555453549117
 30
0.0
 10
0.2615933020733411
 20
0.3870465983275593
 30
0.0
 10
0.261307068160066
 20
0.3870155262368403
 30
0.0
 10
0.2611632680626966
 20
0.3869999160332137
 30
0.0
  0
SPLINE
  5
134
330
1F
100
AcDbEntity
  8
0
  6
Continuous
 62
     7
370
    25
100
AcDbSpline
210
0.0
220
0.0
230
1.0
 70
     8
 71
     3
 72
    28
 73
    24
 74
     0
 42
0.000000001
 43
0.00000001
 40
0.0
 40
0.0
 40
0.0
 40
0.0
 40
0.0056793295958297
 40
0.0641731479304321
 40
0.1212491957931445
 40
0.1632392250703581
 40
0.2052292543475717
 40
0.2472185898159738
 40
0.2892079252843759
 40
0.3311957323421642
 40
0.367186918901295
 40
0.4031780880410727
 40
0.4391692746002034
 40
0.4751589152981314
 40
0.5110260155029263
 40
0.5470833256189614
 40
0.5983340401033551
 40
0.6748274478238958
 40
0.7305664653189242
 40
0.7919789165196838
 40
0.8845144927907843
 40
0.9820741436352267
 40
1.0
 40
1.0
 40
1.0
 40
1.0
 10
0.2792272901269056
 20
0.3905256499809676
 30
0.0
 10
0.2792370315192944
 20
0.3905347819101311
 30
0.0
 10
0.2793471036333122
 20
0.3906379674413124
 30
0.0
 10
0.2791193967227512
 20
0.3908383182662827
 30
0.0
 10
0.2783929839567975
 20
0.3910729718933262
 30
0.0
 10
0.2777074360231503
 20
0.3912811336692808
 30
0.0
 10
0.2771023352614009
 20
0.3914674201500766
 30
0.0
 10
0.2764954077725272
 20
0.3916535987608443
 30
0.0
 10
0.2758889846346952
 20
0.3918398311936522
 30
0.0
 10
0.2753112998843413
 20
0.3920170799992211
 30
0.0
 10
0.2747624579503718
 20
0.3921858615161607
 30
0.0
 10
0.2742426565271764
 20
0.3923451445065563
 30
0.0
 10
0.2737226026172638
 20
0.3925051217817833
 30
0.0
 10
0.2732036664825198
 20
0.3926641778192002
 30
0.0
 10
0.2726828161808208
 20
0.3928241965207558
 30
0.0
 10
0.2720951425273712
 20
0.3930058269872734
 30
0.0
 10
0.271271958640917
 20
0.3932482864824323
 30
0.0
 10
0.2696647999530168
 20
0.3934585040953978
 30
0.0
 10
0.2676853363899594
 20
0.3936146157752903
 30
0.0
 10
0.2653250334497387
 20
0.3937235666006243
 30
0.0
 10
0.2623670567277618
 20
0.3937435937923235
 30
0.0
 10
0.2598468780321452
 20
0.3936815920526167
 30
0.0
 10
0.2587336129563701
 20
0.3935738639526894
 30
0.0
 10
0.2585608100625134
 20
0.3935571422142435
 30
0.0
  0
SPLINE
  5
135
330
1F
100
AcDbEntity
  8
0
  6
Continuous
 62
     7
370
    25
100
AcDbSpline
210
0.0
220
0.0
230
1.0
 70
     8
 71
     3
 72
    19
 73
    15
 74
     0
 42
0.000000001
 43
0.00000001
 40
0.0
 40
0.0
 40
0.0
 40
0.0
 40
0.0141584384107696
 40
0.0475358911265697
 40
0.0701693548127277
 40
0.0827976776482578
 40
0.0976864020006147
 40
0.1256157761891571
 40
0.5674060813371776
 40
0.8165986264961366
 40
0.9414679935310963
 40
0.980579688415614
 40
0.998043928307588
 40
1.0
 40
1.0
 40
1.0
 40
1.0
 10
0.1529260015221692
 20
0.3868497123283792
 30
0.0
 10
0.1529042930214735
 20
0.3867780664254879
 30
0.0
 10
0.1528314083645882
 20
0.3865375206999829
 30
0.0
 10
0.1526877441876438
 20
0.386259858233502
 30
0.0
 10
0.1525522205155687
 20
0.38598524356842
 30
0.0
 10
0.1524502037423634
 20
0.3857893223152416
 30
0.0
 10
0.1523194044941702
 20
0.3856492612225631
 30
0.0
 10
0.1511309501326289
 20
0.3853599916664741
 30
0.0
 10
0.1493905071100383
 20
0.3847433258084166
 30
0.0
 10
0.147402367319371
 20
0.3841514491320659
 30
0.0
 10
0.1463970016045705
 20
0.3838408044177535
 30
0.0
 10
0.1459550831932578
 20
0.3837056177918115
 30
0.0
 10
0.1458128037193395
 20
0.3836614592411532
 30
0.0
 10
0.1457654575976946
 20
0.3836472724030502
 30
0.0
 10
0.1457606887551405
 20
0.3836458434624129
 30
0.0
  0
LINE
  5
136
330
1F
100
AcDbEntity
  8
0
  6
Continuous
 62
     7
370
    25
100
AcDbLine
 10
0.1462481951
 20
0.3915620555
 30
0.0
 11
0.1469037866
 21
0.3917649498
 31
0.0
  0
SPLINE
  5
137
330
1F
100
AcDbEntity
  8
0
  6
Continuous
 62
     7
370
    25
100
AcDbSpline
210
0.0
220
0.0
230
1.0
 70
     8
 71
     3
 72
    18
 73
    14
 74
     0
 42
0.000000001
 43
0.00000001
 40
0.0
 40
0.0
 40
0.0
 40
0.0
 40
0.0729024100404817
 40
0.1458082365869293
 40
0.2187106466274109
 40
0.291613377218845
 40
0.3644046034929318
 40
0.4373087394488225
 40
0.5411174802479242
 40
0.6960593892753837
 40
0.8089722750144407
 40
0.9333706067665537
 40
0.9999999999999999
 40
0.9999999999999999
 40
0.9999999999999999
 40
0.9999999999999999
 10
0.1489197349282362
 20
0.3984816779655867
 30
0.0
 10
0.1490930555324621
 20
0.3985348156625804
 30
0.0
 10
0.1494397048634284
 20
0.3986410935468184
 30
0.0
 10
0.149959491813662
 20
0.3988010427795157
 30
0.0
 10
0.150479507651727
 20
0.3989602432759006
 30
0.0
 10
0.1509990254244463
 20
0.3991204363900956
 30
0.0
 10
0.1515188502624285
 20
0.3992785023731576
 30
0.0
 10
0.1521111819501566
 20
0.3994658166235055
 30
0.0
 10
0.1529046714737387
 20
0.3996767832841602
 30
0.0
 10
0.1537483144413465
 20
0.3991084921362336
 30
0.0
 10
0.1544937329143261
 20
0.3979927315753318
 30
0.0
 10
0.1550197394911021
 20
0.3969052941817082
 30
0.0
 10
0.1552173135339851
 20
0.3959731869122294
 30
0.0
 10
0.1552862262459852
 20
0.3956480731529646
 30
0.0
  0
SPLINE
  5
138
330
1F
100
AcDbEntity
  8
0
  6
Continuous
 62
     7
370
    25
100
AcDbSpline
210
0.0
220
0.0
230
1.0
 70
     8
 71
     3
 72
    26
 73
    22
 74
     0
 42
0.000000001
 43
0.00000001
 40
0.0
 40
0.0
 40
0.0
 40
0.0
 40
0.0278007710174254
 40
0.1384135849166108
 40
0.1903626756512693
 40
0.2456267288875573
 40
0.3002597667946011
 40
0.3701652392411847
 40
0.4383769997211392
 40
0.4885608983018636
 40
0.5387421411345614
 40
0.5889215573714509
 40
0.6391036293715567
 40
0.6892848722042545
 40
0.7322959101065649
 40
0.7753087954597943
 40
0.818321659995243
 40
0.8613345453484723
 40
0.9041962903745028
 40
0.9472892175604434
 40
1.0
 40
1.0
 40
1.0
 40
1.0
 10
0.1557455992432692
 20
0.3880370368523055
 30
0.0
 10
0.1557303616241967
 20
0.3877633671177199
 30
0.0
 10
0.1556544970562638
 20
0.3864008290419415
 30
0.0
 10
0.1552167755387665
 20
0.3846452684298823
 30
0.0
 10
0.154659892743421
 20
0.3828422394625318
 30
0.0
 10
0.1541456952335386
 20
0.3816995193100863
 30
0.0
 10
0.1535403471574538
 20
0.380545958130691
 30
0.0
 10
0.152787545492358
 20
0.3797137006512595
 30
0.0
 10
0.1520244863757159
 20
0.3794694591634907
 30
0.0
 10
0.1513461050412023
 20
0.379263179662444
 30
0.0
 10
0.1507393747485739
 20
0.3790764450146172
 30
0.0
 10
0.1501328782616266
 20
0.3788903644863733
 30
0.0
 10
0.1495262575818669
 20
0.378704156238459
 30
0.0
 10
0.1489486225976988
 20
0.3785267367126762
 30
0.0
 10
0.1483998716144463
 20
0.3783585555409084
 30
0.0
 10
0.1478799059431181
 20
0.3781984864539383
 30
0.0
 10
0.147360089072643
 20
0.3780396616201074
 30
0.0
 10
0.1468407074479303
 20
0.3778782091755826
 30
0.0
 10
0.1463211856421429
 20
0.3777252277827473
 30
0.0
 10
0.145762133026396
 20
0.3775278138943055
 30
0.0
 10
0.1453771267368011
 20
0.377485038676845
 30
0.0
 10
0.1451652979584791
 20
0.3774615039390974
 30
0.0
  0
SPLINE
  5
139
330
1F
100
AcDbEntity
  8
0
  6
Continuous
 62
     7
370
    25
100
AcDbSpline
210
0.0
220
0.0
230
1.0
 70
     8
 71
     3
 72
    12
 73
     8
 74
     0
 42
0.000000001
 43
0.00000001
 40
0.0
 40
0.0
 40
0.0
 40
0.0
 40
0.1608915289993411
 40
0.3706628974618226
 40
0.5804496271252579
 40
0.7902209955877394
 40
1.0
 40
1.0
 40
1.0
 40
1.0
 10
0.146028313610182
 20
0.3975940455955916
 30
0.0
 10
0.1461833860547227
 20
0.3976415559863425
 30
0.0
 10
0.1465406429094956
 20
0.397751010717768
 30
0.0
 10
0.1471000733712685
 20
0.3979227728661053
 30
0.0
 10
0.1477066506138373
 20
0.3981093381516355
 30
0.0
 10
0.1483132098866562
 20
0.3982954583709546
 30
0.0
 10
0.1487175574612915
 20
0.398419604014213
 30
0.0
 10
0.1489197349282362
 20
0.3984816779655867
 30
0.0
  0
SPLINE
  5
13A
330
1F
100
AcDbEntity
  8
0
  6
Continuous
 62
     7
370
    25
100
AcDbSpline
210
0.0
220
0.0
230
1.0
 70
     8
 71
     3
 72
    10
 73
     6
 74
     0
 42
0.000000001
 43
0.00000001
 40
0.0
 40
0.0
 40
0.0
 40
0.0
 40
0.0532976686121678
 40
0.6239713458221786
 40
1.0
 40
1.0
 40
1.0
 40
1.0
 10
0.1580055689545728
 20
0.3992071857017923
 30
0.0
 10
0.158039944058526
 20
0.3992135181657611
 30
0.0
 10
0.158442383422855
 20
0.3992876541677291
 30
0.0
 10
0.1590591249314765
 20
0.3987947338026517
 30
0.0
 10
0.1595405129249995
 20
0.3980435657325834
 30
0.0
 10
0.1597317194672682
 20
0.397745202974742
 30
0.0
  0
SPLINE
  5
13B
330
1F
100
AcDbEntity
  8
0
  6
Continuous
 62
     7
370
    25
100
AcDbSpline
210
0.0
220
0.0
230
1.0
 70
     8
 71
     3
 72
    23
 73
    19
 74
     0
 42
0.000000001
 43
0.00000001
 40
0.0
 40
0.0
 40
0.0
 40
0.0
 40
0.0143819092008339
 40
0.0821817552251533
 40
0.1543002626996633
 40
0.2255944838776368
 40
0.3168187028683015
 40
0.4058331342178618
 40
0.4713179170993695
 40
0.5368026999808773
 40
0.602286181292275
 40
0.6677722936816425
 40
0.7332570765631503
 40
0.7893860725349832
 40
0.8455153153052841
 40
0.9016466949241106
 40
0.9577759376944116
 40
1.0
 40
1.0
 40
1.0
 40
1.0
 10
0.1604564523430922
 20
0.3841479529900008
 30
0.0
 10
0.1604362692781639
 20
0.3840460343135673
 30
0.0
 10
0.1603209382968264
 20
0.3834636460087469
 30
0.0
 10
0.1599795974792893
 20
0.3825226902112867
 30
0.0
 10
0.1594801728228925
 20
0.3813655458821393
 30
0.0
 10
0.158870582047908
 20
0.3802161232475232
 30
0.0
 10
0.1581192036181286
 20
0.3793823680523576
 30
0.0
 10
0.1573557651155275
 20
0.3791389006750912
 30
0.0
 10
0.1566775085558209
 20
0.3789324645450143
 30
0.0
 10
0.1560707857986901
 20
0.3787457413506821
 30
0.0
 10
0.1554641813716708
 20
0.3785597651522088
 30
0.0
 10
0.1548576742653765
 20
0.3783731425567197
 30
0.0
 10
0.1542800394626463
 20
0.3781958365179082
 30
0.0
 10
0.1537311747825948
 20
0.3780276052880086
 30
0.0
 10
0.1532113438532672
 20
0.3778676516560862
 30
0.0
 10
0.1526913831989782
 20
0.3777083908837363
 30
0.0
 10
0.1522144752998719
 20
0.3775616115952639
 30
0.0
 10
0.1519107797858515
 20
0.3774685531156879
 30
0.0
 10
0.1517804002495863
 20
0.3774286021751814
 30
0.0
  0
SPLINE
  5
13C
330
1F
100
AcDbEntity
  8
0
  6
Continuous
 62
     7
370
    25
100
AcDbSpline
210
0.0
220
0.0
230
1.0
 70
     8
 71
     3
 72
    32
 73
    28
 74
     0
 42
0.000000001
 43
0.00000001
 40
0.0
 40
0.0
 40
0.0
 40
0.0
 40
0.0003925411563628
 40
0.0763558511899508
 40
0.1484119155492134
 40
0.1822554580339439
 40
0.2182581739412
 40
0.2538491364435388
 40
0.2993892593304859
 40
0.3438263442709502
 40
0.3765183481940086
 40
0.4092079722179086
 40
0.4418987861865049
 40
0.4745896001551012
 40
0.507280954288826
 40
0.5353013668619621
 40
0.5633216562302489
 40
0.5913420688033849
 40
0.6193635481177479
 40
0.6472865799350123
 40
0.6753591361625061
 40
0.7152593098679187
 40
0.7748143670173144
 40
0.8182105845985067
 40
0.866023719321613
 40
0.9380660982520963
 40
1.0
 40
1.0
 40
1.0
 40
1.0
 10
0.1670733427735426
 20
0.3901892413658553
 30
0.0
 10
0.1670684176464196
 20
0.3901896391212172
 30
0.0
 10
0.1661103976589833
 20
0.3902670092230363
 30
0.0
 10
0.1637650899723152
 20
0.390331112688855
 30
0.0
 10
0.1610341384638451
 20
0.3903083070093865
 30
0.0
 10
0.1589622794743724
 20
0.3902261311089111
 30
0.0
 10
0.1575436115365622
 20
0.3901252597715473
 30
0.0
 10
0.156046351576139
 20
0.3899947044886756
 30
0.0
 10
0.1547401990771766
 20
0.3897980594965973
 30
0.0
 10
0.1539680451507834
 20
0.3895640572361443
 30
0.0
 10
0.1532915473472081
 20
0.3893557800205585
 30
0.0
 10
0.1526843344313172
 20
0.3891695073105495
 30
0.0
 10
0.1520779791353734
 20
0.3889833300589146
 30
0.0
 10
0.1514714181470153
 20
0.388797090325602
 30
0.0
 10
0.1508936756659183
 20
0.388619856394306
 30
0.0
 10
0.1503449728928881
 20
0.388451067625268
 30
0.0
 10
0.1498249711177973
 20
0.388291779258418
 30
0.0
 10
0.1493051931068095
 20
0.3881318192756891
 30
0.0
 10
0.1487856500291901
 20
0.387972680491866
 30
0.0
 10
0.1482667802205768
 20
0.3878130329118439
 30
0.0
 10
0.1476701455958003
 20
0.3876313865965453
 30
0.0
 10
0.1469042621595992
 20
0.3873857618868231
 30
0.0
 10
0.1468312685242904
 20
0.3870805475495188
 30
0.0
 10
0.1472981282783409
 20
0.3867715875953271
 30
0.0
 10
0.1482841276698935
 20
0.3864591194377752
 30
0.0
 10
0.1499478294852626
 20
0.3861446927785007
 30
0.0
 10
0.1517118453847845
 20
0.3860039946164858
 30
0.0
 10
0.1525273060532666
 20
0.3859389533562113
 30
0.0
  0
SPLINE
  5
13D
330
1F
100
AcDbEntity
  8
0
  6
Continuous
 62
     7
370
    25
100
AcDbSpline
210
0.0
220
0.0
230
1.0
 70
     8
 71
     3
 72
    25
 73
    21
 74
     0
 42
0.000000001
 43
0.00000001
 40
0.0
 40
0.0
 40
0.0
 40
0.0
 40
0.0622183237691701
 40
0.0733105930521099
 40
0.0864268147040253
 40
0.1117864080470821
 40
0.1208093017831654
 40
0.136282086050323
 40
0.1675584618977123
 40
0.3018025714841052
 40
0.5002255218501395
 40
0.7864357029294835
 40
0.8375023248990996
 40
0.9103955816684429
 40
0.913831884926655
 40
0.9270692110968627
 40
0.9382780657202163
 40
0.958194940433548
 40
0.9876035992058156
 40
1.0
 40
1.0
 40
1.0
 40
1.0
 10
0.1614470219346144
 20
0.3894284476799422
 30
0.0
 10
0.1610519050171741
 20
0.3894082316106796
 30
0.0
 10
0.1605863467412884
 20
0.389384411424969
 30
0.0
 10
0.1600932854972518
 20
0.3893412577189813
 30
0.0
 10
0.1598664294202682
 20
0.3893059571781894
 30
0.0
 10
0.1597464616207787
 20
0.3892650161834288
 30
0.0
 10
0.1596070257986099
 20
0.3892223886498161
 30
0.0
 10
0.1594534085725909
 20
0.389175275745108
 30
0.0
 10
0.1589527487179387
 20
0.3890214260868441
 30
0.0
 10
0.1579473103292588
 20
0.3887129909750478
 30
0.0
 10
0.1562401633014162
 20
0.3881877234120217
 30
0.0
 10
0.154747076406922
 20
0.3877337789517106
 30
0.0
 10
0.1536305348236006
 20
0.3873852812179793
 30
0.0
 10
0.1532483968706197
 20
0.38727830860809
 30
0.0
 10
0.1530499444135201
 20
0.3872000197818589
 30
0.0
 10
0.1530333368332308
 20
0.3871735067118701
 30
0.0
 10
0.1530812405387831
 20
0.3871327952824069
 30
0.0
 10
0.1531611567010915
 20
0.3870777668339601
 30
0.0
 10
0.1532321115796021
 20
0.3870203408652593
 30
0.0
 10
0.1533599300444607
 20
0.3869856467277471
 30
0.0
 10
0.1533978318902113
 20
0.3869753589195662
 30
0.0
  0
SPLINE
  5
13E
330
1F
100
AcDbEntity
  8
0
  6
Continuous
 62
     7
370
    25
100
AcDbSpline
210
0.0
220
0.0
230
1.0
 70
     8
 71
     3
 72
    27
 73
    23
 74
     0
 42
0.000000001
 43
0.00000001
 40
0.0
 40
0.0
 40
0.0
 40
0.0
 40
0.0061674915591764
 40
0.1101238228857815
 40
0.1589498323005882
 40
0.2108914462345695
 40
0.2622406451002678
 40
0.3279406156229606
 40
0.3920513491628699
 40
0.4392148365708354
 40
0.4863783239788008
 40
0.5335418113867663
 40
0.5807052987947318
 40
0.6278678487851355
 40
0.6682950005406313
 40
0.7087202578027553
 40
0.7491456928142117
 40
0.7895709500763357
 40
0.8298558925305328
 40
0.8703582726757058
 40
0.9279228026362815
 40
1.0
 40
1.0
 40
1.0
 40
1.0
 10
0.1639210915299513
 20
0.3960936774773055
 30
0.0
 10
0.1638588115485573
 20
0.3960959777581459
 30
0.0
 10
0.1627467695498656
 20
0.3961370504888349
 30
0.0
 10
0.1610224752343289
 20
0.396092737844461
 30
0.0
 10
0.1589645465104189
 20
0.3960166223606688
 30
0.0
 10
0.1575429687073896
 20
0.3959145887132048
 30
0.0
 10
0.156046620446132
 20
0.3957839902891954
 30
0.0
 10
0.1547400990768072
 20
0.3955872439355833
 30
0.0
 10
0.1539680881596791
 20
0.3953536458913139
 30
0.0
 10
0.1532915124931331
 20
0.395145274385504
 30
0.0
 10
0.1526843537995188
 20
0.3949590351856234
 30
0.0
 10
0.1520779733180284
 20
0.3947728456281677
 30
0.0
 10
0.1514714367647144
 20
0.3945866148300477
 30
0.0
 10
0.1508936462142712
 20
0.3944093650340479
 30
0.0
 10
0.1503449841575792
 20
0.3942405913775904
 30
0.0
 10
0.1498249901665637
 20
0.3940812962389045
 30
0.0
 10
0.1493051203652425
 20
0.3939213422585728
 30
0.0
 10
0.1487859656631932
 20
0.3937621952933049
 30
0.0
 10
0.148265540920287
 20
0.3936025450960364
 30
0.0
 10
0.1476755894839321
 20
0.3934209204550974
 30
0.0
 10
0.1469286489080208
 20
0.3931936999866741
 30
0.0
 10
0.1469574894996356
 20
0.3930037565393652
 30
0.0
 10
0.1469735240670302
 20
0.3928981532616072
 30
0.0
  0
SPLINE
  5
13F
330
1F
100
AcDbEntity
  8
0
  6
Continuous
 62
     7
370
    25
100
AcDbSpline
210
0.0
220
0.0
230
1.0
 70
     8
 71
     3
 72
    17
 73
    13
 74
     0
 42
0.000000001
 43
0.00000001
 40
0.0
 40
0.0
 40
0.0
 40
0.0
 40
0.2866864789875329
 40
0.599815165420688
 40
0.7567254095821654
 40
0.8058679877492654
 40
0.8278129359988377
 40
0.8408735452408742
 40
0.8766528014780975
 40
0.8955365668268266
 40
0.9114387586970297
 40
1.0
 40
1.0
 40
1.0
 40
1.0
 10
0.1676031684609509
 20
0.3903518428368021
 30
0.0
 10
0.1670477902486696
 20
0.3901812736384681
 30
0.0
 10
0.1658858091345029
 20
0.3898244029821494
 30
0.0
 10
0.1644198896223894
 20
0.389374514464485
 30
0.0
 10
0.1634142491379722
 20
0.3890651137895698
 30
0.0
 10
0.1629724566195464
 20
0.3889302889040165
 30
0.0
 10
0.1628094951522792
 20
0.3888792805713491
 30
0.0
 10
0.162672459666421
 20
0.3888400062932536
 30
0.0
 10
0.16253981355144
 20
0.3887850104829847
 30
0.0
 10
0.1624073836624171
 20
0.3888457518474438
 30
0.0
 10
0.1622065083689132
 20
0.3891017883917134
 30
0.0
 10
0.1620639600006403
 20
0.3894081202028415
 30
0.0
 10
0.1619431113930798
 20
0.3896678199333597
 30
0.0
  0
SPLINE
  5
140
330
1F
100
AcDbEntity
  8
0
  6
Continuous
 62
     7
370
    25
100
AcDbSpline
210
0.0
220
0.0
230
1.0
 70
     8
 71
     3
 72
    13
 73
     9
 74
     0
 42
0.000000001
 43
0.00000001
 40
0.0
 40
0.0
 40
0.0
 40
0.0
 40
0.0680819808859444
 40
0.1206301598226549
 40
0.1848265311552046
 40
0.2282077471415189
 40
0.2544207205046566
 40
1.0
 40
1.0
 40
1.0
 40
1.0
 10
0.1622292732926466
 20
0.3960867633385115
 30
0.0
 10
0.1622613874979984
 20
0.3961512776474981
 30
0.0
 10
0.1623182886291606
 20
0.3962655864749248
 30
0.0
 10
0.1624073745993909
 20
0.3964363950709298
 30
0.0
 10
0.1624971244127827
 20
0.3965338379020631
 30
0.0
 10
0.1625742923889131
 20
0.3965700454064907
 30
0.0
 10
0.1630452001702541
 20
0.3967366099855392
 30
0.0
 10
0.1634907114714391
 20
0.3968651966765644
 30
0.0
 10
0.1639210915299513
 20
0.39698941607899
 30
0.0
  0
SPLINE
  5
141
330
1F
100
AcDbEntity
  8
0
  6
Continuous
 62
     7
370
    25
100
AcDbSpline
210
0.0
220
0.0
230
1.0
 70
     8
 71
     3
 72
    11
 73
     7
 74
     0
 42
0.000000001
 43
0.00000001
 40
0.0
 40
0.0
 40
0.0
 40
0.0
 40
0.3120435389145701
 40
0.6241017014693154
 40
0.9361452403838856
 40
1.0
 40
1.0
 40
1.0
 40
1.0
 10
0.1659370398255444
 20
0.4037061442894388
 30
0.0
 10
0.1661103599552925
 20
0.4037592839698668
 30
0.0
 10
0.1664570083372804
 20
0.4038655658210649
 30
0.0
 10
0.1669768024049947
 20
0.4040254853009536
 30
0.0
 10
0.1673589323457341
 20
0.4041425618216744
 30
0.0
 10
0.1675677039243484
 20
0.4042066631011281
 30
0.0
 10
0.1676031684609511
 20
0.4042175521416121
 30
0.0
  0
SPLINE
  5
142
330
1F
100
AcDbEntity
  8
0
  6
Continuous
 62
     7
370
    25
100
AcDbSpline
210
0.0
220
0.0
230
1.0
 70
     8
 71
     3
 72
    22
 73
    18
 74
     0
 42
0.000000001
 43
0.00000001
 40
0.0
 40
0.0
 40
0.0
 40
0.0
 40
0.0453297485456253
 40
0.1060215343107534
 40
0.1667145264047555
 40
0.2187353301154756
 40
0.2707583682731263
 40
0.3227813812521777
 40
0.3748044194098284
 40
0.426644657019586
 40
0.47876450382616
 40
0.5528427203570808
 40
0.6634085761973163
 40
0.7439799404359554
 40
0.8327482808687092
 40
0.9665016317590084
 40
0.9999999999999999
 40
0.9999999999999999
 40
0.9999999999999999
 40
0.9999999999999999
 10
0.1676031684609511
 20
0.384254049257701
 30
0.0
 10
0.1674521758654528
 20
0.3842076236217156
 30
0.0
 10
0.1670990199985465
 20
0.384099038921459
 30
0.0
 10
0.166543546187766
 20
0.3839286419402748
 30
0.0
 10
0.1659659298805208
 20
0.3837512045294896
 30
0.0
 10
0.1654171747716191
 20
0.383583001772383
 30
0.0
 10
0.1648972156327697
 20
0.3834230327946307
 30
0.0
 10
0.1643773765408149
 20
0.3832638279705148
 30
0.0
 10
0.1638580771730207
 20
0.3831037937139841
 30
0.0
 10
0.1633382490284593
 20
0.3829455276254672
 30
0.0
 10
0.1627460862898219
 20
0.3827585577050528
 30
0.0
 10
0.1619513894257422
 20
0.3825461730020714
 30
0.0
 10
0.1611124720234005
 20
0.3831211651900049
 30
0.0
 10
0.1603524509571605
 20
0.3842162279478654
 30
0.0
 10
0.1596818923083334
 20
0.3858282819057704
 30
0.0
 10
0.1592026216485738
 20
0.3874928676658925
 30
0.0
 10
0.159126484422336
 20
0.388807115946646
 30
0.0
 10
0.1591112351151563
 20
0.3890703429741312
 30
0.0
  0
SPLINE
  5
143
330
1F
100
AcDbEntity
  8
0
  6
Continuous
 62
     7
370
    25
100
AcDbSpline
210
0.0
220
0.0
230
1.0
 70
     8
 71
     3
 72
    18
 73
    14
 74
     0
 42
0.000000001
 43
0.00000001
 40
0.0
 40
0.0
 40
0.0
 40
0.0
 40
0.1177452414820086
 40
0.200946036759641
 40
0.28945796498704
 40
0.3770147838397555
 40
0.4885885145370475
 40
0.5981502138788589
 40
0.6785204905993452
 40
0.7588907673198314
 40
0.8392623720348085
 40
0.9196297232795138
 40
1.0
 40
1.0
 40
1.0
 40
1.0
 10
0.1593771314354994
 20
0.3960254897636824
 30
0.0
 10
0.1595018438554651
 20
0.3967174200796758
 30
0.0
 10
0.1597146801978206
 20
0.3978982801548901
 30
0.0
 10
0.1602018196400501
 20
0.3993787225252033
 30
0.0
 10
0.1607098328999697
 20
0.4005260638904261
 30
0.0
 10
0.1613168192911144
 20
0.4016748873913163
 30
0.0
 10
0.1620684564523067
 20
0.4025102103593184
 30
0.0
 10
0.1628316024411774
 20
0.4027543682165962
 30
0.0
 10
0.1635106646664864
 20
0.4029609078698591
 30
0.0
 10
0.1641174031407344
 20
0.4031476438726003
 30
0.0
 10
0.1647239532104641
 20
0.4033336978955489
 30
0.0
 10
0.1653305163853755
 20
0.4035199516552295
 30
0.0
 10
0.16573486289241
 20
0.4036440793249821
 30
0.0
 10
0.1659370398255446
 20
0.4037061442894392
 30
0.0
  0
SPLINE
  5
144
330
1F
100
AcDbEntity
  8
0
  6
Continuous
 62
     7
370
    25
100
AcDbSpline
210
0.0
220
0.0
230
1.0
 70
     8
 71
     3
 72
    19
 73
    15
 74
     0
 42
0.000000001
 43
0.00000001
 40
0.0
 40
0.0
 40
0.0
 40
0.0
 40
0.0304714823130586
 40
0.0962314596468476
 40
0.1619914051535042
 40
0.2277513824872932
 40
0.2932815576067366
 40
0.3591626387757485
 40
0.4528038093737479
 40
0.5925654230326619
 40
0.6944066225493815
 40
0.8066155308623741
 40
0.9756875237045542
 40
0.9999999999999999
 40
0.9999999999999999
 40
0.9999999999999999
 40
0.9999999999999999
 10
0.1676031684609509
 20
0.3937497844261575
 30
0.0
 10
0.1675228620179988
 20
0.3937251564489786
 30
0.0
 10
0.167269247633739
 20
0.3936473792615192
 30
0.0
 10
0.1668422809799713
 20
0.3935160192663912
 30
0.0
 10
0.1663225087988173
 20
0.3933567334449891
 30
0.0
 10
0.1658029499891675
 20
0.3931970261869813
 30
0.0
 10
0.1652840778798705
 20
0.3930375308762471
 30
0.0
 10
0.164687479100684
 20
0.3928558388508515
 30
0.0
 10
0.1639213151208303
 20
0.3926102269514163
 30
0.0
 10
0.1638499553280986
 20
0.3923051023555609
 30
0.0
 10
0.1643116889605953
 20
0.3919958031474056
 30
0.0
 10
0.1653205979691961
 20
0.3916867381252472
 30
0.0
 10
0.1664225753195916
 20
0.3914461473409903
 30
0.0
 10
0.1674713193773235
 20
0.3913538387382461
 30
0.0
 10
0.1676031684609511
 20
0.3913422336143904
 30
0.0
  0
SPLINE
  5
145
330
1F
100
AcDbEntity
  8
0
  6
Continuous
 62
     7
370
    25
100
AcDbSpline
210
0.0
220
0.0
230
1.0
 70
     8
 71
     3
 72
    15
 73
    11
 74
     0
 42
0.000000001
 43
0.00000001
 40
0.0
 40
0.0
 40
0.0
 40
0.0
 40
0.0534571112468517
 40
0.1688133460175712
 40
0.2841700880081605
 40
0.3995263227788799
 40
0.5144870584442609
 40
0.6300584697251933
 40
0.7943227906555629
 40
1.0
 40
1.0
 40
1.0
 40
1.0
 10
0.1676031684609509
 20
0.3995393027824808
 30
0.0
 10
0.1675228625218093
 20
0.3995145709122512
 30
0.0
 10
0.1672692626924248
 20
0.3994364696144186
 30
0.0
 10
0.1668422984311732
 20
0.3993057949071628
 30
0.0
 10
0.166322426882221
 20
0.3991458006898739
 30
0.0
 10
0.1658032533702705
 20
0.3989866585795135
 30
0.0
 10
0.1652828760914469
 20
0.3988270201226532
 30
0.0
 10
0.1646928720972473
 20
0.3986453801844437
 30
0.0
 10
0.1639459592515171
 20
0.3984181678991968
 30
0.0
 10
0.1639747963429487
 20
0.398228223430873
 30
0.0
 10
0.1639908289643385
 20
0.3981226195854597
 30
0.0
  0
LINE
  5
146
330
1F
100
AcDbEntity
  8
0
  6
Continuous
 62
     8
370
    25
100
AcDbLine
 10
0.1676031685
 20
-0.7693123112
 30
0.0
 11
0.2565031385
 21
-0.7693123112
 31
0.0
  0
LINE
  5
147
330
1F
100
AcDbEntity
  8
0
  6
Continuous
 62
     8
370
    25
100
AcDbLine
 10
0.2565031385
 20
1.1246877422
 30
0.0
 11
0.1676031685
 21
1.1246877422
 31
0.0
  0
LINE
  5
148
330
1F
100
AcDbEntity
  8
0
  6
Continuous
 62
     8
370
    25
100
AcDbLine
 10
0.2842069602
 20
0.3926041832
 30
0.0
 11
0.273399744
 21
0.3926041832
 31
0.0
  0
LINE
  5
149
330
1F
100
AcDbEntity
  8
0
  6
Continuous
 62
     8
370
    25
100
AcDbLine
 10
0.146312747
 20
0.3926041832
 30
0.0
 11
0.134206984
 21
0.3926041832
 31
0.0
  0
LINE
  5
14A
330
1F
100
AcDbEntity
  8
0
  6
Continuous
 62
     8
370
    25
100
AcDbLine
 10
0.134206984
 20
-0.0373958836
 30
0.0
 11
0.146312747
 21
-0.0373958836
 31
0.0
  0
LINE
  5
14B
330
1F
100
AcDbEntity
  8
0
  6
Continuous
 62
     8
370
    25
100
AcDbLine
 10
0.273399744
 20
-0.0373958836
 30
0.0
 11
0.2842069602
 21
-0.0373958836
 31
0.0
  0
LINE
  5
14C
330
1F
100
AcDbEntity
  8
0
  6
Continuous
 62
     8
370
    25
100
AcDbLine
 10
0.260284636
 20
-0.0414222966
 30
0.0
 11
0.260284636
 21
-0.0461007843
 31
0.0
  0
LINE
  5
14D
330
1F
100
AcDbEntity
  8
0
  6
Continuous
 62
     8
370
    25
100
AcDbLine
 10
0.2565031385
 20
-0.0361434708
 30
0.0
 11
0.2582651114
 21
-0.0362529049
 31
0.0
  0
LINE
  5
14E
330
1F
100
AcDbEntity
  8
0
  6
Continuous
 62
     8
370
    25
100
AcDbLine
 10
0.1659370398
 20
-0.043819357
 30
0.0
 11
0.1659370398
 21
-0.0484978447
 31
0.0
  0
LINE
  5
14F
330
1F
100
AcDbEntity
  8
0
  6
Continuous
 62
     8
370
    25
100
AcDbLine
 10
0.1489197349
 20
-0.0385948906
 30
0.0
 11
0.1489197349
 21
-0.0432733784
 31
0.0
  0
LINE
  5
150
330
1F
100
AcDbEntity
  8
0
  6
Continuous
 62
     8
370
    25
100
AcDbLine
 10
0.260284636
 20
0.3952112903
 30
0.0
 11
0.2585179543
 21
0.3951018562
 31
0.0
  0
LINE
  5
151
330
1F
100
AcDbEntity
  8
0
  6
Continuous
 62
     8
370
    25
100
AcDbLine
 10
0.1489197349
 20
0.398481678
 30
0.0
 11
0.1489197349
 21
0.3938031902
 31
0.0
  0
LINE
  5
152
330
1F
100
AcDbEntity
  8
0
  6
Continuous
 62
     8
370
    25
100
AcDbLine
 10
0.1659370398
 20
0.4037061443
 30
0.0
 11
0.1659370398
 21
0.3990276565
 31
0.0
  0
ENDSEC
  0
SECTION
  2
OBJECTS
  0
DICTIONARY
  5
C
330
0
100
AcDbDictionary
281
     1
  3
ACAD_GROUP
350
D
  3
ACAD_LAYOUT
350
1A
  3
ACAD_MLINESTYLE
350
17
  3
ACAD_PLOTSETTINGS
350
19
  3
ACAD_PLOTSTYLENAME
350
E
  3
ACAD_SCALELIST
350
47
  0
DICTIONARY
  5
D
102
{ACAD_REACTORS
330
C
102
}
330
C
100
AcDbDictionary
281
     1
  0
DICTIONARY
  5
1A
102
{ACAD_REACTORS
330
C
102
}
330
C
100
AcDbDictionary
281
     1
  3
Layout1
350
1E
  3
Layout2
350
26
  3
Model
350
22
  0
DICTIONARY
  5
17
102
{ACAD_REACTORS
330
C
102
}
330
C
100
AcDbDictionary
281
     1
  3
Standard
350
18
  0
DICTIONARY
  5
19
102
{ACAD_REACTORS
330
C
102
}
330
C
100
AcDbDictionary
281
     1
  0
ACDBDICTIONARYWDFLT
  5
E
102
{ACAD_REACTORS
330
C
102
}
330
C
100
AcDbDictionary
281
     1
  3
Normal
350
F
100
AcDbDictionaryWithDefault
340
F
  0
DICTIONARY
  5
47
102
{ACAD_REACTORS
330
C
102
}
330
C
100
AcDbDictionary
281
     1
  3
A0
350
48
  3
A1
350
49
  3
A2
350
4A
  3
A3
350
4B
  3
A4
350
4C
  3
A5
350
4D
  3
A6
350
4E
  3
A7
350
4F
  3
A8
350
50
  3
A9
350
51
  3
B0
350
52
  3
B1
350
53
  3
B2
350
54
  3
B3
350
55
  3
B4
350
56
  3
B5
350
57
  3
B6
350
58
  3
B7
350
59
  3
B8
350
5A
  3
B9
350
5B
  3
C0
350
5C
  3
C1
350
5D
  3
C2
350
5E
  3
C3
350
5F
  3
C4
350
60
  3
C5
350
61
  3
C6
350
62
  3
C7
350
63
  3
C8
350
64
  3
C9
350
65
  3
D0
350
66
  3
D1
350
67
  3
D2
350
68
  0
LAYOUT
  5
1E
102
{ACAD_REACTORS
330
1A
102
}
330
1A
100
AcDbPlotSettings
  1

  2
none_device
  4

  6

 40
0.0
 41
0.0
 42
0.0
 43
0.0
 44
0.0
 45
0.0
 46
0.0
 47
0.0
 48
0.0
 49
0.0
140
0.0
141
0.0
142
1.0
143
1.0
 70
   688
 72
     1
 73
     0
 74
     5
  7

 75
    16
147
1.0
148
0.0
149
0.0
100
AcDbLayout
  1
Layout1
 70
     1
 71
     1
 10
0.0
 20
0.0
 11
420.0
 21
297.0
 12
0.0
 22
0.0
 32
0.0
 14
1.0000000000E+20
 24
1.0000000000E+20
 34
1.0000000000E+20
 15
-1.0000000000E+20
 25
-1.0000000000E+20
 35
-1.0000000000E+20
146
0.0
 13
0.0
 23
0.0
 33
0.0
 16
1.0
 26
0.0
 36
0.0
 17
0.0
 27
1.0
 37
0.0
 76
     0
330
1B
  0
LAYOUT
  5
26
102
{ACAD_REACTORS
330
1A
102
}
330
1A
100
AcDbPlotSettings
  1

  2
none_device
  4

  6

 40
0.0
 41
0.0
 42
0.0
 43
0.0
 44
0.0
 45
0.0
 46
0.0
 47
0.0
 48
0.0
 49
0.0
140
0.0
141
0.0
142
1.0
143
1.0
 70
   688
 72
     1
 73
     0
 74
     5
  7

 75
    16
147
1.0
148
0.0
149
0.0
100
AcDbLayout
  1
Layout2
 70
     1
 71
     2
 10
0.0
 20
0.0
 11
0.0
 21
0.0
 12
0.0
 22
0.0
 32
0.0
 14
0.0
 24
0.0
 34
0.0
 15
0.0
 25
0.0
 35
0.0
146
0.0
 13
0.0
 23
0.0
 33
0.0
 16
1.0
 26
0.0
 36
0.0
 17
0.0
 27
1.0
 37
0.0
 76
     0
330
23
  0
LAYOUT
  5
22
102
{ACAD_REACTORS
330
1A
102
}
330
1A
100
AcDbPlotSettings
  1

  2
none_device
  4
Letter_(8.50_x_11.00_Inches)
  6

 40
6.35
 41
6.35
 42
6.35000508
 43
6.35000508
 44
215.9
 45
279.4
 46
0.0
 47
0.0
 48
0.0
 49
0.0
140
0.0
141
0.0
142
1.0
143
1.0
 70
  1712
 72
     1
 73
     0
 74
     0
  7

 75
     0
147
1.0
148
0.0
149
0.0
100
AcDbLayout
  1
Model
 70
     1
 71
     0
 10
0.0
 20
0.0
 11
0.4318
 21
0.2794
 12
0.0
 22
0.0
 32
0.0
 14
0.0
 24
0.0
 34
0.0
 15
0.4318
 25
0.2794
 35
0.0
146
0.0
 13
0.0
 23
0.0
 33
0.0
 16
1.0
 26
0.0
 36
0.0
 17
0.0
 27
1.0
 37
0.0
 76
     0
330
1F
331
29
  0
MLINESTYLE
  5
18
102
{ACAD_REACTORS
330
17
102
}
330
17
100
AcDbMlineStyle
  2
Standard
 70
     0
  3

 62
   256
 51
90.0
 52
90.0
 71
     2
 49
0.5
 62
   256
  6
BYLAYER
 49
-0.5
 62
   256
  6
BYLAYER
  0
ACDBPLACEHOLDER
  5
F
102
{ACAD_REACTORS
330
E
102
}
330
E
  0
SCALE
  5
48
102
{ACAD_REACTORS
330
47
102
}
330
47
100
AcDbScale
 70
     0
300
1:1
140
1.0
141
1.0
290
     1
  0
SCALE
  5
49
102
{ACAD_REACTORS
330
47
102
}
330
47
100
AcDbScale
 70
     0
300
1:2
140
1.0
141
2.0
290
     0
  0
SCALE
  5
4A
102
{ACAD_REACTORS
330
47
102
}
330
47
100
AcDbScale
 70
     0
300
1:4
140
1.0
141
4.0
290
     0
  0
SCALE
  5
4B
102
{ACAD_REACTORS
330
47
102
}
330
47
100
AcDbScale
 70
     0
300
1:5
140
1.0
141
5.0
290
     0
  0
SCALE
  5
4C
102
{ACAD_REACTORS
330
47
102
}
330
47
100
AcDbScale
 70
     0
300
1:8
140
1.0
141
8.0
290
     0
  0
SCALE
  5
4D
102
{ACAD_REACTORS
330
47
102
}
330
47
100
AcDbScale
 70
     0
300
1:10
140
1.0
141
10.0
290
     0
  0
SCALE
  5
4E
102
{ACAD_REACTORS
330
47
102
}
330
47
100
AcDbScale
 70
     0
300
1:16
140
1.0
141
16.0
290
     0
  0
SCALE
  5
4F
102
{ACAD_REACTORS
330
47
102
}
330
47
100
AcDbScale
 70
     0
300
1:20
140
1.0
141
20.0
290
     0
  0
SCALE
  5
50
102
{ACAD_REACTORS
330
47
102
}
330
47
100
AcDbScale
 70
     0
300
1:30
140
1.0
141
30.0
290
     0
  0
SCALE
  5
51
102
{ACAD_REACTORS
330
47
102
}
330
47
100
AcDbScale
 70
     0
300
1:40
140
1.0
141
40.0
290
     0
  0
SCALE
  5
52
102
{ACAD_REACTORS
330
47
102
}
330
47
100
AcDbScale
 70
     0
300
1:50
140
1.0
141
50.0
290
     0
  0
SCALE
  5
53
102
{ACAD_REACTORS
330
47
102
}
330
47
100
AcDbScale
 70
     0
300
1:100
140
1.0
141
100.0
290
     0
  0
SCALE
  5
54
102
{ACAD_REACTORS
330
47
102
}
330
47
100
AcDbScale
 70
     0
300
2:1
140
2.0
141
1.0
290
     0
  0
SCALE
  5
55
102
{ACAD_REACTORS
330
47
102
}
330
47
100
AcDbScale
 70
     0
300
4:1
140
4.0
141
1.0
290
     0
  0
SCALE
  5
56
102
{ACAD_REACTORS
330
47
102
}
330
47
100
AcDbScale
 70
     0
300
8:1
140
8.0
141
1.0
290
     0
  0
SCALE
  5
57
102
{ACAD_REACTORS
330
47
102
}
330
47
100
AcDbScale
 70
     0
300
10:1
140
10.0
141
1.0
290
     0
  0
SCALE
  5
58
102
{ACAD_REACTORS
330
47
102
}
330
47
100
AcDbScale
 70
     0
300
100:1
140
100.0
141
1.0
290
     0
  0
SCALE
  5
59
102
{ACAD_REACTORS
330
47
102
}
330
47
100
AcDbScale
 70
     0
300
1/128" = 1'-0"
140
0.0078125
141
12.0
290
     0
  0
SCALE
  5
5A
102
{ACAD_REACTORS
330
47
102
}
330
47
100
AcDbScale
 70
     0
300
1/64" = 1'-0"
140
0.015625
141
12.0
290
     0
  0
SCALE
  5
5B
102
{ACAD_REACTORS
330
47
102
}
330
47
100
AcDbScale
 70
     0
300
1/32" = 1'-0"
140
0.03125
141
12.0
290
     0
  0
SCALE
  5
5C
102
{ACAD_REACTORS
330
47
102
}
330
47
100
AcDbScale
 70
     0
300
1/16" = 1'-0"
140
0.0625
141
12.0
290
     0
  0
SCALE
  5
5D
102
{ACAD_REACTORS
330
47
102
}
330
47
100
AcDbScale
 70
     0
300
3/32" = 1'-0"
140
0.09375
141
12.0
290
     0
  0
SCALE
  5
5E
102
{ACAD_REACTORS
330
47
102
}
330
47
100
AcDbScale
 70
     0
300
1/8" = 1'-0"
140
0.125
141
12.0
290
     0
  0
SCALE
  5
5F
102
{ACAD_REACTORS
330
47
102
}
330
47
100
AcDbScale
 70
     0
300
3/16" = 1'-0"
140
0.1875
141
12.0
290
     0
  0
SCALE
  5
60
102
{ACAD_REACTORS
330
47
102
}
330
47
100
AcDbScale
 70
     0
300
1/4" = 1'-0"
140
0.25
141
12.0
290
     0
  0
SCALE
  5
61
102
{ACAD_REACTORS
330
47
102
}
330
47
100
AcDbScale
 70
     0
300
3/8" = 1'-0"
140
0.375
141
12.0
290
     0
  0
SCALE
  5
62
102
{ACAD_REACTORS
330
47
102
}
330
47
100
AcDbScale
 70
     0
300
1/2" = 1'-0"
140
0.5
141
12.0
290
     0
  0
SCALE
  5
63
102
{ACAD_REACTORS
330
47
102
}
330
47
100
AcDbScale
 70
     0
300
3/4" = 1'-0"
140
0.75
141
12.0
290
     0
  0
SCALE
  5
64
102
{ACAD_REACTORS
330
47
102
}
330
47
100
AcDbScale
 70
     0
300
1" = 1'-0"
140
1.0
141
12.0
290
     0
  0
SCALE
  5
65
102
{ACAD_REACTORS
330
47
102
}
330
47
100
AcDbScale
 70
     0
300
1-1/2" = 1'-0"
140
1.5
141
12.0
290
     0
  0
SCALE
  5
66
102
{ACAD_REACTORS
330
47
102
}
330
47
100
AcDbScale
 70
     0
300
3" = 1'-0"
140
3.0
141
12.0
290
     0
  0
SCALE
  5
67
102
{ACAD_REACTORS
330
47
102
}
330
47
100
AcDbScale
 70
     0
300
6" = 1'-0"
140
6.0
141
12.0
290
     0
  0
SCALE
  5
68
102
{ACAD_REACTORS
330
47
102
}
330
47
100
AcDbScale
 70
     0
300
1'-0" = 1'-0"
140
12.0
141
12.0
290
     0
  0
ENDSEC
  0
EOF
