  0
SECTION
  2
HEADER
  9
$ACADVER
  1
AC1015
  9
$ACADMAINTVER
 70
     6
  9
$DWGCODEPAGE
  3
ANSI_1250
  9
$INSBASE
 10
0.0
 20
0.0
 30
0.0
  9
$EXTMIN
 10
0.0
 20
0.0
 30
0.0
  9
$EXTMAX
 10
0.4318
 20
0.2794
 30
0.0
  9
$LIMMIN
 10
0.0
 20
0.0
  9
$LIMMAX
 10
0.4318
 20
0.2794
  9
$ORTHOMODE
 70
     0
  9
$REGENMODE
 70
     1
  9
$FILLMODE
 70
     1
  9
$QTEXTMODE
 70
     0
  9
$MIRRTEXT
 70
     1
  9
$LTSCALE
 40
1.0
  9
$ATTMODE
 70
     1
  9
$TEXTSIZE
 40
0.0035
  9
$TRACEWID
 40
1.0
  9
$TEXTSTYLE
  7
Standard
  9
$CLAYER
  8
0
  9
$CELTYPE
  6
ByLayer
  9
$CECOLOR
 62
   256
  9
$CELTSCALE
 40
1.0
  9
$DISPSILH
 70
     0
  9
$DIMSCALE
 40
1.0
  9
$DIMASZ
 40
0.003302
  9
$DIMEXO
 40
0.001
  9
$DIMDLI
 40
3.75
  9
$DIMRND
 40
0.0
  9
$DIMDLE
 40
0.0
  9
$DIMEXE
 40
0.001
  9
$DIMTP
 40
0.0
  9
$DIMTM
 40
0.0
  9
$DIMTXT
 40
0.0035
  9
$DIMCEN
 40
2.5
  9
$DIMTSZ
 40
0.0
  9
$DIMTOL
 70
     0
  9
$DIMLIM
 70
     0
  9
$DIMTIH
 70
     1
  9
$DIMTOH
 70
     1
  9
$DIMSE1
 70
     0
  9
$DIMSE2
 70
     0
  9
$DIMTAD
 70
     1
  9
$DIMZIN
 70
     0
  9
$DIMBLK
  1

  9
$DIMASO
 70
     1
  9
$DIMSHO
 70
     1
  9
$DIMPOST
  1

  9
$DIMAPOST
  1

  9
$DIMALT
 70
     0
  9
$DIMALTD
 70
     3
  9
$DIMALTF
 40
39.3700787402
  9
$DIMLFAC
 40
1.0
  9
$DIMTOFL
 70
     1
  9
$DIMTVP
 40
0.0
  9
$DIMTIX
 70
     0
  9
$DIMSOXD
 70
     0
  9
$DIMSAH
 70
     0
  9
$DIMBLK1
  1

  9
$DIMBLK2
  1

  9
$DIMSTYLE
  2
ISO-25
  9
$DIMCLRD
 70
     0
  9
$DIMCLRE
 70
     0
  9
$DIMCLRT
 70
     0
  9
$DIMTFAC
 40
1.0
  9
$DIMGAP
 40
0.001524
  9
$DIMJUST
 70
     0
  9
$DIMSD1
 70
     0
  9
$DIMSD2
 70
     0
  9
$DIMTOLJ
 70
     0
  9
$DIMTZIN
 70
     0
  9
$DIMALTZ
 70
     0
  9
$DIMALTTZ
 70
     0
  9
$DIMUPT
 70
     0
  9
$DIMDEC
 70
     2
  9
$DIMTDEC
 70
     2
  9
$DIMALTU
 70
     2
  9
$DIMALTTD
 70
     3
  9
$DIMTXSTY
  7
Standard
  9
$DIMAUNIT
 70
     0
  9
$DIMADEC
 70
     2
  9
$DIMALTRND
 40
0.0
  9
$DIMAZIN
 70
     0
  9
$DIMDSEP
 70
    44
  9
$DIMATFIT
 70
     3
  9
$DIMFRAC
 70
     0
  9
$DIMLDRBLK
  1

  9
$DIMLUNIT
 70
     2
  9
$DIMLWD
 70
    -2
  9
$DIMLWE
 70
    -2
  9
$DIMTMOVE
 70
     0
  9
$LUNITS
 70
     2
  9
$LUPREC
 70
     2
  9
$SKETCHINC
 40
1.0
  9
$FILLETRAD
 40
10.0
  9
$AUNITS
 70
     0
  9
$AUPREC
 70
     2
  9
$MENU
  1
.
  9
$ELEVATION
 40
0.0
  9
$PELEVATION
 40
0.0
  9
$THICKNESS
 40
0.0
  9
$LIMCHECK
 70
     0
  9
$CHAMFERA
 40
0.0
  9
$CHAMFERB
 40
0.0
  9
$CHAMFERC
 40
0.0
  9
$CHAMFERD
 40
0.0
  9
$SKPOLY
 70
     0
  9
$TDCREATE
 40
2458715.599133021
  9
$TDUCREATE
 40
2458715.515799688
  9
$TDUPDATE
 40
2458715.59913338
  9
$TDUUPDATE
 40
2458715.515800046
  9
$TDINDWG
 40
0.0000000116
  9
$TDUSRTIMER
 40
0.0000000116
  9
$USRTIMER
 70
     1
  9
$ANGBASE
 50
0.0
  9
$ANGDIR
 70
     0
  9
$PDMODE
 70
     0
  9
$PDSIZE
 40
-1.0
  9
$PLINEWID
 40
0.0
  9
$SPLFRAME
 70
     0
  9
$SPLINETYPE
 70
     6
  9
$SPLINESEGS
 70
     8
  9
$HANDSEED
  5
129
  9
$SURFTAB1
 70
     6
  9
$SURFTAB2
 70
     6
  9
$SURFTYPE
 70
     6
  9
$SURFU
 70
     6
  9
$SURFV
 70
     6
  9
$UCSBASE
  2

  9
$UCSNAME
  2

  9
$UCSORG
 10
0.0
 20
0.0
 30
0.0
  9
$UCSXDIR
 10
1.0
 20
0.0
 30
0.0
  9
$UCSYDIR
 10
0.0
 20
1.0
 30
0.0
  9
$UCSORTHOREF
  2

  9
$UCSORTHOVIEW
 70
     0
  9
$UCSORGTOP
 10
0.0
 20
0.0
 30
0.0
  9
$UCSORGBOTTOM
 10
0.0
 20
0.0
 30
0.0
  9
$UCSORGLEFT
 10
0.0
 20
0.0
 30
0.0
  9
$UCSORGRIGHT
 10
0.0
 20
0.0
 30
0.0
  9
$UCSORGFRONT
 10
0.0
 20
0.0
 30
0.0
  9
$UCSORGBACK
 10
0.0
 20
0.0
 30
0.0
  9
$PUCSBASE
  2

  9
$PUCSNAME
  2

  9
$PUCSORG
 10
0.0
 20
0.0
 30
0.0
  9
$PUCSXDIR
 10
1.0
 20
0.0
 30
0.0
  9
$PUCSYDIR
 10
0.0
 20
1.0
 30
0.0
  9
$PUCSORTHOREF
  2

  9
$PUCSORTHOVIEW
 70
     0
  9
$PUCSORGTOP
 10
0.0
 20
0.0
 30
0.0
  9
$PUCSORGBOTTOM
 10
0.0
 20
0.0
 30
0.0
  9
$PUCSORGLEFT
 10
0.0
 20
0.0
 30
0.0
  9
$PUCSORGRIGHT
 10
0.0
 20
0.0
 30
0.0
  9
$PUCSORGFRONT
 10
0.0
 20
0.0
 30
0.0
  9
$PUCSORGBACK
 10
0.0
 20
0.0
 30
0.0
  9
$USERI1
 70
     0
  9
$USERI2
 70
     0
  9
$USERI3
 70
     0
  9
$USERI4
 70
     0
  9
$USERI5
 70
     0
  9
$USERR1
 40
0.0
  9
$USERR2
 40
0.0
  9
$USERR3
 40
0.0
  9
$USERR4
 40
0.0
  9
$USERR5
 40
0.0
  9
$WORLDVIEW
 70
     1
  9
$SHADEDGE
 70
     3
  9
$SHADEDIF
 70
    70
  9
$TILEMODE
 70
     1
  9
$MAXACTVP
 70
    64
  9
$PINSBASE
 10
0.0
 20
0.0
 30
0.0
  9
$PLIMCHECK
 70
     0
  9
$PEXTMIN
 10
1.0000000000E+20
 20
1.0000000000E+20
 30
1.0000000000E+20
  9
$PEXTMAX
 10
-1.0000000000E+20
 20
-1.0000000000E+20
 30
-1.0000000000E+20
  9
$PLIMMIN
 10
0.0
 20
0.0
  9
$PLIMMAX
 10
420.0
 20
297.0
  9
$UNITMODE
 70
     0
  9
$VISRETAIN
 70
     1
  9
$PLINEGEN
 70
     0
  9
$PSLTSCALE
 70
     1
  9
$TREEDEPTH
 70
  3020
  9
$CMLSTYLE
  2
Standard
  9
$CMLJUST
 70
     0
  9
$CMLSCALE
 40
20.0
  9
$PROXYGRAPHICS
 70
     1
  9
$MEASUREMENT
 70
     1
  9
$CELWEIGHT
370
    -1
  9
$ENDCAPS
280
     0
  9
$JOINSTYLE
280
     0
  9
$LWDISPLAY
290
     1
  9
$INSUNITS
 70
     4
  9
$HYPERLINKBASE
  1

  9
$STYLESHEET
  1

  9
$XEDIT
290
     1
  9
$CEPSNTYPE
380
     0
  9
$PSTYLEMODE
290
     1
  9
$FINGERPRINTGUID
  2
{B4831148-16E6-46A1-974B-36381E94153B}
  9
$VERSIONGUID
  2
{FAEB1C32-E019-11D5-929B-00C0DF256EC4}
  9
$EXTNAMES
290
     1
  9
$PSVPSCALE
 40
0.0
  9
$OLESTARTUP
290
     0
  0
ENDSEC
  0
SECTION
  2
CLASSES
  0
CLASS
  1
ACDBDICTIONARYWDFLT
  2
AcDbDictionaryWithDefault
  3
ObjectDBX Classes
 90
        0
280
     0
281
     0
  0
CLASS
  1
VISUALSTYLE
  2
AcDbVisualStyle
  3
ObjectDBX Classes
 90
     4095
280
     0
281
     0
  0
CLASS
  1
MATERIAL
  2
AcDbMaterial
  3
ObjectDBX Classes
 90
     1153
280
     0
281
     0
  0
CLASS
  1
SCALE
  2
AcDbScale
  3
ObjectDBX Classes
 90
     1153
280
     0
281
     0
  0
CLASS
  1
TABLESTYLE
  2
AcDbTableStyle
  3
ObjectDBX Classes
 90
     4095
280
     0
281
     0
  0
CLASS
  1
MLEADERSTYLE
  2
AcDbMLeaderStyle
  3
ACDB_MLEADERSTYLE_CLASS
 90
     4095
280
     0
281
     0
  0
CLASS
  1
SUN
  2
AcDbSun
  3
SCENEOE
 90
     1153
280
     0
281
     0
  0
CLASS
  1
ACDBPLACEHOLDER
  2
AcDbPlaceHolder
  3
ObjectDBX Classes
 90
        0
280
     0
281
     0
  0
CLASS
  1
LAYOUT
  2
AcDbLayout
  3
ObjectDBX Classes
 90
        0
280
     0
281
     0
  0
ENDSEC
  0
SECTION
  2
TABLES
  0
TABLE
  2
VPORT
  5
8
330
0
100
AcDbSymbolTable
 70
     1
  0
VPORT
  5
29
330
8
100
AcDbSymbolTableRecord
100
AcDbViewportTableRecord
  2
*Active
 70
     0
 10
0.0
 20
0.0
 11
1.0
 21
1.0
 12
0.2159
 22
0.1397
 13
0.0
 23
0.0
 14
10.0
 24
10.0
 15
10.0
 25
10.0
 16
0.0
 26
0.0
 36
1.0
 17
0.0
 27
0.0
 37
0.0
 40
0.2794
 41
1.5454545455
 42
50.0
 43
0.0
 44
0.0
 50
0.0
 51
0.0
 71
     0
 72
  2000
 73
     1
 74
     3
 75
     0
 76
     0
 77
     0
 78
     0
281
     0
 65
     1
110
0.0
120
0.0
130
0.0
111
1.0
121
0.0
131
0.0
112
0.0
122
1.0
132
0.0
 79
     0
146
0.0
  0
ENDTAB
  0
TABLE
  2
LTYPE
  5
5
330
0
100
AcDbSymbolTable
 70
     6
  0
LTYPE
  5
14
330
5
100
AcDbSymbolTableRecord
100
AcDbLinetypeTableRecord
  2
ByBlock
 70
     0
  3

 72
    65
 73
     0
 40
0.0
  0
LTYPE
  5
15
330
5
100
AcDbSymbolTableRecord
100
AcDbLinetypeTableRecord
  2
ByLayer
 70
     0
  3

 72
    65
 73
     0
 40
0.0
  0
LTYPE
  5
16
330
5
100
AcDbSymbolTableRecord
100
AcDbLinetypeTableRecord
  2
Continuous
 70
     0
  3
Solid line
 72
    65
 73
     0
 40
0.0
  0
LTYPE
  5
6E
330
5
100
AcDbSymbolTableRecord
100
AcDbLinetypeTableRecord
  2
HIDDEN
 70
     0
  3
Hidden __ __ __ __ __ __ __ __ __ __ __ __ __ __
 72
    65
 73
     2
 40
0.001905
 49
0.00127
 74
     0
 49
-0.000635
 74
     0
  0
LTYPE
  5
6F
330
5
100
AcDbSymbolTableRecord
100
AcDbLinetypeTableRecord
  2
PHANTOM
 70
     0
  3
Phantom ______  __  __  ______  __  __  ______
 72
    65
 73
     6
 40
0.0127
 49
0.00635
 74
     0
 49
-0.00127
 74
     0
 49
0.00127
 74
     0
 49
-0.00127
 74
     0
 49
0.00127
 74
     0
 49
-0.00127
 74
     0
  0
LTYPE
  5
70
330
5
100
AcDbSymbolTableRecord
100
AcDbLinetypeTableRecord
  2
CENTER
 70
     0
  3
Center ____ _ ____ _ ____ _ ____ _ ____ _ ____
 72
    65
 73
     4
 40
0.01016
 49
0.00635
 74
     0
 49
-0.00127
 74
     0
 49
0.00127
 74
     0
 49
-0.00127
 74
     0
  0
LTYPE
  5
71
330
5
100
AcDbSymbolTableRecord
100
AcDbLinetypeTableRecord
  2
CENTERX2
 70
     0
  3
Center (2x) ________  __  ________  __  _____
 72
    65
 73
     4
 40
0.02032
 49
0.0127
 74
     0
 49
-0.00254
 74
     0
 49
0.00254
 74
     0
 49
-0.00254
 74
     0
  0
LTYPE
  5
72
330
5
100
AcDbSymbolTableRecord
100
AcDbLinetypeTableRecord
  2
DOT2
 70
     0
  3
Dot (.5x) ........................................
 72
    65
 73
     2
 40
0.000635
 49
0.0
 74
     0
 49
-0.000635
 74
     0
  0
ENDTAB
  0
TABLE
  2
LAYER
  5
2
330
0
100
AcDbSymbolTable
 70
     1
  0
LAYER
  5
10
330
2
100
AcDbSymbolTableRecord
100
AcDbLayerTableRecord
  2
0
 70
     0
 62
     7
  6
Continuous
370
    -3
390
F
  0
ENDTAB
  0
TABLE
  2
STYLE
  5
3
330
0
100
AcDbSymbolTable
 70
     1
  0
STYLE
  5
11
330
3
100
AcDbSymbolTableRecord
100
AcDbTextStyleTableRecord
  2
Standard
 70
     0
 40
0.0
 41
1.0
 50
0.0
 71
     0
 42
0.0035
  3
txt
  4

  0
ENDTAB
  0
TABLE
  2
VIEW
  5
6
330
0
100
AcDbSymbolTable
 70
     0
  0
ENDTAB
  0
TABLE
  2
UCS
  5
7
330
0
100
AcDbSymbolTable
 70
     0
  0
ENDTAB
  0
TABLE
  2
APPID
  5
9
330
0
100
AcDbSymbolTable
 70
     1
  0
APPID
  5
12
330
9
100
AcDbSymbolTableRecord
100
AcDbRegAppTableRecord
  2
ACAD
 70
     0
  0
ENDTAB
  0
TABLE
  2
DIMSTYLE
  5
A
330
0
100
AcDbSymbolTable
 70
     1
100
AcDbDimStyleTable
  0
DIMSTYLE
105
27
330
A
100
AcDbSymbolTableRecord
100
AcDbDimStyleTableRecord
  2
ISO-25
 70
     0
 41
2.5
 42
0.625
 43
3.75
 44
1.25
 73
     0
 74
     0
 77
     1
 78
     8
140
2.5
141
2.5
143
0.0393700787
147
0.625
171
     3
172
     1
178
     0
271
     2
272
     2
274
     3
278
    44
283
     0
284
     8
340
11
  0
ENDTAB
  0
TABLE
  2
BLOCK_RECORD
  5
1
330
0
100
AcDbSymbolTable
 70
     1
  0
BLOCK_RECORD
  5
1F
330
1
100
AcDbSymbolTableRecord
100
AcDbBlockTableRecord
  2
*Model_Space
340
22
  0
BLOCK_RECORD
  5
1B
330
1
100
AcDbSymbolTableRecord
100
AcDbBlockTableRecord
  2
*Paper_Space
340
1E
  0
BLOCK_RECORD
  5
23
330
1
100
AcDbSymbolTableRecord
100
AcDbBlockTableRecord
  2
*Paper_Space0
340
26
  0
ENDTAB
  0
ENDSEC
  0
SECTION
  2
BLOCKS
  0
BLOCK
  5
20
330
1F
100
AcDbEntity
  8
0
100
AcDbBlockBegin
  2
*Model_Space
 70
     0
 10
0.0
 20
0.0
 30
0.0
  3
*Model_Space
  1

  0
ENDBLK
  5
21
330
1F
100
AcDbEntity
  8
0
100
AcDbBlockEnd
  0
BLOCK
  5
1C
330
1B
100
AcDbEntity
 67
     1
  8
0
100
AcDbBlockBegin
  2
*Paper_Space
 70
     0
 10
0.0
 20
0.0
 30
0.0
  3
*Paper_Space
  1

  0
ENDBLK
  5
1D
330
1B
100
AcDbEntity
 67
     1
  8
0
100
AcDbBlockEnd
  0
BLOCK
  5
24
330
23
100
AcDbEntity
  8
0
100
AcDbBlockBegin
  2
*Paper_Space0
 70
     0
 10
0.0
 20
0.0
 30
0.0
  3
*Paper_Space0
  1

  0
ENDBLK
  5
25
330
23
100
AcDbEntity
  8
0
100
AcDbBlockEnd
  0
ENDSEC
  0
SECTION
  2
ENTITIES
  0
LINE
  5
73
330
1F
100
AcDbEntity
  8
0
  6
Continuous
 62
     7
370
    25
100
AcDbLine
 10
0.2231350807
 20
0.1351017067
 30
0.0
 11
0.2231350807
 21
0.1450828621
 31
0.0
  0
LINE
  5
74
330
1F
100
AcDbEntity
  8
0
  6
Continuous
 62
     7
370
    25
100
AcDbLine
 10
0.2231350807
 20
0.2450828859
 30
0.0
 11
0.2231350807
 21
0.2551017115
 31
0.0
  0
LINE
  5
75
330
1F
100
AcDbEntity
  8
0
  6
Continuous
 62
     7
370
    25
100
AcDbLine
 10
0.1891430174
 20
0.2551017115
 30
0.0
 11
0.1891430174
 21
0.2450828859
 31
0.0
  0
LINE
  5
76
330
1F
100
AcDbEntity
  8
0
  6
Continuous
 62
     7
370
    25
100
AcDbLine
 10
0.1891430174
 20
0.1450828621
 30
0.0
 11
0.1891430174
 21
0.1351017067
 31
0.0
  0
ARC
  5
77
330
1F
100
AcDbEntity
  8
0
  6
Continuous
 62
     7
370
    25
100
AcDbCircle
 10
-0.9309117497
 20
0.1039180816
 30
0.0
 40
0.0134500000000002
100
AcDbArc
 50
180.0
 51
0.0
  0
LINE
  5
78
330
1F
100
AcDbEntity
  8
0
  6
Continuous
 62
     7
370
    25
100
AcDbLine
 10
-0.9174616928
 20
0.1039181063
 30
0.0
 11
-0.9174616928
 21
0.1500158617
 31
0.0
  0
LINE
  5
79
330
1F
100
AcDbEntity
  8
0
  6
Continuous
 62
     7
370
    25
100
AcDbLine
 10
-0.9443617458
 20
0.1500158617
 30
0.0
 11
-0.9443617458
 21
0.1039181063
 31
0.0
  0
ARC
  5
7A
330
1F
100
AcDbEntity
  8
0
  6
Continuous
 62
     7
370
    25
100
AcDbCircle
 10
1.4301555814
 20
0.1069396628
 30
0.0
 40
0.0134500000000002
100
AcDbArc
 50
180.0
 51
0.0
  0
LINE
  5
7B
330
1F
100
AcDbEntity
  8
0
  6
Continuous
 62
     7
370
    25
100
AcDbLine
 10
1.4436056023
 20
0.1069397041
 30
0.0
 11
1.4436056023
 21
0.1530373404
 31
0.0
  0
LINE
  5
7C
330
1F
100
AcDbEntity
  8
0
  6
Continuous
 62
     7
370
    25
100
AcDbLine
 10
1.4167055492
 20
0.1530373404
 30
0.0
 11
1.4167055492
 21
0.1069397041
 31
0.0
  0
LINE
  5
7D
330
1F
100
AcDbEntity
  8
0
  6
Continuous
 62
     7
370
    25
100
AcDbLine
 10
1.4167055492
 20
0.2385609457
 30
0.0
 11
1.4167055492
 21
0.1530373404
 31
0.0
  0
LINE
  5
7E
330
1F
100
AcDbEntity
  8
0
  6
Continuous
 62
     7
370
    25
100
AcDbLine
 10
1.4436056023
 20
0.1530373404
 30
0.0
 11
1.4436056023
 21
0.2385609457
 31
0.0
  0
LINE
  5
7F
330
1F
100
AcDbEntity
  8
0
  6
Continuous
 62
     7
370
    25
100
AcDbLine
 10
-0.9443617458
 20
0.2355393478
 30
0.0
 11
-0.9443617458
 21
0.1500158617
 31
0.0
  0
LINE
  5
80
330
1F
100
AcDbEntity
  8
0
  6
Continuous
 62
     7
370
    25
100
AcDbLine
 10
-0.9174616928
 20
0.1500158617
 30
0.0
 11
-0.9174616928
 21
0.2355393478
 31
0.0
  0
ARC
  5
81
330
1F
100
AcDbEntity
  8
0
  6
Continuous
 62
     7
370
    25
100
AcDbCircle
 10
1.4301555814
 20
0.2846586127
 30
0.0
 40
0.01345
100
AcDbArc
 50
0.0
 51
180.0
  0
LINE
  5
82
330
1F
100
AcDbEntity
  8
0
  6
Continuous
 62
     7
370
    25
100
AcDbLine
 10
1.4436056023
 20
0.2385609457
 30
0.0
 11
1.4436056023
 21
0.2846585819
 31
0.0
  0
LINE
  5
83
330
1F
100
AcDbEntity
  8
0
  6
Continuous
 62
     7
370
    25
100
AcDbLine
 10
1.4167055492
 20
0.2846585819
 30
0.0
 11
1.4167055492
 21
0.2385609457
 31
0.0
  0
ARC
  5
84
330
1F
100
AcDbEntity
  8
0
  6
Continuous
 62
     7
370
    25
100
AcDbCircle
 10
-0.9309117497
 20
0.2816370315
 30
0.0
 40
0.01345
100
AcDbArc
 50
0.0
 51
180.0
  0
LINE
  5
85
330
1F
100
AcDbEntity
  8
0
  6
Continuous
 62
     7
370
    25
100
AcDbLine
 10
-0.9174616928
 20
0.2355393478
 30
0.0
 11
-0.9174616928
 21
0.2816369841
 31
0.0
  0
LINE
  5
86
330
1F
100
AcDbEntity
  8
0
  6
Continuous
 62
     7
370
    25
100
AcDbLine
 10
-0.9443617458
 20
0.2816369841
 30
0.0
 11
-0.9443617458
 21
0.2355393478
 31
0.0
  0
SPLINE
  5
87
330
1F
100
AcDbEntity
  8
0
  6
Continuous
 62
     7
370
    25
100
AcDbSpline
210
0.0
220
0.0
230
1.0
 70
     8
 71
     3
 72
    26
 73
    22
 74
     0
 42
0.000000001
 43
0.00000001
 40
0.0
 40
0.0
 40
0.0
 40
0.0
 40
0.0677847073977395
 40
0.1355584236827541
 40
0.2035920166561525
 40
0.2718262985723742
 40
0.3398443175490166
 40
0.4078820220319855
 40
0.4761368391621626
 40
0.5441744433629404
 40
0.573296291829396
 40
0.6024969116741029
 40
0.6315289968202168
 40
0.6604200944825644
 40
0.6943664964358467
 40
0.728465527162211
 40
0.7625290628809637
 40
0.8217492479546323
 40
0.8812143117928364
 40
0.9407213492092504
 40
1.0
 40
1.0
 40
1.0
 40
1.0
 10
1.70823127078489
 20
0.0730828353843289
 30
0.0
 10
1.70463426267364
 20
0.0731848537857307
 30
0.0
 10
1.697440829696581
 20
0.0733888740465179
 30
0.0
 10
1.686742920439444
 20
0.0750640750701721
 30
0.0
 10
1.676258567204502
 20
0.0778203544035676
 30
0.0
 10
1.666123706501416
 20
0.0817188623353547
 30
0.0
 10
1.656475298499585
 20
0.0867008215213248
 30
0.0
 10
1.647461072844211
 20
0.0927605911620053
 30
0.0
 10
1.639181080460095
 20
0.099784830629017
 30
0.0
 10
1.633126948332268
 20
0.1061674405537237
 30
0.0
 10
1.628969380777053
 20
0.1114263011955244
 30
0.0
 10
1.626124686586785
 20
0.1150834525919802
 30
0.0
 10
1.623100243453954
 20
0.1185848973090966
 30
0.0
 10
1.619482715462999
 20
0.1218755529550886
 30
0.0
 10
1.615161965985836
 20
0.1246969731049905
 30
0.0
 10
1.61032951876569
 20
0.1271582583903475
 30
0.0
 10
1.604061059405544
 20
0.12969490582132
 30
0.0
 10
1.596322409351361
 20
0.1321406989151812
 30
0.0
 10
1.587071512993751
 20
0.134128808062848
 30
0.0
 10
1.577679195550542
 20
0.1353570236555451
 30
0.0
 10
1.571376549257127
 20
0.1355076613506601
 30
0.0
 10
1.568231285090005
 20
0.1355828353843289
 30
0.0
  0
LINE
  5
88
330
1F
100
AcDbEntity
  8
0
  6
Continuous
 62
     7
370
    25
100
AcDbLine
 10
1.7082312708
 20
0.0700828144
 30
0.0
 11
1.7082312708
 21
0.0730828354
 31
0.0
  0
LINE
  5
89
330
1F
100
AcDbEntity
  8
0
  6
Continuous
 62
     7
370
    25
100
AcDbLine
 10
1.5682312851
 20
0.1325828144
 30
0.0
 11
1.5682312851
 21
0.1355828354
 31
0.0
  0
SPLINE
  5
8A
330
1F
100
AcDbEntity
  8
0
  6
Continuous
 62
     7
370
    25
100
AcDbSpline
210
0.0
220
0.0
230
1.0
 70
     8
 71
     3
 72
    26
 73
    22
 74
     0
 42
0.000000001
 43
0.00000001
 40
0.0
 40
0.0
 40
0.0
 40
0.0
 40
0.057604841481874
 40
0.1154314647864089
 40
0.1732155890910948
 40
0.2307631078492633
 40
0.2629352126425982
 40
0.2951382010574842
 40
0.3271934135693439
 40
0.3550764678056275
 40
0.3831015223698702
 40
0.4112945803074246
 40
0.4394085461734529
 40
0.5095612502600261
 40
0.5799379641998574
 40
0.6500910453785403
 40
0.7201827630916952
 40
0.7904964326753399
 40
0.8606039824580501
 40
0.9240318146997322
 40
1.0
 40
1.0
 40
1.0
 40
1.0
 10
1.568231285090005
 20
0.1325828144034938
 30
0.0
 10
1.571287780027893
 20
0.1325099887241745
 30
0.0
 10
1.577412537578068
 20
0.1323640569826463
 30
0.0
 10
1.586539939255136
 20
0.1311730163329763
 30
0.0
 10
1.595530216157766
 20
0.1292435062012045
 30
0.0
 10
1.603003232163179
 20
0.1268815217105188
 30
0.0
 10
1.609005542294638
 20
0.1244604078953167
 30
0.0
 10
1.613574466503709
 20
0.1221462374139022
 30
0.0
 10
1.617685004978831
 20
0.1194688467708578
 30
0.0
 10
1.621142331050654
 20
0.1163096890748903
 30
0.0
 10
1.624047582346227
 20
0.1129172913661698
 30
0.0
 10
1.626777779845551
 20
0.1093741912174256
 30
0.0
 10
1.630933694087545
 20
0.1041069860407047
 30
0.0
 10
1.63711397332836
 20
0.0976061497999694
 30
0.0
 10
1.645648836010656
 20
0.0903612343708371
 30
0.0
 10
1.654942438163659
 20
0.0841149158665955
 30
0.0
 10
1.664886605471087
 20
0.0789794852553299
 30
0.0
 10
1.675330186252362
 20
0.0749610579806546
 30
0.0
 10
1.685805193269607
 20
0.0722081974312314
 30
0.0
 10
1.696800940276934
 20
0.0704291313531116
 30
0.0
 10
1.704199303286987
 20
0.0702049752354892
 30
0.0
 10
1.70823127078489
 20
0.070082814403494
 30
0.0
  0
LINE
  5
8B
330
1F
100
AcDbEntity
  8
0
  6
Continuous
 62
     7
370
    25
100
AcDbLine
 10
1.7082312708
 20
0.3170829126
 30
0.0
 11
1.7082312708
 21
0.3200828144
 31
0.0
  0
SPLINE
  5
8C
330
1F
100
AcDbEntity
  8
0
  6
Continuous
 62
     7
370
    25
100
AcDbSpline
210
0.0
220
0.0
230
1.0
 70
     8
 71
     3
 72
    27
 73
    23
 74
     0
 42
0.000000001
 43
0.00000001
 40
0.0
 40
0.0
 40
0.0
 40
0.0
 40
0.0572854548571739
 40
0.1146720288754221
 40
0.171967677132771
 40
0.2195191399001817
 40
0.2671232720707997
 40
0.31450545715126
 40
0.3493682696510713
 40
0.3845032121827419
 40
0.4199687348889747
 40
0.4552850184513338
 40
0.5059170410026929
 40
0.5565490000643601
 40
0.6114284657680461
 40
0.6665343337423306
 40
0.7216431495294605
 40
0.7765282113217973
 40
0.8322771450206397
 40
0.8882366876350543
 40
0.944219934573878
 40
1.0
 40
1.0
 40
1.0
 40
1.0
 10
1.568231285090005
 20
0.2545829126319485
 30
0.0
 10
1.571270117279682
 20
0.2546580832141803
 30
0.0
 10
1.577353145746001
 20
0.2548085570682805
 30
0.0
 10
1.586412711678694
 20
0.2559885876837351
 30
0.0
 10
1.594842258382228
 20
0.2577396862048504
 30
0.0
 10
1.602630490026293
 20
0.2599446126812976
 30
0.0
 10
1.609696415091938
 20
0.2626512855119454
 30
0.0
 10
1.615868607526103
 20
0.2657705162810948
 30
0.0
 10
1.620855623045125
 20
0.2695476519451792
 30
0.0
 10
1.624724553180436
 20
0.2736060965994707
 30
0.0
 10
1.628297337436326
 20
0.2779402775461768
 30
0.0
 10
1.632309142167649
 20
0.2829778350038057
 30
0.0
 10
1.637197035477097
 20
0.2883358590015965
 30
0.0
 10
1.643279388463721
 20
0.2939692689979514
 30
0.0
 10
1.650025252199753
 20
0.2991902276314919
 30
0.0
 10
1.657415697940964
 20
0.3039065989850127
 30
0.0
 10
1.665195010827829
 20
0.3079499695472525
 30
0.0
 10
1.67333657252083
 20
0.3112947122631906
 30
0.0
 10
1.681796292300766
 20
0.3138880002217201
 30
0.0
 10
1.690506773618808
 20
0.3157240914390729
 30
0.0
 10
1.699343371377744
 20
0.3168699352536568
 30
0.0
 10
1.705272230463705
 20
0.3170120062657762
 30
0.0
 10
1.70823127078489
 20
0.3170829126319485
 30
0.0
  0
LINE
  5
8D
330
1F
100
AcDbEntity
  8
0
  6
Continuous
 62
     7
370
    25
100
AcDbLine
 10
1.5682312851
 20
0.2545829126
 30
0.0
 11
1.5682312851
 21
0.2575828144
 31
0.0
  0
SPLINE
  5
8E
330
1F
100
AcDbEntity
  8
0
  6
Continuous
 62
     7
370
    25
100
AcDbSpline
210
0.0
220
0.0
230
1.0
 70
     8
 71
     3
 72
    28
 73
    24
 74
     0
 42
0.000000001
 43
0.00000001
 40
0.0
 40
0.0
 40
0.0
 40
0.0
 40
0.0573947936794257
 40
0.1149988628942206
 40
0.172580292836435
 40
0.2299445053827149
 40
0.2865256187542992
 40
0.3433383912780991
 40
0.4001474614318372
 40
0.4567246208759245
 40
0.5089298366543723
 40
0.5611345027257226
 40
0.5949619162483669
 40
0.6289376656063056
 40
0.662582438658555
 40
0.6959561686514232
 40
0.7413929301545426
 40
0.7870472501092771
 40
0.8326537813446382
 40
0.8724927447780791
 40
0.9123330283142203
 40
0.9561689690402893
 40
1.0
 40
1.0
 40
1.0
 40
1.0
 10
1.70823127078489
 20
0.320082814403494
 30
0.0
 10
1.705186450335309
 20
0.3200097852023809
 30
0.0
 10
1.699085707271843
 20
0.3198634605177235
 30
0.0
 10
1.689993025106452
 20
0.3186827928152802
 30
0.0
 10
1.681030121952438
 20
0.3167922550533542
 30
0.0
 10
1.672319849756356
 20
0.31412123740522
 30
0.0
 10
1.663931556582979
 20
0.3106752970985041
 30
0.0
 10
1.655911520428527
 20
0.3065066337758795
 30
0.0
 10
1.64829259531427
 20
0.3016438504475611
 30
0.0
 10
1.641337066916293
 20
0.296261351486689
 30
0.0
 10
1.635067829600516
 20
0.2904513304365874
 30
0.0
 10
1.630113573658911
 20
0.2850337257730586
 30
0.0
 10
1.626156145912333
 20
0.2800476912106518
 30
0.0
 10
1.622759174113868
 20
0.2758759534053579
 30
0.0
 10
1.619076871544538
 20
0.2719670318670653
 30
0.0
 10
1.614306192347127
 20
0.2683363293105745
 30
0.0
 10
1.608384363060516
 20
0.2653550645494076
 30
0.0
 10
1.601604230815333
 20
0.2627688267038513
 30
0.0
 10
1.594904895987954
 20
0.260879822153858
 30
0.0
 10
1.588412410027682
 20
0.2594512006229097
 30
0.0
 10
1.581939148681834
 20
0.2584298963734109
 30
0.0
 10
1.575206565151753
 20
0.2577249657629843
 30
0.0
 10
1.57055629163146
 20
0.2576301964208132
 30
0.0
 10
1.568231285090005
 20
0.257582814403494
 30
0.0
  0
ARC
  5
8F
330
1F
100
AcDbEntity
  8
0
  6
Continuous
 62
     7
370
    25
100
AcDbCircle
 10
1.5682313198
 20
0.1950828685
 30
0.0
 40
0.0595000000000001
100
AcDbArc
 50
90.0
 51
270.0
  0
ARC
  5
90
330
1F
100
AcDbEntity
  8
0
  6
Continuous
 62
     7
370
    25
100
AcDbCircle
 10
1.5682313198
 20
0.1950828685
 30
0.0
 40
0.0625
100
AcDbArc
 50
90.0
 51
270.0
  0
ARC
  5
91
330
1F
100
AcDbEntity
  8
0
  6
Continuous
 62
     7
370
    25
100
AcDbCircle
 10
1.7082313198
 20
0.1950828685
 30
0.0
 40
0.1220000000000001
100
AcDbArc
 50
270.0
 51
90.0
  0
CIRCLE
  5
92
330
1F
100
AcDbEntity
  8
0
  6
Continuous
 62
     7
370
    25
100
AcDbCircle
 10
1.6082313198
 20
0.1950828685
 30
0.0
 40
0.009125
  0
CIRCLE
  5
93
330
1F
100
AcDbEntity
  8
0
  6
Continuous
 62
     7
370
    25
100
AcDbCircle
 10
1.7082313198
 20
0.1950828685
 30
0.0
 40
0.009125
  0
ARC
  5
94
330
1F
100
AcDbEntity
  8
0
  6
Continuous
 62
     7
370
    25
100
AcDbCircle
 10
1.7082313198
 20
0.1950828685
 30
0.0
 40
0.125
100
AcDbArc
 50
270.0
 51
90.0
  0
LINE
  5
95
330
1F
100
AcDbEntity
  8
0
  6
Continuous
 62
     7
370
    25
100
AcDbLine
 10
1.5307312612
 20
0.1450828621
 30
0.0
 11
1.4436056023
 21
0.1450828621
 31
0.0
  0
LINE
  5
96
330
1F
100
AcDbEntity
  8
0
  6
Continuous
 62
     7
370
    25
100
AcDbLine
 10
1.4167055492
 20
0.1450828621
 30
0.0
 11
-0.8844195004
 21
0.1450828621
 31
0.0
  0
LINE
  5
97
330
1F
100
AcDbEntity
  8
0
  6
Continuous
 62
     7
370
    25
100
AcDbLine
 10
-0.9774040575
 20
0.1450828621
 30
0.0
 11
-1.0345707531
 21
0.1450828621
 31
0.0
  0
LINE
  5
98
330
1F
100
AcDbEntity
  8
0
  6
Continuous
 62
     7
370
    25
100
AcDbLine
 10
1.5307312612
 20
0.2450828859
 30
0.0
 11
1.4716314678
 21
0.2450828859
 31
0.0
  0
LINE
  5
99
330
1F
100
AcDbEntity
  8
0
  6
Continuous
 62
     7
370
    25
100
AcDbLine
 10
1.3886796837
 20
0.2450828859
 30
0.0
 11
-0.9174616928
 21
0.2450828859
 31
0.0
  0
LINE
  5
9A
330
1F
100
AcDbEntity
  8
0
  6
Continuous
 62
     7
370
    25
100
AcDbLine
 10
-0.9443617458
 20
0.2450828859
 30
0.0
 11
-1.031584322
 21
0.2450828859
 31
0.0
  0
LINE
  5
9B
330
1F
100
AcDbEntity
  8
0
  6
Continuous
 62
     7
370
    25
100
AcDbLine
 10
-1.2105310555
 20
0.0712013552
 30
0.0
 11
-1.2105310555
 21
0.0742013761
 31
0.0
  0
SPLINE
  5
9C
330
1F
100
AcDbEntity
  8
0
  6
Continuous
 62
     7
370
    25
100
AcDbSpline
210
0.0
220
0.0
230
1.0
 70
     8
 71
     3
 72
    26
 73
    22
 74
     0
 42
0.000000001
 43
0.00000001
 40
0.0
 40
0.0
 40
0.0
 40
0.0
 40
0.0677839635417994
 40
0.1355583119854165
 40
0.2035921007600219
 40
0.2718263870579681
 40
0.3398440660492004
 40
0.4078817749012703
 40
0.4761370807176344
 40
0.5441746892875068
 40
0.5732965396240476
 40
0.6024971613438979
 40
0.6315292483543327
 40
0.66041984628174
 40
0.6943662504149203
 40
0.7284652833309839
 40
0.7625288212371565
 40
0.8217492365081035
 40
0.881214304164909
 40
0.9407213454026198
 40
1.0
 40
1.0
 40
1.0
 40
1.0
 10
-1.210531055455649
 20
0.0742013761481839
 30
0.0
 10
-1.206934090343833
 20
0.0743034150425035
 30
0.0
 10
-1.199740670346673
 20
0.0745074783570104
 30
0.0
 10
-1.18904271069682
 20
0.0761824046188091
 30
0.0
 10
-1.178558369907089
 20
0.0789389368738132
 30
0.0
 10
-1.168423520900398
 20
0.0828374142645798
 30
0.0
 10
-1.158775056422481
 20
0.0878192288289019
 30
0.0
 10
-1.149760819621425
 20
0.0938790105430789
 30
0.0
 10
-1.141480904641094
 20
0.1009033775491655
 30
0.0
 10
-1.135426729706564
 20
0.1072859775953181
 30
0.0
 10
-1.131269167383892
 20
0.112544844111294
 30
0.0
 10
-1.128424465199827
 20
0.1162019866633268
 30
0.0
 10
-1.125400067641916
 20
0.1197034423228436
 30
0.0
 10
-1.12178245296289
 20
0.1229939618559659
 30
0.0
 10
-1.117461757419313
 20
0.1258154013501751
 30
0.0
 10
-1.112629302984957
 20
0.1282766823721296
 30
0.0
 10
-1.106360826874382
 20
0.1308133108786527
 30
0.0
 10
-1.098622218912538
 20
0.1332592791751613
 30
0.0
 10
-1.089371294151972
 20
0.1352473375910424
 30
0.0
 10
-1.079978981095762
 20
0.1364755672165636
 30
0.0
 10
-1.073676334219
 20
0.1366262030457071
 30
0.0
 10
-1.070531069760764
 20
0.1367013761481839
 30
0.0
  0
LINE
  5
9D
330
1F
100
AcDbEntity
  8
0
  6
Continuous
 62
     7
370
    25
100
AcDbLine
 10
-1.0705310698
 20
0.1337013552
 30
0.0
 11
-1.0705310698
 21
0.1367013761
 31
0.0
  0
SPLINE
  5
9E
330
1F
100
AcDbEntity
  8
0
  6
Continuous
 62
     7
370
    25
100
AcDbSpline
210
0.0
220
0.0
230
1.0
 70
     8
 71
     3
 72
    26
 73
    22
 74
     0
 42
0.000000001
 43
0.00000001
 40
0.0
 40
0.0
 40
0.0
 40
0.0
 40
0.057604838499572
 40
0.1154315527347792
 40
0.1732155152389073
 40
0.2307630310177415
 40
0.262935134145471
 40
0.2951381208931528
 40
0.3271933317454589
 40
0.3550763845381886
 40
0.3831014376515259
 40
0.4112950826569083
 40
0.4394090470674281
 40
0.509561202480614
 40
0.5799379127769213
 40
0.6500914078659605
 40
0.7201827775783163
 40
0.790496443521701
 40
0.8606039896748224
 40
0.9240318186327362
 40
1.0
 40
1.0
 40
1.0
 40
1.0
 10
-1.070531069760764
 20
0.133701355167349
 30
0.0
 10
-1.073587567112636
 20
0.133628546101523
 30
0.0
 10
-1.079712334483677
 20
0.1334826475322304
 30
0.0
 10
-1.088839696312526
 20
0.1322913561798625
 30
0.0
 10
-1.097830019578313
 20
0.1303620984503502
 30
0.0
 10
-1.105303015272924
 20
0.1280000548550859
 30
0.0
 10
-1.111305327392014
 20
0.1255789502810845
 30
0.0
 10
-1.115874250617502
 20
0.1232647773952345
 30
0.0
 10
-1.119984791341338
 20
0.1205873889434715
 30
0.0
 10
-1.123442110356972
 20
0.1174282256018653
 30
0.0
 10
-1.126347407610951
 20
0.114035824324638
 30
0.0
 10
-1.129077525935877
 20
0.1104926222540825
 30
0.0
 10
-1.133233468133935
 20
0.1052254352861701
 30
0.0
 10
-1.139413791327716
 20
0.0987246787788841
 30
0.0
 10
-1.147948658370185
 20
0.0914797962866052
 30
0.0
 10
-1.157242151329695
 20
0.0852332947251342
 30
0.0
 10
-1.167186429785223
 20
0.0800980609534241
 30
0.0
 10
-1.177629964874593
 20
0.0760795876154168
 30
0.0
 10
-1.188104979371633
 20
0.0733267408285705
 30
0.0
 10
-1.199100724524517
 20
0.0715476713383341
 30
0.0
 10
-1.206499087808473
 20
0.0713235157246872
 30
0.0
 10
-1.210531055455649
 20
0.071201355167349
 30
0.0
  0
SPLINE
  5
9F
330
1F
100
AcDbEntity
  8
0
  6
Continuous
 62
     7
370
    25
100
AcDbSpline
210
0.0
220
0.0
230
1.0
 70
     8
 71
     3
 72
    27
 73
    23
 74
     0
 42
0.000000001
 43
0.00000001
 40
0.0
 40
0.0
 40
0.0
 40
0.0
 40
0.0572854816071302
 40
0.1146719576380532
 40
0.1719677537371151
 40
0.2195192124781433
 40
0.2671233406179189
 40
0.3145051719956367
 40
0.3493679815434668
 40
0.3845029211001139
 40
0.4199684408033317
 40
0.4552847213753124
 40
0.5059172927425677
 40
0.5565487384490411
 40
0.6114286582540142
 40
0.666534521562253
 40
0.7216433326830873
 40
0.7765281053708363
 40
0.8322770343491818
 40
0.8882367281227557
 40
0.9442199703212422
 40
1.0
 40
1.0
 40
1.0
 40
1.0
 10
-1.070531069760764
 20
0.255701334186514
 30
0.0
 10
-1.073569899069286
 20
0.2557765719344689
 30
0.0
 10
-1.079652915148752
 20
0.2559271800746863
 30
0.0
 10
-1.088712524246094
 20
0.2571069167713458
 30
0.0
 10
-1.097142025238524
 20
0.258858273274275
 30
0.0
 10
-1.104930281717886
 20
0.2610631328666688
 30
0.0
 10
-1.111996163297012
 20
0.263769857752427
 30
0.0
 10
-1.118168420603352
 20
0.2668889232314986
 30
0.0
 10
-1.123155404247767
 20
0.2706660798448037
 30
0.0
 10
-1.127024339918105
 20
0.2747245153466242
 30
0.0
 10
-1.130597117317604
 20
0.279058703933631
 30
0.0
 10
-1.134608965255267
 20
0.2840962600039558
 30
0.0
 10
-1.139496730632695
 20
0.2894544110336903
 30
0.0
 10
-1.145579262217235
 20
0.2950876664552669
 30
0.0
 10
-1.152324985935439
 20
0.300308793588917
 30
0.0
 10
-1.159715494489875
 20
0.3050251207322157
 30
0.0
 10
-1.167494765079773
 20
0.3090685409569125
 30
0.0
 10
-1.175636385312423
 20
0.3124131103862415
 30
0.0
 10
-1.184096089353543
 20
0.3150063950885547
 30
0.0
 10
-1.192806542785351
 20
0.3168426611425299
 30
0.0
 10
-1.201643154988193
 20
0.317988498256828
 30
0.0
 10
-1.207572015331382
 20
0.3181304749258671
 30
0.0
 10
-1.210531055455649
 20
0.318201334186514
 30
0.0
  0
LINE
  5
A0
330
1F
100
AcDbEntity
  8
0
  6
Continuous
 62
     7
370
    25
100
AcDbLine
 10
-1.2105310555
 20
0.3182013342
 30
0.0
 11
-1.2105310555
 21
0.3212013552
 31
0.0
  0
LINE
  5
A1
330
1F
100
AcDbEntity
  8
0
  6
Continuous
 62
     7
370
    25
100
AcDbLine
 10
-1.0705310698
 20
0.2557013342
 30
0.0
 11
-1.0705310698
 21
0.2587013552
 31
0.0
  0
SPLINE
  5
A2
330
1F
100
AcDbEntity
  8
0
  6
Continuous
 62
     7
370
    25
100
AcDbSpline
210
0.0
220
0.0
230
1.0
 70
     8
 71
     3
 72
    28
 73
    24
 74
     0
 42
0.000000001
 43
0.00000001
 40
0.0
 40
0.0
 40
0.0
 40
0.0
 40
0.0573948357483292
 40
0.1149988228054153
 40
0.172580419772916
 40
0.229944423251959
 40
0.2865258319183103
 40
0.3433386153309869
 40
0.4001476963728922
 40
0.4567244079265299
 40
0.5089296337107587
 40
0.561134862876807
 40
0.594961701300977
 40
0.628937457170792
 40
0.662582236671482
 40
0.6959559730608418
 40
0.7413930924615193
 40
0.7870471526407476
 40
0.8326536926171695
 40
0.8724919317962996
 40
0.9123329628519196
 40
0.9561689863760646
 40
1.0
 40
1.0
 40
1.0
 40
1.0
 10
-1.210531055455649
 20
0.3212013551673489
 30
0.0
 10
-1.207486238192707
 20
0.3211282579489563
 30
0.0
 10
-1.201385508112542
 20
0.320981797140141
 30
0.0
 10
-1.192292777841848
 20
0.319801437108584
 30
0.0
 10
-1.183329952868638
 20
0.317910576079282
 30
0.0
 10
-1.17461957852031
 20
0.3152398613911978
 30
0.0
 10
-1.166231375500181
 20
0.3117936715196308
 30
0.0
 10
-1.15821129492721
 20
0.3076250760323704
 30
0.0
 10
-1.150592420282502
 20
0.3027622565682422
 30
0.0
 10
-1.143636823216468
 20
0.2973798936784975
 30
0.0
 10
-1.137367565146509
 20
0.2915698731976575
 30
0.0
 10
-1.132413443926446
 20
0.2861521545043457
 30
0.0
 10
-1.128455888245631
 20
0.2811662265151231
 30
0.0
 10
-1.125058963900892
 20
0.2769944911820315
 30
0.0
 10
-1.121376658377632
 20
0.2730855663823564
 30
0.0
 10
-1.116605946733511
 20
0.2694548905814482
 30
0.0
 10
-1.110684210840741
 20
0.2664734266111646
 30
0.0
 10
-1.103903983031104
 20
0.2638874065964709
 30
0.0
 10
-1.097204719803921
 20
0.2619983778452839
 30
0.0
 10
-1.090712240154575
 20
0.26056970228606
 30
0.0
 10
-1.08423896284638
 20
0.2595484968327613
 30
0.0
 10
-1.077506360687363
 20
0.2588433123355138
 30
0.0
 10
-1.072856078153206
 20
0.2587486724206107
 30
0.0
 10
-1.070531069760764
 20
0.2587013551673487
 30
0.0
  0
CIRCLE
  5
A3
330
1F
100
AcDbEntity
  8
0
  6
Continuous
 62
     7
370
    25
100
AcDbCircle
 10
-1.1105311059
 20
0.1962013767
 30
0.0
 40
0.009125
  0
CIRCLE
  5
A4
330
1F
100
AcDbEntity
  8
0
  6
Continuous
 62
     7
370
    25
100
AcDbCircle
 10
-1.2105311059
 20
0.1962013767
 30
0.0
 40
0.009125
  0
ARC
  5
A5
330
1F
100
AcDbEntity
  8
0
  6
Continuous
 62
     7
370
    25
100
AcDbCircle
 10
-1.2105311059
 20
0.1962013767
 30
0.0
 40
0.125
100
AcDbArc
 50
90.0
 51
270.0
  0
ARC
  5
A6
330
1F
100
AcDbEntity
  8
0
  6
Continuous
 62
     7
370
    25
100
AcDbCircle
 10
-1.2105311059
 20
0.1962013767
 30
0.0
 40
0.1220000000000001
100
AcDbArc
 50
90.0
 51
270.0
  0
ARC
  5
A7
330
1F
100
AcDbEntity
  8
0
  6
Continuous
 62
     7
370
    25
100
AcDbCircle
 10
-1.0705311059
 20
0.1962013767
 30
0.0
 40
0.0625
100
AcDbArc
 50
270.0
 51
90.0
  0
ARC
  5
A8
330
1F
100
AcDbEntity
  8
0
  6
Continuous
 62
     7
370
    25
100
AcDbCircle
 10
-1.0705311059
 20
0.1962013767
 30
0.0
 40
0.0595000000000001
100
AcDbArc
 50
270.0
 51
90.0
  0
LINE
  5
A9
330
1F
100
AcDbEntity
  8
0
  6
Continuous
 62
     7
370
    25
100
AcDbLine
 10
-0.9443617458
 20
0.1500158617
 30
0.0
 11
-0.9174616928
 21
0.1500158617
 31
0.0
  0
LINE
  5
AA
330
1F
100
AcDbEntity
  8
0
  6
Continuous
 62
     7
370
    25
100
AcDbLine
 10
1.4167055492
 20
0.1530373404
 30
0.0
 11
1.4436056023
 21
0.1530373404
 31
0.0
  0
LINE
  5
AB
330
1F
100
AcDbEntity
  8
0
  6
Continuous
 62
     7
370
    25
100
AcDbLine
 10
1.4167055492
 20
0.2385609457
 30
0.0
 11
1.4436056023
 21
0.2385609457
 31
0.0
  0
LINE
  5
AC
330
1F
100
AcDbEntity
  8
0
  6
Continuous
 62
     7
370
    25
100
AcDbLine
 10
1.4301555757
 20
0.1530373404
 30
0.0
 11
1.4167055492
 21
0.1530373404
 31
0.0
  0
LINE
  5
AD
330
1F
100
AcDbEntity
  8
0
  6
Continuous
 62
     7
370
    25
100
AcDbLine
 10
1.4436056023
 20
0.1530373404
 30
0.0
 11
1.4301555757
 21
0.1530373404
 31
0.0
  0
LINE
  5
AE
330
1F
100
AcDbEntity
  8
0
  6
Continuous
 62
     7
370
    25
100
AcDbLine
 10
-0.9309117193
 20
0.1500158617
 30
0.0
 11
-0.9443617458
 21
0.1500158617
 31
0.0
  0
LINE
  5
AF
330
1F
100
AcDbEntity
  8
0
  6
Continuous
 62
     7
370
    25
100
AcDbLine
 10
-0.9174616928
 20
0.1500158617
 30
0.0
 11
-0.9309117193
 21
0.1500158617
 31
0.0
  0
LINE
  5
B0
330
1F
100
AcDbEntity
  8
0
  6
Continuous
 62
     7
370
    25
100
AcDbLine
 10
-0.9443617458
 20
0.2355393478
 30
0.0
 11
-0.9174616928
 21
0.2355393478
 31
0.0
  0
LINE
  5
B1
330
1F
100
AcDbEntity
  8
0
  6
Continuous
 62
     7
370
    25
100
AcDbLine
 10
-0.8959521647
 20
0.2427774975
 30
0.0
 11
-0.9174616928
 21
0.2427774975
 31
0.0
  0
LINE
  5
B2
330
1F
100
AcDbEntity
  8
0
  6
Continuous
 62
     7
370
    25
100
AcDbLine
 10
-0.9443617458
 20
0.2427774975
 30
0.0
 11
-0.965871274
 21
0.2427774975
 31
0.0
  0
ARC
  5
B3
330
1F
100
AcDbEntity
  8
0
  6
Continuous
 62
     7
370
    25
100
AcDbCircle
 10
-0.8959522166
 20
0.2127775566
 30
0.0
 40
0.03
100
AcDbArc
 50
0.0
 51
90.0
  0
LINE
  5
B4
330
1F
100
AcDbEntity
  8
0
  6
Continuous
 62
     7
370
    25
100
AcDbLine
 10
-0.8659521933
 20
0.1727775642
 30
0.0
 11
-0.8659521933
 21
0.2127775261
 31
0.0
  0
ARC
  5
B5
330
1F
100
AcDbEntity
  8
0
  6
Continuous
 62
     7
370
    25
100
AcDbCircle
 10
-0.8959522166
 20
0.1727775566
 30
0.0
 40
0.03
100
AcDbArc
 50
270.0
 51
0.0
  0
LINE
  5
B6
330
1F
100
AcDbEntity
  8
0
  6
Continuous
 62
     7
370
    25
100
AcDbLine
 10
-0.965871274
 20
0.1427775928
 30
0.0
 11
-0.9443617458
 21
0.1427775928
 31
0.0
  0
LINE
  5
B7
330
1F
100
AcDbEntity
  8
0
  6
Continuous
 62
     7
370
    25
100
AcDbLine
 10
-0.9174616928
 20
0.1427775928
 30
0.0
 11
-0.8959521647
 21
0.1427775928
 31
0.0
  0
ARC
  5
B8
330
1F
100
AcDbEntity
  8
0
  6
Continuous
 62
     7
370
    25
100
AcDbCircle
 10
-0.9658712827
 20
0.1727775566
 30
0.0
 40
0.0300000000000002
100
AcDbArc
 50
180.0
 51
270.0
  0
LINE
  5
B9
330
1F
100
AcDbEntity
  8
0
  6
Continuous
 62
     7
370
    25
100
AcDbLine
 10
-0.9958712454
 20
0.2127775261
 30
0.0
 11
-0.9958712454
 21
0.1727775642
 31
0.0
  0
ARC
  5
BA
330
1F
100
AcDbEntity
  8
0
  6
Continuous
 62
     7
370
    25
100
AcDbCircle
 10
-0.9658712827
 20
0.2127775566
 30
0.0
 40
0.0300000000000002
100
AcDbArc
 50
90.0
 51
180.0
  0
LINE
  5
BB
330
1F
100
AcDbEntity
  8
0
  6
Continuous
 62
     7
370
    25
100
AcDbLine
 10
1.4651151304
 20
0.2457990953
 30
0.0
 11
1.4436056023
 21
0.2457990953
 31
0.0
  0
LINE
  5
BC
330
1F
100
AcDbEntity
  8
0
  6
Continuous
 62
     7
370
    25
100
AcDbLine
 10
1.4167055492
 20
0.2457990953
 30
0.0
 11
1.3951960211
 21
0.2457990953
 31
0.0
  0
ARC
  5
BD
330
1F
100
AcDbEntity
  8
0
  6
Continuous
 62
     7
370
    25
100
AcDbCircle
 10
1.4651151144
 20
0.2157991377
 30
0.0
 40
0.03
100
AcDbArc
 50
0.0
 51
90.0
  0
LINE
  5
BE
330
1F
100
AcDbEntity
  8
0
  6
Continuous
 62
     7
370
    25
100
AcDbLine
 10
1.4951151018
 20
0.1757991621
 30
0.0
 11
1.4951151018
 21
0.215799124
 31
0.0
  0
ARC
  5
BF
330
1F
100
AcDbEntity
  8
0
  6
Continuous
 62
     7
370
    25
100
AcDbCircle
 10
1.4651151144
 20
0.1757991377
 30
0.0
 40
0.03
100
AcDbArc
 50
270.0
 51
0.0
  0
LINE
  5
C0
330
1F
100
AcDbEntity
  8
0
  6
Continuous
 62
     7
370
    25
100
AcDbLine
 10
1.3951960211
 20
0.1457991907
 30
0.0
 11
1.4167055492
 21
0.1457991907
 31
0.0
  0
LINE
  5
C1
330
1F
100
AcDbEntity
  8
0
  6
Continuous
 62
     7
370
    25
100
AcDbLine
 10
1.4436056023
 20
0.1457991907
 30
0.0
 11
1.4651151304
 21
0.1457991907
 31
0.0
  0
LINE
  5
C2
330
1F
100
AcDbEntity
  8
0
  6
Continuous
 62
     7
370
    25
100
AcDbLine
 10
1.3651960497
 20
0.215799124
 30
0.0
 11
1.3651960497
 21
0.1757991621
 31
0.0
  0
ARC
  5
C3
330
1F
100
AcDbEntity
  8
0
  6
Continuous
 62
     7
370
    25
100
AcDbCircle
 10
1.3951960483
 20
0.2157991377
 30
0.0
 40
0.0300000000000002
100
AcDbArc
 50
90.0
 51
180.0
  0
ARC
  5
C4
330
1F
100
AcDbEntity
  8
0
  6
Continuous
 62
     7
370
    25
100
AcDbCircle
 10
1.3951960483
 20
0.1757991377
 30
0.0
 40
0.0300000000000002
100
AcDbArc
 50
180.0
 51
270.0
  0
LINE
  5
C5
330
1F
100
AcDbEntity
  8
0
  6
Continuous
 62
     7
370
    25
100
AcDbLine
 10
-1.2099032993
 20
0.1928646872
 30
0.0
 11
-1.2127569313
 21
0.1923582861
 31
0.0
  0
LINE
  5
C6
330
1F
100
AcDbEntity
  8
0
  6
Continuous
 62
     7
370
    25
100
AcDbLine
 10
-1.2089149351
 20
0.1955892155
 30
0.0
 11
-1.2099032993
 21
0.1928646872
 31
0.0
  0
LINE
  5
C7
330
1F
100
AcDbEntity
  8
0
  6
Continuous
 62
     7
370
    25
100
AcDbLine
 10
-1.2107803221
 20
0.1978074619
 30
0.0
 11
-1.2089149351
 21
0.1955892155
 31
0.0
  0
LINE
  5
C8
330
1F
100
AcDbEntity
  8
0
  6
Continuous
 62
     7
370
    25
100
AcDbLine
 10
-1.2136340733
 20
0.1973010609
 30
0.0
 11
-1.2107803221
 21
0.1978074619
 31
0.0
  0
LINE
  5
C9
330
1F
100
AcDbEntity
  8
0
  6
Continuous
 62
     7
370
    25
100
AcDbLine
 10
-1.2146224375
 20
0.1945765326
 30
0.0
 11
-1.2136340733
 21
0.1973010609
 31
0.0
  0
LINE
  5
CA
330
1F
100
AcDbEntity
  8
0
  6
Continuous
 62
     7
370
    25
100
AcDbLine
 10
-1.2127569313
 20
0.1923582861
 30
0.0
 11
-1.2146224375
 21
0.1945765326
 31
0.0
  0
CIRCLE
  5
CB
330
1F
100
AcDbEntity
  8
0
  6
Continuous
 62
     7
370
    25
100
AcDbCircle
 10
-1.2117686802
 20
0.1950828685
 30
0.0
 40
0.0077849999999996
  0
ARC
  5
CC
330
1F
100
AcDbEntity
  8
0
  6
Continuous
 62
     7
370
    25
100
AcDbCircle
 10
-1.2117686802
 20
0.1950828685
 30
0.0
 40
0.0025100000000003
100
AcDbArc
 50
220.0623828742
 51
280.0623828742
  0
ARC
  5
CD
330
1F
100
AcDbEntity
  8
0
  6
Continuous
 62
     7
370
    25
100
AcDbCircle
 10
-1.2117686802
 20
0.1950828685
 30
0.0
 40
0.0025100000000003
100
AcDbArc
 50
160.0623828742
 51
220.0623828742
  0
ARC
  5
CE
330
1F
100
AcDbEntity
  8
0
  6
Continuous
 62
     7
370
    25
100
AcDbCircle
 10
-1.2117686802
 20
0.1950828685
 30
0.0
 40
0.0025099999999989
100
AcDbArc
 50
100.0623828742
 51
160.0623828742
  0
ARC
  5
CF
330
1F
100
AcDbEntity
  8
0
  6
Continuous
 62
     7
370
    25
100
AcDbCircle
 10
-1.2117686802
 20
0.1950828685
 30
0.0
 40
0.0025100000000005
100
AcDbArc
 50
40.0623828741
 51
100.0623828742
  0
ARC
  5
D0
330
1F
100
AcDbEntity
  8
0
  6
Continuous
 62
     7
370
    25
100
AcDbCircle
 10
-1.2117686802
 20
0.1950828685
 30
0.0
 40
0.002510000000001
100
AcDbArc
 50
340.0623828742
 51
40.0623828741
  0
ARC
  5
D1
330
1F
100
AcDbEntity
  8
0
  6
Continuous
 62
     7
370
    25
100
AcDbCircle
 10
-1.2117686802
 20
0.1950828685
 30
0.0
 40
0.002510000000001
100
AcDbArc
 50
280.0623828742
 51
340.0623828742
  0
LINE
  5
D2
330
1F
100
AcDbEntity
  8
0
  6
Continuous
 62
     7
370
    25
100
AcDbLine
 10
1.7108595972
 20
0.1938612768
 30
0.0
 11
1.7084874515
 21
0.192195923
 31
0.0
  0
LINE
  5
D3
330
1F
100
AcDbEntity
  8
0
  6
Continuous
 62
     7
370
    25
100
AcDbLine
 10
1.7106034164
 20
0.1967481682
 30
0.0
 11
1.7108595972
 21
0.1938612768
 31
0.0
  0
LINE
  5
D4
330
1F
100
AcDbEntity
  8
0
  6
Continuous
 62
     7
370
    25
100
AcDbLine
 10
1.70797509
 20
0.197969825
 30
0.0
 11
1.7106034164
 21
0.1967481682
 31
0.0
  0
LINE
  5
D5
330
1F
100
AcDbEntity
  8
0
  6
Continuous
 62
     7
370
    25
100
AcDbLine
 10
1.7056030636
 20
0.1963044712
 30
0.0
 11
1.70797509
 21
0.197969825
 31
0.0
  0
LINE
  5
D6
330
1F
100
AcDbEntity
  8
0
  6
Continuous
 62
     7
370
    25
100
AcDbLine
 10
1.7058592443
 20
0.1934175798
 30
0.0
 11
1.7056030636
 21
0.1963044712
 31
0.0
  0
LINE
  5
D7
330
1F
100
AcDbEntity
  8
0
  6
Continuous
 62
     7
370
    25
100
AcDbLine
 10
1.7084874515
 20
0.192195923
 30
0.0
 11
1.7058592443
 21
0.1934175798
 31
0.0
  0
CIRCLE
  5
D8
330
1F
100
AcDbEntity
  8
0
  6
Continuous
 62
     7
370
    25
100
AcDbCircle
 10
1.7082313198
 20
0.1950828685
 30
0.0
 40
0.0077849999999996
  0
ARC
  5
D9
330
1F
100
AcDbEntity
  8
0
  6
Continuous
 62
     7
370
    25
100
AcDbCircle
 10
1.7082313198
 20
0.1950828685
 30
0.0
 40
0.0025100000000008
100
AcDbArc
 50
305.070827735
 51
5.0708277349
  0
ARC
  5
DA
330
1F
100
AcDbEntity
  8
0
  6
Continuous
 62
     7
370
    25
100
AcDbCircle
 10
1.7082313198
 20
0.1950828685
 30
0.0
 40
0.0025100000000005
100
AcDbArc
 50
245.070827735
 51
305.070827735
  0
ARC
  5
DB
330
1F
100
AcDbEntity
  8
0
  6
Continuous
 62
     7
370
    25
100
AcDbCircle
 10
1.7082313198
 20
0.1950828685
 30
0.0
 40
0.0025100000000005
100
AcDbArc
 50
185.070827735
 51
245.070827735
  0
ARC
  5
DC
330
1F
100
AcDbEntity
  8
0
  6
Continuous
 62
     7
370
    25
100
AcDbCircle
 10
1.7082313198
 20
0.1950828685
 30
0.0
 40
0.0025099999999991
100
AcDbArc
 50
125.070827735
 51
185.070827735
  0
ARC
  5
DD
330
1F
100
AcDbEntity
  8
0
  6
Continuous
 62
     7
370
    25
100
AcDbCircle
 10
1.7082313198
 20
0.1950828685
 30
0.0
 40
0.0025100000000003
100
AcDbArc
 50
65.0708277349
 51
125.070827735
  0
ARC
  5
DE
330
1F
100
AcDbEntity
  8
0
  6
Continuous
 62
     7
370
    25
100
AcDbCircle
 10
1.7082313198
 20
0.1950828685
 30
0.0
 40
0.0025100000000008
100
AcDbArc
 50
5.0708277349
 51
65.0708277349
  0
LINE
  5
DF
330
1F
100
AcDbEntity
  8
0
  6
Continuous
 62
     7
370
    25
100
AcDbLine
 10
1.6105118399
 20
0.1932943174
 30
0.0
 11
1.6078225975
 21
0.192213566
 31
0.0
  0
LINE
  5
E0
330
1F
100
AcDbEntity
  8
0
  6
Continuous
 62
     7
370
    25
100
AcDbLine
 10
1.6109206085
 20
0.1961635658
 30
0.0
 11
1.6105118399
 21
0.1932943174
 31
0.0
  0
LINE
  5
E1
330
1F
100
AcDbEntity
  8
0
  6
Continuous
 62
     7
370
    25
100
AcDbLine
 10
1.6086400156
 20
0.197952182
 30
0.0
 11
1.6109206085
 21
0.1961635658
 31
0.0
  0
LINE
  5
E2
330
1F
100
AcDbEntity
  8
0
  6
Continuous
 62
     7
370
    25
100
AcDbLine
 10
1.6059507732
 20
0.1968714306
 30
0.0
 11
1.6086400156
 21
0.197952182
 31
0.0
  0
LINE
  5
E3
330
1F
100
AcDbEntity
  8
0
  6
Continuous
 62
     7
370
    25
100
AcDbLine
 10
1.6055420046
 20
0.1940021822
 30
0.0
 11
1.6059507732
 21
0.1968714306
 31
0.0
  0
LINE
  5
E4
330
1F
100
AcDbEntity
  8
0
  6
Continuous
 62
     7
370
    25
100
AcDbLine
 10
1.6078225975
 20
0.192213566
 30
0.0
 11
1.6055420046
 21
0.1940021822
 31
0.0
  0
CIRCLE
  5
E5
330
1F
100
AcDbEntity
  8
0
  6
Continuous
 62
     7
370
    25
100
AcDbCircle
 10
1.6082313198
 20
0.1950828685
 30
0.0
 40
0.0077849999999996
  0
ARC
  5
E6
330
1F
100
AcDbEntity
  8
0
  6
Continuous
 62
     7
370
    25
100
AcDbCircle
 10
1.6082313198
 20
0.1950828685
 30
0.0
 40
0.0025100000000008
100
AcDbArc
 50
291.8935964586
 51
351.8935964586
  0
ARC
  5
E7
330
1F
100
AcDbEntity
  8
0
  6
Continuous
 62
     7
370
    25
100
AcDbCircle
 10
1.6082313198
 20
0.1950828685
 30
0.0
 40
0.0025100000000004
100
AcDbArc
 50
231.8935964586
 51
291.8935964586
  0
ARC
  5
E8
330
1F
100
AcDbEntity
  8
0
  6
Continuous
 62
     7
370
    25
100
AcDbCircle
 10
1.6082313198
 20
0.1950828685
 30
0.0
 40
0.0025100000000004
100
AcDbArc
 50
171.8935964586
 51
231.8935964586
  0
ARC
  5
E9
330
1F
100
AcDbEntity
  8
0
  6
Continuous
 62
     7
370
    25
100
AcDbCircle
 10
1.6082313198
 20
0.1950828685
 30
0.0
 40
0.0025099999999991
100
AcDbArc
 50
111.8935964586
 51
171.8935964586
  0
ARC
  5
EA
330
1F
100
AcDbEntity
  8
0
  6
Continuous
 62
     7
370
    25
100
AcDbCircle
 10
1.6082313198
 20
0.1950828685
 30
0.0
 40
0.0025100000000003
100
AcDbArc
 50
51.8935964586
 51
111.8935964586
  0
ARC
  5
EB
330
1F
100
AcDbEntity
  8
0
  6
Continuous
 62
     7
370
    25
100
AcDbCircle
 10
1.6082313198
 20
0.1950828685
 30
0.0
 40
0.0025100000000008
100
AcDbArc
 50
351.8935964586
 51
51.8935964586
  0
LINE
  5
EC
330
1F
100
AcDbEntity
  8
0
  6
Continuous
 62
     7
370
    25
100
AcDbLine
 10
-1.1103195543
 20
0.1925728628
 30
0.0
 11
-1.1132177706
 21
0.1925728628
 31
0.0
  0
LINE
  5
ED
330
1F
100
AcDbEntity
  8
0
  6
Continuous
 62
     7
370
    25
100
AcDbLine
 10
-1.108870327
 20
0.1950828144
 30
0.0
 11
-1.1103195543
 21
0.1925728628
 31
0.0
  0
LINE
  5
EE
330
1F
100
AcDbEntity
  8
0
  6
Continuous
 62
     7
370
    25
100
AcDbLine
 10
-1.1103195543
 20
0.1975928852
 30
0.0
 11
-1.108870327
 21
0.1950828144
 31
0.0
  0
LINE
  5
EF
330
1F
100
AcDbEntity
  8
0
  6
Continuous
 62
     7
370
    25
100
AcDbLine
 10
-1.1132177706
 20
0.1975928852
 30
0.0
 11
-1.1103195543
 21
0.1975928852
 31
0.0
  0
LINE
  5
F0
330
1F
100
AcDbEntity
  8
0
  6
Continuous
 62
     7
370
    25
100
AcDbLine
 10
-1.1146669979
 20
0.1950828144
 30
0.0
 11
-1.1132177706
 21
0.1975928852
 31
0.0
  0
LINE
  5
F1
330
1F
100
AcDbEntity
  8
0
  6
Continuous
 62
     7
370
    25
100
AcDbLine
 10
-1.1132177706
 20
0.1925728628
 30
0.0
 11
-1.1146669979
 21
0.1950828144
 31
0.0
  0
CIRCLE
  5
F2
330
1F
100
AcDbEntity
  8
0
  6
Continuous
 62
     7
370
    25
100
AcDbCircle
 10
-1.1117686802
 20
0.1950828685
 30
0.0
 40
0.0077849999999995
  0
ARC
  5
F3
330
1F
100
AcDbEntity
  8
0
  6
Continuous
 62
     7
370
    25
100
AcDbCircle
 10
-1.1117686802
 20
0.1950828685
 30
0.0
 40
0.0025100000000003
100
AcDbArc
 50
210.0
 51
270.0
  0
ARC
  5
F4
330
1F
100
AcDbEntity
  8
0
  6
Continuous
 62
     7
370
    25
100
AcDbCircle
 10
-1.1117686802
 20
0.1950828685
 30
0.0
 40
0.0025100000000003
100
AcDbArc
 50
150.0
 51
210.0
  0
ARC
  5
F5
330
1F
100
AcDbEntity
  8
0
  6
Continuous
 62
     7
370
    25
100
AcDbCircle
 10
-1.1117686802
 20
0.1950828685
 30
0.0
 40
0.0025099999999991
100
AcDbArc
 50
90.0
 51
150.0
  0
ARC
  5
F6
330
1F
100
AcDbEntity
  8
0
  6
Continuous
 62
     7
370
    25
100
AcDbCircle
 10
-1.1117686802
 20
0.1950828685
 30
0.0
 40
0.0025100000000005
100
AcDbArc
 50
30.0
 51
90.0
  0
ARC
  5
F7
330
1F
100
AcDbEntity
  8
0
  6
Continuous
 62
     7
370
    25
100
AcDbCircle
 10
-1.1117686802
 20
0.1950828685
 30
0.0
 40
0.0025100000000009
100
AcDbArc
 50
330.0
 51
30.0
  0
ARC
  5
F8
330
1F
100
AcDbEntity
  8
0
  6
Continuous
 62
     7
370
    25
100
AcDbCircle
 10
-1.1117686802
 20
0.1950828685
 30
0.0
 40
0.0025100000000009
100
AcDbArc
 50
270.0
 51
330.0
  0
LINE
  5
F9
330
1F
100
AcDbEntity
  8
0
  6
Continuous
 62
     7
370
    25
100
AcDbLine
 10
-2.352132618
 20
0.2696688482
 30
0.0
 11
-2.352132618
 21
0.0196688482
 31
0.0
  0
ARC
  5
FA
330
1F
100
AcDbEntity
  8
0
  6
Continuous
 62
     7
370
    25
100
AcDbCircle
 10
-1.3521325655
 20
0.2696688571
 30
0.0
 40
1.0
100
AcDbArc
 50
90.0
 51
180.0
  0
LINE
  5
FB
330
1F
100
AcDbEntity
  8
0
  6
Continuous
 62
     7
370
    25
100
AcDbLine
 10
1.8300948744
 20
1.2696688631
 30
0.0
 11
-1.352132618
 21
1.2696688631
 31
0.0
  0
ARC
  5
FC
330
1F
100
AcDbEntity
  8
0
  6
Continuous
 62
     7
370
    25
100
AcDbCircle
 10
1.8300948512
 20
0.2696688571
 30
0.0
 40
1.0
100
AcDbArc
 50
0.0
 51
90.0
  0
LINE
  5
FD
330
1F
100
AcDbEntity
  8
0
  6
Continuous
 62
     7
370
    25
100
AcDbLine
 10
2.8300947552
 20
0.0196688482
 30
0.0
 11
2.8300947552
 21
0.2696688482
 31
0.0
  0
LINE
  5
FE
330
1F
100
AcDbEntity
  8
0
  6
Continuous
 62
     7
370
    25
100
AcDbLine
 10
-1.352132618
 20
-0.9803311518
 30
0.0
 11
1.8300948744
 21
-0.9803311518
 31
0.0
  0
ARC
  5
FF
330
1F
100
AcDbEntity
  8
0
  6
Continuous
 62
     7
370
    25
100
AcDbCircle
 10
-1.3521325655
 20
0.0196688571
 30
0.0
 40
1.0
100
AcDbArc
 50
180.0
 51
270.0
  0
ARC
  5
100
330
1F
100
AcDbEntity
  8
0
  6
Continuous
 62
     7
370
    25
100
AcDbCircle
 10
1.8300948512
 20
0.0196688571
 30
0.0
 40
1.0
100
AcDbArc
 50
270.0
 51
0.0
  0
ARC
  5
101
330
1F
100
AcDbEntity
  8
0
  6
Continuous
 62
     7
370
    25
100
AcDbCircle
 10
-1.0938609526
 20
0.1951017401
 30
0.0
 40
0.1400000000000001
100
AcDbArc
 50
20.916564035
 51
90.0
  0
ARC
  5
102
330
1F
100
AcDbEntity
  8
0
  6
Continuous
 62
     7
370
    25
100
AcDbCircle
 10
-1.0938609526
 20
0.1951017401
 30
0.0
 40
0.1400000000000001
100
AcDbArc
 50
236.3338749953
 51
338.0532840151
  0
ARC
  5
103
330
1F
100
AcDbEntity
  8
0
  6
Continuous
 62
     7
370
    25
100
AcDbCircle
 10
-1.0938609526
 20
0.1951017401
 30
0.0
 40
0.14
100
AcDbArc
 50
90.0
 51
122.6421371029
  0
ARC
  5
104
330
1F
100
AcDbEntity
  8
0
  6
Continuous
 62
     7
370
    25
100
AcDbCircle
 10
1.5061390474
 20
0.1951017401
 30
0.0
 40
0.1399999999999999
100
AcDbArc
 50
34.5726525173
 51
90.0
  0
ARC
  5
105
330
1F
100
AcDbEntity
  8
0
  6
Continuous
 62
     7
370
    25
100
AcDbCircle
 10
1.5061390474
 20
0.1951017401
 30
0.0
 40
0.14
100
AcDbArc
 50
200.9331012765
 51
325.4985137468
  0
ARC
  5
106
330
1F
100
AcDbEntity
  8
0
  6
Continuous
 62
     7
370
    25
100
AcDbCircle
 10
1.5061390474
 20
0.1951017401
 30
0.0
 40
0.1400000000000001
100
AcDbArc
 50
90.0
 51
159.083435965
  0
LINE
  5
107
330
1F
100
AcDbEntity
  8
0
  6
Continuous
 62
     7
370
    25
100
AcDbLine
 10
0.1461390411
 20
0.2551017115
 30
0.0
 11
0.1461390411
 21
0.2450828859
 31
0.0
  0
LINE
  5
108
330
1F
100
AcDbEntity
  8
0
  6
Continuous
 62
     7
370
    25
100
AcDbLine
 10
0.1461390411
 20
0.1450828621
 30
0.0
 11
0.1461390411
 21
0.1351017067
 31
0.0
  0
LINE
  5
109
330
1F
100
AcDbEntity
  8
0
  6
Continuous
 62
     7
370
    25
100
AcDbLine
 10
0.1461390411
 20
0.1351017067
 30
0.0
 11
0.1811523889
 21
0.1351017067
 31
0.0
  0
LINE
  5
10A
330
1F
100
AcDbEntity
  8
0
  6
Continuous
 62
     7
370
    25
100
AcDbLine
 10
0.1461390411
 20
0.2551017115
 30
0.0
 11
0.1811523889
 21
0.2551017115
 31
0.0
  0
LINE
  5
10B
330
1F
100
AcDbEntity
  8
0
  6
Continuous
 62
     7
370
    25
100
AcDbLine
 10
0.2661390477
 20
0.2551017115
 30
0.0
 11
0.2661390477
 21
0.2450828859
 31
0.0
  0
LINE
  5
10C
330
1F
100
AcDbEntity
  8
0
  6
Continuous
 62
     7
370
    25
100
AcDbLine
 10
0.2661390477
 20
0.1450828621
 30
0.0
 11
0.2661390477
 21
0.1351017067
 31
0.0
  0
LINE
  5
10D
330
1F
100
AcDbEntity
  8
0
  6
Continuous
 62
     7
370
    25
100
AcDbLine
 10
0.2311257017
 20
0.1351017067
 30
0.0
 11
0.2661390477
 21
0.1351017067
 31
0.0
  0
LINE
  5
10E
330
1F
100
AcDbEntity
  8
0
  6
Continuous
 62
     7
370
    25
100
AcDbLine
 10
0.2311257017
 20
0.2551017115
 30
0.0
 11
0.2661390477
 21
0.2551017115
 31
0.0
  0
LINE
  5
10F
330
1F
100
AcDbEntity
  8
0
  6
Continuous
 62
     7
370
    25
100
AcDbLine
 10
0.1811523889
 20
0.2601017067
 30
0.0
 11
0.1811523889
 21
0.2551017115
 31
0.0
  0
LINE
  5
110
330
1F
100
AcDbEntity
  8
0
  6
Continuous
 62
     7
370
    25
100
AcDbLine
 10
0.1811523889
 20
0.2601017067
 30
0.0
 11
0.1911523943
 21
0.2601017067
 31
0.0
  0
LINE
  5
111
330
1F
100
AcDbEntity
  8
0
  6
Continuous
 62
     7
370
    25
100
AcDbLine
 10
0.1911523943
 20
0.2601017067
 30
0.0
 11
0.1911523943
 21
0.2551017115
 31
0.0
  0
LINE
  5
112
330
1F
100
AcDbEntity
  8
0
  6
Continuous
 62
     7
370
    25
100
AcDbLine
 10
0.1811523889
 20
0.2551017115
 30
0.0
 11
0.1911523943
 21
0.2551017115
 31
0.0
  0
LINE
  5
113
330
1F
100
AcDbEntity
  8
0
  6
Continuous
 62
     7
370
    25
100
AcDbLine
 10
0.2211257038
 20
0.2601017067
 30
0.0
 11
0.2211257038
 21
0.2551017115
 31
0.0
  0
LINE
  5
114
330
1F
100
AcDbEntity
  8
0
  6
Continuous
 62
     7
370
    25
100
AcDbLine
 10
0.2211257038
 20
0.2601017067
 30
0.0
 11
0.2311257017
 21
0.2601017067
 31
0.0
  0
LINE
  5
115
330
1F
100
AcDbEntity
  8
0
  6
Continuous
 62
     7
370
    25
100
AcDbLine
 10
0.2311257017
 20
0.2601017067
 30
0.0
 11
0.2311257017
 21
0.2551017115
 31
0.0
  0
LINE
  5
116
330
1F
100
AcDbEntity
  8
0
  6
Continuous
 62
     7
370
    25
100
AcDbLine
 10
0.2211257038
 20
0.2551017115
 30
0.0
 11
0.2311257017
 21
0.2551017115
 31
0.0
  0
LINE
  5
117
330
1F
100
AcDbEntity
  8
0
  6
Continuous
 62
     7
370
    25
100
AcDbLine
 10
0.1911523943
 20
0.2601017067
 30
0.0
 11
0.2211257038
 21
0.2601017067
 31
0.0
  0
LINE
  5
118
330
1F
100
AcDbEntity
  8
0
  6
Continuous
 62
     7
370
    25
100
AcDbLine
 10
0.1911523943
 20
0.2551017115
 30
0.0
 11
0.2211257038
 21
0.2551017115
 31
0.0
  0
LINE
  5
119
330
1F
100
AcDbEntity
  8
0
  6
Continuous
 62
     7
370
    25
100
AcDbLine
 10
0.1911523943
 20
0.1301017115
 30
0.0
 11
0.1911523943
 21
0.1351017067
 31
0.0
  0
LINE
  5
11A
330
1F
100
AcDbEntity
  8
0
  6
Continuous
 62
     7
370
    25
100
AcDbLine
 10
0.1811523889
 20
0.1301017115
 30
0.0
 11
0.1911523943
 21
0.1301017115
 31
0.0
  0
LINE
  5
11B
330
1F
100
AcDbEntity
  8
0
  6
Continuous
 62
     7
370
    25
100
AcDbLine
 10
0.1811523889
 20
0.1301017115
 30
0.0
 11
0.1811523889
 21
0.1351017067
 31
0.0
  0
LINE
  5
11C
330
1F
100
AcDbEntity
  8
0
  6
Continuous
 62
     7
370
    25
100
AcDbLine
 10
0.1811523889
 20
0.1351017067
 30
0.0
 11
0.1911523943
 21
0.1351017067
 31
0.0
  0
LINE
  5
11D
330
1F
100
AcDbEntity
  8
0
  6
Continuous
 62
     7
370
    25
100
AcDbLine
 10
0.2311257017
 20
0.1301017115
 30
0.0
 11
0.2311257017
 21
0.1351017067
 31
0.0
  0
LINE
  5
11E
330
1F
100
AcDbEntity
  8
0
  6
Continuous
 62
     7
370
    25
100
AcDbLine
 10
0.2211257038
 20
0.1301017115
 30
0.0
 11
0.2311257017
 21
0.1301017115
 31
0.0
  0
LINE
  5
11F
330
1F
100
AcDbEntity
  8
0
  6
Continuous
 62
     7
370
    25
100
AcDbLine
 10
0.2211257038
 20
0.1301017115
 30
0.0
 11
0.2211257038
 21
0.1351017067
 31
0.0
  0
LINE
  5
120
330
1F
100
AcDbEntity
  8
0
  6
Continuous
 62
     7
370
    25
100
AcDbLine
 10
0.2211257038
 20
0.1351017067
 30
0.0
 11
0.2311257017
 21
0.1351017067
 31
0.0
  0
LINE
  5
121
330
1F
100
AcDbEntity
  8
0
  6
Continuous
 62
     7
370
    25
100
AcDbLine
 10
0.1911523943
 20
0.1351017067
 30
0.0
 11
0.2211257038
 21
0.1351017067
 31
0.0
  0
LINE
  5
122
330
1F
100
AcDbEntity
  8
0
  6
Continuous
 62
     7
370
    25
100
AcDbLine
 10
0.1911523943
 20
0.1301017115
 30
0.0
 11
0.2211257038
 21
0.1301017115
 31
0.0
  0
LINE
  5
123
330
1F
100
AcDbEntity
  8
0
  6
Continuous
 62
     8
370
    25
100
AcDbLine
 10
1.5234509115
 20
0.1514828512
 30
0.0
 11
1.4826855068
 21
0.1514828512
 31
0.0
  0
LINE
  5
124
330
1F
100
AcDbEntity
  8
0
  6
Continuous
 62
     8
370
    25
100
AcDbLine
 10
1.3776256447
 20
0.1514828512
 30
0.0
 11
-0.8748207684
 21
0.1514828512
 31
0.0
  0
LINE
  5
125
330
1F
100
AcDbEntity
  8
0
  6
Continuous
 62
     8
370
    25
100
AcDbLine
 10
-0.9870026703
 20
0.1514828512
 30
0.0
 11
-1.026867568
 21
0.1514828512
 31
0.0
  0
LINE
  5
126
330
1F
100
AcDbEntity
  8
0
  6
Continuous
 62
     8
370
    25
100
AcDbLine
 10
1.5234509115
 20
0.2386828968
 30
0.0
 11
1.4845144157
 21
0.2386828968
 31
0.0
  0
LINE
  5
127
330
1F
100
AcDbEntity
  8
0
  6
Continuous
 62
     8
370
    25
100
AcDbLine
 10
1.3757967358
 20
0.2386828968
 30
0.0
 11
-0.8808222408
 21
0.2386828968
 31
0.0
  0
LINE
  5
128
330
1F
100
AcDbEntity
  8
0
  6
Continuous
 62
     8
370
    25
100
AcDbLine
 10
-0.9810011978
 20
0.2386828968
 30
0.0
 11
-1.0246881838
 21
0.2386828968
 31
0.0
  0
ENDSEC
  0
SECTION
  2
OBJECTS
  0
DICTIONARY
  5
C
330
0
100
AcDbDictionary
281
     1
  3
ACAD_GROUP
350
D
  3
ACAD_LAYOUT
350
1A
  3
ACAD_MLINESTYLE
350
17
  3
ACAD_PLOTSETTINGS
350
19
  3
ACAD_PLOTSTYLENAME
350
E
  3
ACAD_SCALELIST
350
47
  0
DICTIONARY
  5
D
102
{ACAD_REACTORS
330
C
102
}
330
C
100
AcDbDictionary
281
     1
  0
DICTIONARY
  5
1A
102
{ACAD_REACTORS
330
C
102
}
330
C
100
AcDbDictionary
281
     1
  3
Layout1
350
1E
  3
Layout2
350
26
  3
Model
350
22
  0
DICTIONARY
  5
17
102
{ACAD_REACTORS
330
C
102
}
330
C
100
AcDbDictionary
281
     1
  3
Standard
350
18
  0
DICTIONARY
  5
19
102
{ACAD_REACTORS
330
C
102
}
330
C
100
AcDbDictionary
281
     1
  0
ACDBDICTIONARYWDFLT
  5
E
102
{ACAD_REACTORS
330
C
102
}
330
C
100
AcDbDictionary
281
     1
  3
Normal
350
F
100
AcDbDictionaryWithDefault
340
F
  0
DICTIONARY
  5
47
102
{ACAD_REACTORS
330
C
102
}
330
C
100
AcDbDictionary
281
     1
  3
A0
350
48
  3
A1
350
49
  3
A2
350
4A
  3
A3
350
4B
  3
A4
350
4C
  3
A5
350
4D
  3
A6
350
4E
  3
A7
350
4F
  3
A8
350
50
  3
A9
350
51
  3
B0
350
52
  3
B1
350
53
  3
B2
350
54
  3
B3
350
55
  3
B4
350
56
  3
B5
350
57
  3
B6
350
58
  3
B7
350
59
  3
B8
350
5A
  3
B9
350
5B
  3
C0
350
5C
  3
C1
350
5D
  3
C2
350
5E
  3
C3
350
5F
  3
C4
350
60
  3
C5
350
61
  3
C6
350
62
  3
C7
350
63
  3
C8
350
64
  3
C9
350
65
  3
D0
350
66
  3
D1
350
67
  3
D2
350
68
  0
LAYOUT
  5
1E
102
{ACAD_REACTORS
330
1A
102
}
330
1A
100
AcDbPlotSettings
  1

  2
none_device
  4

  6

 40
0.0
 41
0.0
 42
0.0
 43
0.0
 44
0.0
 45
0.0
 46
0.0
 47
0.0
 48
0.0
 49
0.0
140
0.0
141
0.0
142
1.0
143
1.0
 70
   688
 72
     1
 73
     0
 74
     5
  7

 75
    16
147
1.0
148
0.0
149
0.0
100
AcDbLayout
  1
Layout1
 70
     1
 71
     1
 10
0.0
 20
0.0
 11
420.0
 21
297.0
 12
0.0
 22
0.0
 32
0.0
 14
1.0000000000E+20
 24
1.0000000000E+20
 34
1.0000000000E+20
 15
-1.0000000000E+20
 25
-1.0000000000E+20
 35
-1.0000000000E+20
146
0.0
 13
0.0
 23
0.0
 33
0.0
 16
1.0
 26
0.0
 36
0.0
 17
0.0
 27
1.0
 37
0.0
 76
     0
330
1B
  0
LAYOUT
  5
26
102
{ACAD_REACTORS
330
1A
102
}
330
1A
100
AcDbPlotSettings
  1

  2
none_device
  4

  6

 40
0.0
 41
0.0
 42
0.0
 43
0.0
 44
0.0
 45
0.0
 46
0.0
 47
0.0
 48
0.0
 49
0.0
140
0.0
141
0.0
142
1.0
143
1.0
 70
   688
 72
     1
 73
     0
 74
     5
  7

 75
    16
147
1.0
148
0.0
149
0.0
100
AcDbLayout
  1
Layout2
 70
     1
 71
     2
 10
0.0
 20
0.0
 11
0.0
 21
0.0
 12
0.0
 22
0.0
 32
0.0
 14
0.0
 24
0.0
 34
0.0
 15
0.0
 25
0.0
 35
0.0
146
0.0
 13
0.0
 23
0.0
 33
0.0
 16
1.0
 26
0.0
 36
0.0
 17
0.0
 27
1.0
 37
0.0
 76
     0
330
23
  0
LAYOUT
  5
22
102
{ACAD_REACTORS
330
1A
102
}
330
1A
100
AcDbPlotSettings
  1

  2
none_device
  4
Letter_(8.50_x_11.00_Inches)
  6

 40
6.35
 41
6.35
 42
6.35000508
 43
6.35000508
 44
215.9
 45
279.4
 46
0.0
 47
0.0
 48
0.0
 49
0.0
140
0.0
141
0.0
142
1.0
143
1.0
 70
  1712
 72
     1
 73
     0
 74
     0
  7

 75
     0
147
1.0
148
0.0
149
0.0
100
AcDbLayout
  1
Model
 70
     1
 71
     0
 10
0.0
 20
0.0
 11
0.4318
 21
0.2794
 12
0.0
 22
0.0
 32
0.0
 14
0.0
 24
0.0
 34
0.0
 15
0.4318
 25
0.2794
 35
0.0
146
0.0
 13
0.0
 23
0.0
 33
0.0
 16
1.0
 26
0.0
 36
0.0
 17
0.0
 27
1.0
 37
0.0
 76
     0
330
1F
331
29
  0
MLINESTYLE
  5
18
102
{ACAD_REACTORS
330
17
102
}
330
17
100
AcDbMlineStyle
  2
Standard
 70
     0
  3

 62
   256
 51
90.0
 52
90.0
 71
     2
 49
0.5
 62
   256
  6
BYLAYER
 49
-0.5
 62
   256
  6
BYLAYER
  0
ACDBPLACEHOLDER
  5
F
102
{ACAD_REACTORS
330
E
102
}
330
E
  0
SCALE
  5
48
102
{ACAD_REACTORS
330
47
102
}
330
47
100
AcDbScale
 70
     0
300
1:1
140
1.0
141
1.0
290
     1
  0
SCALE
  5
49
102
{ACAD_REACTORS
330
47
102
}
330
47
100
AcDbScale
 70
     0
300
1:2
140
1.0
141
2.0
290
     0
  0
SCALE
  5
4A
102
{ACAD_REACTORS
330
47
102
}
330
47
100
AcDbScale
 70
     0
300
1:4
140
1.0
141
4.0
290
     0
  0
SCALE
  5
4B
102
{ACAD_REACTORS
330
47
102
}
330
47
100
AcDbScale
 70
     0
300
1:5
140
1.0
141
5.0
290
     0
  0
SCALE
  5
4C
102
{ACAD_REACTORS
330
47
102
}
330
47
100
AcDbScale
 70
     0
300
1:8
140
1.0
141
8.0
290
     0
  0
SCALE
  5
4D
102
{ACAD_REACTORS
330
47
102
}
330
47
100
AcDbScale
 70
     0
300
1:10
140
1.0
141
10.0
290
     0
  0
SCALE
  5
4E
102
{ACAD_REACTORS
330
47
102
}
330
47
100
AcDbScale
 70
     0
300
1:16
140
1.0
141
16.0
290
     0
  0
SCALE
  5
4F
102
{ACAD_REACTORS
330
47
102
}
330
47
100
AcDbScale
 70
     0
300
1:20
140
1.0
141
20.0
290
     0
  0
SCALE
  5
50
102
{ACAD_REACTORS
330
47
102
}
330
47
100
AcDbScale
 70
     0
300
1:30
140
1.0
141
30.0
290
     0
  0
SCALE
  5
51
102
{ACAD_REACTORS
330
47
102
}
330
47
100
AcDbScale
 70
     0
300
1:40
140
1.0
141
40.0
290
     0
  0
SCALE
  5
52
102
{ACAD_REACTORS
330
47
102
}
330
47
100
AcDbScale
 70
     0
300
1:50
140
1.0
141
50.0
290
     0
  0
SCALE
  5
53
102
{ACAD_REACTORS
330
47
102
}
330
47
100
AcDbScale
 70
     0
300
1:100
140
1.0
141
100.0
290
     0
  0
SCALE
  5
54
102
{ACAD_REACTORS
330
47
102
}
330
47
100
AcDbScale
 70
     0
300
2:1
140
2.0
141
1.0
290
     0
  0
SCALE
  5
55
102
{ACAD_REACTORS
330
47
102
}
330
47
100
AcDbScale
 70
     0
300
4:1
140
4.0
141
1.0
290
     0
  0
SCALE
  5
56
102
{ACAD_REACTORS
330
47
102
}
330
47
100
AcDbScale
 70
     0
300
8:1
140
8.0
141
1.0
290
     0
  0
SCALE
  5
57
102
{ACAD_REACTORS
330
47
102
}
330
47
100
AcDbScale
 70
     0
300
10:1
140
10.0
141
1.0
290
     0
  0
SCALE
  5
58
102
{ACAD_REACTORS
330
47
102
}
330
47
100
AcDbScale
 70
     0
300
100:1
140
100.0
141
1.0
290
     0
  0
SCALE
  5
59
102
{ACAD_REACTORS
330
47
102
}
330
47
100
AcDbScale
 70
     0
300
1/128" = 1'-0"
140
0.0078125
141
12.0
290
     0
  0
SCALE
  5
5A
102
{ACAD_REACTORS
330
47
102
}
330
47
100
AcDbScale
 70
     0
300
1/64" = 1'-0"
140
0.015625
141
12.0
290
     0
  0
SCALE
  5
5B
102
{ACAD_REACTORS
330
47
102
}
330
47
100
AcDbScale
 70
     0
300
1/32" = 1'-0"
140
0.03125
141
12.0
290
     0
  0
SCALE
  5
5C
102
{ACAD_REACTORS
330
47
102
}
330
47
100
AcDbScale
 70
     0
300
1/16" = 1'-0"
140
0.0625
141
12.0
290
     0
  0
SCALE
  5
5D
102
{ACAD_REACTORS
330
47
102
}
330
47
100
AcDbScale
 70
     0
300
3/32" = 1'-0"
140
0.09375
141
12.0
290
     0
  0
SCALE
  5
5E
102
{ACAD_REACTORS
330
47
102
}
330
47
100
AcDbScale
 70
     0
300
1/8" = 1'-0"
140
0.125
141
12.0
290
     0
  0
SCALE
  5
5F
102
{ACAD_REACTORS
330
47
102
}
330
47
100
AcDbScale
 70
     0
300
3/16" = 1'-0"
140
0.1875
141
12.0
290
     0
  0
SCALE
  5
60
102
{ACAD_REACTORS
330
47
102
}
330
47
100
AcDbScale
 70
     0
300
1/4" = 1'-0"
140
0.25
141
12.0
290
     0
  0
SCALE
  5
61
102
{ACAD_REACTORS
330
47
102
}
330
47
100
AcDbScale
 70
     0
300
3/8" = 1'-0"
140
0.375
141
12.0
290
     0
  0
SCALE
  5
62
102
{ACAD_REACTORS
330
47
102
}
330
47
100
AcDbScale
 70
     0
300
1/2" = 1'-0"
140
0.5
141
12.0
290
     0
  0
SCALE
  5
63
102
{ACAD_REACTORS
330
47
102
}
330
47
100
AcDbScale
 70
     0
300
3/4" = 1'-0"
140
0.75
141
12.0
290
     0
  0
SCALE
  5
64
102
{ACAD_REACTORS
330
47
102
}
330
47
100
AcDbScale
 70
     0
300
1" = 1'-0"
140
1.0
141
12.0
290
     0
  0
SCALE
  5
65
102
{ACAD_REACTORS
330
47
102
}
330
47
100
AcDbScale
 70
     0
300
1-1/2" = 1'-0"
140
1.5
141
12.0
290
     0
  0
SCALE
  5
66
102
{ACAD_REACTORS
330
47
102
}
330
47
100
AcDbScale
 70
     0
300
3" = 1'-0"
140
3.0
141
12.0
290
     0
  0
SCALE
  5
67
102
{ACAD_REACTORS
330
47
102
}
330
47
100
AcDbScale
 70
     0
300
6" = 1'-0"
140
6.0
141
12.0
290
     0
  0
SCALE
  5
68
102
{ACAD_REACTORS
330
47
102
}
330
47
100
AcDbScale
 70
     0
300
1'-0" = 1'-0"
140
12.0
141
12.0
290
     0
  0
ENDSEC
  0
EOF
