  0
SECTION
  2
HEADER
  9
$ACADVER
  1
AC1015
  9
$ACADMAINTVER
 70
     6
  9
$DWGCODEPAGE
  3
ANSI_1250
  9
$INSBASE
 10
0.0
 20
0.0
 30
0.0
  9
$EXTMIN
 10
0.0
 20
0.0
 30
0.0
  9
$EXTMAX
 10
0.4318
 20
0.2794
 30
0.0
  9
$LIMMIN
 10
0.0
 20
0.0
  9
$LIMMAX
 10
0.4318
 20
0.2794
  9
$ORTHOMODE
 70
     0
  9
$REGENMODE
 70
     1
  9
$FILLMODE
 70
     1
  9
$QTEXTMODE
 70
     0
  9
$MIRRTEXT
 70
     1
  9
$LTSCALE
 40
1.0
  9
$ATTMODE
 70
     1
  9
$TEXTSIZE
 40
0.0035
  9
$TRACEWID
 40
1.0
  9
$TEXTSTYLE
  7
Standard
  9
$CLAYER
  8
0
  9
$CELTYPE
  6
ByLayer
  9
$CECOLOR
 62
   256
  9
$CELTSCALE
 40
1.0
  9
$DISPSILH
 70
     0
  9
$DIMSCALE
 40
1.0
  9
$DIMASZ
 40
0.003302
  9
$DIMEXO
 40
0.001
  9
$DIMDLI
 40
3.75
  9
$DIMRND
 40
0.0
  9
$DIMDLE
 40
0.0
  9
$DIMEXE
 40
0.001
  9
$DIMTP
 40
0.0
  9
$DIMTM
 40
0.0
  9
$DIMTXT
 40
0.0035
  9
$DIMCEN
 40
2.5
  9
$DIMTSZ
 40
0.0
  9
$DIMTOL
 70
     0
  9
$DIMLIM
 70
     0
  9
$DIMTIH
 70
     1
  9
$DIMTOH
 70
     1
  9
$DIMSE1
 70
     0
  9
$DIMSE2
 70
     0
  9
$DIMTAD
 70
     1
  9
$DIMZIN
 70
     0
  9
$DIMBLK
  1

  9
$DIMASO
 70
     1
  9
$DIMSHO
 70
     1
  9
$DIMPOST
  1

  9
$DIMAPOST
  1

  9
$DIMALT
 70
     0
  9
$DIMALTD
 70
     3
  9
$DIMALTF
 40
39.3700787402
  9
$DIMLFAC
 40
1.0
  9
$DIMTOFL
 70
     1
  9
$DIMTVP
 40
0.0
  9
$DIMTIX
 70
     0
  9
$DIMSOXD
 70
     0
  9
$DIMSAH
 70
     0
  9
$DIMBLK1
  1

  9
$DIMBLK2
  1

  9
$DIMSTYLE
  2
ISO-25
  9
$DIMCLRD
 70
     0
  9
$DIMCLRE
 70
     0
  9
$DIMCLRT
 70
     0
  9
$DIMTFAC
 40
1.0
  9
$DIMGAP
 40
0.001524
  9
$DIMJUST
 70
     0
  9
$DIMSD1
 70
     0
  9
$DIMSD2
 70
     0
  9
$DIMTOLJ
 70
     0
  9
$DIMTZIN
 70
     0
  9
$DIMALTZ
 70
     0
  9
$DIMALTTZ
 70
     0
  9
$DIMUPT
 70
     0
  9
$DIMDEC
 70
     2
  9
$DIMTDEC
 70
     2
  9
$DIMALTU
 70
     2
  9
$DIMALTTD
 70
     3
  9
$DIMTXSTY
  7
Standard
  9
$DIMAUNIT
 70
     0
  9
$DIMADEC
 70
     2
  9
$DIMALTRND
 40
0.0
  9
$DIMAZIN
 70
     0
  9
$DIMDSEP
 70
    44
  9
$DIMATFIT
 70
     3
  9
$DIMFRAC
 70
     0
  9
$DIMLDRBLK
  1

  9
$DIMLUNIT
 70
     2
  9
$DIMLWD
 70
    -2
  9
$DIMLWE
 70
    -2
  9
$DIMTMOVE
 70
     0
  9
$LUNITS
 70
     2
  9
$LUPREC
 70
     2
  9
$SKETCHINC
 40
1.0
  9
$FILLETRAD
 40
10.0
  9
$AUNITS
 70
     0
  9
$AUPREC
 70
     2
  9
$MENU
  1
.
  9
$ELEVATION
 40
0.0
  9
$PELEVATION
 40
0.0
  9
$THICKNESS
 40
0.0
  9
$LIMCHECK
 70
     0
  9
$CHAMFERA
 40
0.0
  9
$CHAMFERB
 40
0.0
  9
$CHAMFERC
 40
0.0
  9
$CHAMFERD
 40
0.0
  9
$SKPOLY
 70
     0
  9
$TDCREATE
 40
2458715.598494398
  9
$TDUCREATE
 40
2458715.515161065
  9
$TDUPDATE
 40
2458715.598494931
  9
$TDUUPDATE
 40
2458715.515161597
  9
$TDINDWG
 40
0.0000000116
  9
$TDUSRTIMER
 40
0.0000000116
  9
$USRTIMER
 70
     1
  9
$ANGBASE
 50
0.0
  9
$ANGDIR
 70
     0
  9
$PDMODE
 70
     0
  9
$PDSIZE
 40
-1.0
  9
$PLINEWID
 40
0.0
  9
$SPLFRAME
 70
     0
  9
$SPLINETYPE
 70
     6
  9
$SPLINESEGS
 70
     8
  9
$HANDSEED
  5
1B5
  9
$SURFTAB1
 70
     6
  9
$SURFTAB2
 70
     6
  9
$SURFTYPE
 70
     6
  9
$SURFU
 70
     6
  9
$SURFV
 70
     6
  9
$UCSBASE
  2

  9
$UCSNAME
  2

  9
$UCSORG
 10
0.0
 20
0.0
 30
0.0
  9
$UCSXDIR
 10
1.0
 20
0.0
 30
0.0
  9
$UCSYDIR
 10
0.0
 20
1.0
 30
0.0
  9
$UCSORTHOREF
  2

  9
$UCSORTHOVIEW
 70
     0
  9
$UCSORGTOP
 10
0.0
 20
0.0
 30
0.0
  9
$UCSORGBOTTOM
 10
0.0
 20
0.0
 30
0.0
  9
$UCSORGLEFT
 10
0.0
 20
0.0
 30
0.0
  9
$UCSORGRIGHT
 10
0.0
 20
0.0
 30
0.0
  9
$UCSORGFRONT
 10
0.0
 20
0.0
 30
0.0
  9
$UCSORGBACK
 10
0.0
 20
0.0
 30
0.0
  9
$PUCSBASE
  2

  9
$PUCSNAME
  2

  9
$PUCSORG
 10
0.0
 20
0.0
 30
0.0
  9
$PUCSXDIR
 10
1.0
 20
0.0
 30
0.0
  9
$PUCSYDIR
 10
0.0
 20
1.0
 30
0.0
  9
$PUCSORTHOREF
  2

  9
$PUCSORTHOVIEW
 70
     0
  9
$PUCSORGTOP
 10
0.0
 20
0.0
 30
0.0
  9
$PUCSORGBOTTOM
 10
0.0
 20
0.0
 30
0.0
  9
$PUCSORGLEFT
 10
0.0
 20
0.0
 30
0.0
  9
$PUCSORGRIGHT
 10
0.0
 20
0.0
 30
0.0
  9
$PUCSORGFRONT
 10
0.0
 20
0.0
 30
0.0
  9
$PUCSORGBACK
 10
0.0
 20
0.0
 30
0.0
  9
$USERI1
 70
     0
  9
$USERI2
 70
     0
  9
$USERI3
 70
     0
  9
$USERI4
 70
     0
  9
$USERI5
 70
     0
  9
$USERR1
 40
0.0
  9
$USERR2
 40
0.0
  9
$USERR3
 40
0.0
  9
$USERR4
 40
0.0
  9
$USERR5
 40
0.0
  9
$WORLDVIEW
 70
     1
  9
$SHADEDGE
 70
     3
  9
$SHADEDIF
 70
    70
  9
$TILEMODE
 70
     1
  9
$MAXACTVP
 70
    64
  9
$PINSBASE
 10
0.0
 20
0.0
 30
0.0
  9
$PLIMCHECK
 70
     0
  9
$PEXTMIN
 10
1.0000000000E+20
 20
1.0000000000E+20
 30
1.0000000000E+20
  9
$PEXTMAX
 10
-1.0000000000E+20
 20
-1.0000000000E+20
 30
-1.0000000000E+20
  9
$PLIMMIN
 10
0.0
 20
0.0
  9
$PLIMMAX
 10
420.0
 20
297.0
  9
$UNITMODE
 70
     0
  9
$VISRETAIN
 70
     1
  9
$PLINEGEN
 70
     0
  9
$PSLTSCALE
 70
     1
  9
$TREEDEPTH
 70
  3020
  9
$CMLSTYLE
  2
Standard
  9
$CMLJUST
 70
     0
  9
$CMLSCALE
 40
20.0
  9
$PROXYGRAPHICS
 70
     1
  9
$MEASUREMENT
 70
     1
  9
$CELWEIGHT
370
    -1
  9
$ENDCAPS
280
     0
  9
$JOINSTYLE
280
     0
  9
$LWDISPLAY
290
     1
  9
$INSUNITS
 70
     4
  9
$HYPERLINKBASE
  1

  9
$STYLESHEET
  1

  9
$XEDIT
290
     1
  9
$CEPSNTYPE
380
     0
  9
$PSTYLEMODE
290
     1
  9
$FINGERPRINTGUID
  2
{15F7408A-6731-4632-80B9-19994DAA1487}
  9
$VERSIONGUID
  2
{FAEB1C32-E019-11D5-929B-00C0DF256EC4}
  9
$EXTNAMES
290
     1
  9
$PSVPSCALE
 40
0.0
  9
$OLESTARTUP
290
     0
  0
ENDSEC
  0
SECTION
  2
CLASSES
  0
CLASS
  1
ACDBDICTIONARYWDFLT
  2
AcDbDictionaryWithDefault
  3
ObjectDBX Classes
 90
        0
280
     0
281
     0
  0
CLASS
  1
VISUALSTYLE
  2
AcDbVisualStyle
  3
ObjectDBX Classes
 90
     4095
280
     0
281
     0
  0
CLASS
  1
MATERIAL
  2
AcDbMaterial
  3
ObjectDBX Classes
 90
     1153
280
     0
281
     0
  0
CLASS
  1
SCALE
  2
AcDbScale
  3
ObjectDBX Classes
 90
     1153
280
     0
281
     0
  0
CLASS
  1
TABLESTYLE
  2
AcDbTableStyle
  3
ObjectDBX Classes
 90
     4095
280
     0
281
     0
  0
CLASS
  1
MLEADERSTYLE
  2
AcDbMLeaderStyle
  3
ACDB_MLEADERSTYLE_CLASS
 90
     4095
280
     0
281
     0
  0
CLASS
  1
SUN
  2
AcDbSun
  3
SCENEOE
 90
     1153
280
     0
281
     0
  0
CLASS
  1
ACDBPLACEHOLDER
  2
AcDbPlaceHolder
  3
ObjectDBX Classes
 90
        0
280
     0
281
     0
  0
CLASS
  1
LAYOUT
  2
AcDbLayout
  3
ObjectDBX Classes
 90
        0
280
     0
281
     0
  0
ENDSEC
  0
SECTION
  2
TABLES
  0
TABLE
  2
VPORT
  5
8
330
0
100
AcDbSymbolTable
 70
     1
  0
VPORT
  5
29
330
8
100
AcDbSymbolTableRecord
100
AcDbViewportTableRecord
  2
*Active
 70
     0
 10
0.0
 20
0.0
 11
1.0
 21
1.0
 12
0.2159
 22
0.1397
 13
0.0
 23
0.0
 14
10.0
 24
10.0
 15
10.0
 25
10.0
 16
0.0
 26
0.0
 36
1.0
 17
0.0
 27
0.0
 37
0.0
 40
0.2794
 41
1.5454545455
 42
50.0
 43
0.0
 44
0.0
 50
0.0
 51
0.0
 71
     0
 72
  2000
 73
     1
 74
     3
 75
     0
 76
     0
 77
     0
 78
     0
281
     0
 65
     1
110
0.0
120
0.0
130
0.0
111
1.0
121
0.0
131
0.0
112
0.0
122
1.0
132
0.0
 79
     0
146
0.0
  0
ENDTAB
  0
TABLE
  2
LTYPE
  5
5
330
0
100
AcDbSymbolTable
 70
     6
  0
LTYPE
  5
14
330
5
100
AcDbSymbolTableRecord
100
AcDbLinetypeTableRecord
  2
ByBlock
 70
     0
  3

 72
    65
 73
     0
 40
0.0
  0
LTYPE
  5
15
330
5
100
AcDbSymbolTableRecord
100
AcDbLinetypeTableRecord
  2
ByLayer
 70
     0
  3

 72
    65
 73
     0
 40
0.0
  0
LTYPE
  5
16
330
5
100
AcDbSymbolTableRecord
100
AcDbLinetypeTableRecord
  2
Continuous
 70
     0
  3
Solid line
 72
    65
 73
     0
 40
0.0
  0
LTYPE
  5
6E
330
5
100
AcDbSymbolTableRecord
100
AcDbLinetypeTableRecord
  2
HIDDEN
 70
     0
  3
Hidden __ __ __ __ __ __ __ __ __ __ __ __ __ __
 72
    65
 73
     2
 40
0.001905
 49
0.00127
 74
     0
 49
-0.000635
 74
     0
  0
LTYPE
  5
6F
330
5
100
AcDbSymbolTableRecord
100
AcDbLinetypeTableRecord
  2
PHANTOM
 70
     0
  3
Phantom ______  __  __  ______  __  __  ______
 72
    65
 73
     6
 40
0.0127
 49
0.00635
 74
     0
 49
-0.00127
 74
     0
 49
0.00127
 74
     0
 49
-0.00127
 74
     0
 49
0.00127
 74
     0
 49
-0.00127
 74
     0
  0
LTYPE
  5
70
330
5
100
AcDbSymbolTableRecord
100
AcDbLinetypeTableRecord
  2
CENTER
 70
     0
  3
Center ____ _ ____ _ ____ _ ____ _ ____ _ ____
 72
    65
 73
     4
 40
0.01016
 49
0.00635
 74
     0
 49
-0.00127
 74
     0
 49
0.00127
 74
     0
 49
-0.00127
 74
     0
  0
LTYPE
  5
71
330
5
100
AcDbSymbolTableRecord
100
AcDbLinetypeTableRecord
  2
CENTERX2
 70
     0
  3
Center (2x) ________  __  ________  __  _____
 72
    65
 73
     4
 40
0.02032
 49
0.0127
 74
     0
 49
-0.00254
 74
     0
 49
0.00254
 74
     0
 49
-0.00254
 74
     0
  0
LTYPE
  5
72
330
5
100
AcDbSymbolTableRecord
100
AcDbLinetypeTableRecord
  2
DOT2
 70
     0
  3
Dot (.5x) ........................................
 72
    65
 73
     2
 40
0.000635
 49
0.0
 74
     0
 49
-0.000635
 74
     0
  0
ENDTAB
  0
TABLE
  2
LAYER
  5
2
330
0
100
AcDbSymbolTable
 70
     1
  0
LAYER
  5
10
330
2
100
AcDbSymbolTableRecord
100
AcDbLayerTableRecord
  2
0
 70
     0
 62
     7
  6
Continuous
370
    -3
390
F
  0
ENDTAB
  0
TABLE
  2
STYLE
  5
3
330
0
100
AcDbSymbolTable
 70
     1
  0
STYLE
  5
11
330
3
100
AcDbSymbolTableRecord
100
AcDbTextStyleTableRecord
  2
Standard
 70
     0
 40
0.0
 41
1.0
 50
0.0
 71
     0
 42
0.0035
  3
txt
  4

  0
ENDTAB
  0
TABLE
  2
VIEW
  5
6
330
0
100
AcDbSymbolTable
 70
     0
  0
ENDTAB
  0
TABLE
  2
UCS
  5
7
330
0
100
AcDbSymbolTable
 70
     0
  0
ENDTAB
  0
TABLE
  2
APPID
  5
9
330
0
100
AcDbSymbolTable
 70
     1
  0
APPID
  5
12
330
9
100
AcDbSymbolTableRecord
100
AcDbRegAppTableRecord
  2
ACAD
 70
     0
  0
ENDTAB
  0
TABLE
  2
DIMSTYLE
  5
A
330
0
100
AcDbSymbolTable
 70
     1
100
AcDbDimStyleTable
  0
DIMSTYLE
105
27
330
A
100
AcDbSymbolTableRecord
100
AcDbDimStyleTableRecord
  2
ISO-25
 70
     0
 41
2.5
 42
0.625
 43
3.75
 44
1.25
 73
     0
 74
     0
 77
     1
 78
     8
140
2.5
141
2.5
143
0.0393700787
147
0.625
171
     3
172
     1
178
     0
271
     2
272
     2
274
     3
278
    44
283
     0
284
     8
340
11
  0
ENDTAB
  0
TABLE
  2
BLOCK_RECORD
  5
1
330
0
100
AcDbSymbolTable
 70
     1
  0
BLOCK_RECORD
  5
1F
330
1
100
AcDbSymbolTableRecord
100
AcDbBlockTableRecord
  2
*Model_Space
340
22
  0
BLOCK_RECORD
  5
1B
330
1
100
AcDbSymbolTableRecord
100
AcDbBlockTableRecord
  2
*Paper_Space
340
1E
  0
BLOCK_RECORD
  5
23
330
1
100
AcDbSymbolTableRecord
100
AcDbBlockTableRecord
  2
*Paper_Space0
340
26
  0
ENDTAB
  0
ENDSEC
  0
SECTION
  2
BLOCKS
  0
BLOCK
  5
20
330
1F
100
AcDbEntity
  8
0
100
AcDbBlockBegin
  2
*Model_Space
 70
     0
 10
0.0
 20
0.0
 30
0.0
  3
*Model_Space
  1

  0
ENDBLK
  5
21
330
1F
100
AcDbEntity
  8
0
100
AcDbBlockEnd
  0
BLOCK
  5
1C
330
1B
100
AcDbEntity
 67
     1
  8
0
100
AcDbBlockBegin
  2
*Paper_Space
 70
     0
 10
0.0
 20
0.0
 30
0.0
  3
*Paper_Space
  1

  0
ENDBLK
  5
1D
330
1B
100
AcDbEntity
 67
     1
  8
0
100
AcDbBlockEnd
  0
BLOCK
  5
24
330
23
100
AcDbEntity
  8
0
100
AcDbBlockBegin
  2
*Paper_Space0
 70
     0
 10
0.0
 20
0.0
 30
0.0
  3
*Paper_Space0
  1

  0
ENDBLK
  5
25
330
23
100
AcDbEntity
  8
0
100
AcDbBlockEnd
  0
ENDSEC
  0
SECTION
  2
ENTITIES
  0
LINE
  5
73
330
1F
100
AcDbEntity
  8
0
  6
Continuous
 62
     7
370
    25
100
AcDbLine
 10
0.2231350802
 20
0.1351017401
 30
0.0
 11
0.2231350802
 21
0.1450828685
 31
0.0
  0
LINE
  5
74
330
1F
100
AcDbEntity
  8
0
  6
Continuous
 62
     7
370
    25
100
AcDbLine
 10
0.2231350802
 20
0.2450828685
 30
0.0
 11
0.2231350802
 21
0.2551017401
 31
0.0
  0
LINE
  5
75
330
1F
100
AcDbEntity
  8
0
  6
Continuous
 62
     7
370
    25
100
AcDbLine
 10
0.1891430146
 20
0.2551017401
 30
0.0
 11
0.1891430146
 21
0.2450828685
 31
0.0
  0
LINE
  5
76
330
1F
100
AcDbEntity
  8
0
  6
Continuous
 62
     7
370
    25
100
AcDbLine
 10
0.1891430146
 20
0.1450828685
 30
0.0
 11
0.1891430146
 21
0.1351017401
 31
0.0
  0
ARC
  5
77
330
1F
100
AcDbEntity
  8
0
  6
Continuous
 62
     7
370
    25
100
AcDbCircle
 10
0.9301555814
 20
0.1069396628
 30
0.0
 40
0.0134500000000001
100
AcDbArc
 50
180.0
 51
0.0
  0
LINE
  5
78
330
1F
100
AcDbEntity
  8
0
  6
Continuous
 62
     7
370
    25
100
AcDbLine
 10
0.9436055814
 20
0.1069396628
 30
0.0
 11
0.9436055814
 21
0.1530373851
 31
0.0
  0
LINE
  5
79
330
1F
100
AcDbEntity
  8
0
  6
Continuous
 62
     7
370
    25
100
AcDbLine
 10
0.9167055814
 20
0.1530373851
 30
0.0
 11
0.9167055814
 21
0.1069396628
 31
0.0
  0
ARC
  5
7A
330
1F
100
AcDbEntity
  8
0
  6
Continuous
 62
     7
370
    25
100
AcDbCircle
 10
1.4301555814
 20
0.1069396628
 30
0.0
 40
0.01345
100
AcDbArc
 50
180.0
 51
0.0
  0
LINE
  5
7B
330
1F
100
AcDbEntity
  8
0
  6
Continuous
 62
     7
370
    25
100
AcDbLine
 10
1.4436055814
 20
0.1069396628
 30
0.0
 11
1.4436055814
 21
0.1530373851
 31
0.0
  0
LINE
  5
7C
330
1F
100
AcDbEntity
  8
0
  6
Continuous
 62
     7
370
    25
100
AcDbLine
 10
1.4167055814
 20
0.1530373851
 30
0.0
 11
1.4167055814
 21
0.1069396628
 31
0.0
  0
ARC
  5
7D
330
1F
100
AcDbEntity
  8
0
  6
Continuous
 62
     7
370
    25
100
AcDbCircle
 10
-0.9309117497
 20
0.1039180816
 30
0.0
 40
0.01345
100
AcDbArc
 50
180.0
 51
0.0
  0
LINE
  5
7E
330
1F
100
AcDbEntity
  8
0
  6
Continuous
 62
     7
370
    25
100
AcDbLine
 10
-0.9174617497
 20
0.1039180816
 30
0.0
 11
-0.9174617497
 21
0.150015804
 31
0.0
  0
LINE
  5
7F
330
1F
100
AcDbEntity
  8
0
  6
Continuous
 62
     7
370
    25
100
AcDbLine
 10
-0.9443617497
 20
0.150015804
 30
0.0
 11
-0.9443617497
 21
0.1039180816
 31
0.0
  0
ARC
  5
80
330
1F
100
AcDbEntity
  8
0
  6
Continuous
 62
     7
370
    25
100
AcDbCircle
 10
-0.4309117497
 20
0.1039180816
 30
0.0
 40
0.0134500000000001
100
AcDbArc
 50
180.0
 51
0.0
  0
LINE
  5
81
330
1F
100
AcDbEntity
  8
0
  6
Continuous
 62
     7
370
    25
100
AcDbLine
 10
-0.4174617497
 20
0.1039180816
 30
0.0
 11
-0.4174617497
 21
0.150015804
 31
0.0
  0
LINE
  5
82
330
1F
100
AcDbEntity
  8
0
  6
Continuous
 62
     7
370
    25
100
AcDbLine
 10
-0.4443617497
 20
0.150015804
 30
0.0
 11
-0.4443617497
 21
0.1039180816
 31
0.0
  0
LINE
  5
83
330
1F
100
AcDbEntity
  8
0
  6
Continuous
 62
     7
370
    25
100
AcDbLine
 10
-0.4443617497
 20
0.2355393092
 30
0.0
 11
-0.4443617497
 21
0.150015804
 31
0.0
  0
LINE
  5
84
330
1F
100
AcDbEntity
  8
0
  6
Continuous
 62
     7
370
    25
100
AcDbLine
 10
-0.4174617497
 20
0.150015804
 30
0.0
 11
-0.4174617497
 21
0.2355393092
 31
0.0
  0
LINE
  5
85
330
1F
100
AcDbEntity
  8
0
  6
Continuous
 62
     7
370
    25
100
AcDbLine
 10
0.9167055814
 20
0.2385608904
 30
0.0
 11
0.9167055814
 21
0.1530373851
 31
0.0
  0
LINE
  5
86
330
1F
100
AcDbEntity
  8
0
  6
Continuous
 62
     7
370
    25
100
AcDbLine
 10
0.9436055814
 20
0.1530373851
 30
0.0
 11
0.9436055814
 21
0.2385608904
 31
0.0
  0
LINE
  5
87
330
1F
100
AcDbEntity
  8
0
  6
Continuous
 62
     7
370
    25
100
AcDbLine
 10
1.4167055814
 20
0.2385608904
 30
0.0
 11
1.4167055814
 21
0.1530373851
 31
0.0
  0
LINE
  5
88
330
1F
100
AcDbEntity
  8
0
  6
Continuous
 62
     7
370
    25
100
AcDbLine
 10
1.4436055814
 20
0.1530373851
 30
0.0
 11
1.4436055814
 21
0.2385608904
 31
0.0
  0
LINE
  5
89
330
1F
100
AcDbEntity
  8
0
  6
Continuous
 62
     7
370
    25
100
AcDbLine
 10
-0.9443617497
 20
0.2355393092
 30
0.0
 11
-0.9443617497
 21
0.150015804
 31
0.0
  0
LINE
  5
8A
330
1F
100
AcDbEntity
  8
0
  6
Continuous
 62
     7
370
    25
100
AcDbLine
 10
-0.9174617497
 20
0.150015804
 30
0.0
 11
-0.9174617497
 21
0.2355393092
 31
0.0
  0
ARC
  5
8B
330
1F
100
AcDbEntity
  8
0
  6
Continuous
 62
     7
370
    25
100
AcDbCircle
 10
-0.9309117497
 20
0.2816370315
 30
0.0
 40
0.01345
100
AcDbArc
 50
0.0
 51
180.0
  0
LINE
  5
8C
330
1F
100
AcDbEntity
  8
0
  6
Continuous
 62
     7
370
    25
100
AcDbLine
 10
-0.9174617497
 20
0.2355393092
 30
0.0
 11
-0.9174617497
 21
0.2816370315
 31
0.0
  0
LINE
  5
8D
330
1F
100
AcDbEntity
  8
0
  6
Continuous
 62
     7
370
    25
100
AcDbLine
 10
-0.9443617497
 20
0.2816370315
 30
0.0
 11
-0.9443617497
 21
0.2355393092
 31
0.0
  0
ARC
  5
8E
330
1F
100
AcDbEntity
  8
0
  6
Continuous
 62
     7
370
    25
100
AcDbCircle
 10
0.9301555814
 20
0.2846586127
 30
0.0
 40
0.0134500000000001
100
AcDbArc
 50
0.0
 51
180.0
  0
LINE
  5
8F
330
1F
100
AcDbEntity
  8
0
  6
Continuous
 62
     7
370
    25
100
AcDbLine
 10
0.9436055814
 20
0.2385608904
 30
0.0
 11
0.9436055814
 21
0.2846586127
 31
0.0
  0
LINE
  5
90
330
1F
100
AcDbEntity
  8
0
  6
Continuous
 62
     7
370
    25
100
AcDbLine
 10
0.9167055814
 20
0.2846586127
 30
0.0
 11
0.9167055814
 21
0.2385608904
 31
0.0
  0
ARC
  5
91
330
1F
100
AcDbEntity
  8
0
  6
Continuous
 62
     7
370
    25
100
AcDbCircle
 10
-0.4309117497
 20
0.2816370315
 30
0.0
 40
0.0134500000000001
100
AcDbArc
 50
0.0
 51
180.0
  0
LINE
  5
92
330
1F
100
AcDbEntity
  8
0
  6
Continuous
 62
     7
370
    25
100
AcDbLine
 10
-0.4174617497
 20
0.2355393092
 30
0.0
 11
-0.4174617497
 21
0.2816370315
 31
0.0
  0
LINE
  5
93
330
1F
100
AcDbEntity
  8
0
  6
Continuous
 62
     7
370
    25
100
AcDbLine
 10
-0.4443617497
 20
0.2816370315
 30
0.0
 11
-0.4443617497
 21
0.2355393092
 31
0.0
  0
ARC
  5
94
330
1F
100
AcDbEntity
  8
0
  6
Continuous
 62
     7
370
    25
100
AcDbCircle
 10
1.4301555814
 20
0.2846586127
 30
0.0
 40
0.01345
100
AcDbArc
 50
0.0
 51
180.0
  0
LINE
  5
95
330
1F
100
AcDbEntity
  8
0
  6
Continuous
 62
     7
370
    25
100
AcDbLine
 10
1.4436055814
 20
0.2385608904
 30
0.0
 11
1.4436055814
 21
0.2846586127
 31
0.0
  0
LINE
  5
96
330
1F
100
AcDbEntity
  8
0
  6
Continuous
 62
     7
370
    25
100
AcDbLine
 10
1.4167055814
 20
0.2846586127
 30
0.0
 11
1.4167055814
 21
0.2385608904
 31
0.0
  0
SPLINE
  5
97
330
1F
100
AcDbEntity
  8
0
  6
Continuous
 62
     7
370
    25
100
AcDbSpline
210
0.0
220
0.0
230
1.0
 70
     8
 71
     3
 72
    26
 73
    22
 74
     0
 42
0.000000001
 43
0.00000001
 40
0.0
 40
0.0
 40
0.0
 40
0.0
 40
0.0677846418452879
 40
0.1355586397705886
 40
0.2035922673369954
 40
0.2718263897081964
 40
0.3398442637703307
 40
0.407882385505197
 40
0.4761370795526084
 40
0.54417467449273
 40
0.5732964750167128
 40
0.6024971674497084
 40
0.6315291285399677
 40
0.6604199682584692
 40
0.6943668957168216
 40
0.7284652908114857
 40
0.7625289497710225
 40
0.8217498458651445
 40
0.8812148571342809
 40
0.9407217562402505
 40
1.0
 40
1.0
 40
1.0
 40
1.0
 10
1.708231319751111
 20
0.0730828684802925
 30
0.0
 10
1.704634316268224
 20
0.0731849013667367
 30
0.0
 10
1.697440874123865
 20
0.0733889511178556
 30
0.0
 10
1.686742927586675
 20
0.0750640088461541
 30
0.0
 10
1.676258575269041
 20
0.0778203491109857
 30
0.0
 10
1.666123729632811
 20
0.0817188545624792
 30
0.0
 10
1.656475313090891
 20
0.0867008085991048
 30
0.0
 10
1.647461027094069
 20
0.0927605086459198
 30
0.0
 10
1.639181058894823
 20
0.0997848101263626
 30
0.0
 10
1.633126969788145
 20
0.1061674450703507
 30
0.0
 10
1.628969397321329
 20
0.1114263051857132
 30
0.0
 10
1.626124628765534
 20
0.1150833878235889
 30
0.0
 10
1.623100346131959
 20
0.1185849550207328
 30
0.0
 10
1.619482710272163
 20
0.1218755170360602
 30
0.0
 10
1.615161960425358
 20
0.124696883814335
 30
0.0
 10
1.61032954568985
 20
0.12715823896383
 30
0.0
 10
1.604061066500516
 20
0.1296948714094077
 30
0.0
 10
1.596322393340027
 20
0.132140730260558
 30
0.0
 10
1.587071465346529
 20
0.1341288348027183
 30
0.0
 10
1.577679183233916
 20
0.135357089451931
 30
0.0
 10
1.571376563504789
 20
0.135507705446877
 30
0.0
 10
1.568231319751111
 20
0.1355828684802927
 30
0.0
  0
LINE
  5
98
330
1F
100
AcDbEntity
  8
0
  6
Continuous
 62
     7
370
    25
100
AcDbLine
 10
1.7082313198
 20
0.0700828685
 30
0.0
 11
1.7082313198
 21
0.0730828685
 31
0.0
  0
SPLINE
  5
99
330
1F
100
AcDbEntity
  8
0
  6
Continuous
 62
     7
370
    25
100
AcDbSpline
210
0.0
220
0.0
230
1.0
 70
     8
 71
     3
 72
    27
 73
    23
 74
     0
 42
0.000000001
 43
0.00000001
 40
0.0
 40
0.0
 40
0.0
 40
0.0
 40
0.0568120424646719
 40
0.1136343289210148
 40
0.1721747720876214
 40
0.2306837846599316
 40
0.2784155994707945
 40
0.3027637673903396
 40
0.3270918267143367
 40
0.3548461523361861
 40
0.3826446935708061
 40
0.4393263004290605
 40
0.4912541522617523
 40
0.5431820665880612
 40
0.5966180499221605
 40
0.6500541360281049
 40
0.701963316501463
 40
0.7538732729184013
 40
0.8072419085164572
 40
0.8606127168510618
 40
0.9240364771487729
 40
1.0
 40
1.0
 40
1.0
 40
1.0
 10
1.568231319751111
 20
0.1325828684802928
 30
0.0
 10
1.571245945986183
 20
0.1325042507338412
 30
0.0
 10
1.577275742034848
 20
0.1323470010650778
 30
0.0
 10
1.586343048776501
 20
0.1311303870675551
 30
0.0
 10
1.595382081218389
 20
0.1292531683382938
 30
0.0
 10
1.603748399947133
 20
0.1266680263575093
 30
0.0
 10
1.610136965649507
 20
0.1239478848736349
 30
0.0
 10
1.614616951039908
 20
0.121471541501186
 30
0.0
 10
1.61798192923878
 20
0.1191945723859069
 30
0.0
 10
1.621141187334623
 20
0.1163467103412586
 30
0.0
 10
1.625030048451134
 20
0.1118287106474703
 30
0.0
 10
1.62928942687809
 20
0.1059698616586553
 30
0.0
 10
1.635087666752041
 20
0.0997106269207347
 30
0.0
 10
1.641204570379878
 20
0.0940255623478008
 30
0.0
 10
1.647858316897913
 20
0.0888406635968242
 30
0.0
 10
1.654923834846909
 20
0.0842371678843692
 30
0.0
 10
1.66228237648447
 20
0.0802869954360783
 30
0.0
 10
1.669936335081766
 20
0.076955742071754
 30
0.0
 10
1.677915672512595
 20
0.0742459060070848
 30
0.0
 10
1.686683398355859
 20
0.0720698426863502
 30
0.0
 10
1.696800991596135
 20
0.0704279228903533
 30
0.0
 10
1.704199349729151
 20
0.0702045840617216
 30
0.0
 10
1.708231319751111
 20
0.0700828684802926
 30
0.0
  0
LINE
  5
9A
330
1F
100
AcDbEntity
  8
0
  6
Continuous
 62
     7
370
    25
100
AcDbLine
 10
1.5682313198
 20
0.1325828685
 30
0.0
 11
1.5682313198
 21
0.1355828685
 31
0.0
  0
LINE
  5
9B
330
1F
100
AcDbEntity
  8
0
  6
Continuous
 62
     7
370
    25
100
AcDbLine
 10
1.7082313198
 20
0.3170828685
 30
0.0
 11
1.7082313198
 21
0.3200828685
 31
0.0
  0
SPLINE
  5
9C
330
1F
100
AcDbEntity
  8
0
  6
Continuous
 62
     7
370
    25
100
AcDbSpline
210
0.0
220
0.0
230
1.0
 70
     8
 71
     3
 72
    27
 73
    23
 74
     0
 42
0.000000001
 43
0.00000001
 40
0.0
 40
0.0
 40
0.0
 40
0.0
 40
0.0572854048131918
 40
0.1146719898074497
 40
0.1719672735390958
 40
0.2195188925563221
 40
0.2671228165326897
 40
0.314505020698668
 40
0.3493681886207453
 40
0.3845030077347392
 40
0.4199682148606074
 40
0.4552846111142763
 40
0.5059165779466688
 40
0.556548608973285
 40
0.6114284740050324
 40
0.6665340757337673
 40
0.7216432435586878
 40
0.7765279913919853
 40
0.8322765726536989
 40
0.8882367069618368
 40
0.9442198823205987
 40
1.0
 40
1.0
 40
1.0
 40
1.0
 10
1.568231319751111
 20
0.2545828684802924
 30
0.0
 10
1.571270147620196
 20
0.2546580755429488
 30
0.0
 10
1.577353170679325
 20
0.254808622502519
 30
0.0
 10
1.586412734047477
 20
0.2559885131101092
 30
0.0
 10
1.594842255453917
 20
0.2577397034152977
 30
0.0
 10
1.602630472816051
 20
0.2599445994115657
 30
0.0
 10
1.609696390948556
 20
0.2626512913944943
 30
0.0
 10
1.615868605061801
 20
0.2657704966957624
 30
0.0
 10
1.620855660568878
 20
0.2695476017182485
 30
0.0
 10
1.624724624963482
 20
0.2736060152189517
 30
0.0
 10
1.62829727243159
 20
0.2779402894324909
 30
0.0
 10
1.632309184566004
 20
0.2829777405940432
 30
0.0
 10
1.637196956675395
 20
0.2883358852638545
 30
0.0
 10
1.643279413583362
 20
0.2939692249959567
 30
0.0
 10
1.650025246533858
 20
0.2991902323067599
 30
0.0
 10
1.657415667995074
 20
0.3039067000843847
 30
0.0
 10
1.665195013183014
 20
0.3079499946902136
 30
0.0
 10
1.673336592693441
 20
0.3112946468872453
 30
0.0
 10
1.681796299026087
 20
0.3138879627130904
 30
0.0
 10
1.690506783873442
 20
0.3157240931913627
 30
0.0
 10
1.699343414880203
 20
0.3168699442050171
 30
0.0
 10
1.705272275420455
 20
0.3170119797411843
 30
0.0
 10
1.708231319751111
 20
0.3170828684802927
 30
0.0
  0
LINE
  5
9D
330
1F
100
AcDbEntity
  8
0
  6
Continuous
 62
     7
370
    25
100
AcDbLine
 10
1.5682313198
 20
0.2545828685
 30
0.0
 11
1.5682313198
 21
0.2575828685
 31
0.0
  0
SPLINE
  5
9E
330
1F
100
AcDbEntity
  8
0
  6
Continuous
 62
     7
370
    25
100
AcDbSpline
210
0.0
220
0.0
230
1.0
 70
     8
 71
     3
 72
    28
 73
    24
 74
     0
 42
0.000000001
 43
0.00000001
 40
0.0
 40
0.0
 40
0.0
 40
0.0
 40
0.0573952394407647
 40
0.1149995262153931
 40
0.1725807728114916
 40
0.2299444770362921
 40
0.2865259796551602
 40
0.3433388605205582
 40
0.4001481754253506
 40
0.456724795428339
 40
0.5089299922272245
 40
0.5611351248343284
 40
0.5949621292481772
 40
0.6289375992015501
 40
0.6625827508839622
 40
0.6959565070425469
 40
0.7413934841857455
 40
0.7870473683268708
 40
0.8326537545345747
 40
0.8724925808269374
 40
0.9123334816896311
 40
0.9561692100691928
 40
0.9999999999999999
 40
0.9999999999999999
 40
0.9999999999999999
 40
0.9999999999999999
 10
1.708231319751111
 20
0.3200828684802925
 30
0.0
 10
1.705186478728319
 20
0.3200097940607747
 30
0.0
 10
1.699085706635822
 20
0.319863379067042
 30
0.0
 10
1.689992978155031
 20
0.3186828662388785
 30
0.0
 10
1.681030137253089
 20
0.3167921641823912
 30
0.0
 10
1.672319830351162
 20
0.3141213176127569
 30
0.0
 10
1.663931604577247
 20
0.3106752072005272
 30
0.0
 10
1.65591150063889
 20
0.3065066006611152
 30
0.0
 10
1.648292595143238
 20
0.3016438040297493
 30
0.0
 10
1.641337037664029
 20
0.296261368832307
 30
0.0
 10
1.635067862789785
 20
0.2904512889602162
 30
0.0
 10
1.630113548695949
 20
0.285033737453791
 30
0.0
 10
1.62615612013029
 20
0.2800477198544062
 30
0.0
 10
1.622759240779912
 20
0.2758759222065321
 30
0.0
 10
1.619076800253763
 20
0.2719671261244938
 30
0.0
 10
1.614306175668586
 20
0.2683363167532598
 30
0.0
 10
1.608384368617093
 20
0.2653550064820605
 30
0.0
 10
1.601604228753013
 20
0.2627688436117093
 30
0.0
 10
1.594904923047859
 20
0.2608798912212269
 30
0.0
 10
1.588412435266346
 20
0.2594511854165273
 30
0.0
 10
1.581939142454923
 20
0.2584300039658349
 30
0.0
 10
1.575206569775069
 20
0.2577248813134341
 30
0.0
 10
1.570556315772735
 20
0.2576302043135512
 30
0.0
 10
1.568231319751111
 20
0.2575828684802928
 30
0.0
  0
ARC
  5
9F
330
1F
100
AcDbEntity
  8
0
  6
Continuous
 62
     7
370
    25
100
AcDbCircle
 10
1.5682313198
 20
0.1950828685
 30
0.0
 40
0.0595000000000001
100
AcDbArc
 50
90.0
 51
270.0
  0
ARC
  5
A0
330
1F
100
AcDbEntity
  8
0
  6
Continuous
 62
     7
370
    25
100
AcDbCircle
 10
1.5682313198
 20
0.1950828685
 30
0.0
 40
0.0625
100
AcDbArc
 50
90.0
 51
270.0
  0
CIRCLE
  5
A1
330
1F
100
AcDbEntity
  8
0
  6
Continuous
 62
     7
370
    25
100
AcDbCircle
 10
1.7082313198
 20
0.1950828685
 30
0.0
 40
0.009125
  0
CIRCLE
  5
A2
330
1F
100
AcDbEntity
  8
0
  6
Continuous
 62
     7
370
    25
100
AcDbCircle
 10
1.6082313198
 20
0.1950828685
 30
0.0
 40
0.009125
  0
ARC
  5
A3
330
1F
100
AcDbEntity
  8
0
  6
Continuous
 62
     7
370
    25
100
AcDbCircle
 10
1.7082313198
 20
0.1950828685
 30
0.0
 40
0.1220000000000001
100
AcDbArc
 50
270.0
 51
90.0
  0
ARC
  5
A4
330
1F
100
AcDbEntity
  8
0
  6
Continuous
 62
     7
370
    25
100
AcDbCircle
 10
1.7082313198
 20
0.1950828685
 30
0.0
 40
0.125
100
AcDbArc
 50
270.0
 51
90.0
  0
SPLINE
  5
A5
330
1F
100
AcDbEntity
  8
0
  6
Continuous
 62
     7
370
    25
100
AcDbSpline
210
0.0
220
0.0
230
1.0
 70
     8
 71
     3
 72
    26
 73
    22
 74
     0
 42
0.000000001
 43
0.00000001
 40
0.0
 40
0.0
 40
0.0
 40
0.0
 40
0.0677846418452879
 40
0.1355586397705886
 40
0.2035922673369947
 40
0.2718263897081958
 40
0.3398442637703306
 40
0.4078823855051963
 40
0.4761370795526083
 40
0.5441746744927305
 40
0.5732964750167131
 40
0.6024971674497088
 40
0.6315291285399677
 40
0.6604199682584692
 40
0.6943668957168216
 40
0.7284652908114851
 40
0.7625289497710225
 40
0.8217498458651445
 40
0.8812148571342803
 40
0.9407217562402505
 40
1.0
 40
1.0
 40
1.0
 40
1.0
 10
1.208231319751111
 20
0.0730828684802925
 30
0.0
 10
1.204634316268224
 20
0.0731849013667367
 30
0.0
 10
1.197440874123866
 20
0.0733889511178554
 30
0.0
 10
1.186742927586675
 20
0.075064008846155
 30
0.0
 10
1.176258575269042
 20
0.0778203491109857
 30
0.0
 10
1.166123729632811
 20
0.0817188545624797
 30
0.0
 10
1.156475313090891
 20
0.0867008085991046
 30
0.0
 10
1.147461027094069
 20
0.0927605086459196
 30
0.0
 10
1.139181058894822
 20
0.0997848101263634
 30
0.0
 10
1.133126969788146
 20
0.1061674450703498
 30
0.0
 10
1.128969397321328
 20
0.1114263051857136
 30
0.0
 10
1.126124628765534
 20
0.1150833878235887
 30
0.0
 10
1.123100346131959
 20
0.1185849550207332
 30
0.0
 10
1.119482710272163
 20
0.1218755170360604
 30
0.0
 10
1.115161960425359
 20
0.1246968838143348
 30
0.0
 10
1.11032954568985
 20
0.12715823896383
 30
0.0
 10
1.104061066500516
 20
0.1296948714094075
 30
0.0
 10
1.096322393340027
 20
0.1321407302605578
 30
0.0
 10
1.087071465346528
 20
0.1341288348027188
 30
0.0
 10
1.077679183233917
 20
0.1353570894519303
 30
0.0
 10
1.071376563504789
 20
0.135507705446877
 30
0.0
 10
1.068231319751111
 20
0.1355828684802927
 30
0.0
  0
LINE
  5
A6
330
1F
100
AcDbEntity
  8
0
  6
Continuous
 62
     7
370
    25
100
AcDbLine
 10
1.2082313198
 20
0.0700828685
 30
0.0
 11
1.2082313198
 21
0.0730828685
 31
0.0
  0
LINE
  5
A7
330
1F
100
AcDbEntity
  8
0
  6
Continuous
 62
     7
370
    25
100
AcDbLine
 10
1.0682313198
 20
0.1325828685
 30
0.0
 11
1.0682313198
 21
0.1355828685
 31
0.0
  0
SPLINE
  5
A8
330
1F
100
AcDbEntity
  8
0
  6
Continuous
 62
     7
370
    25
100
AcDbSpline
210
0.0
220
0.0
230
1.0
 70
     8
 71
     3
 72
    27
 73
    23
 74
     0
 42
0.000000001
 43
0.00000001
 40
0.0
 40
0.0
 40
0.0
 40
0.0
 40
0.0568120424646718
 40
0.1136343289210147
 40
0.1721747720876212
 40
0.2306837846599314
 40
0.2784155994707949
 40
0.3027637673903394
 40
0.327091826714337
 40
0.3548461523361854
 40
0.3826446935708058
 40
0.4393263004290597
 40
0.4912541522617519
 40
0.5431820665880608
 40
0.5966180499221595
 40
0.6500541360281045
 40
0.7019633165014619
 40
0.7538732729184014
 40
0.8072419085164566
 40
0.8606127168510611
 40
0.924036477148773
 40
1.0
 40
1.0
 40
1.0
 40
1.0
 10
1.068231319751111
 20
0.1325828684802926
 30
0.0
 10
1.071245945986183
 20
0.1325042507338408
 30
0.0
 10
1.077275742034849
 20
0.1323470010650774
 30
0.0
 10
1.086343048776501
 20
0.1311303870675558
 30
0.0
 10
1.095382081218389
 20
0.1292531683382934
 30
0.0
 10
1.103748399947133
 20
0.1266680263575093
 30
0.0
 10
1.110136965649506
 20
0.1239478848736358
 30
0.0
 10
1.114616951039908
 20
0.1214715415011854
 30
0.0
 10
1.11798192923878
 20
0.1191945723859074
 30
0.0
 10
1.121141187334624
 20
0.1163467103412581
 30
0.0
 10
1.125030048451134
 20
0.1118287106474698
 30
0.0
 10
1.12928942687809
 20
0.1059698616586553
 30
0.0
 10
1.135087666752041
 20
0.0997106269207351
 30
0.0
 10
1.141204570379878
 20
0.0940255623478002
 30
0.0
 10
1.147858316897913
 20
0.0888406635968242
 30
0.0
 10
1.154923834846909
 20
0.084237167884369
 30
0.0
 10
1.162282376484469
 20
0.0802869954360786
 30
0.0
 10
1.169936335081766
 20
0.0769557420717535
 30
0.0
 10
1.177915672512595
 20
0.0742459060070846
 30
0.0
 10
1.186683398355859
 20
0.0720698426863502
 30
0.0
 10
1.196800991596135
 20
0.0704279228903531
 30
0.0
 10
1.204199349729151
 20
0.0702045840617218
 30
0.0
 10
1.208231319751111
 20
0.0700828684802926
 30
0.0
  0
SPLINE
  5
A9
330
1F
100
AcDbEntity
  8
0
  6
Continuous
 62
     7
370
    25
100
AcDbSpline
210
0.0
220
0.0
230
1.0
 70
     8
 71
     3
 72
    28
 73
    24
 74
     0
 42
0.000000001
 43
0.00000001
 40
0.0
 40
0.0
 40
0.0
 40
0.0
 40
0.057395239440764
 40
0.1149995262153931
 40
0.1725807728114916
 40
0.2299444770362921
 40
0.2865259796551602
 40
0.3433388605205582
 40
0.4001481754253512
 40
0.4567247954283384
 40
0.5089299922272249
 40
0.5611351248343288
 40
0.5949621292481772
 40
0.62893759920155
 40
0.6625827508839621
 40
0.6959565070425467
 40
0.7413934841857454
 40
0.7870473683268708
 40
0.8326537545345754
 40
0.872492580826938
 40
0.9123334816896319
 40
0.9561692100691921
 40
0.9999999999999999
 40
0.9999999999999999
 40
0.9999999999999999
 40
0.9999999999999999
 10
1.208231319751111
 20
0.3200828684802925
 30
0.0
 10
1.205186478728318
 20
0.3200097940607749
 30
0.0
 10
1.199085706635822
 20
0.3198633790670422
 30
0.0
 10
1.189992978155031
 20
0.3186828662388783
 30
0.0
 10
1.181030137253088
 20
0.3167921641823919
 30
0.0
 10
1.172319830351162
 20
0.3141213176127569
 30
0.0
 10
1.163931604577247
 20
0.3106752072005272
 30
0.0
 10
1.15591150063889
 20
0.3065066006611152
 30
0.0
 10
1.148292595143238
 20
0.3016438040297496
 30
0.0
 10
1.141337037664029
 20
0.296261368832307
 30
0.0
 10
1.135067862789785
 20
0.290451288960216
 30
0.0
 10
1.130113548695949
 20
0.2850337374537912
 30
0.0
 10
1.12615612013029
 20
0.2800477198544062
 30
0.0
 10
1.122759240779911
 20
0.2758759222065326
 30
0.0
 10
1.119076800253763
 20
0.2719671261244938
 30
0.0
 10
1.114306175668586
 20
0.2683363167532595
 30
0.0
 10
1.108384368617093
 20
0.2653550064820602
 30
0.0
 10
1.101604228753013
 20
0.2627688436117095
 30
0.0
 10
1.094904923047859
 20
0.2608798912212269
 30
0.0
 10
1.088412435266345
 20
0.2594511854165278
 30
0.0
 10
1.081939142454923
 20
0.2584300039658349
 30
0.0
 10
1.075206569775069
 20
0.2577248813134336
 30
0.0
 10
1.070556315772735
 20
0.2576302043135514
 30
0.0
 10
1.068231319751111
 20
0.2575828684802928
 30
0.0
  0
LINE
  5
AA
330
1F
100
AcDbEntity
  8
0
  6
Continuous
 62
     7
370
    25
100
AcDbLine
 10
1.2082313198
 20
0.3170828685
 30
0.0
 11
1.2082313198
 21
0.3200828685
 31
0.0
  0
SPLINE
  5
AB
330
1F
100
AcDbEntity
  8
0
  6
Continuous
 62
     7
370
    25
100
AcDbSpline
210
0.0
220
0.0
230
1.0
 70
     8
 71
     3
 72
    27
 73
    23
 74
     0
 42
0.000000001
 43
0.00000001
 40
0.0
 40
0.0
 40
0.0
 40
0.0
 40
0.0572854048131925
 40
0.1146719898074504
 40
0.1719672735390959
 40
0.2195188925563222
 40
0.2671228165326897
 40
0.3145050206986681
 40
0.3493681886207448
 40
0.3845030077347392
 40
0.4199682148606074
 40
0.4552846111142759
 40
0.5059165779466688
 40
0.5565486089732855
 40
0.611428474005033
 40
0.6665340757337672
 40
0.7216432435586877
 40
0.7765279913919858
 40
0.8322765726536983
 40
0.8882367069618374
 40
0.9442198823205987
 40
1.0
 40
1.0
 40
1.0
 40
1.0
 10
1.068231319751111
 20
0.2545828684802927
 30
0.0
 10
1.071270147620195
 20
0.2546580755429491
 30
0.0
 10
1.077353170679325
 20
0.2548086225025195
 30
0.0
 10
1.086412734047477
 20
0.2559885131101087
 30
0.0
 10
1.094842255453917
 20
0.2577397034152979
 30
0.0
 10
1.102630472816051
 20
0.2599445994115657
 30
0.0
 10
1.109696390948556
 20
0.2626512913944938
 30
0.0
 10
1.115868605061801
 20
0.2657704966957626
 30
0.0
 10
1.120855660568877
 20
0.2695476017182485
 30
0.0
 10
1.124724624963482
 20
0.2736060152189517
 30
0.0
 10
1.12829727243159
 20
0.2779402894324907
 30
0.0
 10
1.132309184566003
 20
0.282977740594043
 30
0.0
 10
1.137196956675395
 20
0.2883358852638542
 30
0.0
 10
1.143279413583362
 20
0.2939692249959567
 30
0.0
 10
1.150025246533857
 20
0.2991902323067599
 30
0.0
 10
1.157415667995073
 20
0.3039067000843854
 30
0.0
 10
1.165195013183015
 20
0.3079499946902129
 30
0.0
 10
1.173336592693441
 20
0.3112946468872453
 30
0.0
 10
1.181796299026087
 20
0.3138879627130904
 30
0.0
 10
1.190506783873442
 20
0.315724093191363
 30
0.0
 10
1.199343414880203
 20
0.3168699442050167
 30
0.0
 10
1.205272275420455
 20
0.3170119797411841
 30
0.0
 10
1.208231319751111
 20
0.3170828684802927
 30
0.0
  0
LINE
  5
AC
330
1F
100
AcDbEntity
  8
0
  6
Continuous
 62
     7
370
    25
100
AcDbLine
 10
1.0682313198
 20
0.2545828685
 30
0.0
 11
1.0682313198
 21
0.2575828685
 31
0.0
  0
CIRCLE
  5
AD
330
1F
100
AcDbEntity
  8
0
  6
Continuous
 62
     7
370
    25
100
AcDbCircle
 10
1.2082313198
 20
0.1950828685
 30
0.0
 40
0.009125
  0
CIRCLE
  5
AE
330
1F
100
AcDbEntity
  8
0
  6
Continuous
 62
     7
370
    25
100
AcDbCircle
 10
1.1082313198
 20
0.1950828685
 30
0.0
 40
0.009125
  0
ARC
  5
AF
330
1F
100
AcDbEntity
  8
0
  6
Continuous
 62
     7
370
    25
100
AcDbCircle
 10
1.2082313198
 20
0.1950828685
 30
0.0
 40
0.1220000000000001
100
AcDbArc
 50
270.0
 51
90.0
  0
ARC
  5
B0
330
1F
100
AcDbEntity
  8
0
  6
Continuous
 62
     7
370
    25
100
AcDbCircle
 10
1.2082313198
 20
0.1950828685
 30
0.0
 40
0.125
100
AcDbArc
 50
270.0
 51
90.0
  0
ARC
  5
B1
330
1F
100
AcDbEntity
  8
0
  6
Continuous
 62
     7
370
    25
100
AcDbCircle
 10
1.0682313198
 20
0.1950828685
 30
0.0
 40
0.0595000000000001
100
AcDbArc
 50
90.0
 51
270.0
  0
ARC
  5
B2
330
1F
100
AcDbEntity
  8
0
  6
Continuous
 62
     7
370
    25
100
AcDbCircle
 10
1.0682313198
 20
0.1950828685
 30
0.0
 40
0.0625
100
AcDbArc
 50
90.0
 51
270.0
  0
LINE
  5
B3
330
1F
100
AcDbEntity
  8
0
  6
Continuous
 62
     7
370
    25
100
AcDbLine
 10
1.5307313198
 20
0.1450828685
 30
0.0
 11
1.4436055814
 21
0.1450828685
 31
0.0
  0
LINE
  5
B4
330
1F
100
AcDbEntity
  8
0
  6
Continuous
 62
     7
370
    25
100
AcDbLine
 10
1.4167055814
 20
0.1450828685
 30
0.0
 11
1.3227957121
 21
0.1450828685
 31
0.0
  0
LINE
  5
B5
330
1F
100
AcDbEntity
  8
0
  6
Continuous
 62
     7
370
    25
100
AcDbLine
 10
1.0307313198
 20
0.1450828685
 30
0.0
 11
0.9436055814
 21
0.1450828685
 31
0.0
  0
LINE
  5
B6
330
1F
100
AcDbEntity
  8
0
  6
Continuous
 62
     7
370
    25
100
AcDbLine
 10
0.9167055814
 20
0.1450828685
 30
0.0
 11
-0.3844194697
 21
0.1450828685
 31
0.0
  0
LINE
  5
B7
330
1F
100
AcDbEntity
  8
0
  6
Continuous
 62
     7
370
    25
100
AcDbLine
 10
-0.4774040296
 20
0.1450828685
 30
0.0
 11
-0.5345707372
 21
0.1450828685
 31
0.0
  0
LINE
  5
B8
330
1F
100
AcDbEntity
  8
0
  6
Continuous
 62
     7
370
    25
100
AcDbLine
 10
-0.8246008131
 20
0.1450828685
 30
0.0
 11
-0.8844194697
 21
0.1450828685
 31
0.0
  0
LINE
  5
B9
330
1F
100
AcDbEntity
  8
0
  6
Continuous
 62
     7
370
    25
100
AcDbLine
 10
-0.9774040296
 20
0.1450828685
 30
0.0
 11
-1.0345707372
 21
0.1450828685
 31
0.0
  0
LINE
  5
BA
330
1F
100
AcDbEntity
  8
0
  6
Continuous
 62
     7
370
    25
100
AcDbLine
 10
1.5307313198
 20
0.2450828685
 30
0.0
 11
1.4716314872
 21
0.2450828685
 31
0.0
  0
LINE
  5
BB
330
1F
100
AcDbEntity
  8
0
  6
Continuous
 62
     7
370
    25
100
AcDbLine
 10
1.3886796755
 20
0.2450828685
 30
0.0
 11
1.3227957121
 21
0.2450828685
 31
0.0
  0
LINE
  5
BC
330
1F
100
AcDbEntity
  8
0
  6
Continuous
 62
     7
370
    25
100
AcDbLine
 10
1.0307313198
 20
0.2450828685
 30
0.0
 11
0.9716314872
 21
0.2450828685
 31
0.0
  0
LINE
  5
BD
330
1F
100
AcDbEntity
  8
0
  6
Continuous
 62
     7
370
    25
100
AcDbLine
 10
0.8886796755
 20
0.2450828685
 30
0.0
 11
-0.4174617497
 21
0.2450828685
 31
0.0
  0
LINE
  5
BE
330
1F
100
AcDbEntity
  8
0
  6
Continuous
 62
     7
370
    25
100
AcDbLine
 10
-0.4443617497
 20
0.2450828685
 30
0.0
 11
-0.5315843504
 21
0.2450828685
 31
0.0
  0
LINE
  5
BF
330
1F
100
AcDbEntity
  8
0
  6
Continuous
 62
     7
370
    25
100
AcDbLine
 10
-0.8255771825
 20
0.2450828685
 30
0.0
 11
-0.9174617497
 21
0.2450828685
 31
0.0
  0
LINE
  5
C0
330
1F
100
AcDbEntity
  8
0
  6
Continuous
 62
     7
370
    25
100
AcDbLine
 10
-0.9443617497
 20
0.2450828685
 30
0.0
 11
-1.0315843504
 21
0.2450828685
 31
0.0
  0
LINE
  5
C1
330
1F
100
AcDbEntity
  8
0
  6
Continuous
 62
     7
370
    25
100
AcDbLine
 10
-1.2105311059
 20
0.0712013767
 30
0.0
 11
-1.2105311059
 21
0.0742013767
 31
0.0
  0
SPLINE
  5
C2
330
1F
100
AcDbEntity
  8
0
  6
Continuous
 62
     7
370
    25
100
AcDbSpline
210
0.0
220
0.0
230
1.0
 70
     8
 71
     3
 72
    26
 73
    22
 74
     0
 42
0.000000001
 43
0.00000001
 40
0.0
 40
0.0
 40
0.0
 40
0.0
 40
0.0677846418452892
 40
0.1355586397705899
 40
0.2035922673369949
 40
0.2718263897081963
 40
0.3398442637703299
 40
0.4078823855051962
 40
0.4761370795526094
 40
0.5441746744927299
 40
0.5732964750167125
 40
0.6024971674497093
 40
0.6315291285399675
 40
0.6604199682584697
 40
0.6943668957168215
 40
0.7284652908114849
 40
0.7625289497710224
 40
0.8217498458651449
 40
0.8812148571342794
 40
0.9407217562402505
 40
0.9999999999999999
 40
0.9999999999999999
 40
0.9999999999999999
 40
0.9999999999999999
 10
-1.21053110586008
 20
0.0742013766965588
 30
0.0
 10
-1.206934102377194
 20
0.0743034095830029
 30
0.0
 10
-1.199740660232834
 20
0.0745074593341224
 30
0.0
 10
-1.189042713695644
 20
0.0761825170624209
 30
0.0
 10
-1.178558361378011
 20
0.0789388573272514
 30
0.0
 10
-1.16842351574178
 20
0.0828373627787462
 30
0.0
 10
-1.158775099199861
 20
0.0878193168153705
 30
0.0
 10
-1.149760813203038
 20
0.0938790168621857
 30
0.0
 10
-1.141480845003791
 20
0.1009033183426302
 30
0.0
 10
-1.135426755897115
 20
0.107285953286616
 30
0.0
 10
-1.131269183430298
 20
0.1125448134019798
 30
0.0
 10
-1.128424414874503
 20
0.116201896039855
 30
0.0
 10
-1.125400132240928
 20
0.1197034632369989
 30
0.0
 10
-1.121782496381131
 20
0.122994025252327
 30
0.0
 10
-1.117461746534328
 20
0.1258153920306009
 30
0.0
 10
-1.112629331798819
 20
0.1282767471800961
 30
0.0
 10
-1.106360852609485
 20
0.1308133796256741
 30
0.0
 10
-1.098622179448996
 20
0.1332592384768246
 30
0.0
 10
-1.089371251455497
 20
0.1352473430189849
 30
0.0
 10
-1.079978969342886
 20
0.1364755976681971
 30
0.0
 10
-1.073676349613758
 20
0.1366262136631433
 30
0.0
 10
-1.07053110586008
 20
0.136701376696559
 30
0.0
  0
LINE
  5
C3
330
1F
100
AcDbEntity
  8
0
  6
Continuous
 62
     7
370
    25
100
AcDbLine
 10
-1.0705311059
 20
0.1337013767
 30
0.0
 11
-1.0705311059
 21
0.1367013767
 31
0.0
  0
SPLINE
  5
C4
330
1F
100
AcDbEntity
  8
0
  6
Continuous
 62
     7
370
    25
100
AcDbSpline
210
0.0
220
0.0
230
1.0
 70
     8
 71
     3
 72
    26
 73
    22
 74
     0
 42
0.000000001
 43
0.00000001
 40
0.0
 40
0.0
 40
0.0
 40
0.0
 40
0.0576045006410365
 40
0.1154310220779398
 40
0.1732156562828666
 40
0.2307628100437019
 40
0.2629351958483229
 40
0.2951379112091528
 40
0.3271935665275295
 40
0.355076329416084
 40
0.3831012330701473
 40
0.4112948459276505
 40
0.4394085789781491
 40
0.5095611839615103
 40
0.5799376285527671
 40
0.6500907603235322
 40
0.7201823418571982
 40
0.7904965205558568
 40
0.8606038553741094
 40
0.9240316478057248
 40
1.0
 40
1.0
 40
1.0
 40
1.0
 10
-1.07053110586008
 20
0.1337013766965589
 30
0.0
 10
-1.073587584737142
 20
0.1336285639744859
 30
0.0
 10
-1.079712322853308
 20
0.1334826578936128
 30
0.0
 10
-1.088839703179004
 20
0.1322914380655935
 30
0.0
 10
-1.097830013730054
 20
0.1303620726929675
 30
0.0
 10
-1.105303028040563
 20
0.1280000044682266
 30
0.0
 10
-1.11130535087467
 20
0.1255789679694055
 30
0.0
 10
-1.115874269626961
 20
0.1232647351014236
 30
0.0
 10
-1.119984831406127
 20
0.1205873872577921
 30
0.0
 10
-1.123442106985825
 20
0.1174281704346079
 30
0.0
 10
-1.12634736204361
 20
0.1140357718107756
 30
0.0
 10
-1.129077595362931
 20
0.110492687026551
 30
0.0
 10
-1.133233459449319
 20
0.1052254246172921
 30
0.0
 10
-1.139413849339799
 20
0.0987247324165526
 30
0.0
 10
-1.14794860669111
 20
0.0914797356559618
 30
0.0
 10
-1.157242157822435
 20
0.085233353873222
 30
0.0
 10
-1.167186406475873
 20
0.0800980315773576
 30
0.0
 10
-1.177629983069028
 20
0.0760795700361279
 30
0.0
 10
-1.18810502220105
 20
0.07332677610786
 30
0.0
 10
-1.199100754093189
 20
0.0715476430827802
 30
0.0
 10
-1.206499127509179
 20
0.0713235197942832
 30
0.0
 10
-1.21053110586008
 20
0.0712013766965587
 30
0.0
  0
SPLINE
  5
C5
330
1F
100
AcDbEntity
  8
0
  6
Continuous
 62
     7
370
    25
100
AcDbSpline
210
0.0
220
0.0
230
1.0
 70
     8
 71
     3
 72
    27
 73
    23
 74
     0
 42
0.000000001
 43
0.00000001
 40
0.0
 40
0.0
 40
0.0
 40
0.0
 40
0.0572854048131931
 40
0.114671989807451
 40
0.171967273539097
 40
0.2195188925563233
 40
0.2671228165326913
 40
0.314505020698669
 40
0.3493681886207451
 40
0.3845030077347399
 40
0.4199682148606093
 40
0.4552846111142773
 40
0.5059165779466707
 40
0.5565486089732858
 40
0.6114284740050333
 40
0.6665340757337678
 40
0.7216432435586888
 40
0.7765279913919867
 40
0.832276572653699
 40
0.8882367069618382
 40
0.9442198823205987
 40
1.0
 40
1.0
 40
1.0
 40
1.0
 10
-1.07053110586008
 20
0.255701376696559
 30
0.0
 10
-1.073569933729164
 20
0.2557765837592152
 30
0.0
 10
-1.079652956788294
 20
0.2559271307187849
 30
0.0
 10
-1.088712520156446
 20
0.2571070213263753
 30
0.0
 10
-1.097142041562886
 20
0.2588582116315636
 30
0.0
 10
-1.10493025892502
 20
0.2610631076278318
 30
0.0
 10
-1.111996177057526
 20
0.2637697996107606
 30
0.0
 10
-1.11816839117077
 20
0.266889004912028
 30
0.0
 10
-1.123155446677846
 20
0.2706661099345151
 30
0.0
 10
-1.127024411072451
 20
0.2747245234352178
 30
0.0
 10
-1.130597058540559
 20
0.2790587976487569
 30
0.0
 10
-1.134608970674972
 20
0.2840962488103098
 30
0.0
 10
-1.139496742784364
 20
0.2894543934801206
 30
0.0
 10
-1.145579199692331
 20
0.2950877332122228
 30
0.0
 10
-1.152325032642826
 20
0.3003087405230263
 30
0.0
 10
-1.159715454104043
 20
0.3050252083006513
 30
0.0
 10
-1.167494799291984
 20
0.3090685029064797
 30
0.0
 10
-1.17563637880241
 20
0.3124131551035119
 30
0.0
 10
-1.184096085135056
 20
0.3150064709293567
 30
0.0
 10
-1.192806569982411
 20
0.3168426014076293
 30
0.0
 10
-1.201643200989173
 20
0.3179884524212824
 30
0.0
 10
-1.207572061529424
 20
0.3181304879574507
 30
0.0
 10
-1.21053110586008
 20
0.318201376696559
 30
0.0
  0
LINE
  5
C6
330
1F
100
AcDbEntity
  8
0
  6
Continuous
 62
     7
370
    25
100
AcDbLine
 10
-1.2105311059
 20
0.3182013767
 30
0.0
 11
-1.2105311059
 21
0.3212013767
 31
0.0
  0
LINE
  5
C7
330
1F
100
AcDbEntity
  8
0
  6
Continuous
 62
     7
370
    25
100
AcDbLine
 10
-1.0705311059
 20
0.2557013767
 30
0.0
 11
-1.0705311059
 21
0.2587013767
 31
0.0
  0
SPLINE
  5
C8
330
1F
100
AcDbEntity
  8
0
  6
Continuous
 62
     7
370
    25
100
AcDbSpline
210
0.0
220
0.0
230
1.0
 70
     8
 71
     3
 72
    28
 73
    24
 74
     0
 42
0.000000001
 43
0.00000001
 40
0.0
 40
0.0
 40
0.0
 40
0.0
 40
0.0573952394407633
 40
0.1149995262153919
 40
0.1725807728114917
 40
0.2299444770362918
 40
0.2865259796551599
 40
0.3433388605205586
 40
0.4001481754253502
 40
0.4567247954283383
 40
0.5089299922272247
 40
0.5611351248343286
 40
0.5949621292481754
 40
0.6289375992015482
 40
0.6625827508839613
 40
0.6959565070425451
 40
0.7413934841857444
 40
0.7870473683268712
 40
0.8326537545345749
 40
0.8724925808269374
 40
0.9123334816896311
 40
0.9561692100691914
 40
1.0
 40
1.0
 40
1.0
 40
1.0
 10
-1.21053110586008
 20
0.3212013766965589
 30
0.0
 10
-1.207486264837287
 20
0.3211283022770413
 30
0.0
 10
-1.201385492744791
 20
0.3209818872833086
 30
0.0
 10
-1.192292764264
 20
0.3198013744551447
 30
0.0
 10
-1.183329923362058
 20
0.3179106723986578
 30
0.0
 10
-1.174619616460131
 20
0.315239825829023
 30
0.0
 10
-1.166231390686216
 20
0.3117937154167938
 30
0.0
 10
-1.158211286747859
 20
0.3076251088773814
 30
0.0
 10
-1.150592381252206
 20
0.3027623122460164
 30
0.0
 10
-1.143636823772999
 20
0.2973798770485727
 30
0.0
 10
-1.137367648898754
 20
0.2915697971764821
 30
0.0
 10
-1.132413334804918
 20
0.2861522456700571
 30
0.0
 10
-1.128455906239259
 20
0.2811662280706724
 30
0.0
 10
-1.12505902688888
 20
0.2769944304227991
 30
0.0
 10
-1.121376586362732
 20
0.2730856343407597
 30
0.0
 10
-1.116605961777555
 20
0.2694548249695261
 30
0.0
 10
-1.110684154726062
 20
0.2664735146983261
 30
0.0
 10
-1.103904014861982
 20
0.2638873518279758
 30
0.0
 10
-1.097204709156827
 20
0.2619983994374933
 30
0.0
 10
-1.090712221375314
 20
0.2605696936327941
 30
0.0
 10
-1.084238928563892
 20
0.2595485121821013
 30
0.0
 10
-1.077506355884038
 20
0.2588433895296995
 30
0.0
 10
-1.072856101881704
 20
0.2587487125298178
 30
0.0
 10
-1.07053110586008
 20
0.2587013766965589
 30
0.0
  0
ARC
  5
C9
330
1F
100
AcDbEntity
  8
0
  6
Continuous
 62
     7
370
    25
100
AcDbCircle
 10
-1.0705311059
 20
0.1962013767
 30
0.0
 40
0.0595000000000001
100
AcDbArc
 50
270.0
 51
90.0
  0
ARC
  5
CA
330
1F
100
AcDbEntity
  8
0
  6
Continuous
 62
     7
370
    25
100
AcDbCircle
 10
-1.2105311059
 20
0.1962013767
 30
0.0
 40
0.1220000000000001
100
AcDbArc
 50
90.0
 51
270.0
  0
CIRCLE
  5
CB
330
1F
100
AcDbEntity
  8
0
  6
Continuous
 62
     7
370
    25
100
AcDbCircle
 10
-1.1105311059
 20
0.1962013767
 30
0.0
 40
0.009125
  0
CIRCLE
  5
CC
330
1F
100
AcDbEntity
  8
0
  6
Continuous
 62
     7
370
    25
100
AcDbCircle
 10
-1.2105311059
 20
0.1962013767
 30
0.0
 40
0.009125
  0
ARC
  5
CD
330
1F
100
AcDbEntity
  8
0
  6
Continuous
 62
     7
370
    25
100
AcDbCircle
 10
-1.2105311059
 20
0.1962013767
 30
0.0
 40
0.125
100
AcDbArc
 50
90.0
 51
270.0
  0
ARC
  5
CE
330
1F
100
AcDbEntity
  8
0
  6
Continuous
 62
     7
370
    25
100
AcDbCircle
 10
-1.0705311059
 20
0.1962013767
 30
0.0
 40
0.0625
100
AcDbArc
 50
270.0
 51
90.0
  0
SPLINE
  5
CF
330
1F
100
AcDbEntity
  8
0
  6
Continuous
 62
     7
370
    25
100
AcDbSpline
210
0.0
220
0.0
230
1.0
 70
     8
 71
     3
 72
    26
 73
    22
 74
     0
 42
0.000000001
 43
0.00000001
 40
0.0
 40
0.0
 40
0.0
 40
0.0
 40
0.0576045006410359
 40
0.1154310220779392
 40
0.1732156562828667
 40
0.2307628100437013
 40
0.2629351958483223
 40
0.2951379112091522
 40
0.327193566527529
 40
0.355076329416084
 40
0.3831012330701463
 40
0.4112948459276496
 40
0.4394085789781486
 40
0.5095611839615098
 40
0.5799376285527662
 40
0.6500907603235313
 40
0.7201823418571988
 40
0.7904965205558561
 40
0.8606038553741101
 40
0.9240316478057248
 40
1.0
 40
1.0
 40
1.0
 40
1.0
 10
-0.57053110586008
 20
0.1337013766965589
 30
0.0
 10
-0.5735875847371418
 20
0.1336285639744859
 30
0.0
 10
-0.5797123228533078
 20
0.1334826578936128
 30
0.0
 10
-0.5888397031790048
 20
0.1322914380655924
 30
0.0
 10
-0.5978300137300533
 20
0.1303620726929684
 30
0.0
 10
-0.6053030280405631
 20
0.1280000044682259
 30
0.0
 10
-0.6113053508746701
 20
0.1255789679694055
 30
0.0
 10
-0.6158742696269615
 20
0.1232647351014231
 30
0.0
 10
-0.6199848314061261
 20
0.1205873872577923
 30
0.0
 10
-0.623442106985825
 20
0.1174281704346077
 30
0.0
 10
-0.6263473620436104
 20
0.1140357718107756
 30
0.0
 10
-0.6290775953629302
 20
0.1104926870265517
 30
0.0
 10
-0.6332334594493197
 20
0.1052254246172908
 30
0.0
 10
-0.6394138493397983
 20
0.0987247324165535
 30
0.0
 10
-0.6479486066911103
 20
0.0914797356559614
 30
0.0
 10
-0.6572421578224343
 20
0.0852333538732224
 30
0.0
 10
-0.6671864064758734
 20
0.080098031577357
 30
0.0
 10
-0.6776299830690288
 20
0.0760795700361279
 30
0.0
 10
-0.6881050222010494
 20
0.07332677610786
 30
0.0
 10
-0.699100754093189
 20
0.07154764308278
 30
0.0
 10
-0.7064991275091791
 20
0.071323519794283
 30
0.0
 10
-0.7105311058600802
 20
0.0712013766965587
 30
0.0
  0
LINE
  5
D0
330
1F
100
AcDbEntity
  8
0
  6
Continuous
 62
     7
370
    25
100
AcDbLine
 10
-0.7105311059
 20
0.0712013767
 30
0.0
 11
-0.7105311059
 21
0.0742013767
 31
0.0
  0
SPLINE
  5
D1
330
1F
100
AcDbEntity
  8
0
  6
Continuous
 62
     7
370
    25
100
AcDbSpline
210
0.0
220
0.0
230
1.0
 70
     8
 71
     3
 72
    26
 73
    22
 74
     0
 42
0.000000001
 43
0.00000001
 40
0.0
 40
0.0
 40
0.0
 40
0.0
 40
0.0677846418452885
 40
0.1355586397705892
 40
0.2035922673369948
 40
0.2718263897081962
 40
0.3398442637703298
 40
0.4078823855051959
 40
0.4761370795526086
 40
0.5441746744927297
 40
0.5732964750167123
 40
0.602497167449709
 40
0.6315291285399668
 40
0.660419968258469
 40
0.6943668957168208
 40
0.7284652908114855
 40
0.7625289497710217
 40
0.8217498458651442
 40
0.8812148571342802
 40
0.9407217562402498
 40
1.0
 40
1.0
 40
1.0
 40
1.0
 10
-0.7105311058600801
 20
0.0742013766965588
 30
0.0
 10
-0.7069341023771938
 20
0.0743034095830024
 30
0.0
 10
-0.6997406602328352
 20
0.0745074593341213
 30
0.0
 10
-0.6890427136956437
 20
0.076182517062422
 30
0.0
 10
-0.6785583613780112
 20
0.0789388573272509
 30
0.0
 10
-0.6684235157417799
 20
0.082837362778746
 30
0.0
 10
-0.6587750991998608
 20
0.0878193168153709
 30
0.0
 10
-0.6497608132030382
 20
0.0938790168621853
 30
0.0
 10
-0.6414808450037917
 20
0.1009033183426291
 30
0.0
 10
-0.6354267558971147
 20
0.1072859532866166
 30
0.0
 10
-0.6312691834302977
 20
0.1125448134019793
 30
0.0
 10
-0.6284244148745033
 20
0.116201896039855
 30
0.0
 10
-0.6254001322409278
 20
0.1197034632369991
 30
0.0
 10
-0.6217824963811319
 20
0.1229940252523267
 30
0.0
 10
-0.6174617465343273
 20
0.1258153920306009
 30
0.0
 10
-0.6126293317988186
 20
0.1282767471800968
 30
0.0
 10
-0.6063608526094856
 20
0.1308133796256732
 30
0.0
 10
-0.598622179448996
 20
0.133259238476825
 30
0.0
 10
-0.5893712514554973
 20
0.1352473430189849
 30
0.0
 10
-0.5799789693428858
 20
0.1364755976681966
 30
0.0
 10
-0.5736763496137585
 20
0.1366262136631431
 30
0.0
 10
-0.57053110586008
 20
0.1367013766965588
 30
0.0
  0
LINE
  5
D2
330
1F
100
AcDbEntity
  8
0
  6
Continuous
 62
     7
370
    25
100
AcDbLine
 10
-0.5705311059
 20
0.1337013767
 30
0.0
 11
-0.5705311059
 21
0.1367013767
 31
0.0
  0
SPLINE
  5
D3
330
1F
100
AcDbEntity
  8
0
  6
Continuous
 62
     7
370
    25
100
AcDbSpline
210
0.0
220
0.0
230
1.0
 70
     8
 71
     3
 72
    27
 73
    23
 74
     0
 42
0.000000001
 43
0.00000001
 40
0.0
 40
0.0
 40
0.0
 40
0.0
 40
0.0572854048131931
 40
0.114671989807451
 40
0.171967273539097
 40
0.2195188925563226
 40
0.2671228165326906
 40
0.3145050206986689
 40
0.349368188620745
 40
0.3845030077347394
 40
0.4199682148606086
 40
0.4552846111142771
 40
0.5059165779466699
 40
0.5565486089732852
 40
0.6114284740050333
 40
0.6665340757337677
 40
0.721643243558688
 40
0.7765279913919859
 40
0.832276572653699
 40
0.8882367069618375
 40
0.9442198823205995
 40
1.0
 40
1.0
 40
1.0
 40
1.0
 10
-0.5705311058600799
 20
0.255701376696559
 30
0.0
 10
-0.5735699337291644
 20
0.2557765837592154
 30
0.0
 10
-0.5796529567882944
 20
0.2559271307187851
 30
0.0
 10
-0.5887125201564464
 20
0.2571070213263749
 30
0.0
 10
-0.5971420415628856
 20
0.2588582116315643
 30
0.0
 10
-0.60493025892502
 20
0.2610631076278316
 30
0.0
 10
-0.6119961770575255
 20
0.2637697996107604
 30
0.0
 10
-0.6181683911707697
 20
0.2668890049120287
 30
0.0
 10
-0.6231554466778464
 20
0.2706661099345147
 30
0.0
 10
-0.627024411072451
 20
0.2747245234352176
 30
0.0
 10
-0.6305970585405585
 20
0.2790587976487575
 30
0.0
 10
-0.6346089706749726
 20
0.2840962488103089
 30
0.0
 10
-0.639496742784364
 20
0.2894543934801206
 30
0.0
 10
-0.6455791996923309
 20
0.2950877332122233
 30
0.0
 10
-0.6523250326428266
 20
0.3003087405230258
 30
0.0
 10
-0.6597154541040428
 20
0.3050252083006513
 30
0.0
 10
-0.6674947992919835
 20
0.3090685029064797
 30
0.0
 10
-0.6756363788024097
 20
0.3124131551035119
 30
0.0
 10
-0.6840960851350559
 20
0.3150064709293567
 30
0.0
 10
-0.6928065699824102
 20
0.3168426014076295
 30
0.0
 10
-0.7016432009891723
 20
0.317988452421283
 30
0.0
 10
-0.7075720615294241
 20
0.3181304879574505
 30
0.0
 10
-0.7105311058600801
 20
0.318201376696559
 30
0.0
  0
LINE
  5
D4
330
1F
100
AcDbEntity
  8
0
  6
Continuous
 62
     7
370
    25
100
AcDbLine
 10
-0.7105311059
 20
0.3182013767
 30
0.0
 11
-0.7105311059
 21
0.3212013767
 31
0.0
  0
LINE
  5
D5
330
1F
100
AcDbEntity
  8
0
  6
Continuous
 62
     7
370
    25
100
AcDbLine
 10
-0.5705311059
 20
0.2557013767
 30
0.0
 11
-0.5705311059
 21
0.2587013767
 31
0.0
  0
SPLINE
  5
D6
330
1F
100
AcDbEntity
  8
0
  6
Continuous
 62
     7
370
    25
100
AcDbSpline
210
0.0
220
0.0
230
1.0
 70
     8
 71
     3
 72
    28
 73
    24
 74
     0
 42
0.000000001
 43
0.00000001
 40
0.0
 40
0.0
 40
0.0
 40
0.0
 40
0.0573952394407633
 40
0.1149995262153926
 40
0.172580772811491
 40
0.2299444770362911
 40
0.2865259796551592
 40
0.343338860520558
 40
0.4001481754253501
 40
0.4567247954283382
 40
0.5089299922272247
 40
0.5611351248343286
 40
0.5949621292481759
 40
0.6289375992015488
 40
0.6625827508839619
 40
0.6959565070425456
 40
0.7413934841857442
 40
0.7870473683268704
 40
0.8326537545345748
 40
0.8724925808269373
 40
0.912333481689631
 40
0.9561692100691914
 40
0.9999999999999999
 40
0.9999999999999999
 40
0.9999999999999999
 40
0.9999999999999999
 10
-0.7105311058600801
 20
0.3212013766965589
 30
0.0
 10
-0.7074862648372875
 20
0.3211283022770413
 30
0.0
 10
-0.701385492744791
 20
0.320981887283309
 30
0.0
 10
-0.6922927642639999
 20
0.3198013744551444
 30
0.0
 10
-0.6833299233620579
 20
0.3179106723986576
 30
0.0
 10
-0.6746196164601311
 20
0.315239825829023
 30
0.0
 10
-0.6662313906862155
 20
0.3117937154167938
 30
0.0
 10
-0.6582112867478598
 20
0.3076251088773809
 30
0.0
 10
-0.6505923812522064
 20
0.3027623122460161
 30
0.0
 10
-0.6436368237729987
 20
0.2973798770485729
 30
0.0
 10
-0.637367648898754
 20
0.2915697971764823
 30
0.0
 10
-0.6324133348049179
 20
0.2861522456700578
 30
0.0
 10
-0.6284559062392596
 20
0.2811662280706722
 30
0.0
 10
-0.6250590268888799
 20
0.2769944304227989
 30
0.0
 10
-0.6213765863627317
 20
0.2730856343407597
 30
0.0
 10
-0.6166059617775553
 20
0.2694548249695259
 30
0.0
 10
-0.610684154726062
 20
0.2664735146983266
 30
0.0
 10
-0.6039040148619816
 20
0.2638873518279756
 30
0.0
 10
-0.597204709156828
 20
0.2619983994374928
 30
0.0
 10
-0.590712221375314
 20
0.2605696936327941
 30
0.0
 10
-0.5842389285638919
 20
0.2595485121821011
 30
0.0
 10
-0.5775063558840379
 20
0.2588433895296995
 30
0.0
 10
-0.5728561018817037
 20
0.2587487125298176
 30
0.0
 10
-0.5705311058600799
 20
0.2587013766965589
 30
0.0
  0
CIRCLE
  5
D7
330
1F
100
AcDbEntity
  8
0
  6
Continuous
 62
     7
370
    25
100
AcDbCircle
 10
-0.6105311059
 20
0.1962013767
 30
0.0
 40
0.009125
  0
ARC
  5
D8
330
1F
100
AcDbEntity
  8
0
  6
Continuous
 62
     7
370
    25
100
AcDbCircle
 10
-0.7105311059
 20
0.1962013767
 30
0.0
 40
0.125
100
AcDbArc
 50
90.0
 51
270.0
  0
ARC
  5
D9
330
1F
100
AcDbEntity
  8
0
  6
Continuous
 62
     7
370
    25
100
AcDbCircle
 10
-0.7105311059
 20
0.1962013767
 30
0.0
 40
0.1220000000000001
100
AcDbArc
 50
90.0
 51
270.0
  0
ARC
  5
DA
330
1F
100
AcDbEntity
  8
0
  6
Continuous
 62
     7
370
    25
100
AcDbCircle
 10
-0.5705311059
 20
0.1962013767
 30
0.0
 40
0.0595000000000001
100
AcDbArc
 50
270.0
 51
90.0
  0
CIRCLE
  5
DB
330
1F
100
AcDbEntity
  8
0
  6
Continuous
 62
     7
370
    25
100
AcDbCircle
 10
-0.7105311059
 20
0.1962013767
 30
0.0
 40
0.009125
  0
ARC
  5
DC
330
1F
100
AcDbEntity
  8
0
  6
Continuous
 62
     7
370
    25
100
AcDbCircle
 10
-0.5705311059
 20
0.1962013767
 30
0.0
 40
0.0625
100
AcDbArc
 50
270.0
 51
90.0
  0
LINE
  5
DD
330
1F
100
AcDbEntity
  8
0
  6
Continuous
 62
     7
370
    25
100
AcDbLine
 10
0.9167055814
 20
0.1530373851
 30
0.0
 11
0.9436055814
 21
0.1530373851
 31
0.0
  0
LINE
  5
DE
330
1F
100
AcDbEntity
  8
0
  6
Continuous
 62
     7
370
    25
100
AcDbLine
 10
1.4167055814
 20
0.1530373851
 30
0.0
 11
1.4436055814
 21
0.1530373851
 31
0.0
  0
LINE
  5
DF
330
1F
100
AcDbEntity
  8
0
  6
Continuous
 62
     7
370
    25
100
AcDbLine
 10
-0.9443617497
 20
0.150015804
 30
0.0
 11
-0.9174617497
 21
0.150015804
 31
0.0
  0
LINE
  5
E0
330
1F
100
AcDbEntity
  8
0
  6
Continuous
 62
     7
370
    25
100
AcDbLine
 10
-0.4443617497
 20
0.150015804
 30
0.0
 11
-0.4174617497
 21
0.150015804
 31
0.0
  0
LINE
  5
E1
330
1F
100
AcDbEntity
  8
0
  6
Continuous
 62
     7
370
    25
100
AcDbLine
 10
-0.4443617497
 20
0.2355393092
 30
0.0
 11
-0.4174617497
 21
0.2355393092
 31
0.0
  0
LINE
  5
E2
330
1F
100
AcDbEntity
  8
0
  6
Continuous
 62
     7
370
    25
100
AcDbLine
 10
-0.4309117497
 20
0.150015804
 30
0.0
 11
-0.4443617497
 21
0.150015804
 31
0.0
  0
LINE
  5
E3
330
1F
100
AcDbEntity
  8
0
  6
Continuous
 62
     7
370
    25
100
AcDbLine
 10
-0.4174617497
 20
0.150015804
 30
0.0
 11
-0.4309117497
 21
0.150015804
 31
0.0
  0
LINE
  5
E4
330
1F
100
AcDbEntity
  8
0
  6
Continuous
 62
     7
370
    25
100
AcDbLine
 10
0.9301555814
 20
0.1530373851
 30
0.0
 11
0.9167055814
 21
0.1530373851
 31
0.0
  0
LINE
  5
E5
330
1F
100
AcDbEntity
  8
0
  6
Continuous
 62
     7
370
    25
100
AcDbLine
 10
0.9436055814
 20
0.1530373851
 30
0.0
 11
0.9301555814
 21
0.1530373851
 31
0.0
  0
LINE
  5
E6
330
1F
100
AcDbEntity
  8
0
  6
Continuous
 62
     7
370
    25
100
AcDbLine
 10
0.9167055814
 20
0.2385608904
 30
0.0
 11
0.9436055814
 21
0.2385608904
 31
0.0
  0
LINE
  5
E7
330
1F
100
AcDbEntity
  8
0
  6
Continuous
 62
     7
370
    25
100
AcDbLine
 10
1.4301555814
 20
0.1530373851
 30
0.0
 11
1.4167055814
 21
0.1530373851
 31
0.0
  0
LINE
  5
E8
330
1F
100
AcDbEntity
  8
0
  6
Continuous
 62
     7
370
    25
100
AcDbLine
 10
1.4436055814
 20
0.1530373851
 30
0.0
 11
1.4301555814
 21
0.1530373851
 31
0.0
  0
LINE
  5
E9
330
1F
100
AcDbEntity
  8
0
  6
Continuous
 62
     7
370
    25
100
AcDbLine
 10
1.4167055814
 20
0.2385608904
 30
0.0
 11
1.4436055814
 21
0.2385608904
 31
0.0
  0
LINE
  5
EA
330
1F
100
AcDbEntity
  8
0
  6
Continuous
 62
     7
370
    25
100
AcDbLine
 10
-0.9443617497
 20
0.2355393092
 30
0.0
 11
-0.9174617497
 21
0.2355393092
 31
0.0
  0
LINE
  5
EB
330
1F
100
AcDbEntity
  8
0
  6
Continuous
 62
     7
370
    25
100
AcDbLine
 10
-0.9309117497
 20
0.150015804
 30
0.0
 11
-0.9443617497
 21
0.150015804
 31
0.0
  0
LINE
  5
EC
330
1F
100
AcDbEntity
  8
0
  6
Continuous
 62
     7
370
    25
100
AcDbLine
 10
-0.9174617497
 20
0.150015804
 30
0.0
 11
-0.9309117497
 21
0.150015804
 31
0.0
  0
ARC
  5
ED
330
1F
100
AcDbEntity
  8
0
  6
Continuous
 62
     7
370
    25
100
AcDbCircle
 10
-0.4658712827
 20
0.2127775566
 30
0.0
 40
0.03
100
AcDbArc
 50
90.0
 51
180.0
  0
ARC
  5
EE
330
1F
100
AcDbEntity
  8
0
  6
Continuous
 62
     7
370
    25
100
AcDbCircle
 10
-0.4658712827
 20
0.1727775566
 30
0.0
 40
0.03
100
AcDbArc
 50
180.0
 51
270.0
  0
LINE
  5
EF
330
1F
100
AcDbEntity
  8
0
  6
Continuous
 62
     7
370
    25
100
AcDbLine
 10
-0.3659522166
 20
0.1727775566
 30
0.0
 11
-0.3659522166
 21
0.2127775566
 31
0.0
  0
LINE
  5
F0
330
1F
100
AcDbEntity
  8
0
  6
Continuous
 62
     7
370
    25
100
AcDbLine
 10
-0.3959522166
 20
0.2427775566
 30
0.0
 11
-0.4174617497
 21
0.2427775566
 31
0.0
  0
LINE
  5
F1
330
1F
100
AcDbEntity
  8
0
  6
Continuous
 62
     7
370
    25
100
AcDbLine
 10
-0.4443617497
 20
0.2427775566
 30
0.0
 11
-0.4658712827
 21
0.2427775566
 31
0.0
  0
ARC
  5
F2
330
1F
100
AcDbEntity
  8
0
  6
Continuous
 62
     7
370
    25
100
AcDbCircle
 10
-0.3959522166
 20
0.2127775566
 30
0.0
 40
0.03
100
AcDbArc
 50
0.0
 51
90.0
  0
LINE
  5
F3
330
1F
100
AcDbEntity
  8
0
  6
Continuous
 62
     7
370
    25
100
AcDbLine
 10
-0.4658712827
 20
0.1427775566
 30
0.0
 11
-0.4443617497
 21
0.1427775566
 31
0.0
  0
LINE
  5
F4
330
1F
100
AcDbEntity
  8
0
  6
Continuous
 62
     7
370
    25
100
AcDbLine
 10
-0.4174617497
 20
0.1427775566
 30
0.0
 11
-0.3959522166
 21
0.1427775566
 31
0.0
  0
LINE
  5
F5
330
1F
100
AcDbEntity
  8
0
  6
Continuous
 62
     7
370
    25
100
AcDbLine
 10
-0.4958712827
 20
0.2127775566
 30
0.0
 11
-0.4958712827
 21
0.1727775566
 31
0.0
  0
ARC
  5
F6
330
1F
100
AcDbEntity
  8
0
  6
Continuous
 62
     7
370
    25
100
AcDbCircle
 10
-0.3959522166
 20
0.1727775566
 30
0.0
 40
0.03
100
AcDbArc
 50
270.0
 51
0.0
  0
LINE
  5
F7
330
1F
100
AcDbEntity
  8
0
  6
Continuous
 62
     7
370
    25
100
AcDbLine
 10
-0.8959522166
 20
0.2427775566
 30
0.0
 11
-0.9174617497
 21
0.2427775566
 31
0.0
  0
LINE
  5
F8
330
1F
100
AcDbEntity
  8
0
  6
Continuous
 62
     7
370
    25
100
AcDbLine
 10
-0.9443617497
 20
0.2427775566
 30
0.0
 11
-0.9658712827
 21
0.2427775566
 31
0.0
  0
ARC
  5
F9
330
1F
100
AcDbEntity
  8
0
  6
Continuous
 62
     7
370
    25
100
AcDbCircle
 10
-0.8959522166
 20
0.2127775566
 30
0.0
 40
0.03
100
AcDbArc
 50
0.0
 51
90.0
  0
LINE
  5
FA
330
1F
100
AcDbEntity
  8
0
  6
Continuous
 62
     7
370
    25
100
AcDbLine
 10
-0.8659522166
 20
0.1727775566
 30
0.0
 11
-0.8659522166
 21
0.2127775566
 31
0.0
  0
ARC
  5
FB
330
1F
100
AcDbEntity
  8
0
  6
Continuous
 62
     7
370
    25
100
AcDbCircle
 10
-0.9658712827
 20
0.2127775566
 30
0.0
 40
0.03
100
AcDbArc
 50
90.0
 51
180.0
  0
ARC
  5
FC
330
1F
100
AcDbEntity
  8
0
  6
Continuous
 62
     7
370
    25
100
AcDbCircle
 10
-0.9658712827
 20
0.1727775566
 30
0.0
 40
0.03
100
AcDbArc
 50
180.0
 51
270.0
  0
LINE
  5
FD
330
1F
100
AcDbEntity
  8
0
  6
Continuous
 62
     7
370
    25
100
AcDbLine
 10
-0.9658712827
 20
0.1427775566
 30
0.0
 11
-0.9443617497
 21
0.1427775566
 31
0.0
  0
LINE
  5
FE
330
1F
100
AcDbEntity
  8
0
  6
Continuous
 62
     7
370
    25
100
AcDbLine
 10
-0.9174617497
 20
0.1427775566
 30
0.0
 11
-0.8959522166
 21
0.1427775566
 31
0.0
  0
ARC
  5
FF
330
1F
100
AcDbEntity
  8
0
  6
Continuous
 62
     7
370
    25
100
AcDbCircle
 10
-0.8959522166
 20
0.1727775566
 30
0.0
 40
0.03
100
AcDbArc
 50
270.0
 51
0.0
  0
LINE
  5
100
330
1F
100
AcDbEntity
  8
0
  6
Continuous
 62
     7
370
    25
100
AcDbLine
 10
-0.9958712827
 20
0.2127775566
 30
0.0
 11
-0.9958712827
 21
0.1727775566
 31
0.0
  0
LINE
  5
101
330
1F
100
AcDbEntity
  8
0
  6
Continuous
 62
     7
370
    25
100
AcDbLine
 10
1.4651151144
 20
0.2457991377
 30
0.0
 11
1.4436055814
 21
0.2457991377
 31
0.0
  0
LINE
  5
102
330
1F
100
AcDbEntity
  8
0
  6
Continuous
 62
     7
370
    25
100
AcDbLine
 10
1.4167055814
 20
0.2457991377
 30
0.0
 11
1.3951960483
 21
0.2457991377
 31
0.0
  0
ARC
  5
103
330
1F
100
AcDbEntity
  8
0
  6
Continuous
 62
     7
370
    25
100
AcDbCircle
 10
1.4651151144
 20
0.2157991377
 30
0.0
 40
0.03
100
AcDbArc
 50
0.0
 51
90.0
  0
LINE
  5
104
330
1F
100
AcDbEntity
  8
0
  6
Continuous
 62
     7
370
    25
100
AcDbLine
 10
1.4951151144
 20
0.1757991377
 30
0.0
 11
1.4951151144
 21
0.2157991377
 31
0.0
  0
ARC
  5
105
330
1F
100
AcDbEntity
  8
0
  6
Continuous
 62
     7
370
    25
100
AcDbCircle
 10
1.4651151144
 20
0.1757991377
 30
0.0
 40
0.03
100
AcDbArc
 50
270.0
 51
0.0
  0
ARC
  5
106
330
1F
100
AcDbEntity
  8
0
  6
Continuous
 62
     7
370
    25
100
AcDbCircle
 10
1.3951960483
 20
0.1757991377
 30
0.0
 40
0.03
100
AcDbArc
 50
180.0
 51
270.0
  0
LINE
  5
107
330
1F
100
AcDbEntity
  8
0
  6
Continuous
 62
     7
370
    25
100
AcDbLine
 10
1.3651960483
 20
0.2157991377
 30
0.0
 11
1.3651960483
 21
0.1757991377
 31
0.0
  0
ARC
  5
108
330
1F
100
AcDbEntity
  8
0
  6
Continuous
 62
     7
370
    25
100
AcDbCircle
 10
1.3951960483
 20
0.2157991377
 30
0.0
 40
0.03
100
AcDbArc
 50
90.0
 51
180.0
  0
LINE
  5
109
330
1F
100
AcDbEntity
  8
0
  6
Continuous
 62
     7
370
    25
100
AcDbLine
 10
1.3951960483
 20
0.1457991377
 30
0.0
 11
1.4167055814
 21
0.1457991377
 31
0.0
  0
LINE
  5
10A
330
1F
100
AcDbEntity
  8
0
  6
Continuous
 62
     7
370
    25
100
AcDbLine
 10
1.4436055814
 20
0.1457991377
 30
0.0
 11
1.4651151144
 21
0.1457991377
 31
0.0
  0
LINE
  5
10B
330
1F
100
AcDbEntity
  8
0
  6
Continuous
 62
     7
370
    25
100
AcDbLine
 10
0.9651151144
 20
0.2457991377
 30
0.0
 11
0.9436055814
 21
0.2457991377
 31
0.0
  0
LINE
  5
10C
330
1F
100
AcDbEntity
  8
0
  6
Continuous
 62
     7
370
    25
100
AcDbLine
 10
0.9167055814
 20
0.2457991377
 30
0.0
 11
0.8951960483
 21
0.2457991377
 31
0.0
  0
LINE
  5
10D
330
1F
100
AcDbEntity
  8
0
  6
Continuous
 62
     7
370
    25
100
AcDbLine
 10
0.8951960483
 20
0.1457991377
 30
0.0
 11
0.9167055814
 21
0.1457991377
 31
0.0
  0
LINE
  5
10E
330
1F
100
AcDbEntity
  8
0
  6
Continuous
 62
     7
370
    25
100
AcDbLine
 10
0.9436055814
 20
0.1457991377
 30
0.0
 11
0.9651151144
 21
0.1457991377
 31
0.0
  0
LINE
  5
10F
330
1F
100
AcDbEntity
  8
0
  6
Continuous
 62
     7
370
    25
100
AcDbLine
 10
0.8651960483
 20
0.2157991377
 30
0.0
 11
0.8651960483
 21
0.1757991377
 31
0.0
  0
ARC
  5
110
330
1F
100
AcDbEntity
  8
0
  6
Continuous
 62
     7
370
    25
100
AcDbCircle
 10
0.8951960483
 20
0.2157991377
 30
0.0
 40
0.03
100
AcDbArc
 50
90.0
 51
180.0
  0
ARC
  5
111
330
1F
100
AcDbEntity
  8
0
  6
Continuous
 62
     7
370
    25
100
AcDbCircle
 10
0.9651151144
 20
0.2157991377
 30
0.0
 40
0.03
100
AcDbArc
 50
0.0
 51
90.0
  0
LINE
  5
112
330
1F
100
AcDbEntity
  8
0
  6
Continuous
 62
     7
370
    25
100
AcDbLine
 10
0.9951151144
 20
0.1757991377
 30
0.0
 11
0.9951151144
 21
0.2157991377
 31
0.0
  0
ARC
  5
113
330
1F
100
AcDbEntity
  8
0
  6
Continuous
 62
     7
370
    25
100
AcDbCircle
 10
0.8951960483
 20
0.1757991377
 30
0.0
 40
0.03
100
AcDbArc
 50
180.0
 51
270.0
  0
ARC
  5
114
330
1F
100
AcDbEntity
  8
0
  6
Continuous
 62
     7
370
    25
100
AcDbCircle
 10
0.9651151144
 20
0.1757991377
 30
0.0
 40
0.03
100
AcDbArc
 50
270.0
 51
0.0
  0
LINE
  5
115
330
1F
100
AcDbEntity
  8
0
  6
Continuous
 62
     7
370
    25
100
AcDbLine
 10
-0.7099032737
 20
0.1928646728
 30
0.0
 11
-0.7127569908
 21
0.1923582812
 31
0.0
  0
LINE
  5
116
330
1F
100
AcDbEntity
  8
0
  6
Continuous
 62
     7
370
    25
100
AcDbLine
 10
-0.7089149632
 20
0.1955892601
 30
0.0
 11
-0.7099032737
 21
0.1928646728
 31
0.0
  0
LINE
  5
117
330
1F
100
AcDbEntity
  8
0
  6
Continuous
 62
     7
370
    25
100
AcDbLine
 10
-0.7107803697
 20
0.1978074557
 30
0.0
 11
-0.7089149632
 21
0.1955892601
 31
0.0
  0
LINE
  5
118
330
1F
100
AcDbEntity
  8
0
  6
Continuous
 62
     7
370
    25
100
AcDbLine
 10
-0.7136340868
 20
0.1973010641
 30
0.0
 11
-0.7107803697
 21
0.1978074557
 31
0.0
  0
LINE
  5
119
330
1F
100
AcDbEntity
  8
0
  6
Continuous
 62
     7
370
    25
100
AcDbLine
 10
-0.7146223973
 20
0.1945764769
 30
0.0
 11
-0.7136340868
 21
0.1973010641
 31
0.0
  0
LINE
  5
11A
330
1F
100
AcDbEntity
  8
0
  6
Continuous
 62
     7
370
    25
100
AcDbLine
 10
-0.7127569908
 20
0.1923582812
 30
0.0
 11
-0.7146223973
 21
0.1945764769
 31
0.0
  0
CIRCLE
  5
11B
330
1F
100
AcDbEntity
  8
0
  6
Continuous
 62
     7
370
    25
100
AcDbCircle
 10
-0.7117686802
 20
0.1950828685
 30
0.0
 40
0.0077849999999996
  0
ARC
  5
11C
330
1F
100
AcDbEntity
  8
0
  6
Continuous
 62
     7
370
    25
100
AcDbCircle
 10
-0.7117686802
 20
0.1950828685
 30
0.0
 40
0.002510000000001
100
AcDbArc
 50
280.0623828742
 51
340.0623828742
  0
ARC
  5
11D
330
1F
100
AcDbEntity
  8
0
  6
Continuous
 62
     7
370
    25
100
AcDbCircle
 10
-0.7117686802
 20
0.1950828685
 30
0.0
 40
0.002510000000001
100
AcDbArc
 50
340.0623828742
 51
40.0623828742
  0
ARC
  5
11E
330
1F
100
AcDbEntity
  8
0
  6
Continuous
 62
     7
370
    25
100
AcDbCircle
 10
-0.7117686802
 20
0.1950828685
 30
0.0
 40
0.0025100000000005
100
AcDbArc
 50
220.0623828742
 51
280.0623828742
  0
ARC
  5
11F
330
1F
100
AcDbEntity
  8
0
  6
Continuous
 62
     7
370
    25
100
AcDbCircle
 10
-0.7117686802
 20
0.1950828685
 30
0.0
 40
0.0025100000000005
100
AcDbArc
 50
160.0623828742
 51
220.0623828742
  0
ARC
  5
120
330
1F
100
AcDbEntity
  8
0
  6
Continuous
 62
     7
370
    25
100
AcDbCircle
 10
-0.7117686802
 20
0.1950828685
 30
0.0
 40
0.0025099999999997
100
AcDbArc
 50
100.0623828742
 51
160.0623828742
  0
ARC
  5
121
330
1F
100
AcDbEntity
  8
0
  6
Continuous
 62
     7
370
    25
100
AcDbCircle
 10
-0.7117686802
 20
0.1950828685
 30
0.0
 40
0.0025100000000004
100
AcDbArc
 50
40.0623828742
 51
100.0623828742
  0
LINE
  5
122
330
1F
100
AcDbEntity
  8
0
  6
Continuous
 62
     7
370
    25
100
AcDbLine
 10
1.2108595823
 20
0.1938612427
 30
0.0
 11
1.2084874921
 21
0.1921959135
 31
0.0
  0
LINE
  5
123
330
1F
100
AcDbEntity
  8
0
  6
Continuous
 62
     7
370
    25
100
AcDbLine
 10
1.2106034099
 20
0.1967481977
 30
0.0
 11
1.2108595823
 21
0.1938612427
 31
0.0
  0
LINE
  5
124
330
1F
100
AcDbEntity
  8
0
  6
Continuous
 62
     7
370
    25
100
AcDbLine
 10
1.2079751474
 20
0.1979698235
 30
0.0
 11
1.2106034099
 21
0.1967481977
 31
0.0
  0
LINE
  5
125
330
1F
100
AcDbEntity
  8
0
  6
Continuous
 62
     7
370
    25
100
AcDbLine
 10
1.2056030572
 20
0.1963044942
 30
0.0
 11
1.2079751474
 21
0.1979698235
 31
0.0
  0
LINE
  5
126
330
1F
100
AcDbEntity
  8
0
  6
Continuous
 62
     7
370
    25
100
AcDbLine
 10
1.2058592296
 20
0.1934175392
 30
0.0
 11
1.2056030572
 21
0.1963044942
 31
0.0
  0
LINE
  5
127
330
1F
100
AcDbEntity
  8
0
  6
Continuous
 62
     7
370
    25
100
AcDbLine
 10
1.2084874921
 20
0.1921959135
 30
0.0
 11
1.2058592296
 21
0.1934175392
 31
0.0
  0
CIRCLE
  5
128
330
1F
100
AcDbEntity
  8
0
  6
Continuous
 62
     7
370
    25
100
AcDbCircle
 10
1.2082313198
 20
0.1950828685
 30
0.0
 40
0.0077849999999996
  0
ARC
  5
129
330
1F
100
AcDbEntity
  8
0
  6
Continuous
 62
     7
370
    25
100
AcDbCircle
 10
1.2082313198
 20
0.1950828685
 30
0.0
 40
0.002510000000001
100
AcDbArc
 50
5.0708277349
 51
65.0708277349
  0
ARC
  5
12A
330
1F
100
AcDbEntity
  8
0
  6
Continuous
 62
     7
370
    25
100
AcDbCircle
 10
1.2082313198
 20
0.1950828685
 30
0.0
 40
0.002510000000001
100
AcDbArc
 50
305.070827735
 51
5.0708277349
  0
ARC
  5
12B
330
1F
100
AcDbEntity
  8
0
  6
Continuous
 62
     7
370
    25
100
AcDbCircle
 10
1.2082313198
 20
0.1950828685
 30
0.0
 40
0.0025100000000005
100
AcDbArc
 50
245.070827735
 51
305.070827735
  0
ARC
  5
12C
330
1F
100
AcDbEntity
  8
0
  6
Continuous
 62
     7
370
    25
100
AcDbCircle
 10
1.2082313198
 20
0.1950828685
 30
0.0
 40
0.0025100000000005
100
AcDbArc
 50
185.070827735
 51
245.070827735
  0
ARC
  5
12D
330
1F
100
AcDbEntity
  8
0
  6
Continuous
 62
     7
370
    25
100
AcDbCircle
 10
1.2082313198
 20
0.1950828685
 30
0.0
 40
0.0025099999999998
100
AcDbArc
 50
125.070827735
 51
185.070827735
  0
ARC
  5
12E
330
1F
100
AcDbEntity
  8
0
  6
Continuous
 62
     7
370
    25
100
AcDbCircle
 10
1.2082313198
 20
0.1950828685
 30
0.0
 40
0.0025100000000004
100
AcDbArc
 50
65.0708277349
 51
125.070827735
  0
LINE
  5
12F
330
1F
100
AcDbEntity
  8
0
  6
Continuous
 62
     7
370
    25
100
AcDbLine
 10
1.6105118923
 20
0.1932942595
 30
0.0
 11
1.6078226253
 21
0.1922135302
 31
0.0
  0
LINE
  5
130
330
1F
100
AcDbEntity
  8
0
  6
Continuous
 62
     7
370
    25
100
AcDbLine
 10
1.6109205868
 20
0.1961635978
 30
0.0
 11
1.6105118923
 21
0.1932942595
 31
0.0
  0
LINE
  5
131
330
1F
100
AcDbEntity
  8
0
  6
Continuous
 62
     7
370
    25
100
AcDbLine
 10
1.6086400142
 20
0.1979522068
 30
0.0
 11
1.6109205868
 21
0.1961635978
 31
0.0
  0
LINE
  5
132
330
1F
100
AcDbEntity
  8
0
  6
Continuous
 62
     7
370
    25
100
AcDbLine
 10
1.6059507472
 20
0.1968714774
 30
0.0
 11
1.6086400142
 21
0.1979522068
 31
0.0
  0
LINE
  5
133
330
1F
100
AcDbEntity
  8
0
  6
Continuous
 62
     7
370
    25
100
AcDbLine
 10
1.6055420527
 20
0.1940021392
 30
0.0
 11
1.6059507472
 21
0.1968714774
 31
0.0
  0
LINE
  5
134
330
1F
100
AcDbEntity
  8
0
  6
Continuous
 62
     7
370
    25
100
AcDbLine
 10
1.6078226253
 20
0.1922135302
 30
0.0
 11
1.6055420527
 21
0.1940021392
 31
0.0
  0
CIRCLE
  5
135
330
1F
100
AcDbEntity
  8
0
  6
Continuous
 62
     7
370
    25
100
AcDbCircle
 10
1.6082313198
 20
0.1950828685
 30
0.0
 40
0.0077849999999996
  0
ARC
  5
136
330
1F
100
AcDbEntity
  8
0
  6
Continuous
 62
     7
370
    25
100
AcDbCircle
 10
1.6082313198
 20
0.1950828685
 30
0.0
 40
0.002510000000001
100
AcDbArc
 50
351.8935964586
 51
51.8935964586
  0
ARC
  5
137
330
1F
100
AcDbEntity
  8
0
  6
Continuous
 62
     7
370
    25
100
AcDbCircle
 10
1.6082313198
 20
0.1950828685
 30
0.0
 40
0.002510000000001
100
AcDbArc
 50
291.8935964586
 51
351.8935964586
  0
ARC
  5
138
330
1F
100
AcDbEntity
  8
0
  6
Continuous
 62
     7
370
    25
100
AcDbCircle
 10
1.6082313198
 20
0.1950828685
 30
0.0
 40
0.0025100000000006
100
AcDbArc
 50
231.8935964586
 51
291.8935964586
  0
ARC
  5
139
330
1F
100
AcDbEntity
  8
0
  6
Continuous
 62
     7
370
    25
100
AcDbCircle
 10
1.6082313198
 20
0.1950828685
 30
0.0
 40
0.0025100000000006
100
AcDbArc
 50
171.8935964586
 51
231.8935964586
  0
ARC
  5
13A
330
1F
100
AcDbEntity
  8
0
  6
Continuous
 62
     7
370
    25
100
AcDbCircle
 10
1.6082313198
 20
0.1950828685
 30
0.0
 40
0.0025099999999997
100
AcDbArc
 50
111.8935964586
 51
171.8935964586
  0
ARC
  5
13B
330
1F
100
AcDbEntity
  8
0
  6
Continuous
 62
     7
370
    25
100
AcDbCircle
 10
1.6082313198
 20
0.1950828685
 30
0.0
 40
0.0025100000000002
100
AcDbArc
 50
51.8935964586
 51
111.8935964586
  0
LINE
  5
13C
330
1F
100
AcDbEntity
  8
0
  6
Continuous
 62
     7
370
    25
100
AcDbLine
 10
1.1105118923
 20
0.1932942595
 30
0.0
 11
1.1078226253
 21
0.1922135302
 31
0.0
  0
LINE
  5
13D
330
1F
100
AcDbEntity
  8
0
  6
Continuous
 62
     7
370
    25
100
AcDbLine
 10
1.1109205868
 20
0.1961635978
 30
0.0
 11
1.1105118923
 21
0.1932942595
 31
0.0
  0
LINE
  5
13E
330
1F
100
AcDbEntity
  8
0
  6
Continuous
 62
     7
370
    25
100
AcDbLine
 10
1.1086400142
 20
0.1979522068
 30
0.0
 11
1.1109205868
 21
0.1961635978
 31
0.0
  0
LINE
  5
13F
330
1F
100
AcDbEntity
  8
0
  6
Continuous
 62
     7
370
    25
100
AcDbLine
 10
1.1059507472
 20
0.1968714774
 30
0.0
 11
1.1086400142
 21
0.1979522068
 31
0.0
  0
LINE
  5
140
330
1F
100
AcDbEntity
  8
0
  6
Continuous
 62
     7
370
    25
100
AcDbLine
 10
1.1055420527
 20
0.1940021392
 30
0.0
 11
1.1059507472
 21
0.1968714774
 31
0.0
  0
LINE
  5
141
330
1F
100
AcDbEntity
  8
0
  6
Continuous
 62
     7
370
    25
100
AcDbLine
 10
1.1078226253
 20
0.1922135302
 30
0.0
 11
1.1055420527
 21
0.1940021392
 31
0.0
  0
CIRCLE
  5
142
330
1F
100
AcDbEntity
  8
0
  6
Continuous
 62
     7
370
    25
100
AcDbCircle
 10
1.1082313198
 20
0.1950828685
 30
0.0
 40
0.0077849999999996
  0
ARC
  5
143
330
1F
100
AcDbEntity
  8
0
  6
Continuous
 62
     7
370
    25
100
AcDbCircle
 10
1.1082313198
 20
0.1950828685
 30
0.0
 40
0.0025100000000012
100
AcDbArc
 50
291.8935964586
 51
351.8935964586
  0
ARC
  5
144
330
1F
100
AcDbEntity
  8
0
  6
Continuous
 62
     7
370
    25
100
AcDbCircle
 10
1.1082313198
 20
0.1950828685
 30
0.0
 40
0.0025100000000012
100
AcDbArc
 50
351.8935964586
 51
51.8935964586
  0
ARC
  5
145
330
1F
100
AcDbEntity
  8
0
  6
Continuous
 62
     7
370
    25
100
AcDbCircle
 10
1.1082313198
 20
0.1950828685
 30
0.0
 40
0.0025100000000005
100
AcDbArc
 50
231.8935964586
 51
291.8935964586
  0
ARC
  5
146
330
1F
100
AcDbEntity
  8
0
  6
Continuous
 62
     7
370
    25
100
AcDbCircle
 10
1.1082313198
 20
0.1950828685
 30
0.0
 40
0.0025100000000005
100
AcDbArc
 50
171.8935964586
 51
231.8935964586
  0
ARC
  5
147
330
1F
100
AcDbEntity
  8
0
  6
Continuous
 62
     7
370
    25
100
AcDbCircle
 10
1.1082313198
 20
0.1950828685
 30
0.0
 40
0.0025099999999995
100
AcDbArc
 50
111.8935964586
 51
171.8935964586
  0
ARC
  5
148
330
1F
100
AcDbEntity
  8
0
  6
Continuous
 62
     7
370
    25
100
AcDbCircle
 10
1.1082313198
 20
0.1950828685
 30
0.0
 40
0.0025100000000003
100
AcDbArc
 50
51.8935964586
 51
111.8935964586
  0
LINE
  5
149
330
1F
100
AcDbEntity
  8
0
  6
Continuous
 62
     7
370
    25
100
AcDbLine
 10
-1.2099032737
 20
0.1928646728
 30
0.0
 11
-1.2127569908
 21
0.1923582812
 31
0.0
  0
LINE
  5
14A
330
1F
100
AcDbEntity
  8
0
  6
Continuous
 62
     7
370
    25
100
AcDbLine
 10
-1.2089149632
 20
0.1955892601
 30
0.0
 11
-1.2099032737
 21
0.1928646728
 31
0.0
  0
LINE
  5
14B
330
1F
100
AcDbEntity
  8
0
  6
Continuous
 62
     7
370
    25
100
AcDbLine
 10
-1.2107803697
 20
0.1978074557
 30
0.0
 11
-1.2089149632
 21
0.1955892601
 31
0.0
  0
LINE
  5
14C
330
1F
100
AcDbEntity
  8
0
  6
Continuous
 62
     7
370
    25
100
AcDbLine
 10
-1.2136340868
 20
0.1973010641
 30
0.0
 11
-1.2107803697
 21
0.1978074557
 31
0.0
  0
LINE
  5
14D
330
1F
100
AcDbEntity
  8
0
  6
Continuous
 62
     7
370
    25
100
AcDbLine
 10
-1.2146223973
 20
0.1945764769
 30
0.0
 11
-1.2136340868
 21
0.1973010641
 31
0.0
  0
LINE
  5
14E
330
1F
100
AcDbEntity
  8
0
  6
Continuous
 62
     7
370
    25
100
AcDbLine
 10
-1.2127569908
 20
0.1923582812
 30
0.0
 11
-1.2146223973
 21
0.1945764769
 31
0.0
  0
CIRCLE
  5
14F
330
1F
100
AcDbEntity
  8
0
  6
Continuous
 62
     7
370
    25
100
AcDbCircle
 10
-1.2117686802
 20
0.1950828685
 30
0.0
 40
0.0077849999999996
  0
ARC
  5
150
330
1F
100
AcDbEntity
  8
0
  6
Continuous
 62
     7
370
    25
100
AcDbCircle
 10
-1.2117686802
 20
0.1950828685
 30
0.0
 40
0.0025100000000011
100
AcDbArc
 50
340.0623828742
 51
40.0623828742
  0
ARC
  5
151
330
1F
100
AcDbEntity
  8
0
  6
Continuous
 62
     7
370
    25
100
AcDbCircle
 10
-1.2117686802
 20
0.1950828685
 30
0.0
 40
0.0025100000000005
100
AcDbArc
 50
220.0623828742
 51
280.0623828742
  0
ARC
  5
152
330
1F
100
AcDbEntity
  8
0
  6
Continuous
 62
     7
370
    25
100
AcDbCircle
 10
-1.2117686802
 20
0.1950828685
 30
0.0
 40
0.0025100000000005
100
AcDbArc
 50
160.0623828742
 51
220.0623828742
  0
ARC
  5
153
330
1F
100
AcDbEntity
  8
0
  6
Continuous
 62
     7
370
    25
100
AcDbCircle
 10
-1.2117686802
 20
0.1950828685
 30
0.0
 40
0.0025099999999996
100
AcDbArc
 50
100.0623828742
 51
160.0623828742
  0
ARC
  5
154
330
1F
100
AcDbEntity
  8
0
  6
Continuous
 62
     7
370
    25
100
AcDbCircle
 10
-1.2117686802
 20
0.1950828685
 30
0.0
 40
0.0025100000000005
100
AcDbArc
 50
40.0623828742
 51
100.0623828742
  0
ARC
  5
155
330
1F
100
AcDbEntity
  8
0
  6
Continuous
 62
     7
370
    25
100
AcDbCircle
 10
-1.2117686802
 20
0.1950828685
 30
0.0
 40
0.0025100000000011
100
AcDbArc
 50
280.0623828742
 51
340.0623828742
  0
LINE
  5
156
330
1F
100
AcDbEntity
  8
0
  6
Continuous
 62
     7
370
    25
100
AcDbLine
 10
-1.1103195311
 20
0.1925728685
 30
0.0
 11
-1.1132178294
 21
0.1925728685
 31
0.0
  0
LINE
  5
157
330
1F
100
AcDbEntity
  8
0
  6
Continuous
 62
     7
370
    25
100
AcDbLine
 10
-1.1088703819
 20
0.1950828685
 30
0.0
 11
-1.1103195311
 21
0.1925728685
 31
0.0
  0
LINE
  5
158
330
1F
100
AcDbEntity
  8
0
  6
Continuous
 62
     7
370
    25
100
AcDbLine
 10
-1.1103195311
 20
0.1975928685
 30
0.0
 11
-1.1088703819
 21
0.1950828685
 31
0.0
  0
LINE
  5
159
330
1F
100
AcDbEntity
  8
0
  6
Continuous
 62
     7
370
    25
100
AcDbLine
 10
-1.1132178294
 20
0.1975928685
 30
0.0
 11
-1.1103195311
 21
0.1975928685
 31
0.0
  0
LINE
  5
15A
330
1F
100
AcDbEntity
  8
0
  6
Continuous
 62
     7
370
    25
100
AcDbLine
 10
-1.1146669786
 20
0.1950828685
 30
0.0
 11
-1.1132178294
 21
0.1975928685
 31
0.0
  0
LINE
  5
15B
330
1F
100
AcDbEntity
  8
0
  6
Continuous
 62
     7
370
    25
100
AcDbLine
 10
-1.1132178294
 20
0.1925728685
 30
0.0
 11
-1.1146669786
 21
0.1950828685
 31
0.0
  0
CIRCLE
  5
15C
330
1F
100
AcDbEntity
  8
0
  6
Continuous
 62
     7
370
    25
100
AcDbCircle
 10
-1.1117686802
 20
0.1950828685
 30
0.0
 40
0.0077849999999995
  0
ARC
  5
15D
330
1F
100
AcDbEntity
  8
0
  6
Continuous
 62
     7
370
    25
100
AcDbCircle
 10
-1.1117686802
 20
0.1950828685
 30
0.0
 40
0.0025100000000003
100
AcDbArc
 50
210.0
 51
270.0
  0
ARC
  5
15E
330
1F
100
AcDbEntity
  8
0
  6
Continuous
 62
     7
370
    25
100
AcDbCircle
 10
-1.1117686802
 20
0.1950828685
 30
0.0
 40
0.0025100000000003
100
AcDbArc
 50
150.0
 51
210.0
  0
ARC
  5
15F
330
1F
100
AcDbEntity
  8
0
  6
Continuous
 62
     7
370
    25
100
AcDbCircle
 10
-1.1117686802
 20
0.1950828685
 30
0.0
 40
0.0025099999999995
100
AcDbArc
 50
90.0
 51
150.0
  0
ARC
  5
160
330
1F
100
AcDbEntity
  8
0
  6
Continuous
 62
     7
370
    25
100
AcDbCircle
 10
-1.1117686802
 20
0.1950828685
 30
0.0
 40
0.0025100000000005
100
AcDbArc
 50
30.0
 51
90.0
  0
ARC
  5
161
330
1F
100
AcDbEntity
  8
0
  6
Continuous
 62
     7
370
    25
100
AcDbCircle
 10
-1.1117686802
 20
0.1950828685
 30
0.0
 40
0.002510000000001
100
AcDbArc
 50
330.0
 51
30.0
  0
ARC
  5
162
330
1F
100
AcDbEntity
  8
0
  6
Continuous
 62
     7
370
    25
100
AcDbCircle
 10
-1.1117686802
 20
0.1950828685
 30
0.0
 40
0.002510000000001
100
AcDbArc
 50
270.0
 51
330.0
  0
LINE
  5
163
330
1F
100
AcDbEntity
  8
0
  6
Continuous
 62
     7
370
    25
100
AcDbLine
 10
1.7108595823
 20
0.1938612427
 30
0.0
 11
1.7084874921
 21
0.1921959135
 31
0.0
  0
LINE
  5
164
330
1F
100
AcDbEntity
  8
0
  6
Continuous
 62
     7
370
    25
100
AcDbLine
 10
1.7106034099
 20
0.1967481977
 30
0.0
 11
1.7108595823
 21
0.1938612427
 31
0.0
  0
LINE
  5
165
330
1F
100
AcDbEntity
  8
0
  6
Continuous
 62
     7
370
    25
100
AcDbLine
 10
1.7079751474
 20
0.1979698235
 30
0.0
 11
1.7106034099
 21
0.1967481977
 31
0.0
  0
LINE
  5
166
330
1F
100
AcDbEntity
  8
0
  6
Continuous
 62
     7
370
    25
100
AcDbLine
 10
1.7056030572
 20
0.1963044942
 30
0.0
 11
1.7079751474
 21
0.1979698235
 31
0.0
  0
LINE
  5
167
330
1F
100
AcDbEntity
  8
0
  6
Continuous
 62
     7
370
    25
100
AcDbLine
 10
1.7058592296
 20
0.1934175392
 30
0.0
 11
1.7056030572
 21
0.1963044942
 31
0.0
  0
LINE
  5
168
330
1F
100
AcDbEntity
  8
0
  6
Continuous
 62
     7
370
    25
100
AcDbLine
 10
1.7084874921
 20
0.1921959135
 30
0.0
 11
1.7058592296
 21
0.1934175392
 31
0.0
  0
CIRCLE
  5
169
330
1F
100
AcDbEntity
  8
0
  6
Continuous
 62
     7
370
    25
100
AcDbCircle
 10
1.7082313198
 20
0.1950828685
 30
0.0
 40
0.0077849999999996
  0
ARC
  5
16A
330
1F
100
AcDbEntity
  8
0
  6
Continuous
 62
     7
370
    25
100
AcDbCircle
 10
1.7082313198
 20
0.1950828685
 30
0.0
 40
0.0025100000000004
100
AcDbArc
 50
245.070827735
 51
305.070827735
  0
ARC
  5
16B
330
1F
100
AcDbEntity
  8
0
  6
Continuous
 62
     7
370
    25
100
AcDbCircle
 10
1.7082313198
 20
0.1950828685
 30
0.0
 40
0.0025100000000004
100
AcDbArc
 50
185.070827735
 51
245.070827735
  0
ARC
  5
16C
330
1F
100
AcDbEntity
  8
0
  6
Continuous
 62
     7
370
    25
100
AcDbCircle
 10
1.7082313198
 20
0.1950828685
 30
0.0
 40
0.0025099999999998
100
AcDbArc
 50
125.070827735
 51
185.070827735
  0
ARC
  5
16D
330
1F
100
AcDbEntity
  8
0
  6
Continuous
 62
     7
370
    25
100
AcDbCircle
 10
1.7082313198
 20
0.1950828685
 30
0.0
 40
0.0025100000000004
100
AcDbArc
 50
65.0708277349
 51
125.070827735
  0
ARC
  5
16E
330
1F
100
AcDbEntity
  8
0
  6
Continuous
 62
     7
370
    25
100
AcDbCircle
 10
1.7082313198
 20
0.1950828685
 30
0.0
 40
0.002510000000001
100
AcDbArc
 50
5.0708277349
 51
65.0708277349
  0
ARC
  5
16F
330
1F
100
AcDbEntity
  8
0
  6
Continuous
 62
     7
370
    25
100
AcDbCircle
 10
1.7082313198
 20
0.1950828685
 30
0.0
 40
0.002510000000001
100
AcDbArc
 50
305.070827735
 51
5.0708277349
  0
LINE
  5
170
330
1F
100
AcDbEntity
  8
0
  6
Continuous
 62
     7
370
    25
100
AcDbLine
 10
-0.6103195311
 20
0.1925728685
 30
0.0
 11
-0.6132178294
 21
0.1925728685
 31
0.0
  0
LINE
  5
171
330
1F
100
AcDbEntity
  8
0
  6
Continuous
 62
     7
370
    25
100
AcDbLine
 10
-0.6088703819
 20
0.1950828685
 30
0.0
 11
-0.6103195311
 21
0.1925728685
 31
0.0
  0
LINE
  5
172
330
1F
100
AcDbEntity
  8
0
  6
Continuous
 62
     7
370
    25
100
AcDbLine
 10
-0.6103195311
 20
0.1975928685
 30
0.0
 11
-0.6088703819
 21
0.1950828685
 31
0.0
  0
LINE
  5
173
330
1F
100
AcDbEntity
  8
0
  6
Continuous
 62
     7
370
    25
100
AcDbLine
 10
-0.6132178294
 20
0.1975928685
 30
0.0
 11
-0.6103195311
 21
0.1975928685
 31
0.0
  0
LINE
  5
174
330
1F
100
AcDbEntity
  8
0
  6
Continuous
 62
     7
370
    25
100
AcDbLine
 10
-0.6146669786
 20
0.1950828685
 30
0.0
 11
-0.6132178294
 21
0.1975928685
 31
0.0
  0
LINE
  5
175
330
1F
100
AcDbEntity
  8
0
  6
Continuous
 62
     7
370
    25
100
AcDbLine
 10
-0.6132178294
 20
0.1925728685
 30
0.0
 11
-0.6146669786
 21
0.1950828685
 31
0.0
  0
CIRCLE
  5
176
330
1F
100
AcDbEntity
  8
0
  6
Continuous
 62
     7
370
    25
100
AcDbCircle
 10
-0.6117686802
 20
0.1950828685
 30
0.0
 40
0.0077849999999995
  0
ARC
  5
177
330
1F
100
AcDbEntity
  8
0
  6
Continuous
 62
     7
370
    25
100
AcDbCircle
 10
-0.6117686802
 20
0.1950828685
 30
0.0
 40
0.0025100000000011
100
AcDbArc
 50
270.0
 51
330.0
  0
ARC
  5
178
330
1F
100
AcDbEntity
  8
0
  6
Continuous
 62
     7
370
    25
100
AcDbCircle
 10
-0.6117686802
 20
0.1950828685
 30
0.0
 40
0.0025100000000003
100
AcDbArc
 50
210.0
 51
270.0
  0
ARC
  5
179
330
1F
100
AcDbEntity
  8
0
  6
Continuous
 62
     7
370
    25
100
AcDbCircle
 10
-0.6117686802
 20
0.1950828685
 30
0.0
 40
0.0025100000000003
100
AcDbArc
 50
150.0
 51
210.0
  0
ARC
  5
17A
330
1F
100
AcDbEntity
  8
0
  6
Continuous
 62
     7
370
    25
100
AcDbCircle
 10
-0.6117686802
 20
0.1950828685
 30
0.0
 40
0.0025099999999996
100
AcDbArc
 50
90.0
 51
150.0
  0
ARC
  5
17B
330
1F
100
AcDbEntity
  8
0
  6
Continuous
 62
     7
370
    25
100
AcDbCircle
 10
-0.6117686802
 20
0.1950828685
 30
0.0
 40
0.0025100000000005
100
AcDbArc
 50
30.0
 51
90.0
  0
ARC
  5
17C
330
1F
100
AcDbEntity
  8
0
  6
Continuous
 62
     7
370
    25
100
AcDbCircle
 10
-0.6117686802
 20
0.1950828685
 30
0.0
 40
0.0025100000000011
100
AcDbArc
 50
330.0
 51
30.0
  0
LINE
  5
17D
330
1F
100
AcDbEntity
  8
0
  6
Continuous
 62
     7
370
    25
100
AcDbLine
 10
-1.3521325655
 20
-0.9803311429
 30
0.0
 11
1.8300948512
 21
-0.9803311429
 31
0.0
  0
ARC
  5
17E
330
1F
100
AcDbEntity
  8
0
  6
Continuous
 62
     7
370
    25
100
AcDbCircle
 10
-1.3521325655
 20
0.0196688571
 30
0.0
 40
1.0
100
AcDbArc
 50
180.0
 51
270.0
  0
ARC
  5
17F
330
1F
100
AcDbEntity
  8
0
  6
Continuous
 62
     7
370
    25
100
AcDbCircle
 10
1.8300948512
 20
0.2696688571
 30
0.0
 40
1.0
100
AcDbArc
 50
0.0
 51
90.0
  0
LINE
  5
180
330
1F
100
AcDbEntity
  8
0
  6
Continuous
 62
     7
370
    25
100
AcDbLine
 10
2.8300948512
 20
0.0196688571
 30
0.0
 11
2.8300948512
 21
0.2696688571
 31
0.0
  0
ARC
  5
181
330
1F
100
AcDbEntity
  8
0
  6
Continuous
 62
     7
370
    25
100
AcDbCircle
 10
-1.3521325655
 20
0.2696688571
 30
0.0
 40
1.0
100
AcDbArc
 50
90.0
 51
180.0
  0
LINE
  5
182
330
1F
100
AcDbEntity
  8
0
  6
Continuous
 62
     7
370
    25
100
AcDbLine
 10
1.8300948512
 20
1.2696688571
 30
0.0
 11
-1.3521325655
 21
1.2696688571
 31
0.0
  0
ARC
  5
183
330
1F
100
AcDbEntity
  8
0
  6
Continuous
 62
     7
370
    25
100
AcDbCircle
 10
1.8300948512
 20
0.0196688571
 30
0.0
 40
1.0
100
AcDbArc
 50
270.0
 51
0.0
  0
LINE
  5
184
330
1F
100
AcDbEntity
  8
0
  6
Continuous
 62
     7
370
    25
100
AcDbLine
 10
-2.3521325655
 20
0.2696688571
 30
0.0
 11
-2.3521325655
 21
0.0196688571
 31
0.0
  0
ARC
  5
185
330
1F
100
AcDbEntity
  8
0
  6
Continuous
 62
     7
370
    25
100
AcDbCircle
 10
-1.0938609526
 20
0.1951017401
 30
0.0
 40
0.1400000000000001
100
AcDbArc
 50
20.916564035
 51
90.0
  0
ARC
  5
186
330
1F
100
AcDbEntity
  8
0
  6
Continuous
 62
     7
370
    25
100
AcDbCircle
 10
-1.0938609526
 20
0.1951017401
 30
0.0
 40
0.1400000000000001
100
AcDbArc
 50
236.3338749953
 51
338.0532840151
  0
ARC
  5
187
330
1F
100
AcDbEntity
  8
0
  6
Continuous
 62
     7
370
    25
100
AcDbCircle
 10
-1.0938609526
 20
0.1951017401
 30
0.0
 40
0.14
100
AcDbArc
 50
90.0
 51
122.6421371029
  0
ARC
  5
188
330
1F
100
AcDbEntity
  8
0
  6
Continuous
 62
     7
370
    25
100
AcDbCircle
 10
1.5061390474
 20
0.1951017401
 30
0.0
 40
0.14
100
AcDbArc
 50
34.5726525173
 51
90.0
  0
ARC
  5
189
330
1F
100
AcDbEntity
  8
0
  6
Continuous
 62
     7
370
    25
100
AcDbCircle
 10
1.5061390474
 20
0.1951017401
 30
0.0
 40
0.1400000000000001
100
AcDbArc
 50
200.9331012765
 51
325.5081512556
  0
ARC
  5
18A
330
1F
100
AcDbEntity
  8
0
  6
Continuous
 62
     7
370
    25
100
AcDbCircle
 10
1.5061390474
 20
0.1951017401
 30
0.0
 40
0.1400000000000001
100
AcDbArc
 50
90.0
 51
159.083435965
  0
LINE
  5
18B
330
1F
100
AcDbEntity
  8
0
  6
Continuous
 62
     7
370
    25
100
AcDbLine
 10
0.1461390474
 20
0.2551017401
 30
0.0
 11
0.1461390474
 21
0.2450828685
 31
0.0
  0
LINE
  5
18C
330
1F
100
AcDbEntity
  8
0
  6
Continuous
 62
     7
370
    25
100
AcDbLine
 10
0.1461390474
 20
0.1450828685
 30
0.0
 11
0.1461390474
 21
0.1351017401
 31
0.0
  0
LINE
  5
18D
330
1F
100
AcDbEntity
  8
0
  6
Continuous
 62
     7
370
    25
100
AcDbLine
 10
0.1461390474
 20
0.2551017401
 30
0.0
 11
0.1811523926
 21
0.2551017401
 31
0.0
  0
LINE
  5
18E
330
1F
100
AcDbEntity
  8
0
  6
Continuous
 62
     7
370
    25
100
AcDbLine
 10
0.1461390474
 20
0.1351017401
 30
0.0
 11
0.1811523926
 21
0.1351017401
 31
0.0
  0
LINE
  5
18F
330
1F
100
AcDbEntity
  8
0
  6
Continuous
 62
     7
370
    25
100
AcDbLine
 10
0.2661390474
 20
0.2551017401
 30
0.0
 11
0.2661390474
 21
0.2450828685
 31
0.0
  0
LINE
  5
190
330
1F
100
AcDbEntity
  8
0
  6
Continuous
 62
     7
370
    25
100
AcDbLine
 10
0.2661390474
 20
0.1450828685
 30
0.0
 11
0.2661390474
 21
0.1351017401
 31
0.0
  0
LINE
  5
191
330
1F
100
AcDbEntity
  8
0
  6
Continuous
 62
     7
370
    25
100
AcDbLine
 10
0.2311257021
 20
0.2551017401
 30
0.0
 11
0.2661390474
 21
0.2551017401
 31
0.0
  0
LINE
  5
192
330
1F
100
AcDbEntity
  8
0
  6
Continuous
 62
     7
370
    25
100
AcDbLine
 10
0.2311257021
 20
0.1351017401
 30
0.0
 11
0.2661390474
 21
0.1351017401
 31
0.0
  0
LINE
  5
193
330
1F
100
AcDbEntity
  8
0
  6
Continuous
 62
     7
370
    25
100
AcDbLine
 10
0.1911523926
 20
0.2601017401
 30
0.0
 11
0.1911523926
 21
0.2551017401
 31
0.0
  0
LINE
  5
194
330
1F
100
AcDbEntity
  8
0
  6
Continuous
 62
     7
370
    25
100
AcDbLine
 10
0.1911523926
 20
0.2601017401
 30
0.0
 11
0.2211257021
 21
0.2601017401
 31
0.0
  0
LINE
  5
195
330
1F
100
AcDbEntity
  8
0
  6
Continuous
 62
     7
370
    25
100
AcDbLine
 10
0.2211257021
 20
0.2601017401
 30
0.0
 11
0.2211257021
 21
0.2551017401
 31
0.0
  0
LINE
  5
196
330
1F
100
AcDbEntity
  8
0
  6
Continuous
 62
     7
370
    25
100
AcDbLine
 10
0.1911523926
 20
0.2551017401
 30
0.0
 11
0.2211257021
 21
0.2551017401
 31
0.0
  0
LINE
  5
197
330
1F
100
AcDbEntity
  8
0
  6
Continuous
 62
     7
370
    25
100
AcDbLine
 10
0.2311257021
 20
0.2601017401
 30
0.0
 11
0.2311257021
 21
0.2551017401
 31
0.0
  0
LINE
  5
198
330
1F
100
AcDbEntity
  8
0
  6
Continuous
 62
     7
370
    25
100
AcDbLine
 10
0.2211257021
 20
0.2551017401
 30
0.0
 11
0.2311257021
 21
0.2551017401
 31
0.0
  0
LINE
  5
199
330
1F
100
AcDbEntity
  8
0
  6
Continuous
 62
     7
370
    25
100
AcDbLine
 10
0.2211257021
 20
0.2601017401
 30
0.0
 11
0.2311257021
 21
0.2601017401
 31
0.0
  0
LINE
  5
19A
330
1F
100
AcDbEntity
  8
0
  6
Continuous
 62
     7
370
    25
100
AcDbLine
 10
0.1811523926
 20
0.2601017401
 30
0.0
 11
0.1811523926
 21
0.2551017401
 31
0.0
  0
LINE
  5
19B
330
1F
100
AcDbEntity
  8
0
  6
Continuous
 62
     7
370
    25
100
AcDbLine
 10
0.1811523926
 20
0.2551017401
 30
0.0
 11
0.1911523926
 21
0.2551017401
 31
0.0
  0
LINE
  5
19C
330
1F
100
AcDbEntity
  8
0
  6
Continuous
 62
     7
370
    25
100
AcDbLine
 10
0.1811523926
 20
0.2601017401
 30
0.0
 11
0.1911523926
 21
0.2601017401
 31
0.0
  0
LINE
  5
19D
330
1F
100
AcDbEntity
  8
0
  6
Continuous
 62
     7
370
    25
100
AcDbLine
 10
0.1911523926
 20
0.1301017401
 30
0.0
 11
0.1911523926
 21
0.1351017401
 31
0.0
  0
LINE
  5
19E
330
1F
100
AcDbEntity
  8
0
  6
Continuous
 62
     7
370
    25
100
AcDbLine
 10
0.1811523926
 20
0.1301017401
 30
0.0
 11
0.1911523926
 21
0.1301017401
 31
0.0
  0
LINE
  5
19F
330
1F
100
AcDbEntity
  8
0
  6
Continuous
 62
     7
370
    25
100
AcDbLine
 10
0.1811523926
 20
0.1301017401
 30
0.0
 11
0.1811523926
 21
0.1351017401
 31
0.0
  0
LINE
  5
1A0
330
1F
100
AcDbEntity
  8
0
  6
Continuous
 62
     7
370
    25
100
AcDbLine
 10
0.1811523926
 20
0.1351017401
 30
0.0
 11
0.1911523926
 21
0.1351017401
 31
0.0
  0
LINE
  5
1A1
330
1F
100
AcDbEntity
  8
0
  6
Continuous
 62
     7
370
    25
100
AcDbLine
 10
0.2311257021
 20
0.1301017401
 30
0.0
 11
0.2311257021
 21
0.1351017401
 31
0.0
  0
LINE
  5
1A2
330
1F
100
AcDbEntity
  8
0
  6
Continuous
 62
     7
370
    25
100
AcDbLine
 10
0.2211257021
 20
0.1301017401
 30
0.0
 11
0.2311257021
 21
0.1301017401
 31
0.0
  0
LINE
  5
1A3
330
1F
100
AcDbEntity
  8
0
  6
Continuous
 62
     7
370
    25
100
AcDbLine
 10
0.2211257021
 20
0.1301017401
 30
0.0
 11
0.2211257021
 21
0.1351017401
 31
0.0
  0
LINE
  5
1A4
330
1F
100
AcDbEntity
  8
0
  6
Continuous
 62
     7
370
    25
100
AcDbLine
 10
0.2211257021
 20
0.1351017401
 30
0.0
 11
0.2311257021
 21
0.1351017401
 31
0.0
  0
LINE
  5
1A5
330
1F
100
AcDbEntity
  8
0
  6
Continuous
 62
     7
370
    25
100
AcDbLine
 10
0.1911523926
 20
0.1301017401
 30
0.0
 11
0.2211257021
 21
0.1301017401
 31
0.0
  0
LINE
  5
1A6
330
1F
100
AcDbEntity
  8
0
  6
Continuous
 62
     7
370
    25
100
AcDbLine
 10
0.1911523926
 20
0.1351017401
 30
0.0
 11
0.2211257021
 21
0.1351017401
 31
0.0
  0
LINE
  5
1A7
330
1F
100
AcDbEntity
  8
0
  6
Continuous
 62
     8
370
    25
100
AcDbLine
 10
1.5234508553
 20
0.1514828685
 30
0.0
 11
1.482685517
 21
0.1514828685
 31
0.0
  0
LINE
  5
1A8
330
1F
100
AcDbEntity
  8
0
  6
Continuous
 62
     8
370
    25
100
AcDbLine
 10
1.3776256457
 20
0.1514828685
 30
0.0
 11
1.3253809676
 21
0.1514828685
 31
0.0
  0
LINE
  5
1A9
330
1F
100
AcDbEntity
  8
0
  6
Continuous
 62
     8
370
    25
100
AcDbLine
 10
1.0234508553
 20
0.1514828685
 30
0.0
 11
0.982685517
 21
0.1514828685
 31
0.0
  0
LINE
  5
1AA
330
1F
100
AcDbEntity
  8
0
  6
Continuous
 62
     8
370
    25
100
AcDbLine
 10
0.8776256457
 20
0.1514828685
 30
0.0
 11
-0.3748208121
 21
0.1514828685
 31
0.0
  0
LINE
  5
1AB
330
1F
100
AcDbEntity
  8
0
  6
Continuous
 62
     8
370
    25
100
AcDbLine
 10
-0.4870026873
 20
0.1514828685
 30
0.0
 11
-0.5268675625
 21
0.1514828685
 31
0.0
  0
LINE
  5
1AC
330
1F
100
AcDbEntity
  8
0
  6
Continuous
 62
     8
370
    25
100
AcDbLine
 10
-0.8272583736
 20
0.1514828685
 30
0.0
 11
-0.8748208121
 21
0.1514828685
 31
0.0
  0
LINE
  5
1AD
330
1F
100
AcDbEntity
  8
0
  6
Continuous
 62
     8
370
    25
100
AcDbLine
 10
-0.9870026873
 20
0.1514828685
 30
0.0
 11
-1.0268675625
 21
0.1514828685
 31
0.0
  0
LINE
  5
1AE
330
1F
100
AcDbEntity
  8
0
  6
Continuous
 62
     8
370
    25
100
AcDbLine
 10
1.5234508553
 20
0.2386828685
 30
0.0
 11
1.4845144667
 21
0.2386828685
 31
0.0
  0
LINE
  5
1AF
330
1F
100
AcDbEntity
  8
0
  6
Continuous
 62
     8
370
    25
100
AcDbLine
 10
1.3757966961
 20
0.2386828685
 30
0.0
 11
1.3253809676
 21
0.2386828685
 31
0.0
  0
LINE
  5
1B0
330
1F
100
AcDbEntity
  8
0
  6
Continuous
 62
     8
370
    25
100
AcDbLine
 10
1.0234508553
 20
0.2386828685
 30
0.0
 11
0.9845144667
 21
0.2386828685
 31
0.0
  0
LINE
  5
1B1
330
1F
100
AcDbEntity
  8
0
  6
Continuous
 62
     8
370
    25
100
AcDbLine
 10
0.8757966961
 20
0.2386828685
 30
0.0
 11
-0.3808222855
 21
0.2386828685
 31
0.0
  0
LINE
  5
1B2
330
1F
100
AcDbEntity
  8
0
  6
Continuous
 62
     8
370
    25
100
AcDbLine
 10
-0.4810012138
 20
0.2386828685
 30
0.0
 11
-0.5246881909
 21
0.2386828685
 31
0.0
  0
LINE
  5
1B3
330
1F
100
AcDbEntity
  8
0
  6
Continuous
 62
     8
370
    25
100
AcDbLine
 10
-0.8280909751
 20
0.2386828685
 30
0.0
 11
-0.8808222855
 21
0.2386828685
 31
0.0
  0
LINE
  5
1B4
330
1F
100
AcDbEntity
  8
0
  6
Continuous
 62
     8
370
    25
100
AcDbLine
 10
-0.9810012138
 20
0.2386828685
 30
0.0
 11
-1.0246881909
 21
0.2386828685
 31
0.0
  0
ENDSEC
  0
SECTION
  2
OBJECTS
  0
DICTIONARY
  5
C
330
0
100
AcDbDictionary
281
     1
  3
ACAD_GROUP
350
D
  3
ACAD_LAYOUT
350
1A
  3
ACAD_MLINESTYLE
350
17
  3
ACAD_PLOTSETTINGS
350
19
  3
ACAD_PLOTSTYLENAME
350
E
  3
ACAD_SCALELIST
350
47
  0
DICTIONARY
  5
D
102
{ACAD_REACTORS
330
C
102
}
330
C
100
AcDbDictionary
281
     1
  0
DICTIONARY
  5
1A
102
{ACAD_REACTORS
330
C
102
}
330
C
100
AcDbDictionary
281
     1
  3
Layout1
350
1E
  3
Layout2
350
26
  3
Model
350
22
  0
DICTIONARY
  5
17
102
{ACAD_REACTORS
330
C
102
}
330
C
100
AcDbDictionary
281
     1
  3
Standard
350
18
  0
DICTIONARY
  5
19
102
{ACAD_REACTORS
330
C
102
}
330
C
100
AcDbDictionary
281
     1
  0
ACDBDICTIONARYWDFLT
  5
E
102
{ACAD_REACTORS
330
C
102
}
330
C
100
AcDbDictionary
281
     1
  3
Normal
350
F
100
AcDbDictionaryWithDefault
340
F
  0
DICTIONARY
  5
47
102
{ACAD_REACTORS
330
C
102
}
330
C
100
AcDbDictionary
281
     1
  3
A0
350
48
  3
A1
350
49
  3
A2
350
4A
  3
A3
350
4B
  3
A4
350
4C
  3
A5
350
4D
  3
A6
350
4E
  3
A7
350
4F
  3
A8
350
50
  3
A9
350
51
  3
B0
350
52
  3
B1
350
53
  3
B2
350
54
  3
B3
350
55
  3
B4
350
56
  3
B5
350
57
  3
B6
350
58
  3
B7
350
59
  3
B8
350
5A
  3
B9
350
5B
  3
C0
350
5C
  3
C1
350
5D
  3
C2
350
5E
  3
C3
350
5F
  3
C4
350
60
  3
C5
350
61
  3
C6
350
62
  3
C7
350
63
  3
C8
350
64
  3
C9
350
65
  3
D0
350
66
  3
D1
350
67
  3
D2
350
68
  0
LAYOUT
  5
1E
102
{ACAD_REACTORS
330
1A
102
}
330
1A
100
AcDbPlotSettings
  1

  2
none_device
  4

  6

 40
0.0
 41
0.0
 42
0.0
 43
0.0
 44
0.0
 45
0.0
 46
0.0
 47
0.0
 48
0.0
 49
0.0
140
0.0
141
0.0
142
1.0
143
1.0
 70
   688
 72
     1
 73
     0
 74
     5
  7

 75
    16
147
1.0
148
0.0
149
0.0
100
AcDbLayout
  1
Layout1
 70
     1
 71
     1
 10
0.0
 20
0.0
 11
420.0
 21
297.0
 12
0.0
 22
0.0
 32
0.0
 14
1.0000000000E+20
 24
1.0000000000E+20
 34
1.0000000000E+20
 15
-1.0000000000E+20
 25
-1.0000000000E+20
 35
-1.0000000000E+20
146
0.0
 13
0.0
 23
0.0
 33
0.0
 16
1.0
 26
0.0
 36
0.0
 17
0.0
 27
1.0
 37
0.0
 76
     0
330
1B
  0
LAYOUT
  5
26
102
{ACAD_REACTORS
330
1A
102
}
330
1A
100
AcDbPlotSettings
  1

  2
none_device
  4

  6

 40
0.0
 41
0.0
 42
0.0
 43
0.0
 44
0.0
 45
0.0
 46
0.0
 47
0.0
 48
0.0
 49
0.0
140
0.0
141
0.0
142
1.0
143
1.0
 70
   688
 72
     1
 73
     0
 74
     5
  7

 75
    16
147
1.0
148
0.0
149
0.0
100
AcDbLayout
  1
Layout2
 70
     1
 71
     2
 10
0.0
 20
0.0
 11
0.0
 21
0.0
 12
0.0
 22
0.0
 32
0.0
 14
0.0
 24
0.0
 34
0.0
 15
0.0
 25
0.0
 35
0.0
146
0.0
 13
0.0
 23
0.0
 33
0.0
 16
1.0
 26
0.0
 36
0.0
 17
0.0
 27
1.0
 37
0.0
 76
     0
330
23
  0
LAYOUT
  5
22
102
{ACAD_REACTORS
330
1A
102
}
330
1A
100
AcDbPlotSettings
  1

  2
none_device
  4
Letter_(8.50_x_11.00_Inches)
  6

 40
6.35
 41
6.35
 42
6.35000508
 43
6.35000508
 44
215.9
 45
279.4
 46
0.0
 47
0.0
 48
0.0
 49
0.0
140
0.0
141
0.0
142
1.0
143
1.0
 70
  1712
 72
     1
 73
     0
 74
     0
  7

 75
     0
147
1.0
148
0.0
149
0.0
100
AcDbLayout
  1
Model
 70
     1
 71
     0
 10
0.0
 20
0.0
 11
0.4318
 21
0.2794
 12
0.0
 22
0.0
 32
0.0
 14
0.0
 24
0.0
 34
0.0
 15
0.4318
 25
0.2794
 35
0.0
146
0.0
 13
0.0
 23
0.0
 33
0.0
 16
1.0
 26
0.0
 36
0.0
 17
0.0
 27
1.0
 37
0.0
 76
     0
330
1F
331
29
  0
MLINESTYLE
  5
18
102
{ACAD_REACTORS
330
17
102
}
330
17
100
AcDbMlineStyle
  2
Standard
 70
     0
  3

 62
   256
 51
90.0
 52
90.0
 71
     2
 49
0.5
 62
   256
  6
BYLAYER
 49
-0.5
 62
   256
  6
BYLAYER
  0
ACDBPLACEHOLDER
  5
F
102
{ACAD_REACTORS
330
E
102
}
330
E
  0
SCALE
  5
48
102
{ACAD_REACTORS
330
47
102
}
330
47
100
AcDbScale
 70
     0
300
1:1
140
1.0
141
1.0
290
     1
  0
SCALE
  5
49
102
{ACAD_REACTORS
330
47
102
}
330
47
100
AcDbScale
 70
     0
300
1:2
140
1.0
141
2.0
290
     0
  0
SCALE
  5
4A
102
{ACAD_REACTORS
330
47
102
}
330
47
100
AcDbScale
 70
     0
300
1:4
140
1.0
141
4.0
290
     0
  0
SCALE
  5
4B
102
{ACAD_REACTORS
330
47
102
}
330
47
100
AcDbScale
 70
     0
300
1:5
140
1.0
141
5.0
290
     0
  0
SCALE
  5
4C
102
{ACAD_REACTORS
330
47
102
}
330
47
100
AcDbScale
 70
     0
300
1:8
140
1.0
141
8.0
290
     0
  0
SCALE
  5
4D
102
{ACAD_REACTORS
330
47
102
}
330
47
100
AcDbScale
 70
     0
300
1:10
140
1.0
141
10.0
290
     0
  0
SCALE
  5
4E
102
{ACAD_REACTORS
330
47
102
}
330
47
100
AcDbScale
 70
     0
300
1:16
140
1.0
141
16.0
290
     0
  0
SCALE
  5
4F
102
{ACAD_REACTORS
330
47
102
}
330
47
100
AcDbScale
 70
     0
300
1:20
140
1.0
141
20.0
290
     0
  0
SCALE
  5
50
102
{ACAD_REACTORS
330
47
102
}
330
47
100
AcDbScale
 70
     0
300
1:30
140
1.0
141
30.0
290
     0
  0
SCALE
  5
51
102
{ACAD_REACTORS
330
47
102
}
330
47
100
AcDbScale
 70
     0
300
1:40
140
1.0
141
40.0
290
     0
  0
SCALE
  5
52
102
{ACAD_REACTORS
330
47
102
}
330
47
100
AcDbScale
 70
     0
300
1:50
140
1.0
141
50.0
290
     0
  0
SCALE
  5
53
102
{ACAD_REACTORS
330
47
102
}
330
47
100
AcDbScale
 70
     0
300
1:100
140
1.0
141
100.0
290
     0
  0
SCALE
  5
54
102
{ACAD_REACTORS
330
47
102
}
330
47
100
AcDbScale
 70
     0
300
2:1
140
2.0
141
1.0
290
     0
  0
SCALE
  5
55
102
{ACAD_REACTORS
330
47
102
}
330
47
100
AcDbScale
 70
     0
300
4:1
140
4.0
141
1.0
290
     0
  0
SCALE
  5
56
102
{ACAD_REACTORS
330
47
102
}
330
47
100
AcDbScale
 70
     0
300
8:1
140
8.0
141
1.0
290
     0
  0
SCALE
  5
57
102
{ACAD_REACTORS
330
47
102
}
330
47
100
AcDbScale
 70
     0
300
10:1
140
10.0
141
1.0
290
     0
  0
SCALE
  5
58
102
{ACAD_REACTORS
330
47
102
}
330
47
100
AcDbScale
 70
     0
300
100:1
140
100.0
141
1.0
290
     0
  0
SCALE
  5
59
102
{ACAD_REACTORS
330
47
102
}
330
47
100
AcDbScale
 70
     0
300
1/128" = 1'-0"
140
0.0078125
141
12.0
290
     0
  0
SCALE
  5
5A
102
{ACAD_REACTORS
330
47
102
}
330
47
100
AcDbScale
 70
     0
300
1/64" = 1'-0"
140
0.015625
141
12.0
290
     0
  0
SCALE
  5
5B
102
{ACAD_REACTORS
330
47
102
}
330
47
100
AcDbScale
 70
     0
300
1/32" = 1'-0"
140
0.03125
141
12.0
290
     0
  0
SCALE
  5
5C
102
{ACAD_REACTORS
330
47
102
}
330
47
100
AcDbScale
 70
     0
300
1/16" = 1'-0"
140
0.0625
141
12.0
290
     0
  0
SCALE
  5
5D
102
{ACAD_REACTORS
330
47
102
}
330
47
100
AcDbScale
 70
     0
300
3/32" = 1'-0"
140
0.09375
141
12.0
290
     0
  0
SCALE
  5
5E
102
{ACAD_REACTORS
330
47
102
}
330
47
100
AcDbScale
 70
     0
300
1/8" = 1'-0"
140
0.125
141
12.0
290
     0
  0
SCALE
  5
5F
102
{ACAD_REACTORS
330
47
102
}
330
47
100
AcDbScale
 70
     0
300
3/16" = 1'-0"
140
0.1875
141
12.0
290
     0
  0
SCALE
  5
60
102
{ACAD_REACTORS
330
47
102
}
330
47
100
AcDbScale
 70
     0
300
1/4" = 1'-0"
140
0.25
141
12.0
290
     0
  0
SCALE
  5
61
102
{ACAD_REACTORS
330
47
102
}
330
47
100
AcDbScale
 70
     0
300
3/8" = 1'-0"
140
0.375
141
12.0
290
     0
  0
SCALE
  5
62
102
{ACAD_REACTORS
330
47
102
}
330
47
100
AcDbScale
 70
     0
300
1/2" = 1'-0"
140
0.5
141
12.0
290
     0
  0
SCALE
  5
63
102
{ACAD_REACTORS
330
47
102
}
330
47
100
AcDbScale
 70
     0
300
3/4" = 1'-0"
140
0.75
141
12.0
290
     0
  0
SCALE
  5
64
102
{ACAD_REACTORS
330
47
102
}
330
47
100
AcDbScale
 70
     0
300
1" = 1'-0"
140
1.0
141
12.0
290
     0
  0
SCALE
  5
65
102
{ACAD_REACTORS
330
47
102
}
330
47
100
AcDbScale
 70
     0
300
1-1/2" = 1'-0"
140
1.5
141
12.0
290
     0
  0
SCALE
  5
66
102
{ACAD_REACTORS
330
47
102
}
330
47
100
AcDbScale
 70
     0
300
3" = 1'-0"
140
3.0
141
12.0
290
     0
  0
SCALE
  5
67
102
{ACAD_REACTORS
330
47
102
}
330
47
100
AcDbScale
 70
     0
300
6" = 1'-0"
140
6.0
141
12.0
290
     0
  0
SCALE
  5
68
102
{ACAD_REACTORS
330
47
102
}
330
47
100
AcDbScale
 70
     0
300
1'-0" = 1'-0"
140
12.0
141
12.0
290
     0
  0
ENDSEC
  0
EOF
