  0
SECTION
  2
HEADER
  9
$ACADVER
  1
AC1015
  9
$ACADMAINTVER
 70
     6
  9
$DWGCODEPAGE
  3
ANSI_1250
  9
$INSBASE
 10
0.0
 20
0.0
 30
0.0
  9
$EXTMIN
 10
0.0
 20
0.0
 30
0.0
  9
$EXTMAX
 10
0.4318
 20
0.2794
 30
0.0
  9
$LIMMIN
 10
0.0
 20
0.0
  9
$LIMMAX
 10
0.4318
 20
0.2794
  9
$ORTHOMODE
 70
     0
  9
$REGENMODE
 70
     1
  9
$FILLMODE
 70
     1
  9
$QTEXTMODE
 70
     0
  9
$MIRRTEXT
 70
     1
  9
$LTSCALE
 40
1.0
  9
$ATTMODE
 70
     1
  9
$TEXTSIZE
 40
0.0035
  9
$TRACEWID
 40
1.0
  9
$TEXTSTYLE
  7
Standard
  9
$CLAYER
  8
0
  9
$CELTYPE
  6
ByLayer
  9
$CECOLOR
 62
   256
  9
$CELTSCALE
 40
1.0
  9
$DISPSILH
 70
     0
  9
$DIMSCALE
 40
1.0
  9
$DIMASZ
 40
0.003302
  9
$DIMEXO
 40
0.001
  9
$DIMDLI
 40
3.75
  9
$DIMRND
 40
0.0
  9
$DIMDLE
 40
0.0
  9
$DIMEXE
 40
0.001
  9
$DIMTP
 40
0.0
  9
$DIMTM
 40
0.0
  9
$DIMTXT
 40
0.0035
  9
$DIMCEN
 40
2.5
  9
$DIMTSZ
 40
0.0
  9
$DIMTOL
 70
     0
  9
$DIMLIM
 70
     0
  9
$DIMTIH
 70
     1
  9
$DIMTOH
 70
     1
  9
$DIMSE1
 70
     0
  9
$DIMSE2
 70
     0
  9
$DIMTAD
 70
     1
  9
$DIMZIN
 70
     0
  9
$DIMBLK
  1

  9
$DIMASO
 70
     1
  9
$DIMSHO
 70
     1
  9
$DIMPOST
  1

  9
$DIMAPOST
  1

  9
$DIMALT
 70
     0
  9
$DIMALTD
 70
     3
  9
$DIMALTF
 40
39.3700787402
  9
$DIMLFAC
 40
1.0
  9
$DIMTOFL
 70
     1
  9
$DIMTVP
 40
0.0
  9
$DIMTIX
 70
     0
  9
$DIMSOXD
 70
     0
  9
$DIMSAH
 70
     0
  9
$DIMBLK1
  1

  9
$DIMBLK2
  1

  9
$DIMSTYLE
  2
ISO-25
  9
$DIMCLRD
 70
     0
  9
$DIMCLRE
 70
     0
  9
$DIMCLRT
 70
     0
  9
$DIMTFAC
 40
1.0
  9
$DIMGAP
 40
0.001524
  9
$DIMJUST
 70
     0
  9
$DIMSD1
 70
     0
  9
$DIMSD2
 70
     0
  9
$DIMTOLJ
 70
     0
  9
$DIMTZIN
 70
     0
  9
$DIMALTZ
 70
     0
  9
$DIMALTTZ
 70
     0
  9
$DIMUPT
 70
     0
  9
$DIMDEC
 70
     2
  9
$DIMTDEC
 70
     2
  9
$DIMALTU
 70
     2
  9
$DIMALTTD
 70
     3
  9
$DIMTXSTY
  7
Standard
  9
$DIMAUNIT
 70
     0
  9
$DIMADEC
 70
     2
  9
$DIMALTRND
 40
0.0
  9
$DIMAZIN
 70
     0
  9
$DIMDSEP
 70
    44
  9
$DIMATFIT
 70
     3
  9
$DIMFRAC
 70
     0
  9
$DIMLDRBLK
  1

  9
$DIMLUNIT
 70
     2
  9
$DIMLWD
 70
    -2
  9
$DIMLWE
 70
    -2
  9
$DIMTMOVE
 70
     0
  9
$LUNITS
 70
     2
  9
$LUPREC
 70
     2
  9
$SKETCHINC
 40
1.0
  9
$FILLETRAD
 40
10.0
  9
$AUNITS
 70
     0
  9
$AUPREC
 70
     2
  9
$MENU
  1
.
  9
$ELEVATION
 40
0.0
  9
$PELEVATION
 40
0.0
  9
$THICKNESS
 40
0.0
  9
$LIMCHECK
 70
     0
  9
$CHAMFERA
 40
0.0
  9
$CHAMFERB
 40
0.0
  9
$CHAMFERC
 40
0.0
  9
$CHAMFERD
 40
0.0
  9
$SKPOLY
 70
     0
  9
$TDCREATE
 40
2458716.475226481
  9
$TDUCREATE
 40
2458716.391893148
  9
$TDUPDATE
 40
2458716.475227778
  9
$TDUUPDATE
 40
2458716.391894444
  9
$TDINDWG
 40
0.0000000116
  9
$TDUSRTIMER
 40
0.0000000116
  9
$USRTIMER
 70
     1
  9
$ANGBASE
 50
0.0
  9
$ANGDIR
 70
     0
  9
$PDMODE
 70
     0
  9
$PDSIZE
 40
-1.0
  9
$PLINEWID
 40
0.0
  9
$SPLFRAME
 70
     0
  9
$SPLINETYPE
 70
     6
  9
$SPLINESEGS
 70
     8
  9
$HANDSEED
  5
1E3
  9
$SURFTAB1
 70
     6
  9
$SURFTAB2
 70
     6
  9
$SURFTYPE
 70
     6
  9
$SURFU
 70
     6
  9
$SURFV
 70
     6
  9
$UCSBASE
  2

  9
$UCSNAME
  2

  9
$UCSORG
 10
0.0
 20
0.0
 30
0.0
  9
$UCSXDIR
 10
1.0
 20
0.0
 30
0.0
  9
$UCSYDIR
 10
0.0
 20
1.0
 30
0.0
  9
$UCSORTHOREF
  2

  9
$UCSORTHOVIEW
 70
     0
  9
$UCSORGTOP
 10
0.0
 20
0.0
 30
0.0
  9
$UCSORGBOTTOM
 10
0.0
 20
0.0
 30
0.0
  9
$UCSORGLEFT
 10
0.0
 20
0.0
 30
0.0
  9
$UCSORGRIGHT
 10
0.0
 20
0.0
 30
0.0
  9
$UCSORGFRONT
 10
0.0
 20
0.0
 30
0.0
  9
$UCSORGBACK
 10
0.0
 20
0.0
 30
0.0
  9
$PUCSBASE
  2

  9
$PUCSNAME
  2

  9
$PUCSORG
 10
0.0
 20
0.0
 30
0.0
  9
$PUCSXDIR
 10
1.0
 20
0.0
 30
0.0
  9
$PUCSYDIR
 10
0.0
 20
1.0
 30
0.0
  9
$PUCSORTHOREF
  2

  9
$PUCSORTHOVIEW
 70
     0
  9
$PUCSORGTOP
 10
0.0
 20
0.0
 30
0.0
  9
$PUCSORGBOTTOM
 10
0.0
 20
0.0
 30
0.0
  9
$PUCSORGLEFT
 10
0.0
 20
0.0
 30
0.0
  9
$PUCSORGRIGHT
 10
0.0
 20
0.0
 30
0.0
  9
$PUCSORGFRONT
 10
0.0
 20
0.0
 30
0.0
  9
$PUCSORGBACK
 10
0.0
 20
0.0
 30
0.0
  9
$USERI1
 70
     0
  9
$USERI2
 70
     0
  9
$USERI3
 70
     0
  9
$USERI4
 70
     0
  9
$USERI5
 70
     0
  9
$USERR1
 40
0.0
  9
$USERR2
 40
0.0
  9
$USERR3
 40
0.0
  9
$USERR4
 40
0.0
  9
$USERR5
 40
0.0
  9
$WORLDVIEW
 70
     1
  9
$SHADEDGE
 70
     3
  9
$SHADEDIF
 70
    70
  9
$TILEMODE
 70
     1
  9
$MAXACTVP
 70
    64
  9
$PINSBASE
 10
0.0
 20
0.0
 30
0.0
  9
$PLIMCHECK
 70
     0
  9
$PEXTMIN
 10
1.0000000000E+20
 20
1.0000000000E+20
 30
1.0000000000E+20
  9
$PEXTMAX
 10
-1.0000000000E+20
 20
-1.0000000000E+20
 30
-1.0000000000E+20
  9
$PLIMMIN
 10
0.0
 20
0.0
  9
$PLIMMAX
 10
420.0
 20
297.0
  9
$UNITMODE
 70
     0
  9
$VISRETAIN
 70
     1
  9
$PLINEGEN
 70
     0
  9
$PSLTSCALE
 70
     1
  9
$TREEDEPTH
 70
  3020
  9
$CMLSTYLE
  2
Standard
  9
$CMLJUST
 70
     0
  9
$CMLSCALE
 40
20.0
  9
$PROXYGRAPHICS
 70
     1
  9
$MEASUREMENT
 70
     1
  9
$CELWEIGHT
370
    -1
  9
$ENDCAPS
280
     0
  9
$JOINSTYLE
280
     0
  9
$LWDISPLAY
290
     1
  9
$INSUNITS
 70
     4
  9
$HYPERLINKBASE
  1

  9
$STYLESHEET
  1

  9
$XEDIT
290
     1
  9
$CEPSNTYPE
380
     0
  9
$PSTYLEMODE
290
     1
  9
$FINGERPRINTGUID
  2
{AEFA67D3-8AFC-470B-B178-C65225BB8A20}
  9
$VERSIONGUID
  2
{FAEB1C32-E019-11D5-929B-00C0DF256EC4}
  9
$EXTNAMES
290
     1
  9
$PSVPSCALE
 40
0.0
  9
$OLESTARTUP
290
     0
  0
ENDSEC
  0
SECTION
  2
CLASSES
  0
CLASS
  1
ACDBDICTIONARYWDFLT
  2
AcDbDictionaryWithDefault
  3
ObjectDBX Classes
 90
        0
280
     0
281
     0
  0
CLASS
  1
VISUALSTYLE
  2
AcDbVisualStyle
  3
ObjectDBX Classes
 90
     4095
280
     0
281
     0
  0
CLASS
  1
MATERIAL
  2
AcDbMaterial
  3
ObjectDBX Classes
 90
     1153
280
     0
281
     0
  0
CLASS
  1
SCALE
  2
AcDbScale
  3
ObjectDBX Classes
 90
     1153
280
     0
281
     0
  0
CLASS
  1
TABLESTYLE
  2
AcDbTableStyle
  3
ObjectDBX Classes
 90
     4095
280
     0
281
     0
  0
CLASS
  1
MLEADERSTYLE
  2
AcDbMLeaderStyle
  3
ACDB_MLEADERSTYLE_CLASS
 90
     4095
280
     0
281
     0
  0
CLASS
  1
SUN
  2
AcDbSun
  3
SCENEOE
 90
     1153
280
     0
281
     0
  0
CLASS
  1
ACDBPLACEHOLDER
  2
AcDbPlaceHolder
  3
ObjectDBX Classes
 90
        0
280
     0
281
     0
  0
CLASS
  1
LAYOUT
  2
AcDbLayout
  3
ObjectDBX Classes
 90
        0
280
     0
281
     0
  0
ENDSEC
  0
SECTION
  2
TABLES
  0
TABLE
  2
VPORT
  5
8
330
0
100
AcDbSymbolTable
 70
     1
  0
VPORT
  5
29
330
8
100
AcDbSymbolTableRecord
100
AcDbViewportTableRecord
  2
*Active
 70
     0
 10
0.0
 20
0.0
 11
1.0
 21
1.0
 12
0.2159
 22
0.1397
 13
0.0
 23
0.0
 14
10.0
 24
10.0
 15
10.0
 25
10.0
 16
0.0
 26
0.0
 36
1.0
 17
0.0
 27
0.0
 37
0.0
 40
0.2794
 41
1.5454545455
 42
50.0
 43
0.0
 44
0.0
 50
0.0
 51
0.0
 71
     0
 72
  2000
 73
     1
 74
     3
 75
     0
 76
     0
 77
     0
 78
     0
281
     0
 65
     1
110
0.0
120
0.0
130
0.0
111
1.0
121
0.0
131
0.0
112
0.0
122
1.0
132
0.0
 79
     0
146
0.0
  0
ENDTAB
  0
TABLE
  2
LTYPE
  5
5
330
0
100
AcDbSymbolTable
 70
     6
  0
LTYPE
  5
14
330
5
100
AcDbSymbolTableRecord
100
AcDbLinetypeTableRecord
  2
ByBlock
 70
     0
  3

 72
    65
 73
     0
 40
0.0
  0
LTYPE
  5
15
330
5
100
AcDbSymbolTableRecord
100
AcDbLinetypeTableRecord
  2
ByLayer
 70
     0
  3

 72
    65
 73
     0
 40
0.0
  0
LTYPE
  5
16
330
5
100
AcDbSymbolTableRecord
100
AcDbLinetypeTableRecord
  2
Continuous
 70
     0
  3
Solid line
 72
    65
 73
     0
 40
0.0
  0
LTYPE
  5
6E
330
5
100
AcDbSymbolTableRecord
100
AcDbLinetypeTableRecord
  2
HIDDEN
 70
     0
  3
Hidden __ __ __ __ __ __ __ __ __ __ __ __ __ __
 72
    65
 73
     2
 40
0.001905
 49
0.00127
 74
     0
 49
-0.000635
 74
     0
  0
LTYPE
  5
6F
330
5
100
AcDbSymbolTableRecord
100
AcDbLinetypeTableRecord
  2
PHANTOM
 70
     0
  3
Phantom ______  __  __  ______  __  __  ______
 72
    65
 73
     6
 40
0.0127
 49
0.00635
 74
     0
 49
-0.00127
 74
     0
 49
0.00127
 74
     0
 49
-0.00127
 74
     0
 49
0.00127
 74
     0
 49
-0.00127
 74
     0
  0
LTYPE
  5
70
330
5
100
AcDbSymbolTableRecord
100
AcDbLinetypeTableRecord
  2
CENTER
 70
     0
  3
Center ____ _ ____ _ ____ _ ____ _ ____ _ ____
 72
    65
 73
     4
 40
0.01016
 49
0.00635
 74
     0
 49
-0.00127
 74
     0
 49
0.00127
 74
     0
 49
-0.00127
 74
     0
  0
LTYPE
  5
71
330
5
100
AcDbSymbolTableRecord
100
AcDbLinetypeTableRecord
  2
CENTERX2
 70
     0
  3
Center (2x) ________  __  ________  __  _____
 72
    65
 73
     4
 40
0.02032
 49
0.0127
 74
     0
 49
-0.00254
 74
     0
 49
0.00254
 74
     0
 49
-0.00254
 74
     0
  0
LTYPE
  5
72
330
5
100
AcDbSymbolTableRecord
100
AcDbLinetypeTableRecord
  2
DOT2
 70
     0
  3
Dot (.5x) ........................................
 72
    65
 73
     2
 40
0.000635
 49
0.0
 74
     0
 49
-0.000635
 74
     0
  0
ENDTAB
  0
TABLE
  2
LAYER
  5
2
330
0
100
AcDbSymbolTable
 70
     1
  0
LAYER
  5
10
330
2
100
AcDbSymbolTableRecord
100
AcDbLayerTableRecord
  2
0
 70
     0
 62
     7
  6
Continuous
370
    -3
390
F
  0
ENDTAB
  0
TABLE
  2
STYLE
  5
3
330
0
100
AcDbSymbolTable
 70
     1
  0
STYLE
  5
11
330
3
100
AcDbSymbolTableRecord
100
AcDbTextStyleTableRecord
  2
Standard
 70
     0
 40
0.0
 41
1.0
 50
0.0
 71
     0
 42
0.0035
  3
txt
  4

  0
ENDTAB
  0
TABLE
  2
VIEW
  5
6
330
0
100
AcDbSymbolTable
 70
     0
  0
ENDTAB
  0
TABLE
  2
UCS
  5
7
330
0
100
AcDbSymbolTable
 70
     0
  0
ENDTAB
  0
TABLE
  2
APPID
  5
9
330
0
100
AcDbSymbolTable
 70
     1
  0
APPID
  5
12
330
9
100
AcDbSymbolTableRecord
100
AcDbRegAppTableRecord
  2
ACAD
 70
     0
  0
ENDTAB
  0
TABLE
  2
DIMSTYLE
  5
A
330
0
100
AcDbSymbolTable
 70
     1
100
AcDbDimStyleTable
  0
DIMSTYLE
105
27
330
A
100
AcDbSymbolTableRecord
100
AcDbDimStyleTableRecord
  2
ISO-25
 70
     0
 41
2.5
 42
0.625
 43
3.75
 44
1.25
 73
     0
 74
     0
 77
     1
 78
     8
140
2.5
141
2.5
143
0.0393700787
147
0.625
171
     3
172
     1
178
     0
271
     2
272
     2
274
     3
278
    44
283
     0
284
     8
340
11
  0
ENDTAB
  0
TABLE
  2
BLOCK_RECORD
  5
1
330
0
100
AcDbSymbolTable
 70
     1
  0
BLOCK_RECORD
  5
1F
330
1
100
AcDbSymbolTableRecord
100
AcDbBlockTableRecord
  2
*Model_Space
340
22
  0
BLOCK_RECORD
  5
1B
330
1
100
AcDbSymbolTableRecord
100
AcDbBlockTableRecord
  2
*Paper_Space
340
1E
  0
BLOCK_RECORD
  5
23
330
1
100
AcDbSymbolTableRecord
100
AcDbBlockTableRecord
  2
*Paper_Space0
340
26
  0
ENDTAB
  0
ENDSEC
  0
SECTION
  2
BLOCKS
  0
BLOCK
  5
20
330
1F
100
AcDbEntity
  8
0
100
AcDbBlockBegin
  2
*Model_Space
 70
     0
 10
0.0
 20
0.0
 30
0.0
  3
*Model_Space
  1

  0
ENDBLK
  5
21
330
1F
100
AcDbEntity
  8
0
100
AcDbBlockEnd
  0
BLOCK
  5
1C
330
1B
100
AcDbEntity
 67
     1
  8
0
100
AcDbBlockBegin
  2
*Paper_Space
 70
     0
 10
0.0
 20
0.0
 30
0.0
  3
*Paper_Space
  1

  0
ENDBLK
  5
1D
330
1B
100
AcDbEntity
 67
     1
  8
0
100
AcDbBlockEnd
  0
BLOCK
  5
24
330
23
100
AcDbEntity
  8
0
100
AcDbBlockBegin
  2
*Paper_Space0
 70
     0
 10
0.0
 20
0.0
 30
0.0
  3
*Paper_Space0
  1

  0
ENDBLK
  5
25
330
23
100
AcDbEntity
  8
0
100
AcDbBlockEnd
  0
ENDSEC
  0
SECTION
  2
ENTITIES
  0
ARC
  5
73
330
1F
100
AcDbEntity
  8
0
  6
Continuous
 62
     7
370
    25
100
AcDbCircle
 10
0.2159
 20
-1.0302104207
 30
0.0
 40
0.0085
100
AcDbArc
 50
11.1931836057
 51
168.8068163943
  0
ARC
  5
74
330
1F
100
AcDbEntity
  8
0
  6
Continuous
 62
     7
370
    25
100
AcDbCircle
 10
0.1641982834
 20
-1.0302104207
 30
0.0
 40
0.0085
100
AcDbArc
 50
31.444802741
 51
168.8068163943
  0
ARC
  5
75
330
1F
100
AcDbEntity
  8
0
  6
Continuous
 62
     7
370
    25
100
AcDbCircle
 10
0.1641982834
 20
1.3167895793
 30
0.0
 40
0.0085
100
AcDbArc
 50
191.1931836057
 51
328.555197259
  0
ARC
  5
76
330
1F
100
AcDbEntity
  8
0
  6
Continuous
 62
     7
370
    25
100
AcDbCircle
 10
0.2159
 20
1.3167895793
 30
0.0
 40
0.0085
100
AcDbArc
 50
191.1931836057
 51
348.8068163943
  0
ARC
  5
77
330
1F
100
AcDbEntity
  8
0
  6
Continuous
 62
     7
370
    25
100
AcDbCircle
 10
0.2676017166
 20
-1.0302104207
 30
0.0
 40
0.0085
100
AcDbArc
 50
11.1931836057
 51
148.5551972617
  0
ARC
  5
78
330
1F
100
AcDbEntity
  8
0
  6
Continuous
 62
     7
370
    25
100
AcDbCircle
 10
0.2676017166
 20
1.3167895793
 30
0.0
 40
0.0085
100
AcDbArc
 50
211.4448027383
 51
348.8068163943
  0
LINE
  5
79
330
1F
100
AcDbEntity
  8
0
  6
Continuous
 62
     7
370
    25
100
AcDbLine
 10
0.2603499999
 20
-1.1567104181
 30
0.0
 11
0.2603499999
 21
-1.0888604207
 31
0.0
  0
LINE
  5
7A
330
1F
100
AcDbEntity
  8
0
  6
Continuous
 62
     7
370
    25
100
AcDbLine
 10
0.2603499999
 20
-1.0285604207
 30
0.0
 11
0.2603499999
 21
1.3151396865
 31
0.0
  0
LINE
  5
7B
330
1F
100
AcDbEntity
  8
0
  6
Continuous
 62
     7
370
    25
100
AcDbLine
 10
0.2603499999
 20
1.3754395599
 30
0.0
 11
0.2603499999
 21
1.4432896728
 31
0.0
  0
LINE
  5
7C
330
1F
100
AcDbEntity
  8
0
  6
Continuous
 62
     7
370
    25
100
AcDbLine
 10
0.1714500001
 20
1.4432896728
 30
0.0
 11
0.1714500001
 21
1.3754395599
 31
0.0
  0
LINE
  5
7D
330
1F
100
AcDbEntity
  8
0
  6
Continuous
 62
     7
370
    25
100
AcDbLine
 10
0.1714500001
 20
1.3151396865
 30
0.0
 11
0.1714500001
 21
-1.0285604207
 31
0.0
  0
LINE
  5
7E
330
1F
100
AcDbEntity
  8
0
  6
Continuous
 62
     7
370
    25
100
AcDbLine
 10
0.1714500001
 20
-1.0888604207
 30
0.0
 11
0.1714500001
 21
-1.1567104181
 31
0.0
  0
SPLINE
  5
7F
330
1F
100
AcDbEntity
  8
0
  6
Continuous
 62
     7
370
    25
100
AcDbSpline
210
0.0
220
0.0
230
1.0
 70
     8
 71
     3
 72
    21
 73
    17
 74
     0
 42
0.000000001
 43
0.00000001
 40
0.0
 40
0.0
 40
0.0
 40
0.0
 40
0.0299589665859704
 40
0.0605358573861689
 40
0.1253990582623576
 40
0.1923938500402365
 40
0.2538177691436865
 40
0.3218398716130967
 40
0.3903924659421376
 40
0.4594510123890267
 40
0.5273645548766095
 40
0.5949499520201222
 40
0.6755597692806605
 40
0.7712327027177913
 40
0.8803819099915062
 40
1.0
 40
1.0
 40
1.0
 40
1.0
 10
0.2603499999284743
 20
1.443289672797226
 30
0.0
 10
0.2603076539882526
 20
1.443781929604298
 30
0.0
 10
0.2602220886937761
 20
1.444776596352391
 30
0.0
 10
0.2593574260726681
 20
1.446675665800036
 30
0.0
 10
0.2575714466034164
 20
1.448704550944424
 30
0.0
 10
0.2549808926788582
 20
1.450549734714132
 30
0.0
 10
0.2521384267995368
 20
1.452070002194274
 30
0.0
 10
0.2491457626733205
 20
1.453331533380577
 30
0.0
 10
0.2459551549938859
 20
1.454419663312298
 30
0.0
 10
0.2427106745676176
 20
1.455325946557777
 30
0.0
 10
0.239444133937257
 20
1.456079532466418
 30
0.0
 10
0.2359648887088094
 20
1.456740001448618
 30
0.0
 10
0.2320131495498942
 20
1.457336639601298
 30
0.0
 10
0.2273634960031394
 20
1.457845404567498
 30
0.0
 10
0.2220583050016031
 20
1.458215273789627
 30
0.0
 10
0.2183099459811428
 20
1.458264040232708
 30
0.0
 10
0.2163499999922699
 20
1.458289539282821
 30
0.0
  0
SPLINE
  5
80
330
1F
100
AcDbEntity
  8
0
  6
Continuous
 62
     7
370
    25
100
AcDbSpline
210
0.0
220
0.0
230
1.0
 70
     8
 71
     3
 72
    23
 73
    19
 74
     0
 42
0.000000001
 43
0.00000001
 40
0.0
 40
0.0
 40
0.0
 40
0.0
 40
0.1113637960260026
 40
0.2053655174309645
 40
0.2794722533331613
 40
0.3384521767512058
 40
0.4003861097351375
 40
0.4659338107892285
 40
0.5168447945344372
 40
0.5688864182596118
 40
0.6313902593421976
 40
0.7061446970393117
 40
0.78701959288414
 40
0.86634202338913
 40
0.9032122754366558
 40
0.937501824868776
 40
0.9694156947420342
 40
1.0
 40
1.0
 40
1.0
 40
1.0
 10
0.2154500000077298
 20
1.458289539282821
 30
0.0
 10
0.2136250332137521
 20
1.458267653461013
 30
0.0
 10
0.2102596194678698
 20
1.458227293907187
 30
0.0
 10
0.205687623562217
 20
1.457937781665818
 30
0.0
 10
0.2019827848124612
 20
1.457585957372844
 30
0.0
 10
0.1988114350106472
 20
1.457189540702418
 30
0.0
 10
0.1957909406088123
 20
1.456726373129054
 30
0.0
 10
0.1929168354474768
 20
1.456189592924523
 30
0.0
 10
0.1902206365329447
 20
1.455592782915934
 30
0.0
 10
0.1875934446420066
 20
1.454920918957625
 30
0.0
 10
0.1846217485073914
 20
1.454027833532053
 30
0.0
 10
0.1812629760605208
 20
1.452794937416496
 30
0.0
 10
0.1777776067294449
 20
1.451145514915611
 30
0.0
 10
0.175062244869986
 20
1.449358044860838
 30
0.0
 10
0.1732771504252947
 20
1.447642267436229
 30
0.0
 10
0.1722706290321871
 20
1.446279624570746
 30
0.0
 10
0.1715843690778635
 20
1.444819427824279
 30
0.0
 10
0.1714941499769627
 20
1.443792307605857
 30
0.0
 10
0.1714500000715254
 20
1.443289672797226
 30
0.0
  0
SPLINE
  5
81
330
1F
100
AcDbEntity
  8
0
  6
Continuous
 62
     7
370
    25
100
AcDbSpline
210
0.0
220
0.0
230
1.0
 70
     8
 71
     3
 72
    21
 73
    17
 74
     0
 42
0.000000001
 43
0.00000001
 40
0.0
 40
0.0
 40
0.0
 40
0.0
 40
0.0299630939923628
 40
0.0605380954078968
 40
0.1254011353507707
 40
0.1923955808403543
 40
0.2538189861995969
 40
0.3218419910973567
 40
0.3903931342546301
 40
0.4594526995354027
 40
0.5273655601868142
 40
0.5949505058066854
 40
0.6755606457575736
 40
0.7712333251409592
 40
0.8803822206446805
 40
1.0
 40
1.0
 40
1.0
 40
1.0
 10
0.1714500000715254
 20
-1.156710418099858
 30
0.0
 10
0.1714923334877098
 20
-1.157202747844661
 30
0.0
 10
0.1715778648546829
 20
-1.158197461710682
 30
0.0
 10
0.1724426187049076
 20
-1.160096536309272
 30
0.0
 10
0.1742285432466198
 20
-1.162125405229131
 30
0.0
 10
0.1768190968699461
 20
-1.163970598816453
 30
0.0
 10
0.1796616216859437
 20
-1.165490749734351
 30
0.0
 10
0.1826541541980769
 20
-1.166752588481441
 30
0.0
 10
0.1858449334006521
 20
-1.167840263646118
 30
0.0
 10
0.1890892636578287
 20
-1.168747022209488
 30
0.0
 10
0.1923558790324365
 20
-1.169500358488147
 30
0.0
 10
0.195835132664693
 20
-1.170160717811197
 30
0.0
 10
0.1997868298926652
 20
-1.170757664601384
 30
0.0
 10
0.2044365072068229
 20
-1.171266321945469
 30
0.0
 10
0.2097416948193181
 20
-1.171636187415692
 30
0.0
 10
0.213490053798132
 20
-1.171684931390744
 30
0.0
 10
0.2154500000077298
 20
-1.171710418695904
 30
0.0
  0
SPLINE
  5
82
330
1F
100
AcDbEntity
  8
0
  6
Continuous
 62
     7
370
    25
100
AcDbSpline
210
0.0
220
0.0
230
1.0
 70
     8
 71
     3
 72
    23
 73
    19
 74
     0
 42
0.000000001
 43
0.00000001
 40
0.0
 40
0.0
 40
0.0
 40
0.0
 40
0.1113636359724139
 40
0.2053650008218065
 40
0.2794715439334906
 40
0.338451179082584
 40
0.4003854713183305
 40
0.4659329285293772
 40
0.5168433500079957
 40
0.5688853962507533
 40
0.6313887605823106
 40
0.7061429420968828
 40
0.7870191914059681
 40
0.866339063199812
 40
0.9032106200478174
 40
0.937500345467212
 40
0.9694147065660332
 40
0.9999999999999999
 40
0.9999999999999999
 40
0.9999999999999999
 40
0.9999999999999999
 10
0.2163499999922699
 20
-1.171710418695904
 30
0.0
 10
0.2181749650948249
 20
-1.171688447981873
 30
0.0
 10
0.221540372092481
 20
-1.171647931922339
 30
0.0
 10
0.2261123822103128
 20
-1.171358696211991
 30
0.0
 10
0.2298172069243669
 20
-1.171006795097752
 30
0.0
 10
0.2329885862180983
 20
-1.170610568962743
 30
0.0
 10
0.2360090415373623
 20
-1.170147111209771
 30
0.0
 10
0.2388831487159754
 20
-1.169610382838089
 30
0.0
 10
0.2415793956336621
 20
-1.169013777852913
 30
0.0
 10
0.244206525025849
 20
-1.168341684195551
 30
0.0
 10
0.2471782583922651
 20
-1.167448744886719
 30
0.0
 10
0.2505370828037644
 20
-1.166215886001462
 30
0.0
 10
0.2540222590902101
 20
-1.164566154759614
 30
0.0
 10
0.2567378601033498
 20
-1.162779012620107
 30
0.0
 10
0.2585228217196054
 20
-1.161063105631913
 30
0.0
 10
0.2595293800995473
 20
-1.159700452856154
 30
0.0
 10
0.2602156332712636
 20
-1.158240216008261
 30
0.0
 10
0.2603058505388222
 20
-1.157213069913553
 30
0.0
 10
0.2603499999284743
 20
-1.156710418099858
 30
0.0
  0
LINE
  5
83
330
1F
100
AcDbEntity
  8
0
  6
Continuous
 62
     7
370
    25
100
AcDbLine
 10
0.0432025751
 20
-1.0888604207
 30
0.0
 11
0.3885974249
 21
-1.0888604207
 31
0.0
  0
LINE
  5
84
330
1F
100
AcDbEntity
  8
0
  6
Continuous
 62
     7
370
    25
100
AcDbLine
 10
0.3885974249
 20
-1.0285604207
 30
0.0
 11
0.0432025751
 21
-1.0285604207
 31
0.0
  0
LINE
  5
85
330
1F
100
AcDbEntity
  8
0
  6
Continuous
 62
     7
370
    25
100
AcDbLine
 10
0.0432025751
 20
1.3151396865
 30
0.0
 11
0.3885974249
 21
1.3151396865
 31
0.0
  0
LINE
  5
86
330
1F
100
AcDbEntity
  8
0
  6
Continuous
 62
     7
370
    25
100
AcDbLine
 10
0.3885974249
 20
1.3754395599
 30
0.0
 11
0.0432025751
 21
1.3754395599
 31
0.0
  0
LINE
  5
87
330
1F
100
AcDbEntity
  8
0
  6
Continuous
 62
     7
370
    25
100
AcDbLine
 10
0.0432025751
 20
1.3754395599
 30
0.0
 11
-0.4419013897
 21
1.3754395599
 31
0.0
  0
LINE
  5
88
330
1F
100
AcDbEntity
  8
0
  6
Continuous
 62
     7
370
    25
100
AcDbLine
 10
-0.4419013897
 20
1.3151396865
 30
0.0
 11
0.0432025751
 21
1.3151396865
 31
0.0
  0
LINE
  5
89
330
1F
100
AcDbEntity
  8
0
  6
Continuous
 62
     7
370
    25
100
AcDbLine
 10
0.0432025751
 20
-1.0285604207
 30
0.0
 11
-0.4419013897
 21
-1.0285604207
 31
0.0
  0
LINE
  5
8A
330
1F
100
AcDbEntity
  8
0
  6
Continuous
 62
     7
370
    25
100
AcDbLine
 10
-0.4419013897
 20
-1.0888604207
 30
0.0
 11
0.0432025751
 21
-1.0888604207
 31
0.0
  0
LINE
  5
8B
330
1F
100
AcDbEntity
  8
0
  6
Continuous
 62
     7
370
    25
100
AcDbLine
 10
0.8737013897
 20
1.3754395599
 30
0.0
 11
0.3885974249
 21
1.3754395599
 31
0.0
  0
LINE
  5
8C
330
1F
100
AcDbEntity
  8
0
  6
Continuous
 62
     7
370
    25
100
AcDbLine
 10
0.3885974249
 20
1.3151396865
 30
0.0
 11
0.8737013897
 21
1.3151396865
 31
0.0
  0
LINE
  5
8D
330
1F
100
AcDbEntity
  8
0
  6
Continuous
 62
     7
370
    25
100
AcDbLine
 10
0.8737013897
 20
-1.0285604207
 30
0.0
 11
0.3885974249
 21
-1.0285604207
 31
0.0
  0
LINE
  5
8E
330
1F
100
AcDbEntity
  8
0
  6
Continuous
 62
     7
370
    25
100
AcDbLine
 10
0.3885974249
 20
-1.0888604207
 30
0.0
 11
0.8737013897
 21
-1.0888604207
 31
0.0
  0
LINE
  5
8F
330
1F
100
AcDbEntity
  8
0
  6
Continuous
 62
     7
370
    25
100
AcDbLine
 10
0.1640825009
 20
-0.0571729785
 30
0.0
 11
0.1694138384
 21
-0.0575248843
 31
0.0
  0
LINE
  5
90
330
1F
100
AcDbEntity
  8
0
  6
Continuous
 62
     7
370
    25
100
AcDbLine
 10
0.1489256581
 20
-0.0468945151
 30
0.0
 11
0.1489063686
 21
-0.0526827221
 31
0.0
  0
LINE
  5
91
330
1F
100
AcDbEntity
  8
0
  6
Continuous
 62
     7
370
    25
100
AcDbLine
 10
0.2610509021
 20
-0.0571667796
 30
0.0
 11
0.2663464246
 21
-0.0575084334
 31
0.0
  0
LINE
  5
92
330
1F
100
AcDbEntity
  8
0
  6
Continuous
 62
     7
370
    25
100
AcDbLine
 10
0.2615872433
 20
-0.0354525691
 30
0.0
 11
0.2603499999
 21
-0.035372818
 31
0.0
  0
LINE
  5
93
330
1F
100
AcDbEntity
  8
0
  6
Continuous
 62
     7
370
    25
100
AcDbLine
 10
0.2825827857
 20
-0.0538074618
 30
0.0
 11
0.2832000216
 21
-0.0480186587
 31
0.0
  0
LINE
  5
94
330
1F
100
AcDbEntity
  8
0
  6
Continuous
 62
     7
370
    25
100
AcDbLine
 10
0.1653083636
 20
-0.4739240056
 30
0.0
 11
0.1653276531
 21
-0.4797122126
 31
0.0
  0
LINE
  5
95
330
1F
100
AcDbEntity
  8
0
  6
Continuous
 62
     7
370
    25
100
AcDbLine
 10
0.2667975685
 20
-0.4785866385
 30
0.0
 11
0.2661803326
 21
-0.4727977758
 31
0.0
  0
LINE
  5
96
330
1F
100
AcDbEntity
  8
0
  6
Continuous
 62
     7
370
    25
100
AcDbLine
 10
0.2831997832
 20
-0.4735509401
 30
0.0
 11
0.2825825473
 21
-0.4677620774
 31
0.0
  0
LINE
  5
97
330
1F
100
AcDbEntity
  8
0
  6
Continuous
 62
     7
370
    25
100
AcDbLine
 10
0.2663464246
 20
-0.4640617614
 30
0.0
 11
0.2610509021
 21
-0.4644034153
 31
0.0
  0
LINE
  5
98
330
1F
100
AcDbEntity
  8
0
  6
Continuous
 62
     7
370
    25
100
AcDbLine
 10
0.2603499999
 20
-0.4861973768
 30
0.0
 11
0.2615872433
 21
-0.4861175662
 31
0.0
  0
LINE
  5
99
330
1F
100
AcDbEntity
  8
0
  6
Continuous
 62
     7
370
    25
100
AcDbLine
 10
0.1694138384
 20
-0.4640453106
 30
0.0
 11
0.1640825009
 21
-0.4643970972
 31
0.0
  0
LINE
  5
9A
330
1F
100
AcDbEntity
  8
0
  6
Continuous
 62
     7
370
    25
100
AcDbLine
 10
0.266180571
 20
-0.048771823
 30
0.0
 11
0.2667978069
 21
-0.0429830199
 31
0.0
  0
LINE
  5
9B
330
1F
100
AcDbEntity
  8
0
  6
Continuous
 62
     7
370
    25
100
AcDbLine
 10
0.2663464246
 20
0.515938198
 30
0.0
 11
0.2610509021
 21
0.5155965442
 31
0.0
  0
LINE
  5
9C
330
1F
100
AcDbEntity
  8
0
  6
Continuous
 62
     7
370
    25
100
AcDbLine
 10
0.2603499999
 20
0.4938025827
 30
0.0
 11
0.2615872433
 21
0.4938824529
 31
0.0
  0
LINE
  5
9D
330
1F
100
AcDbEntity
  8
0
  6
Continuous
 62
     7
370
    25
100
AcDbLine
 10
0.2831997832
 20
0.5064490194
 30
0.0
 11
0.2825825473
 21
0.5122379417
 31
0.0
  0
LINE
  5
9E
330
1F
100
AcDbEntity
  8
0
  6
Continuous
 62
     7
370
    25
100
AcDbLine
 10
0.1489061525
 20
-0.4688883071
 30
0.0
 11
0.1489254421
 21
-0.4746765738
 31
0.0
  0
LINE
  5
9F
330
1F
100
AcDbEntity
  8
0
  6
Continuous
 62
     7
370
    25
100
AcDbLine
 10
0.1653278729
 20
-0.0418587571
 30
0.0
 11
0.1653085833
 21
-0.0476469641
 31
0.0
  0
LWPOLYLINE
  5
A0
330
1F
100
AcDbEntity
  8
0
  6
Continuous
 62
     7
370
    25
100
AcDbPolyline
 90
        3
 70
   128
 43
0.0
 10
0.1694138384
 20
0.5159546489
 10
0.1667481696
 20
0.5157788152
 10
0.1640825009
 20
0.5156028623
  0
LINE
  5
A1
330
1F
100
AcDbEntity
  8
0
  6
Continuous
 62
     7
370
    25
100
AcDbLine
 10
0.1489061525
 20
0.5111116523
 30
0.0
 11
0.1489254421
 21
0.5053234453
 31
0.0
  0
LINE
  5
A2
330
1F
100
AcDbEntity
  8
0
  6
Continuous
 62
     7
370
    25
100
AcDbLine
 10
0.1653278729
 20
0.938141262
 30
0.0
 11
0.1653085833
 21
0.9323529357
 31
0.0
  0
LINE
  5
A3
330
1F
100
AcDbEntity
  8
0
  6
Continuous
 62
     7
370
    25
100
AcDbLine
 10
0.266180571
 20
0.9312281961
 30
0.0
 11
0.2667978069
 21
0.9370169992
 31
0.0
  0
LWPOLYLINE
  5
A4
330
1F
100
AcDbEntity
  8
0
  6
Continuous
 62
     7
370
    25
100
AcDbPolyline
 90
        3
 70
   128
 43
0.0
 10
0.1640825009
 20
0.9228269214
 10
0.1667481696
 20
0.9226510877
 10
0.1694138384
 20
0.9224751348
  0
LINE
  5
A5
330
1F
100
AcDbEntity
  8
0
  6
Continuous
 62
     7
370
    25
100
AcDbLine
 10
0.1489256581
 20
0.933105504
 30
0.0
 11
0.1489063686
 21
0.9273172969
 31
0.0
  0
LINE
  5
A6
330
1F
100
AcDbEntity
  8
0
  6
Continuous
 62
     7
370
    25
100
AcDbLine
 10
0.2610509021
 20
0.9228332395
 30
0.0
 11
0.2663464246
 21
0.9224915857
 31
0.0
  0
LINE
  5
A7
330
1F
100
AcDbEntity
  8
0
  6
Continuous
 62
     7
370
    25
100
AcDbLine
 10
0.2615872433
 20
0.9445473308
 30
0.0
 11
0.2603499999
 21
0.944627201
 31
0.0
  0
LINE
  5
A8
330
1F
100
AcDbEntity
  8
0
  6
Continuous
 62
     7
370
    25
100
AcDbLine
 10
0.2825827857
 20
0.9261925573
 30
0.0
 11
0.2832000216
 21
0.9319813604
 31
0.0
  0
LINE
  5
A9
330
1F
100
AcDbEntity
  8
0
  6
Continuous
 62
     7
370
    25
100
AcDbLine
 10
0.1653083636
 20
0.5060760135
 30
0.0
 11
0.1653276531
 21
0.5002878065
 31
0.0
  0
LINE
  5
AA
330
1F
100
AcDbEntity
  8
0
  6
Continuous
 62
     7
370
    25
100
AcDbLine
 10
0.2667975685
 20
0.5014133806
 30
0.0
 11
0.2661803326
 21
0.5072021837
 31
0.0
  0
LINE
  5
AB
330
1F
100
AcDbEntity
  8
0
  6
Continuous
 62
     7
370
    25
100
AcDbLine
 10
2.9659
 20
1.3932894821
 30
0.0
 11
2.9659
 21
-1.1067104211
 31
0.0
  0
LINE
  5
AC
330
1F
100
AcDbEntity
  8
0
  6
Continuous
 62
     7
370
    25
100
AcDbLine
 10
-2.5341
 20
-1.1067104211
 30
0.0
 11
0.1714500001
 21
-1.1067104211
 31
0.0
  0
LINE
  5
AD
330
1F
100
AcDbEntity
  8
0
  6
Continuous
 62
     7
370
    25
100
AcDbLine
 10
0.2603499999
 20
-1.1067104211
 30
0.0
 11
2.9659
 21
-1.1067104211
 31
0.0
  0
LINE
  5
AE
330
1F
100
AcDbEntity
  8
0
  6
Continuous
 62
     7
370
    25
100
AcDbLine
 10
-2.5341
 20
-1.1067104211
 30
0.0
 11
-2.5341
 21
1.3932894821
 31
0.0
  0
LINE
  5
AF
330
1F
100
AcDbEntity
  8
0
  6
Continuous
 62
     7
370
    25
100
AcDbLine
 10
2.9659
 20
1.3932894821
 30
0.0
 11
0.2603499999
 21
1.3932894821
 31
0.0
  0
LINE
  5
B0
330
1F
100
AcDbEntity
  8
0
  6
Continuous
 62
     7
370
    25
100
AcDbLine
 10
0.1714500001
 20
1.3932894821
 30
0.0
 11
-2.5341
 21
1.3932894821
 31
0.0
  0
LINE
  5
B1
330
1F
100
AcDbEntity
  8
0
  6
Continuous
 62
     7
370
    25
100
AcDbLine
 10
-3.0341
 20
1.3932894821
 30
0.0
 11
-3.0341
 21
-1.1067104211
 31
0.0
  0
LINE
  5
B2
330
1F
100
AcDbEntity
  8
0
  6
Continuous
 62
     7
370
    25
100
AcDbLine
 10
-3.0341
 20
-1.1067104211
 30
0.0
 11
-2.5341
 21
-1.1067104211
 31
0.0
  0
LINE
  5
B3
330
1F
100
AcDbEntity
  8
0
  6
Continuous
 62
     7
370
    25
100
AcDbLine
 10
-2.5341
 20
1.3932894821
 30
0.0
 11
-3.0341
 21
1.3932894821
 31
0.0
  0
LINE
  5
B4
330
1F
100
AcDbEntity
  8
0
  6
Continuous
 62
     7
370
    25
100
AcDbLine
 10
3.4659
 20
-1.1067104211
 30
0.0
 11
3.4659
 21
1.3932894821
 31
0.0
  0
LINE
  5
B5
330
1F
100
AcDbEntity
  8
0
  6
Continuous
 62
     7
370
    25
100
AcDbLine
 10
2.9659
 20
-1.1067104211
 30
0.0
 11
3.4659
 21
-1.1067104211
 31
0.0
  0
LINE
  5
B6
330
1F
100
AcDbEntity
  8
0
  6
Continuous
 62
     7
370
    25
100
AcDbLine
 10
3.4659
 20
1.3932894821
 30
0.0
 11
2.9659
 21
1.3932894821
 31
0.0
  0
CIRCLE
  5
B7
330
1F
100
AcDbEntity
  8
0
  6
Continuous
 62
     7
370
    25
100
AcDbCircle
 10
0.2159
 20
-0.6967104207
 30
0.0
 40
0.0085
  0
CIRCLE
  5
B8
330
1F
100
AcDbEntity
  8
0
  6
Continuous
 62
     7
370
    25
100
AcDbCircle
 10
0.2159
 20
-0.6967104207
 30
0.0
 40
0.00875
  0
ARC
  5
B9
330
1F
100
AcDbEntity
  8
0
  6
Continuous
 62
     7
370
    25
100
AcDbCircle
 10
0.2159
 20
-0.6967104207
 30
0.0
 40
0.009
100
AcDbArc
 50
183.6900675259
 51
243.6900675259
  0
ARC
  5
BA
330
1F
100
AcDbEntity
  8
0
  6
Continuous
 62
     7
370
    25
100
AcDbCircle
 10
0.2159
 20
-0.6967104207
 30
0.0
 40
0.009
100
AcDbArc
 50
123.6900675259
 51
183.6900675259
  0
ARC
  5
BB
330
1F
100
AcDbEntity
  8
0
  6
Continuous
 62
     7
370
    25
100
AcDbCircle
 10
0.2159
 20
-0.6967104207
 30
0.0
 40
0.0090000000000001
100
AcDbArc
 50
63.6900675259
 51
123.6900675259
  0
ARC
  5
BC
330
1F
100
AcDbEntity
  8
0
  6
Continuous
 62
     7
370
    25
100
AcDbCircle
 10
0.2159
 20
-0.6967104207
 30
0.0
 40
0.0090000000000001
100
AcDbArc
 50
3.6900675259
 51
63.6900675259
  0
ARC
  5
BD
330
1F
100
AcDbEntity
  8
0
  6
Continuous
 62
     7
370
    25
100
AcDbCircle
 10
0.2159
 20
-0.6967104207
 30
0.0
 40
0.009
100
AcDbArc
 50
303.6900675259
 51
3.6900675259
  0
ARC
  5
BE
330
1F
100
AcDbEntity
  8
0
  6
Continuous
 62
     7
370
    25
100
AcDbCircle
 10
0.2159
 20
-0.6967104207
 30
0.0
 40
0.009
100
AcDbArc
 50
243.6900675259
 51
303.6900675259
  0
SPLINE
  5
BF
330
1F
100
AcDbEntity
  8
0
  6
Continuous
 62
     7
370
    25
100
AcDbSpline
210
0.0
220
0.0
230
1.0
 70
     8
 71
     3
 72
     9
 73
     5
 74
     0
 42
0.000000001
 43
0.00000001
 40
0.0
 40
0.0
 40
0.0
 40
0.0
 40
0.7607953629437028
 40
0.9999999999999999
 40
0.9999999999999999
 40
0.9999999999999999
 40
0.9999999999999999
 10
0.2208923015758394
 20
-0.7041988616533055
 30
0.0
 10
0.2220061319596723
 20
-0.7034563237516314
 30
0.0
 10
0.2234701660982655
 20
-0.7024803216125004
 30
0.0
 10
0.2248788080505797
 20
-0.7015412016868656
 30
0.0
 10
0.2252157617375253
 20
-0.7013165598459019
 30
0.0
  0
SPLINE
  5
C0
330
1F
100
AcDbEntity
  8
0
  6
Continuous
 62
     7
370
    25
100
AcDbSpline
210
0.0
220
0.0
230
1.0
 70
     8
 71
     3
 72
     9
 73
     5
 74
     0
 42
0.000000001
 43
0.00000001
 40
0.0
 40
0.0
 40
0.0
 40
0.0
 40
0.4954625956827521
 40
1.0
 40
1.0
 40
1.0
 40
1.0
 10
0.2252157617375253
 20
-0.7013165598459019
 30
0.0
 10
0.2251614506467058
 20
-0.7004744317257425
 30
0.0
 10
0.2250518337123645
 20
-0.6987747512100038
 30
0.0
 10
0.2249385150166874
 20
-0.6970176948328102
 30
0.0
 10
0.2248813414961098
 20
-0.696131194169022
 30
0.0
  0
SPLINE
  5
C1
330
1F
100
AcDbEntity
  8
0
  6
Continuous
 62
     7
370
    25
100
AcDbSpline
210
0.0
220
0.0
230
1.0
 70
     8
 71
     3
 72
     9
 73
     5
 74
     0
 42
0.000000001
 43
0.00000001
 40
0.0
 40
0.0
 40
0.0
 40
0.0
 40
0.4954611633591475
 40
1.0
 40
1.0
 40
1.0
 40
1.0
 10
0.2245469203233717
 20
-0.6909457986898198
 30
0.0
 10
0.2237904624118776
 20
-0.6905717674278742
 30
0.0
 10
0.2222636870207136
 20
-0.6898168520286334
 30
0.0
 10
0.2206853644754436
 20
-0.6890364685784387
 30
0.0
 10
0.219889039454609
 20
-0.6886427348203434
 30
0.0
  0
SPLINE
  5
C2
330
1F
100
AcDbEntity
  8
0
  6
Continuous
 62
     7
370
    25
100
AcDbSpline
210
0.0
220
0.0
230
1.0
 70
     8
 71
     3
 72
    10
 73
     6
 74
     0
 42
0.000000001
 43
0.00000001
 40
0.0
 40
0.0
 40
0.0
 40
0.0
 40
0.0700896750103796
 40
0.5307807815129226
 40
1.0
 40
1.0
 40
1.0
 40
1.0
 10
0.2248813414961098
 20
-0.696131194169022
 30
0.0
 10
0.2248734146636563
 20
-0.6960082835833536
 30
0.0
 10
0.2248133857032715
 20
-0.6950774963210711
 30
0.0
 10
0.2247002010306847
 20
-0.6933225399454992
 30
0.0
 10
0.224598325323023
 20
-0.6917428747573902
 30
0.0
 10
0.2245469203233717
 20
-0.6909457986898198
 30
0.0
  0
SPLINE
  5
C3
330
1F
100
AcDbEntity
  8
0
  6
Continuous
 62
     7
370
    25
100
AcDbSpline
210
0.0
220
0.0
230
1.0
 70
     8
 71
     3
 72
    10
 73
     6
 74
     0
 42
0.000000001
 43
0.00000001
 40
0.0
 40
0.0
 40
0.0
 40
0.0
 40
0.0700910211442809
 40
0.5307837874249405
 40
1.0
 40
1.0
 40
1.0
 40
1.0
 10
0.2119109605453907
 20
-0.7047780995912327
 30
0.0
 10
0.2120213672049588
 20
-0.7048326959647611
 30
0.0
 10
0.2128574523976953
 20
-0.7052461422157634
 30
0.0
 10
0.2144339005399432
 20
-0.7060255576165393
 30
0.0
 10
0.2158528592312719
 20
-0.7067271710762106
 30
0.0
 10
0.2165688415887764
 20
-0.7070811932630314
 30
0.0
  0
SPLINE
  5
C4
330
1F
100
AcDbEntity
  8
0
  6
Continuous
 62
     7
370
    25
100
AcDbSpline
210
0.0
220
0.0
230
1.0
 70
     8
 71
     3
 72
     9
 73
     5
 74
     0
 42
0.000000001
 43
0.00000001
 40
0.0
 40
0.0
 40
0.0
 40
0.0
 40
0.7459217508943123
 40
1.0
 40
1.0
 40
1.0
 40
1.0
 10
0.2165688415887764
 20
-0.7070811932630314
 30
0.0
 10
0.2176319947548893
 20
-0.7063724185570375
 30
0.0
 10
0.2190572825479295
 20
-0.7054222187470116
 30
0.0
 10
0.220520523800394
 20
-0.7044467157474352
 30
0.0
 10
0.2208923015758394
 20
-0.7041988616533055
 30
0.0
  0
SPLINE
  5
C5
330
1F
100
AcDbEntity
  8
0
  6
Continuous
 62
     7
370
    25
100
AcDbSpline
210
0.0
220
0.0
230
1.0
 70
     8
 71
     3
 72
     9
 73
     5
 74
     0
 42
0.000000001
 43
0.00000001
 40
0.0
 40
0.0
 40
0.0
 40
0.0
 40
0.7607984387138007
 40
1.0
 40
1.0
 40
1.0
 40
1.0
 10
0.2109076984241603
 20
-0.6892219727582707
 30
0.0
 10
0.2120215220098484
 20
-0.6884794137035917
 30
0.0
 10
0.2134855412940771
 20
-0.687503387706569
 30
0.0
 10
0.2148942040747585
 20
-0.6865643017724825
 30
0.0
 10
0.2152311584112233
 20
-0.6863396709508671
 30
0.0
  0
SPLINE
  5
C6
330
1F
100
AcDbEntity
  8
0
  6
Continuous
 62
     7
370
    25
100
AcDbSpline
210
0.0
220
0.0
230
1.0
 70
     8
 71
     3
 72
    10
 73
     6
 74
     0
 42
0.000000001
 43
0.00000001
 40
0.0
 40
0.0
 40
0.0
 40
0.0
 40
0.0700886877697558
 40
0.5307850770241254
 40
1.0
 40
1.0
 40
1.0
 40
1.0
 10
0.219889039454609
 20
-0.6886427348203434
 30
0.0
 10
0.2197786324379233
 20
-0.688588149105938
 30
0.0
 10
0.2189425146745544
 20
-0.6881747688081037
 30
0.0
 10
0.2173661246685646
 20
-0.6873952445098535
 30
0.0
 10
0.2159471467207749
 20
-0.6866936710787412
 30
0.0
 10
0.2152311584112233
 20
-0.6863396709508671
 30
0.0
  0
SPLINE
  5
C7
330
1F
100
AcDbEntity
  8
0
  6
Continuous
 62
     7
370
    25
100
AcDbSpline
210
0.0
220
0.0
230
1.0
 70
     8
 71
     3
 72
     9
 73
     5
 74
     0
 42
0.000000001
 43
0.00000001
 40
0.0
 40
0.0
 40
0.0
 40
0.0
 40
0.4954625956827521
 40
1.0
 40
1.0
 40
1.0
 40
1.0
 10
0.2065842382624744
 20
-0.6921042745656742
 30
0.0
 10
0.2066385493532939
 20
-0.6929464026858336
 30
0.0
 10
0.2067481662876352
 20
-0.6946460832015724
 30
0.0
 10
0.2068614849833123
 20
-0.696403139578766
 30
0.0
 10
0.2069186585038899
 20
-0.6972896402425541
 30
0.0
  0
SPLINE
  5
C8
330
1F
100
AcDbEntity
  8
0
  6
Continuous
 62
     7
370
    25
100
AcDbSpline
210
0.0
220
0.0
230
1.0
 70
     8
 71
     3
 72
     9
 73
     5
 74
     0
 42
0.000000001
 43
0.00000001
 40
0.0
 40
0.0
 40
0.0
 40
0.0
 40
0.7459209385570654
 40
1.0
 40
1.0
 40
1.0
 40
1.0
 10
0.2065842382624744
 20
-0.6921042745656742
 30
0.0
 10
0.2076473930656057
 20
-0.6913955123330497
 30
0.0
 10
0.2090726846054678
 20
-0.6904453282103256
 30
0.0
 10
0.21053592075629
 20
-0.6894698271516864
 30
0.0
 10
0.2109076984241603
 20
-0.6892219727582707
 30
0.0
  0
SPLINE
  5
C9
330
1F
100
AcDbEntity
  8
0
  6
Continuous
 62
     7
370
    25
100
AcDbSpline
210
0.0
220
0.0
230
1.0
 70
     8
 71
     3
 72
    10
 73
     6
 74
     0
 42
0.000000001
 43
0.00000001
 40
0.0
 40
0.0
 40
0.0
 40
0.0
 40
0.0700896666469432
 40
0.5307863316827988
 40
1.0
 40
1.0
 40
1.0
 40
1.0
 10
0.2069186585038899
 20
-0.6972896402425541
 30
0.0
 10
0.2069265853468384
 20
-0.6974125508242588
 30
0.0
 10
0.2069866150215646
 20
-0.6983433479004761
 30
0.0
 10
0.2070997964564661
 20
-0.7000983057277985
 30
0.0
 10
0.2072016742386984
 20
-0.7016779697020661
 30
0.0
 10
0.207253079676628
 20
-0.7024750357217564
 30
0.0
  0
SPLINE
  5
CA
330
1F
100
AcDbEntity
  8
0
  6
Continuous
 62
     7
370
    25
100
AcDbSpline
210
0.0
220
0.0
230
1.0
 70
     8
 71
     3
 72
     9
 73
     5
 74
     0
 42
0.000000001
 43
0.00000001
 40
0.0
 40
0.0
 40
0.0
 40
0.0
 40
0.4954611633591475
 40
1.0
 40
1.0
 40
1.0
 40
1.0
 10
0.207253079676628
 20
-0.7024750357217564
 30
0.0
 10
0.2080095375881221
 20
-0.7028490669837018
 30
0.0
 10
0.209536312979286
 20
-0.7036039823829423
 30
0.0
 10
0.2111146355245561
 20
-0.7043843658331377
 30
0.0
 10
0.2119109605453907
 20
-0.7047780995912327
 30
0.0
  0
CIRCLE
  5
CB
330
1F
100
AcDbEntity
  8
0
  6
Continuous
 62
     7
370
    25
100
AcDbCircle
 10
0.2159
 20
0.2832895793
 30
0.0
 40
0.0085000000000001
  0
CIRCLE
  5
CC
330
1F
100
AcDbEntity
  8
0
  6
Continuous
 62
     7
370
    25
100
AcDbCircle
 10
0.2159
 20
0.2832895793
 30
0.0
 40
0.00875
  0
ARC
  5
CD
330
1F
100
AcDbEntity
  8
0
  6
Continuous
 62
     7
370
    25
100
AcDbCircle
 10
0.2159
 20
0.2832895793
 30
0.0
 40
0.009
100
AcDbArc
 50
340.151081711
 51
40.151081711
  0
SPLINE
  5
CE
330
1F
100
AcDbEntity
  8
0
  6
Continuous
 62
     7
370
    25
100
AcDbSpline
210
0.0
220
0.0
230
1.0
 70
     8
 71
     3
 72
     9
 73
     5
 74
     0
 42
0.000000001
 43
0.00000001
 40
0.0
 40
0.0
 40
0.0
 40
0.0
 40
0.4954613167456203
 40
1.0
 40
1.0
 40
1.0
 40
1.0
 10
0.2261296285331248
 20
0.2851211184911955
 30
0.0
 10
0.2255854932836595
 20
0.2857661407017323
 30
0.0
 10
0.224487253661161
 20
0.2870680026004052
 30
0.0
 10
0.2233519341447061
 20
0.2884138050136567
 30
0.0
 10
0.2227791215308009
 20
0.2890928143911587
 30
0.0
  0
SPLINE
  5
CF
330
1F
100
AcDbEntity
  8
0
  6
Continuous
 62
     7
370
    25
100
AcDbSpline
210
0.0
220
0.0
230
1.0
 70
     8
 71
     3
 72
    10
 73
     6
 74
     0
 42
0.000000001
 43
0.00000001
 40
0.0
 40
0.0
 40
0.0
 40
0.0
 40
0.0700998145399046
 40
0.5307980695567137
 40
1.0
 40
1.0
 40
1.0
 40
1.0
 10
0.2243653208032249
 20
0.2802336568289028
 30
0.0
 10
0.2244071403773689
 20
0.2803495244945689
 30
0.0
 10
0.2247237995493086
 20
0.2812268782174457
 30
0.0
 10
0.2253209470566363
 20
0.2828809933497048
 30
0.0
 10
0.2258584296652443
 20
0.2843698716530448
 30
0.0
 10
0.2261296285331248
 20
0.2851211184911953
 30
0.0
  0
ARC
  5
D0
330
1F
100
AcDbEntity
  8
0
  6
Continuous
 62
     7
370
    25
100
AcDbCircle
 10
0.2159
 20
0.2832895793
 30
0.0
 40
0.009
100
AcDbArc
 50
160.151081711
 51
220.151081711
  0
ARC
  5
D1
330
1F
100
AcDbEntity
  8
0
  6
Continuous
 62
     7
370
    25
100
AcDbCircle
 10
0.2159
 20
0.2832895793
 30
0.0
 40
0.0090000000000001
100
AcDbArc
 50
100.151081711
 51
160.151081711
  0
ARC
  5
D2
330
1F
100
AcDbEntity
  8
0
  6
Continuous
 62
     7
370
    25
100
AcDbCircle
 10
0.2159
 20
0.2832895793
 30
0.0
 40
0.0090000000000001
100
AcDbArc
 50
40.151081711
 51
100.151081711
  0
ARC
  5
D3
330
1F
100
AcDbEntity
  8
0
  6
Continuous
 62
     7
370
    25
100
AcDbCircle
 10
0.2159
 20
0.2832895793
 30
0.0
 40
0.0090000000000001
100
AcDbArc
 50
280.151081711
 51
340.151081711
  0
ARC
  5
D4
330
1F
100
AcDbEntity
  8
0
  6
Continuous
 62
     7
370
    25
100
AcDbCircle
 10
0.2159
 20
0.2832895793
 30
0.0
 40
0.0090000000000001
100
AcDbArc
 50
220.151081711
 51
280.151081711
  0
SPLINE
  5
D5
330
1F
100
AcDbEntity
  8
0
  6
Continuous
 62
     7
370
    25
100
AcDbSpline
210
0.0
220
0.0
230
1.0
 70
     8
 71
     3
 72
     9
 73
     5
 74
     0
 42
0.000000001
 43
0.00000001
 40
0.0
 40
0.0
 40
0.0
 40
0.0
 40
0.7607999955302334
 40
1.0
 40
1.0
 40
1.0
 40
1.0
 10
0.2174861995052545
 20
0.2744304294042813
 30
0.0
 10
0.2188038901151567
 20
0.2746664280644542
 30
0.0
 10
0.2205358704222594
 20
0.2749766260948956
 30
0.0
 10
0.222202383583394
 20
0.2752748580755138
 30
0.0
 10
0.2226010135389863
 20
0.2753461951666104
 30
0.0
  0
SPLINE
  5
D6
330
1F
100
AcDbEntity
  8
0
  6
Continuous
 62
     7
370
    25
100
AcDbSpline
210
0.0
220
0.0
230
1.0
 70
     8
 71
     3
 72
     9
 73
     5
 74
     0
 42
0.000000001
 43
0.00000001
 40
0.0
 40
0.0
 40
0.0
 40
0.0
 40
0.4954693736935185
 40
1.0
 40
1.0
 40
1.0
 40
1.0
 10
0.2226010135389863
 20
0.2753461951666104
 30
0.0
 10
0.2228875415472994
 20
0.2761399566485419
 30
0.0
 10
0.2234658376510063
 20
0.2777419960965398
 30
0.0
 10
0.2240636873301629
 20
0.2793981011227831
 30
0.0
 10
0.2243653208032249
 20
0.2802336568289028
 30
0.0
  0
SPLINE
  5
D7
330
1F
100
AcDbEntity
  8
0
  6
Continuous
 62
     7
370
    25
100
AcDbSpline
210
0.0
220
0.0
230
1.0
 70
     8
 71
     3
 72
     9
 73
     5
 74
     0
 42
0.000000001
 43
0.00000001
 40
0.0
 40
0.0
 40
0.0
 40
0.0
 40
0.7607961230836778
 40
1.0
 40
1.0
 40
1.0
 40
1.0
 10
0.2143138004947452
 20
0.292148744528793
 30
0.0
 10
0.2156315014423957
 20
0.2923846420917016
 30
0.0
 10
0.2173635041533317
 20
0.2926947088175318
 30
0.0
 10
0.2190299858731233
 20
0.2929931274074662
 30
0.0
 10
0.2194286147613077
 20
0.2930645102911223
 30
0.0
  0
SPLINE
  5
D8
330
1F
100
AcDbEntity
  8
0
  6
Continuous
 62
     7
370
    25
100
AcDbSpline
210
0.0
220
0.0
230
1.0
 70
     8
 71
     3
 72
    10
 73
     6
 74
     0
 42
0.000000001
 43
0.00000001
 40
0.0
 40
0.0
 40
0.0
 40
0.0
 40
0.0700855640398791
 40
0.5307744167774746
 40
1.0
 40
1.0
 40
1.0
 40
1.0
 10
0.2227791215308009
 20
0.2890928143911587
 30
0.0
 10
0.2226997034006457
 20
0.2891869466291082
 30
0.0
 10
0.2220982512714924
 20
0.2898998321481466
 30
0.0
 10
0.2209643070869824
 20
0.2912440272991988
 30
0.0
 10
0.2199436355006802
 20
0.2924539801212174
 30
0.0
 10
0.2194286147613077
 20
0.2930645102911221
 30
0.0
  0
SPLINE
  5
D9
330
1F
100
AcDbEntity
  8
0
  6
Continuous
 62
     7
370
    25
100
AcDbSpline
210
0.0
220
0.0
230
1.0
 70
     8
 71
     3
 72
    10
 73
     6
 74
     0
 42
0.000000001
 43
0.00000001
 40
0.0
 40
0.0
 40
0.0
 40
0.0
 40
0.0700855384120801
 40
0.5307914211347388
 40
1.0
 40
1.0
 40
1.0
 40
1.0
 10
0.2090208784691988
 20
0.2774863595419155
 30
0.0
 10
0.2091002969214495
 20
0.2773922275888261
 30
0.0
 10
0.2097017709785746
 20
0.2766793211278571
 30
0.0
 10
0.210835615781457
 20
0.2753350371679384
 30
0.0
 10
0.2118563510468024
 20
0.2741251423850193
 30
0.0
 10
0.212371385238692
 20
0.2735146636419524
 30
0.0
  0
SPLINE
  5
DA
330
1F
100
AcDbEntity
  8
0
  6
Continuous
 62
     7
370
    25
100
AcDbSpline
210
0.0
220
0.0
230
1.0
 70
     8
 71
     3
 72
     9
 73
     5
 74
     0
 42
0.000000001
 43
0.00000001
 40
0.0
 40
0.0
 40
0.0
 40
0.0
 40
0.7459233146324734
 40
1.0
 40
1.0
 40
1.0
 40
1.0
 10
0.212371385238692
 20
0.2735146636419521
 30
0.0
 10
0.2136291309155324
 20
0.2737398910682343
 30
0.0
 10
0.2153152904069542
 20
0.274041835546794
 30
0.0
 10
0.2170463720255109
 20
0.2743517000566933
 30
0.0
 10
0.2174861995052545
 20
0.2744304294042813
 30
0.0
  0
SPLINE
  5
DB
330
1F
100
AcDbEntity
  8
0
  6
Continuous
 62
     7
370
    25
100
AcDbSpline
210
0.0
220
0.0
230
1.0
 70
     8
 71
     3
 72
     9
 73
     5
 74
     0
 42
0.000000001
 43
0.00000001
 40
0.0
 40
0.0
 40
0.0
 40
0.0
 40
0.4954484097508438
 40
1.0
 40
1.0
 40
1.0
 40
1.0
 10
0.2091989864610134
 20
0.2912328595571743
 30
0.0
 10
0.2089124522652673
 20
0.2904391401817706
 30
0.0
 10
0.208334119203526
 20
0.2888371179332723
 30
0.0
 10
0.2077363065312452
 20
0.2871809965649264
 30
0.0
 10
0.2074346791967748
 20
0.2863453978948818
 30
0.0
  0
SPLINE
  5
DC
330
1F
100
AcDbEntity
  8
0
  6
Continuous
 62
     7
370
    25
100
AcDbSpline
210
0.0
220
0.0
230
1.0
 70
     8
 71
     3
 72
     9
 73
     5
 74
     0
 42
0.000000001
 43
0.00000001
 40
0.0
 40
0.0
 40
0.0
 40
0.0
 40
0.7459203645044639
 40
1.0
 40
1.0
 40
1.0
 40
1.0
 10
0.2091989864610134
 20
0.2912328595571743
 30
0.0
 10
0.210456739687794
 20
0.2914580448197349
 30
0.0
 10
0.2121429159696497
 20
0.2917599339667219
 30
0.0
 10
0.2138739739213544
 20
0.2920699705473869
 30
0.0
 10
0.2143138004947452
 20
0.292148744528793
 30
0.0
  0
SPLINE
  5
DD
330
1F
100
AcDbEntity
  8
0
  6
Continuous
 62
     7
370
    25
100
AcDbSpline
210
0.0
220
0.0
230
1.0
 70
     8
 71
     3
 72
    10
 73
     6
 74
     0
 42
0.000000001
 43
0.00000001
 40
0.0
 40
0.0
 40
0.0
 40
0.0
 40
0.0700785874790147
 40
0.530777096648899
 40
1.0
 40
1.0
 40
1.0
 40
1.0
 10
0.2074346791967748
 20
0.2863453978948818
 30
0.0
 10
0.207392858715793
 20
0.2862295702842027
 30
0.0
 10
0.2070761092738526
 20
0.285352288861736
 30
0.0
 10
0.2064790618268536
 20
0.283698140655007
 30
0.0
 10
0.2059415772562396
 20
0.2822092205792164
 30
0.0
 10
0.2056703714668749
 20
0.2814579362325896
 30
0.0
  0
SPLINE
  5
DE
330
1F
100
AcDbEntity
  8
0
  6
Continuous
 62
     7
370
    25
100
AcDbSpline
210
0.0
220
0.0
230
1.0
 70
     8
 71
     3
 72
     9
 73
     5
 74
     0
 42
0.000000001
 43
0.00000001
 40
0.0
 40
0.0
 40
0.0
 40
0.0
 40
0.4954528157467669
 40
1.0
 40
1.0
 40
1.0
 40
1.0
 10
0.2056703714668749
 20
0.2814579362325894
 30
0.0
 10
0.2062145114810638
 20
0.2808129579541741
 30
0.0
 10
0.2073127795641075
 20
0.2795111623887512
 30
0.0
 10
0.2084480705825405
 20
0.2781653735241494
 30
0.0
 10
0.2090208784691988
 20
0.2774863595419155
 30
0.0
  0
CIRCLE
  5
DF
330
1F
100
AcDbEntity
  8
0
  6
Continuous
 62
     7
370
    25
100
AcDbCircle
 10
0.2159
 20
0.0032895793
 30
0.0
 40
0.0084999999999999
  0
CIRCLE
  5
E0
330
1F
100
AcDbEntity
  8
0
  6
Continuous
 62
     7
370
    25
100
AcDbCircle
 10
0.2159
 20
0.0032895793
 30
0.0
 40
0.00875
  0
ARC
  5
E1
330
1F
100
AcDbEntity
  8
0
  6
Continuous
 62
     7
370
    25
100
AcDbCircle
 10
0.2159
 20
0.0032895793
 30
0.0
 40
0.009
100
AcDbArc
 50
171.1728321851
 51
231.1728321851
  0
ARC
  5
E2
330
1F
100
AcDbEntity
  8
0
  6
Continuous
 62
     7
370
    25
100
AcDbCircle
 10
0.2159
 20
0.0032895793
 30
0.0
 40
0.009
100
AcDbArc
 50
111.1728321851
 51
171.1728321851
  0
ARC
  5
E3
330
1F
100
AcDbEntity
  8
0
  6
Continuous
 62
     7
370
    25
100
AcDbCircle
 10
0.2159
 20
0.0032895793
 30
0.0
 40
0.009
100
AcDbArc
 50
51.1728321851
 51
111.1728321851
  0
ARC
  5
E4
330
1F
100
AcDbEntity
  8
0
  6
Continuous
 62
     7
370
    25
100
AcDbCircle
 10
0.2159
 20
0.0032895793
 30
0.0
 40
0.009
100
AcDbArc
 50
351.1728321851
 51
51.1728321851
  0
ARC
  5
E5
330
1F
100
AcDbEntity
  8
0
  6
Continuous
 62
     7
370
    25
100
AcDbCircle
 10
0.2159
 20
0.0032895793
 30
0.0
 40
0.009
100
AcDbArc
 50
291.1728321851
 51
351.1728321851
  0
ARC
  5
E6
330
1F
100
AcDbEntity
  8
0
  6
Continuous
 62
     7
370
    25
100
AcDbCircle
 10
0.2159
 20
0.0032895793
 30
0.0
 40
0.009
100
AcDbArc
 50
231.1728321851
 51
291.1728321851
  0
SPLINE
  5
E7
330
1F
100
AcDbEntity
  8
0
  6
Continuous
 62
     7
370
    25
100
AcDbSpline
210
0.0
220
0.0
230
1.0
 70
     8
 71
     3
 72
     9
 73
     5
 74
     0
 42
0.000000001
 43
0.00000001
 40
0.0
 40
0.0
 40
0.0
 40
0.0
 40
0.4954707958395712
 40
1.0
 40
1.0
 40
1.0
 40
1.0
 10
0.2255907736733554
 20
0.0070430392675625
 30
0.0
 10
0.2249333670665573
 20
0.0075721692634514
 30
0.0
 10
0.2236065348651072
 20
0.0086401030353956
 30
0.0
 10
0.2222348265288996
 20
0.0097439745333419
 30
0.0
 10
0.2215427596136926
 20
0.0103009099416958
 30
0.0
  0
SPLINE
  5
E8
330
1F
100
AcDbEntity
  8
0
  6
Continuous
 62
     7
370
    25
100
AcDbSpline
210
0.0
220
0.0
230
1.0
 70
     8
 71
     3
 72
    10
 73
     6
 74
     0
 42
0.000000001
 43
0.00000001
 40
0.0
 40
0.0
 40
0.0
 40
0.0
 40
0.0700910266549133
 40
0.5307827851307698
 40
1.0
 40
1.0
 40
1.0
 40
1.0
 10
0.2247934013620017
 20
0.0019084567480313
 30
0.0
 10
0.2248123015659176
 20
0.0020301653522013
 30
0.0
 10
0.2249554283448048
 20
0.0029518358566701
 30
0.0
 10
0.225225300135894
 20
0.0046895947552222
 30
0.0
 10
0.225468206833566
 20
0.0062537775921459
 30
0.0
 10
0.2255907736733554
 20
0.0070430392675627
 30
0.0
  0
SPLINE
  5
E9
330
1F
100
AcDbEntity
  8
0
  6
Continuous
 62
     7
370
    25
100
AcDbSpline
210
0.0
220
0.0
230
1.0
 70
     8
 71
     3
 72
     9
 73
     5
 74
     0
 42
0.000000001
 43
0.00000001
 40
0.0
 40
0.0
 40
0.0
 40
0.0
 40
0.7608001955664435
 40
1.0
 40
1.0
 40
1.0
 40
1.0
 10
0.2191506419811396
 20
-0.0051028376168979
 30
0.0
 10
0.2203989219487347
 20
-0.0046193151570164
 30
0.0
 10
0.2220396680669264
 20
-0.003983770551877
 30
0.0
 10
0.2236183973216618
 20
-0.0033723721497256
 30
0.0
 10
0.2239960290506481
 20
-0.0032261257715
 30
0.0
  0
SPLINE
  5
EA
330
1F
100
AcDbEntity
  8
0
  6
Continuous
 62
     7
370
    25
100
AcDbSpline
210
0.0
220
0.0
230
1.0
 70
     8
 71
     3
 72
     9
 73
     5
 74
     0
 42
0.000000001
 43
0.00000001
 40
0.0
 40
0.0
 40
0.0
 40
0.0
 40
0.4954562000795388
 40
0.9999999999999999
 40
0.9999999999999999
 40
0.9999999999999999
 40
0.9999999999999999
 10
0.2239960290506481
 20
-0.0032261257714998
 30
0.0
 10
0.2241255261201784
 20
-0.0023922567413234
 30
0.0
 10
0.2243868954793864
 20
-0.0007092239524668
 30
0.0
 10
0.2246570809553006
 20
0.0010306261606615
 30
0.0
 10
0.2247934013620017
 20
0.0019084567480313
 30
0.0
  0
SPLINE
  5
EB
330
1F
100
AcDbEntity
  8
0
  6
Continuous
 62
     7
370
    25
100
AcDbSpline
210
0.0
220
0.0
230
1.0
 70
     8
 71
     3
 72
     9
 73
     5
 74
     0
 42
0.000000001
 43
0.00000001
 40
0.0
 40
0.0
 40
0.0
 40
0.0
 40
0.7608001455267499
 40
1.0
 40
1.0
 40
1.0
 40
1.0
 10
0.2126493580188601
 20
0.0116820687704312
 30
0.0
 10
0.2138976378319644
 20
0.0121655912788133
 30
0.0
 10
0.2155383838550085
 20
0.012801135989504
 30
0.0
 10
0.2171171131535011
 20
0.013412534242651
 30
0.0
 10
0.2174947449719532
 20
0.0135587806158291
 30
0.0
  0
SPLINE
  5
EC
330
1F
100
AcDbEntity
  8
0
  6
Continuous
 62
     7
370
    25
100
AcDbSpline
210
0.0
220
0.0
230
1.0
 70
     8
 71
     3
 72
    10
 73
     6
 74
     0
 42
0.000000001
 43
0.00000001
 40
0.0
 40
0.0
 40
0.0
 40
0.0
 40
0.0700979223593948
 40
0.5307801972101839
 40
1.0
 40
1.0
 40
1.0
 40
1.0
 10
0.2215427596136926
 20
0.0103009099416958
 30
0.0
 10
0.2214468095748147
 20
0.0103781562885055
 30
0.0
 10
0.2207202776200322
 20
0.0109630642260506
 30
0.0
 10
0.2193500902126502
 20
0.012065454389699
 30
0.0
 10
0.218116967195852
 20
0.0130579677508987
 30
0.0
 10
0.2174947449719532
 20
0.0135587806158293
 30
0.0
  0
SPLINE
  5
ED
330
1F
100
AcDbEntity
  8
0
  6
Continuous
 62
     7
370
    25
100
AcDbSpline
210
0.0
220
0.0
230
1.0
 70
     8
 71
     3
 72
    10
 73
     6
 74
     0
 42
0.000000001
 43
0.00000001
 40
0.0
 40
0.0
 40
0.0
 40
0.0
 40
0.070083751585384
 40
0.5307801651175488
 40
1.0
 40
1.0
 40
1.0
 40
1.0
 10
0.2102572403863071
 20
-0.0037217979974521
 30
0.0
 10
0.2103531921315608
 20
-0.0037990024833174
 30
0.0
 10
0.2110798838687605
 20
-0.0043837116181515
 30
0.0
 10
0.212449819761022
 20
-0.0054864162161185
 30
0.0
 10
0.2136830088862869
 20
-0.00647888559626
 30
0.0
 10
0.2143052550280465
 20
-0.0069796686715854
 30
0.0
  0
SPLINE
  5
EE
330
1F
100
AcDbEntity
  8
0
  6
Continuous
 62
     7
370
    25
100
AcDbSpline
210
0.0
220
0.0
230
1.0
 70
     8
 71
     3
 72
     9
 73
     5
 74
     0
 42
0.000000001
 43
0.00000001
 40
0.0
 40
0.0
 40
0.0
 40
0.0
 40
0.7459184654594097
 40
0.9999999999999999
 40
0.9999999999999999
 40
0.9999999999999999
 40
0.9999999999999999
 10
0.2143052550280465
 20
-0.0069796686715854
 30
0.0
 10
0.2154967596655301
 20
-0.0065181863077357
 30
0.0
 10
0.2170941254536927
 20
-0.0058995096222538
 30
0.0
 10
0.2187339841636771
 20
-0.0052642462973317
 30
0.0
 10
0.2191506419811396
 20
-0.0051028376168979
 30
0.0
  0
SPLINE
  5
EF
330
1F
100
AcDbEntity
  8
0
  6
Continuous
 62
     7
370
    25
100
AcDbSpline
210
0.0
220
0.0
230
1.0
 70
     8
 71
     3
 72
     9
 73
     5
 74
     0
 42
0.000000001
 43
0.00000001
 40
0.0
 40
0.0
 40
0.0
 40
0.0
 40
0.4954562000795388
 40
0.9999999999999999
 40
0.9999999999999999
 40
0.9999999999999999
 40
0.9999999999999999
 10
0.2078039709493516
 20
0.0098052377157439
 30
0.0
 10
0.2076744738798212
 20
0.0089713686855675
 30
0.0
 10
0.2074131045206133
 20
0.00728833589671
 30
0.0
 10
0.2071429190446991
 20
0.005548485783582
 30
0.0
 10
0.2070065986379979
 20
0.0046706551962124
 30
0.0
  0
SPLINE
  5
F0
330
1F
100
AcDbEntity
  8
0
  6
Continuous
 62
     7
370
    25
100
AcDbSpline
210
0.0
220
0.0
230
1.0
 70
     8
 71
     3
 72
     9
 73
     5
 74
     0
 42
0.000000001
 43
0.00000001
 40
0.0
 40
0.0
 40
0.0
 40
0.0
 40
0.7459184705988394
 40
1.0
 40
1.0
 40
1.0
 40
1.0
 10
0.2078039709493516
 20
0.0098052377157437
 30
0.0
 10
0.2089954756277148
 20
0.0102667200747906
 30
0.0
 10
0.2105928414596757
 20
0.0108853967495702
 30
0.0
 10
0.2122327002016878
 20
0.0115206600894598
 30
0.0
 10
0.2126493580188601
 20
0.0116820687704312
 30
0.0
  0
SPLINE
  5
F1
330
1F
100
AcDbEntity
  8
0
  6
Continuous
 62
     7
370
    25
100
AcDbSpline
210
0.0
220
0.0
230
1.0
 70
     8
 71
     3
 72
    10
 73
     6
 74
     0
 42
0.000000001
 43
0.00000001
 40
0.0
 40
0.0
 40
0.0
 40
0.0
 40
0.0700910266549133
 40
0.5307827851307698
 40
1.0
 40
1.0
 40
1.0
 40
1.0
 10
0.2070065986379979
 20
0.0046706551962124
 30
0.0
 10
0.206987698434082
 20
0.0045489465920424
 30
0.0
 10
0.2068445716551948
 20
0.0036272760875738
 30
0.0
 10
0.2065746998641057
 20
0.0018895171890215
 30
0.0
 10
0.2063317931664337
 20
0.0003253343520982
 30
0.0
 10
0.2062092263266443
 20
-0.0004639273233186
 30
0.0
  0
SPLINE
  5
F2
330
1F
100
AcDbEntity
  8
0
  6
Continuous
 62
     7
370
    25
100
AcDbSpline
210
0.0
220
0.0
230
1.0
 70
     8
 71
     3
 72
     9
 73
     5
 74
     0
 42
0.000000001
 43
0.00000001
 40
0.0
 40
0.0
 40
0.0
 40
0.0
 40
0.4954568217825585
 40
1.0
 40
1.0
 40
1.0
 40
1.0
 10
0.2062092263266443
 20
-0.0004639273233186
 30
0.0
 10
0.2068666423967936
 20
-0.0009930056877256
 30
0.0
 10
0.2081935311209898
 20
-0.0020608653702369
 30
0.0
 10
0.2095651828590026
 20
-0.0031648101763828
 30
0.0
 10
0.2102572403863071
 20
-0.0037217979974521
 30
0.0
  0
CIRCLE
  5
F3
330
1F
100
AcDbEntity
  8
0
  6
Continuous
 62
     7
370
    25
100
AcDbCircle
 10
0.2159
 20
0.9832895793
 30
0.0
 40
0.0085000000000002
  0
CIRCLE
  5
F4
330
1F
100
AcDbEntity
  8
0
  6
Continuous
 62
     7
370
    25
100
AcDbCircle
 10
0.2159
 20
0.9832895793
 30
0.0
 40
0.00875
  0
ARC
  5
F5
330
1F
100
AcDbEntity
  8
0
  6
Continuous
 62
     7
370
    25
100
AcDbCircle
 10
0.2159
 20
0.9832895793
 30
0.0
 40
0.0090000000000001
100
AcDbArc
 50
330.0
 51
30.0
  0
SPLINE
  5
F6
330
1F
100
AcDbEntity
  8
0
  6
Continuous
 62
     7
370
    25
100
AcDbSpline
210
0.0
220
0.0
230
1.0
 70
     8
 71
     3
 72
     9
 73
     5
 74
     0
 42
0.000000001
 43
0.00000001
 40
0.0
 40
0.0
 40
0.0
 40
0.0
 40
0.4954640738222332
 40
1.0
 40
1.0
 40
1.0
 40
1.0
 10
0.226292304509878
 20
0.9832896346502529
 30
0.0
 10
0.2258703684857105
 20
0.9840204467247933
 30
0.0
 10
0.2250187708695351
 20
0.9854954519030743
 30
0.0
 10
0.2241384050381719
 20
0.9870202376986312
 30
0.0
 10
0.2236942288480697
 20
0.9877895469122158
 30
0.0
  0
SPLINE
  5
F7
330
1F
100
AcDbEntity
  8
0
  6
Continuous
 62
     7
370
    25
100
AcDbSpline
210
0.0
220
0.0
230
1.0
 70
     8
 71
     3
 72
    10
 73
     6
 74
     0
 42
0.000000001
 43
0.00000001
 40
0.0
 40
0.0
 40
0.0
 40
0.0
 40
0.0701194220781581
 40
0.5308049683542521
 40
1.0
 40
1.0
 40
1.0
 40
1.0
 10
0.2236942288480697
 20
0.9787894839697109
 30
0.0
 10
0.2237558095805707
 20
0.9788962135790422
 30
0.0
 10
0.2242219765539662
 20
0.9797041581573729
 30
0.0
 10
0.2251015177321199
 20
0.9812270607564795
 30
0.0
 10
0.2258929613749875
 20
0.9825979283430719
 30
0.0
 10
0.226292304509878
 20
0.9832896346502529
 30
0.0
  0
ARC
  5
F8
330
1F
100
AcDbEntity
  8
0
  6
Continuous
 62
     7
370
    25
100
AcDbCircle
 10
0.2159
 20
0.9832895793
 30
0.0
 40
0.0090000000000001
100
AcDbArc
 50
150.0
 51
210.0
  0
ARC
  5
F9
330
1F
100
AcDbEntity
  8
0
  6
Continuous
 62
     7
370
    25
100
AcDbCircle
 10
0.2159
 20
0.9832895793
 30
0.0
 40
0.0090000000000001
100
AcDbArc
 50
90.0
 51
150.0
  0
ARC
  5
FA
330
1F
100
AcDbEntity
  8
0
  6
Continuous
 62
     7
370
    25
100
AcDbCircle
 10
0.2159
 20
0.9832895793
 30
0.0
 40
0.0090000000000001
100
AcDbArc
 50
30.0
 51
90.0
  0
ARC
  5
FB
330
1F
100
AcDbEntity
  8
0
  6
Continuous
 62
     7
370
    25
100
AcDbCircle
 10
0.2159
 20
0.9832895793
 30
0.0
 40
0.0090000000000001
100
AcDbArc
 50
270.0
 51
330.0
  0
ARC
  5
FC
330
1F
100
AcDbEntity
  8
0
  6
Continuous
 62
     7
370
    25
100
AcDbCircle
 10
0.2159
 20
0.9832895793
 30
0.0
 40
0.0090000000000001
100
AcDbArc
 50
210.0
 51
270.0
  0
SPLINE
  5
FD
330
1F
100
AcDbEntity
  8
0
  6
Continuous
 62
     7
370
    25
100
AcDbSpline
210
0.0
220
0.0
230
1.0
 70
    24
 71
     3
 72
     9
 73
     5
 74
     0
 42
0.000000001
 43
0.00000001
 40
0.0
 40
0.0
 40
0.0
 40
0.0
 40
0.7607971834111045
 40
1.0
 40
1.0
 40
1.0
 40
1.0
 10
0.2158999999999086
 20
0.974289571707748
 30
0.0
 10
0.2172386530796832
 20
0.974289571707748
 30
0.0
 10
0.2189981930845141
 20
0.9742895717077475
 30
0.0
 10
0.2206911840480109
 20
0.974289571707748
 30
0.0
 10
0.2210961522549389
 20
0.974289571707748
 30
0.0
  0
SPLINE
  5
FE
330
1F
100
AcDbEntity
  8
0
  6
Continuous
 62
     7
370
    25
100
AcDbSpline
210
0.0
220
0.0
230
1.0
 70
     8
 71
     3
 72
     9
 73
     5
 74
     0
 42
0.000000001
 43
0.00000001
 40
0.0
 40
0.0
 40
0.0
 40
0.0
 40
0.4954641172677051
 40
1.0
 40
1.0
 40
1.0
 40
1.0
 10
0.2210961522549389
 20
0.974289571707748
 30
0.0
 10
0.2215180886475702
 20
0.9750203837495826
 30
0.0
 10
0.2223696869327458
 20
0.9764953887325158
 30
0.0
 10
0.2232500527189832
 20
0.9780201747236812
 30
0.0
 10
0.2236942288480697
 20
0.9787894839697109
 30
0.0
  0
SPLINE
  5
FF
330
1F
100
AcDbEntity
  8
0
  6
Continuous
 62
     7
370
    25
100
AcDbSpline
210
0.0
220
0.0
230
1.0
 70
    24
 71
     3
 72
     9
 73
     5
 74
     0
 42
0.000000001
 43
0.00000001
 40
0.0
 40
0.0
 40
0.0
 40
0.0
 40
0.7607971834111045
 40
1.0
 40
1.0
 40
1.0
 40
1.0
 10
0.2158999999999086
 20
0.9922896975927578
 30
0.0
 10
0.2172386530796832
 20
0.9922896975927578
 30
0.0
 10
0.2189981930845141
 20
0.9922896975927578
 30
0.0
 10
0.2206911840480109
 20
0.9922896975927573
 30
0.0
 10
0.2210961522549389
 20
0.9922896975927578
 30
0.0
  0
SPLINE
  5
100
330
1F
100
AcDbEntity
  8
0
  6
Continuous
 62
     7
370
    25
100
AcDbSpline
210
0.0
220
0.0
230
1.0
 70
     8
 71
     3
 72
    10
 73
     6
 74
     0
 42
0.000000001
 43
0.00000001
 40
0.0
 40
0.0
 40
0.0
 40
0.0
 40
0.0700803703507566
 40
0.5307663453376725
 40
1.0
 40
1.0
 40
1.0
 40
1.0
 10
0.2236942288480697
 20
0.9877895469122158
 30
0.0
 10
0.2236326454913999
 20
0.9878961956411882
 30
0.0
 10
0.2231662328142163
 20
0.988703919056861
 30
0.0
 10
0.2222869639042084
 20
0.9902269728871493
 30
0.0
 10
0.2214955144323833
 20
0.9915979221718461
 30
0.0
 10
0.2210961522549389
 20
0.9922896975927582
 30
0.0
  0
SPLINE
  5
101
330
1F
100
AcDbEntity
  8
0
  6
Continuous
 62
     7
370
    25
100
AcDbSpline
210
0.0
220
0.0
230
1.0
 70
     8
 71
     3
 72
    10
 73
     6
 74
     0
 42
0.000000001
 43
0.00000001
 40
0.0
 40
0.0
 40
0.0
 40
0.0
 40
0.0700830435545289
 40
0.5307865913293738
 40
1.0
 40
1.0
 40
1.0
 40
1.0
 10
0.2081057711519299
 20
0.9787894839697109
 30
0.0
 10
0.2081673545969522
 20
0.9786828353051971
 30
0.0
 10
0.2086337679432887
 20
0.9778751123777094
 30
0.0
 10
0.2095129759316954
 20
0.9763520966640518
 30
0.0
 10
0.2103044760805107
 20
0.974981261624102
 30
0.0
 10
0.2107038477450608
 20
0.974289571707748
 30
0.0
  0
SPLINE
  5
102
330
1F
100
AcDbEntity
  8
0
  6
Continuous
 62
     7
370
    25
100
AcDbSpline
210
0.0
220
0.0
230
1.0
 70
    24
 71
     3
 72
     9
 73
     5
 74
     0
 42
0.000000001
 43
0.00000001
 40
0.0
 40
0.0
 40
0.0
 40
0.0
 40
0.7459217546043356
 40
1.0
 40
1.0
 40
1.0
 40
1.0
 10
0.2107038477450608
 20
0.974289571707748
 30
0.0
 10
0.2119815986538471
 20
0.974289571707748
 30
0.0
 10
0.21369458114953
 20
0.9742895717077475
 30
0.0
 10
0.2154531786361508
 20
0.974289571707748
 30
0.0
 10
0.2158999999999086
 20
0.974289571707748
 30
0.0
  0
SPLINE
  5
103
330
1F
100
AcDbEntity
  8
0
  6
Continuous
 62
     7
370
    25
100
AcDbSpline
210
0.0
220
0.0
230
1.0
 70
     8
 71
     3
 72
     9
 73
     5
 74
     0
 42
0.000000001
 43
0.00000001
 40
0.0
 40
0.0
 40
0.0
 40
0.0
 40
0.4954833805922406
 40
1.0
 40
1.0
 40
1.0
 40
1.0
 10
0.2107038477450608
 20
0.9922896975927578
 30
0.0
 10
0.2102819197257516
 20
0.9915588008917746
 30
0.0
 10
0.209430371448179
 20
0.99008368239212
 30
0.0
 10
0.2085499555862589
 20
0.9885588501301754
 30
0.0
 10
0.2081057711519299
 20
0.9877895469122158
 30
0.0
  0
SPLINE
  5
104
330
1F
100
AcDbEntity
  8
0
  6
Continuous
 62
     7
370
    25
100
AcDbSpline
210
0.0
220
0.0
230
1.0
 70
    24
 71
     3
 72
     9
 73
     5
 74
     0
 42
0.000000001
 43
0.00000001
 40
0.0
 40
0.0
 40
0.0
 40
0.0
 40
0.7459217546043356
 40
1.0
 40
1.0
 40
1.0
 40
1.0
 10
0.2107038477450608
 20
0.9922896975927578
 30
0.0
 10
0.2119815986538471
 20
0.9922896975927582
 30
0.0
 10
0.21369458114953
 20
0.9922896975927582
 30
0.0
 10
0.2154531786361508
 20
0.9922896975927578
 30
0.0
 10
0.2158999999999086
 20
0.9922896975927578
 30
0.0
  0
SPLINE
  5
105
330
1F
100
AcDbEntity
  8
0
  6
Continuous
 62
     7
370
    25
100
AcDbSpline
210
0.0
220
0.0
230
1.0
 70
     8
 71
     3
 72
     9
 73
     5
 74
     0
 42
0.000000001
 43
0.00000001
 40
0.0
 40
0.0
 40
0.0
 40
0.0
 40
0.4954447336522328
 40
1.0
 40
1.0
 40
1.0
 40
1.0
 10
0.2055076954901217
 20
0.9832896346502529
 30
0.0
 10
0.2059296399197304
 20
0.9825588273493575
 30
0.0
 10
0.2067812877442987
 20
0.9810837742278773
 30
0.0
 10
0.2076616033014974
 20
0.9795588782606215
 30
0.0
 10
0.2081057711519299
 20
0.9787894839697109
 30
0.0
  0
SPLINE
  5
106
330
1F
100
AcDbEntity
  8
0
  6
Continuous
 62
     7
370
    25
100
AcDbSpline
210
0.0
220
0.0
230
1.0
 70
     8
 71
     3
 72
    10
 73
     6
 74
     0
 42
0.000000001
 43
0.00000001
 40
0.0
 40
0.0
 40
0.0
 40
0.0
 40
0.0700830055006447
 40
0.530786593438543
 40
1.0
 40
1.0
 40
1.0
 40
1.0
 10
0.2081057711519299
 20
0.9877895469122158
 30
0.0
 10
0.2080441878710625
 20
0.9876828982425536
 30
0.0
 10
0.2075777755128752
 20
0.986875174834283
 30
0.0
 10
0.2066985664925428
 20
0.9853521598886612
 30
0.0
 10
0.2059070668706575
 20
0.9839813246403346
 30
0.0
 10
0.2055076954901217
 20
0.9832896346502529
 30
0.0
  0
LINE
  5
107
330
1F
100
AcDbEntity
  8
0
  6
Continuous
 62
     7
370
    25
100
AcDbLine
 10
0.1714500001
 20
1.4432896728
 30
0.0
 11
0.2603499999
 21
1.4432896728
 31
0.0
  0
LINE
  5
108
330
1F
100
AcDbEntity
  8
0
  6
Continuous
 62
     7
370
    25
100
AcDbLine
 10
0.1714500001
 20
-1.1567104181
 30
0.0
 11
0.2603499999
 21
-1.1567104181
 31
0.0
  0
LINE
  5
109
330
1F
100
AcDbEntity
  8
0
  6
Continuous
 62
     7
370
    25
100
AcDbLine
 10
0.21545
 20
1.4582895393
 30
0.0
 11
0.21635
 21
1.4582895393
 31
0.0
  0
LINE
  5
10A
330
1F
100
AcDbEntity
  8
0
  6
Continuous
 62
     7
370
    25
100
AcDbLine
 10
0.1714500001
 20
1.4432896728
 30
0.0
 11
0.2603499999
 21
1.4432896728
 31
0.0
  0
LINE
  5
10B
330
1F
100
AcDbEntity
  8
0
  6
Continuous
 62
     7
370
    25
100
AcDbLine
 10
0.21635
 20
-1.1717104187
 30
0.0
 11
0.21545
 21
-1.1717104187
 31
0.0
  0
LINE
  5
10C
330
1F
100
AcDbEntity
  8
0
  6
Continuous
 62
     7
370
    25
100
AcDbLine
 10
0.2603499999
 20
-1.1567104181
 30
0.0
 11
0.1714500001
 21
-1.1567104181
 31
0.0
  0
LWPOLYLINE
  5
10D
330
1F
100
AcDbEntity
  8
0
  6
Continuous
 62
     7
370
    25
100
AcDbPolyline
 90
       16
 70
   128
 43
0.0
 10
0.4175242445
 20
-1.0587104207
 10
0.4173546692
 20
-1.0619702092
 10
0.4168479403
 20
-1.0651917794
 10
0.4160100183
 20
-1.0683373615
 10
0.414850693
 20
-1.0713700775
 10
0.4133835694
 20
-1.0742543695
 10
0.4116258582
 20
-1.0769564232
 10
0.4095981678
 20
-1.0794445594
 10
0.4073242506
 20
-1.0816896075
 10
0.4048307797
 20
-1.0836652444
 10
0.4021469912
 20
-1.0853483082
 10
0.3993043413
 20
-1.0867190679
 10
0.3963361641
 20
-1.0877614526
 10
0.3932772538
 20
-1.0884632395
 10
0.3901634922
 20
-1.0888162033
 10
0.3885974249
 20
-1.0888604207
  0
LWPOLYLINE
  5
10E
330
1F
100
AcDbEntity
  8
0
  6
Continuous
 62
     7
370
    25
100
AcDbPolyline
 90
       16
 70
   128
 43
0.0
 10
0.3885974249
 20
-1.0285604207
 10
0.3901634922
 20
-1.028604638
 10
0.3932772538
 20
-1.0289576018
 10
0.3963361641
 20
-1.0296593887
 10
0.3993043413
 20
-1.0307017734
 10
0.4021469912
 20
-1.0320725331
 10
0.4048307797
 20
-1.0337555969
 10
0.4073242506
 20
-1.0357312338
 10
0.4095981678
 20
-1.0379762819
 10
0.4116258582
 20
-1.0404644182
 10
0.4133835694
 20
-1.0431664718
 10
0.414850693
 20
-1.0460507638
 10
0.4160100183
 20
-1.0490834798
 10
0.4168479403
 20
-1.0522290619
 10
0.4173546692
 20
-1.0554506322
 10
0.4175242445
 20
-1.0587104207
  0
LWPOLYLINE
  5
10F
330
1F
100
AcDbEntity
  8
0
  6
Continuous
 62
     7
370
    25
100
AcDbPolyline
 90
       31
 70
   128
 43
0.0
 10
0.0432025751
 20
-1.0888604207
 10
0.0416365078
 20
-1.0888162033
 10
0.0385227462
 20
-1.0884632395
 10
0.0354638359
 20
-1.0877614526
 10
0.0324956587
 20
-1.0867190679
 10
0.0296530088
 20
-1.0853483082
 10
0.0269692203
 20
-1.0836652444
 10
0.0244757494
 20
-1.0816896075
 10
0.0222018322
 20
-1.0794445594
 10
0.0201741418
 20
-1.0769564232
 10
0.0184164306
 20
-1.0742543695
 10
0.016949307
 20
-1.0713700775
 10
0.0157899817
 20
-1.0683373615
 10
0.0149520597
 20
-1.0651917794
 10
0.0144453308
 20
-1.0619702092
 10
0.0142757555
 20
-1.0587104207
 10
0.0144453308
 20
-1.0554506322
 10
0.0149520597
 20
-1.0522290619
 10
0.0157899817
 20
-1.0490834798
 10
0.016949307
 20
-1.0460507638
 10
0.0184164306
 20
-1.0431664718
 10
0.0201741418
 20
-1.0404644182
 10
0.0222018322
 20
-1.0379762819
 10
0.0244757494
 20
-1.0357312338
 10
0.0269692203
 20
-1.0337555969
 10
0.0296530088
 20
-1.0320725331
 10
0.0324956587
 20
-1.0307017734
 10
0.0354638359
 20
-1.0296593887
 10
0.0385227462
 20
-1.0289576018
 10
0.0416365078
 20
-1.028604638
 10
0.0432025751
 20
-1.0285604207
  0
LWPOLYLINE
  5
110
330
1F
100
AcDbEntity
  8
0
  6
Continuous
 62
     7
370
    25
100
AcDbPolyline
 90
       16
 70
   128
 43
0.0
 10
0.4175242445
 20
1.3452896232
 10
0.4173546692
 20
1.342029726
 10
0.4168479403
 20
1.3388082141
 10
0.4160100183
 20
1.3356625194
 10
0.414850693
 20
1.3326298351
 10
0.4133835694
 20
1.3297456855
 10
0.4116258582
 20
1.3270436878
 10
0.4095981678
 20
1.3245555515
 10
0.4073242506
 20
1.3223103637
 10
0.4048307797
 20
1.3203348274
 10
0.4021469912
 20
1.3186515922
 10
0.3993043413
 20
1.3172809238
 10
0.3963361641
 20
1.3162385578
 10
0.3932772538
 20
1.3155366535
 10
0.3901634922
 20
1.315183794
 10
0.3885974249
 20
1.3151396865
  0
LWPOLYLINE
  5
111
330
1F
100
AcDbEntity
  8
0
  6
Continuous
 62
     7
370
    25
100
AcDbPolyline
 90
       16
 70
   128
 43
0.0
 10
0.3885974249
 20
1.3754395599
 10
0.3901634922
 20
1.3753954524
 10
0.3932772538
 20
1.3750423545
 10
0.3963361641
 20
1.3743406887
 10
0.3993043413
 20
1.3732983226
 10
0.4021469912
 20
1.3719274158
 10
0.4048307797
 20
1.370244419
 10
0.4073242506
 20
1.3682688827
 10
0.4095981678
 20
1.3660236949
 10
0.4116258582
 20
1.3635355586
 10
0.4133835694
 20
1.3608335609
 10
0.414850693
 20
1.3579491729
 10
0.4160100183
 20
1.3549164886
 10
0.4168479403
 20
1.3517710323
 10
0.4173546692
 20
1.348549282
 10
0.4175242445
 20
1.3452896232
  0
LWPOLYLINE
  5
112
330
1F
100
AcDbEntity
  8
0
  6
Continuous
 62
     7
370
    25
100
AcDbPolyline
 90
       31
 70
   128
 43
0.0
 10
0.0432025751
 20
1.3151396865
 10
0.0416365078
 20
1.315183794
 10
0.0385227462
 20
1.3155366535
 10
0.0354638359
 20
1.3162385578
 10
0.0324956587
 20
1.3172809238
 10
0.0296530088
 20
1.3186515922
 10
0.0269692203
 20
1.3203348274
 10
0.0244757494
 20
1.3223103637
 10
0.0222018322
 20
1.3245555515
 10
0.0201741418
 20
1.3270436878
 10
0.0184164306
 20
1.3297456855
 10
0.016949307
 20
1.3326298351
 10
0.0157899817
 20
1.3356625194
 10
0.0149520597
 20
1.3388082141
 10
0.0144453308
 20
1.342029726
 10
0.0142757555
 20
1.3452896232
 10
0.0144453308
 20
1.348549282
 10
0.0149520597
 20
1.3517710323
 10
0.0157899817
 20
1.3549164886
 10
0.016949307
 20
1.3579491729
 10
0.0184164306
 20
1.3608335609
 10
0.0201741418
 20
1.3635355586
 10
0.0222018322
 20
1.3660236949
 10
0.0244757494
 20
1.3682688827
 10
0.0269692203
 20
1.370244419
 10
0.0296530088
 20
1.3719274158
 10
0.0324956587
 20
1.3732983226
 10
0.0354638359
 20
1.3743406887
 10
0.0385227462
 20
1.3750423545
 10
0.0416365078
 20
1.3753954524
 10
0.0432025751
 20
1.3754395599
  0
LWPOLYLINE
  5
113
330
1F
100
AcDbEntity
  8
0
  6
Continuous
 62
     7
370
    25
100
AcDbPolyline
 90
       16
 70
   128
 43
0.0
 10
0.0142757555
 20
1.3452896232
 10
0.0144453308
 20
1.342029726
 10
0.0149520597
 20
1.3388082141
 10
0.0157899817
 20
1.3356625194
 10
0.016949307
 20
1.3326298351
 10
0.0184164306
 20
1.3297456855
 10
0.0201741418
 20
1.3270436878
 10
0.0222018322
 20
1.3245555515
 10
0.0244757494
 20
1.3223103637
 10
0.0269692203
 20
1.3203348274
 10
0.0296530088
 20
1.3186515922
 10
0.0324956587
 20
1.3172809238
 10
0.0354638359
 20
1.3162385578
 10
0.0385227462
 20
1.3155366535
 10
0.0416365078
 20
1.315183794
 10
0.0432025751
 20
1.3151396865
  0
LWPOLYLINE
  5
114
330
1F
100
AcDbEntity
  8
0
  6
Continuous
 62
     7
370
    25
100
AcDbPolyline
 90
       16
 70
   128
 43
0.0
 10
0.0432025751
 20
1.3754395599
 10
0.0416365078
 20
1.3753954524
 10
0.0385227462
 20
1.3750423545
 10
0.0354638359
 20
1.3743406887
 10
0.0324956587
 20
1.3732983226
 10
0.0296530088
 20
1.3719274158
 10
0.0269692203
 20
1.370244419
 10
0.0244757494
 20
1.3682688827
 10
0.0222018322
 20
1.3660236949
 10
0.0201741418
 20
1.3635355586
 10
0.0184164306
 20
1.3608335609
 10
0.016949307
 20
1.3579491729
 10
0.0157899817
 20
1.3549164886
 10
0.0149520597
 20
1.3517710323
 10
0.0144453308
 20
1.348549282
 10
0.0142757555
 20
1.3452896232
  0
ELLIPSE
  5
115
330
1F
100
AcDbEntity
  8
0
  6
Continuous
 62
     7
370
    25
100
AcDbEllipse
 10
-0.4419013739
 20
1.3452895793
 30
0.0
 11
0.03142490463986058
 21
0.0
 31
0.0
210
0.0
220
0.0
230
1.0
 40
0.9594301191
 41
1.570796326794897
 42
4.712388980384703
  0
LWPOLYLINE
  5
116
330
1F
100
AcDbEntity
  8
0
  6
Continuous
 62
     7
370
    25
100
AcDbPolyline
 90
       16
 70
   128
 43
0.0
 10
0.0142757555
 20
-1.0587104207
 10
0.0144453308
 20
-1.0619702092
 10
0.0149520597
 20
-1.0651917794
 10
0.0157899817
 20
-1.0683373615
 10
0.016949307
 20
-1.0713700775
 10
0.0184164306
 20
-1.0742543695
 10
0.0201741418
 20
-1.0769564232
 10
0.0222018322
 20
-1.0794445594
 10
0.0244757494
 20
-1.0816896075
 10
0.0269692203
 20
-1.0836652444
 10
0.0296530088
 20
-1.0853483082
 10
0.0324956587
 20
-1.0867190679
 10
0.0354638359
 20
-1.0877614526
 10
0.0385227462
 20
-1.0884632395
 10
0.0416365078
 20
-1.0888162033
 10
0.0432025751
 20
-1.0888604207
  0
LWPOLYLINE
  5
117
330
1F
100
AcDbEntity
  8
0
  6
Continuous
 62
     7
370
    25
100
AcDbPolyline
 90
       16
 70
   128
 43
0.0
 10
0.0432025751
 20
-1.0285604207
 10
0.0416365078
 20
-1.028604638
 10
0.0385227462
 20
-1.0289576018
 10
0.0354638359
 20
-1.0296593887
 10
0.0324956587
 20
-1.0307017734
 10
0.0296530088
 20
-1.0320725331
 10
0.0269692203
 20
-1.0337555969
 10
0.0244757494
 20
-1.0357312338
 10
0.0222018322
 20
-1.0379762819
 10
0.0201741418
 20
-1.0404644182
 10
0.0184164306
 20
-1.0431664718
 10
0.016949307
 20
-1.0460507638
 10
0.0157899817
 20
-1.0490834798
 10
0.0149520597
 20
-1.0522290619
 10
0.0144453308
 20
-1.0554506322
 10
0.0142757555
 20
-1.0587104207
  0
ELLIPSE
  5
118
330
1F
100
AcDbEntity
  8
0
  6
Continuous
 62
     7
370
    25
100
AcDbEllipse
 10
-0.4419013739
 20
-1.0587104207
 30
0.0
 11
0.03142490463986058
 21
0.0
 31
0.0
210
0.0
220
0.0
230
1.0
 40
0.9594301191
 41
1.570796326794897
 42
4.712388980384703
  0
LWPOLYLINE
  5
119
330
1F
100
AcDbEntity
  8
0
  6
Continuous
 62
     7
370
    25
100
AcDbPolyline
 90
       31
 70
   128
 43
0.0
 10
0.3885974249
 20
1.3151396865
 10
0.3901634922
 20
1.315183794
 10
0.3932772538
 20
1.3155366535
 10
0.3963361641
 20
1.3162385578
 10
0.3993043413
 20
1.3172809238
 10
0.4021469912
 20
1.3186515922
 10
0.4048307797
 20
1.3203348274
 10
0.4073242506
 20
1.3223103637
 10
0.4095981678
 20
1.3245555515
 10
0.4116258582
 20
1.3270436878
 10
0.4133835694
 20
1.3297456855
 10
0.414850693
 20
1.3326298351
 10
0.4160100183
 20
1.3356625194
 10
0.4168479403
 20
1.3388082141
 10
0.4173546692
 20
1.342029726
 10
0.4175242445
 20
1.3452896232
 10
0.4173546692
 20
1.348549282
 10
0.4168479403
 20
1.3517710323
 10
0.4160100183
 20
1.3549164886
 10
0.414850693
 20
1.3579491729
 10
0.4133835694
 20
1.3608335609
 10
0.4116258582
 20
1.3635355586
 10
0.4095981678
 20
1.3660236949
 10
0.4073242506
 20
1.3682688827
 10
0.4048307797
 20
1.370244419
 10
0.4021469912
 20
1.3719274158
 10
0.3993043413
 20
1.3732983226
 10
0.3963361641
 20
1.3743406887
 10
0.3932772538
 20
1.3750423545
 10
0.3901634922
 20
1.3753954524
 10
0.3885974249
 20
1.3754395599
  0
ELLIPSE
  5
11A
330
1F
100
AcDbEntity
  8
0
  6
Continuous
 62
     7
370
    25
100
AcDbEllipse
 10
0.8737013739
 20
1.3452895793
 30
0.0
 11
0.03142490463986058
 21
0.0
 31
0.0
210
0.0
220
0.0
230
1.0
 40
0.9594301191
 41
0.0
 42
1.570796326794893
  0
ELLIPSE
  5
11B
330
1F
100
AcDbEntity
  8
0
  6
Continuous
 62
     7
370
    25
100
AcDbEllipse
 10
0.8737013739
 20
1.3452895793
 30
0.0
 11
0.03142490463986058
 21
0.0
 31
0.0
210
0.0
220
0.0
230
1.0
 40
0.9594301191
 41
4.712388980384707
 42
6.283185307179586
  0
LWPOLYLINE
  5
11C
330
1F
100
AcDbEntity
  8
0
  6
Continuous
 62
     7
370
    25
100
AcDbPolyline
 90
       31
 70
   128
 43
0.0
 10
0.3885974249
 20
-1.0888604207
 10
0.3901634922
 20
-1.0888162033
 10
0.3932772538
 20
-1.0884632395
 10
0.3963361641
 20
-1.0877614526
 10
0.3993043413
 20
-1.0867190679
 10
0.4021469912
 20
-1.0853483082
 10
0.4048307797
 20
-1.0836652444
 10
0.4073242506
 20
-1.0816896075
 10
0.4095981678
 20
-1.0794445594
 10
0.4116258582
 20
-1.0769564232
 10
0.4133835694
 20
-1.0742543695
 10
0.414850693
 20
-1.0713700775
 10
0.4160100183
 20
-1.0683373615
 10
0.4168479403
 20
-1.0651917794
 10
0.4173546692
 20
-1.0619702092
 10
0.4175242445
 20
-1.0587104207
 10
0.4173546692
 20
-1.0554506322
 10
0.4168479403
 20
-1.0522290619
 10
0.4160100183
 20
-1.0490834798
 10
0.414850693
 20
-1.0460507638
 10
0.4133835694
 20
-1.0431664718
 10
0.4116258582
 20
-1.0404644182
 10
0.4095981678
 20
-1.0379762819
 10
0.4073242506
 20
-1.0357312338
 10
0.4048307797
 20
-1.0337555969
 10
0.4021469912
 20
-1.0320725331
 10
0.3993043413
 20
-1.0307017734
 10
0.3963361641
 20
-1.0296593887
 10
0.3932772538
 20
-1.0289576018
 10
0.3901634922
 20
-1.028604638
 10
0.3885974249
 20
-1.0285604207
  0
ELLIPSE
  5
11D
330
1F
100
AcDbEntity
  8
0
  6
Continuous
 62
     7
370
    25
100
AcDbEllipse
 10
0.8737013739
 20
-1.0587104207
 30
0.0
 11
0.03142490463986058
 21
0.0
 31
0.0
210
0.0
220
0.0
230
1.0
 40
0.9594301191
 41
0.0
 42
1.570796326794893
  0
ELLIPSE
  5
11E
330
1F
100
AcDbEntity
  8
0
  6
Continuous
 62
     7
370
    25
100
AcDbEllipse
 10
0.8737013739
 20
-1.0587104207
 30
0.0
 11
0.03142490463986058
 21
0.0
 31
0.0
210
0.0
220
0.0
230
1.0
 40
0.9594301191
 41
4.712388980384707
 42
6.283185307179586
  0
ARC
  5
11F
330
1F
100
AcDbEntity
  8
0
  6
Continuous
 62
     7
370
    25
100
AcDbCircle
 10
0.2909
 20
0.9292149251
 30
0.0
 40
0.0050000000000003
100
AcDbArc
 50
0.0
 51
90.0
  0
LINE
  5
120
330
1F
100
AcDbEntity
  8
0
  6
Continuous
 62
     7
370
    25
100
AcDbLine
 10
0.290900003
 20
0.9442149753
 30
0.0
 11
0.290900003
 21
0.9342148656
 31
0.0
  0
ARC
  5
121
330
1F
100
AcDbEntity
  8
0
  6
Continuous
 62
     7
370
    25
100
AcDbCircle
 10
0.2909
 20
0.9292149251
 30
0.0
 40
0.0150000000000003
100
AcDbArc
 50
0.0
 51
90.0
  0
LINE
  5
122
330
1F
100
AcDbEntity
  8
0
  6
Continuous
 62
     7
370
    25
100
AcDbLine
 10
0.2958999982
 20
0.9292148704
 30
0.0
 11
0.3059000036
 21
0.9292148704
 31
0.0
  0
LINE
  5
123
330
1F
100
AcDbEntity
  8
0
  6
Continuous
 62
     7
370
    25
100
AcDbLine
 10
0.140899997
 20
0.9442149753
 30
0.0
 11
0.1690468004
 21
0.9442149753
 31
0.0
  0
LINE
  5
124
330
1F
100
AcDbEntity
  8
0
  6
Continuous
 62
     7
370
    25
100
AcDbLine
 10
0.262706816
 20
0.9442149753
 30
0.0
 11
0.290900003
 21
0.9442149753
 31
0.0
  0
LINE
  5
125
330
1F
100
AcDbEntity
  8
0
  6
Continuous
 62
     7
370
    25
100
AcDbLine
 10
0.140899997
 20
0.9442149753
 30
0.0
 11
0.140899997
 21
0.9342148656
 31
0.0
  0
LINE
  5
126
330
1F
100
AcDbEntity
  8
0
  6
Continuous
 62
     7
370
    25
100
AcDbLine
 10
0.290900003
 20
0.5042149181
 30
0.0
 11
0.290900003
 21
0.4942149276
 31
0.0
  0
LINE
  5
127
330
1F
100
AcDbEntity
  8
0
  6
Continuous
 62
     7
370
    25
100
AcDbLine
 10
0.290900003
 20
0.4942149276
 30
0.0
 11
0.262706816
 21
0.4942149276
 31
0.0
  0
LINE
  5
128
330
1F
100
AcDbEntity
  8
0
  6
Continuous
 62
     7
370
    25
100
AcDbLine
 10
0.1690468004
 20
0.4942149276
 30
0.0
 11
0.140899997
 21
0.4942149276
 31
0.0
  0
LINE
  5
129
330
1F
100
AcDbEntity
  8
0
  6
Continuous
 62
     7
370
    25
100
AcDbLine
 10
0.140899997
 20
0.5042149181
 30
0.0
 11
0.140899997
 21
0.4942149276
 31
0.0
  0
ARC
  5
12A
330
1F
100
AcDbEntity
  8
0
  6
Continuous
 62
     7
370
    25
100
AcDbCircle
 10
0.2909
 20
0.5092149251
 30
0.0
 40
0.0050000000000003
100
AcDbArc
 50
270.0
 51
360.0
  0
LINE
  5
12B
330
1F
100
AcDbEntity
  8
0
  6
Continuous
 62
     7
370
    25
100
AcDbLine
 10
0.2958999982
 20
0.5092149133
 30
0.0
 11
0.3059000036
 21
0.5092149133
 31
0.0
  0
ARC
  5
12C
330
1F
100
AcDbEntity
  8
0
  6
Continuous
 62
     7
370
    25
100
AcDbCircle
 10
0.2909
 20
0.5092149251
 30
0.0
 40
0.0150000000000001
100
AcDbArc
 50
270.0
 51
360.0
  0
ARC
  5
12D
330
1F
100
AcDbEntity
  8
0
  6
Continuous
 62
     7
370
    25
100
AcDbCircle
 10
0.1409
 20
0.9292149251
 30
0.0
 40
0.0150000000000001
100
AcDbArc
 50
90.0
 51
180.0
  0
ARC
  5
12E
330
1F
100
AcDbEntity
  8
0
  6
Continuous
 62
     7
370
    25
100
AcDbCircle
 10
0.1409
 20
0.9292149251
 30
0.0
 40
0.0050000000000003
100
AcDbArc
 50
90.0
 51
180.0
  0
LINE
  5
12F
330
1F
100
AcDbEntity
  8
0
  6
Continuous
 62
     7
370
    25
100
AcDbLine
 10
0.1258999964
 20
0.9292148704
 30
0.0
 11
0.1359000018
 21
0.9292148704
 31
0.0
  0
LINE
  5
130
330
1F
100
AcDbEntity
  8
0
  6
Continuous
 62
     7
370
    25
100
AcDbLine
 10
0.1258999964
 20
0.5092149133
 30
0.0
 11
0.1258999964
 21
0.9292148704
 31
0.0
  0
LINE
  5
131
330
1F
100
AcDbEntity
  8
0
  6
Continuous
 62
     7
370
    25
100
AcDbLine
 10
0.1359000018
 20
0.9292148704
 30
0.0
 11
0.1359000018
 21
0.5092149133
 31
0.0
  0
LINE
  5
132
330
1F
100
AcDbEntity
  8
0
  6
Continuous
 62
     7
370
    25
100
AcDbLine
 10
0.1258999964
 20
0.5092149133
 30
0.0
 11
0.1359000018
 21
0.5092149133
 31
0.0
  0
LINE
  5
133
330
1F
100
AcDbEntity
  8
0
  6
Continuous
 62
     7
370
    25
100
AcDbLine
 10
0.2958999982
 20
0.5092149133
 30
0.0
 11
0.2958999982
 21
0.9292148704
 31
0.0
  0
LINE
  5
134
330
1F
100
AcDbEntity
  8
0
  6
Continuous
 62
     7
370
    25
100
AcDbLine
 10
0.3059000036
 20
0.9292148704
 30
0.0
 11
0.3059000036
 21
0.5092149133
 31
0.0
  0
ARC
  5
135
330
1F
100
AcDbEntity
  8
0
  6
Continuous
 62
     7
370
    25
100
AcDbCircle
 10
0.1409
 20
0.5092149251
 30
0.0
 40
0.0050000000000001
100
AcDbArc
 50
180.0
 51
270.0
  0
ARC
  5
136
330
1F
100
AcDbEntity
  8
0
  6
Continuous
 62
     7
370
    25
100
AcDbCircle
 10
0.1409
 20
0.5092149251
 30
0.0
 40
0.015
100
AcDbArc
 50
180.0
 51
270.0
  0
ARC
  5
137
330
1F
100
AcDbEntity
  8
0
  6
Continuous
 62
     7
370
    25
100
AcDbCircle
 10
0.2909
 20
-0.0507850749
 30
0.0
 40
0.0050000000000003
100
AcDbArc
 50
0.0
 51
90.0
  0
LINE
  5
138
330
1F
100
AcDbEntity
  8
0
  6
Continuous
 62
     7
370
    25
100
AcDbLine
 10
0.290900003
 20
-0.0357850438
 30
0.0
 11
0.290900003
 21
-0.0457850342
 31
0.0
  0
ARC
  5
139
330
1F
100
AcDbEntity
  8
0
  6
Continuous
 62
     7
370
    25
100
AcDbCircle
 10
0.2909
 20
-0.0507850749
 30
0.0
 40
0.0150000000000001
100
AcDbArc
 50
0.0
 51
90.0
  0
LINE
  5
13A
330
1F
100
AcDbEntity
  8
0
  6
Continuous
 62
     7
370
    25
100
AcDbLine
 10
0.2958999982
 20
-0.0507850295
 30
0.0
 11
0.3059000036
 21
-0.0507850295
 31
0.0
  0
LINE
  5
13B
330
1F
100
AcDbEntity
  8
0
  6
Continuous
 62
     7
370
    25
100
AcDbLine
 10
0.140899997
 20
-0.0357850438
 30
0.0
 11
0.1690468004
 21
-0.0357850438
 31
0.0
  0
LINE
  5
13C
330
1F
100
AcDbEntity
  8
0
  6
Continuous
 62
     7
370
    25
100
AcDbLine
 10
0.262706816
 20
-0.0357850438
 30
0.0
 11
0.290900003
 21
-0.0357850438
 31
0.0
  0
LINE
  5
13D
330
1F
100
AcDbEntity
  8
0
  6
Continuous
 62
     7
370
    25
100
AcDbLine
 10
0.140899997
 20
-0.0357850438
 30
0.0
 11
0.140899997
 21
-0.0457850342
 31
0.0
  0
LINE
  5
13E
330
1F
100
AcDbEntity
  8
0
  6
Continuous
 62
     7
370
    25
100
AcDbLine
 10
0.290900003
 20
-0.475785101
 30
0.0
 11
0.290900003
 21
-0.4857850915
 31
0.0
  0
LINE
  5
13F
330
1F
100
AcDbEntity
  8
0
  6
Continuous
 62
     7
370
    25
100
AcDbLine
 10
0.290900003
 20
-0.4857850915
 30
0.0
 11
0.262706816
 21
-0.4857850915
 31
0.0
  0
LINE
  5
140
330
1F
100
AcDbEntity
  8
0
  6
Continuous
 62
     7
370
    25
100
AcDbLine
 10
0.1690468004
 20
-0.4857850915
 30
0.0
 11
0.140899997
 21
-0.4857850915
 31
0.0
  0
LINE
  5
141
330
1F
100
AcDbEntity
  8
0
  6
Continuous
 62
     7
370
    25
100
AcDbLine
 10
0.140899997
 20
-0.475785101
 30
0.0
 11
0.140899997
 21
-0.4857850915
 31
0.0
  0
ARC
  5
142
330
1F
100
AcDbEntity
  8
0
  6
Continuous
 62
     7
370
    25
100
AcDbCircle
 10
0.2909
 20
-0.4707850749
 30
0.0
 40
0.0050000000000003
100
AcDbArc
 50
270.0
 51
360.0
  0
LINE
  5
143
330
1F
100
AcDbEntity
  8
0
  6
Continuous
 62
     7
370
    25
100
AcDbLine
 10
0.2958999982
 20
-0.4707850462
 30
0.0
 11
0.3059000036
 21
-0.4707850462
 31
0.0
  0
ARC
  5
144
330
1F
100
AcDbEntity
  8
0
  6
Continuous
 62
     7
370
    25
100
AcDbCircle
 10
0.2909
 20
-0.4707850749
 30
0.0
 40
0.0150000000000001
100
AcDbArc
 50
270.0
 51
360.0
  0
ARC
  5
145
330
1F
100
AcDbEntity
  8
0
  6
Continuous
 62
     7
370
    25
100
AcDbCircle
 10
0.1409
 20
-0.0507850749
 30
0.0
 40
0.0150000000000001
100
AcDbArc
 50
90.0
 51
180.0
  0
ARC
  5
146
330
1F
100
AcDbEntity
  8
0
  6
Continuous
 62
     7
370
    25
100
AcDbCircle
 10
0.1409
 20
-0.0507850749
 30
0.0
 40
0.0050000000000003
100
AcDbArc
 50
90.0
 51
180.0
  0
LINE
  5
147
330
1F
100
AcDbEntity
  8
0
  6
Continuous
 62
     7
370
    25
100
AcDbLine
 10
0.1258999964
 20
-0.0507850295
 30
0.0
 11
0.1359000018
 21
-0.0507850295
 31
0.0
  0
LINE
  5
148
330
1F
100
AcDbEntity
  8
0
  6
Continuous
 62
     7
370
    25
100
AcDbLine
 10
0.1258999964
 20
-0.4707850462
 30
0.0
 11
0.1258999964
 21
-0.0507850295
 31
0.0
  0
LINE
  5
149
330
1F
100
AcDbEntity
  8
0
  6
Continuous
 62
     7
370
    25
100
AcDbLine
 10
0.1359000018
 20
-0.0507850295
 30
0.0
 11
0.1359000018
 21
-0.4707850462
 31
0.0
  0
LINE
  5
14A
330
1F
100
AcDbEntity
  8
0
  6
Continuous
 62
     7
370
    25
100
AcDbLine
 10
0.1258999964
 20
-0.4707850462
 30
0.0
 11
0.1359000018
 21
-0.4707850462
 31
0.0
  0
LINE
  5
14B
330
1F
100
AcDbEntity
  8
0
  6
Continuous
 62
     7
370
    25
100
AcDbLine
 10
0.2958999982
 20
-0.4707850462
 30
0.0
 11
0.2958999982
 21
-0.0507850295
 31
0.0
  0
LINE
  5
14C
330
1F
100
AcDbEntity
  8
0
  6
Continuous
 62
     7
370
    25
100
AcDbLine
 10
0.3059000036
 20
-0.0507850295
 30
0.0
 11
0.3059000036
 21
-0.4707850462
 31
0.0
  0
ARC
  5
14D
330
1F
100
AcDbEntity
  8
0
  6
Continuous
 62
     7
370
    25
100
AcDbCircle
 10
0.1409
 20
-0.4707850749
 30
0.0
 40
0.0050000000000001
100
AcDbArc
 50
180.0
 51
270.0
  0
ARC
  5
14E
330
1F
100
AcDbEntity
  8
0
  6
Continuous
 62
     7
370
    25
100
AcDbCircle
 10
0.1409
 20
-0.4707850749
 30
0.0
 40
0.015
100
AcDbArc
 50
180.0
 51
270.0
  0
SPLINE
  5
14F
330
1F
100
AcDbEntity
  8
0
  6
Continuous
 62
     7
370
    25
100
AcDbSpline
210
0.0
220
0.0
230
1.0
 70
     8
 71
     3
 72
    18
 73
    14
 74
     0
 42
0.000000001
 43
0.00000001
 40
0.0
 40
0.0
 40
0.0
 40
0.0
 40
0.0690657697960845
 40
0.1381337401576562
 40
0.2072002439951525
 40
0.2762682143567242
 40
0.3452285840458661
 40
0.4142966376203713
 40
0.5126414308605515
 40
0.6594372343273566
 40
0.7664026144633451
 40
0.8842531625067382
 40
1.0
 40
1.0
 40
1.0
 40
1.0
 10
0.1679082361996172
 20
-0.03613468461702
 30
0.0
 10
0.1677349320365265
 20
-0.0361878434582685
 30
0.0
 10
0.167388318188548
 20
-0.0362941628345056
 30
0.0
 10
0.1668684418364566
 20
-0.0364537946556209
 30
0.0
 10
0.1663485077000549
 20
-0.036613500768915
 30
0.0
 10
0.165828942830382
 20
-0.0367727010675098
 30
0.0
 10
0.1653090956687636
 20
-0.0369334999564823
 30
0.0
 10
0.1647168810650193
 20
-0.037110285502822
 30
0.0
 10
0.1639229590430425
 20
-0.0373857010038904
 30
0.0
 10
0.1630780985525349
 20
-0.0384741336637928
 30
0.0
 10
0.1623236325774904
 20
-0.0400414725997222
 30
0.0
 10
0.1617133287770603
 20
-0.0417304209868478
 30
0.0
 10
0.1614618264853873
 20
-0.0430996812794111
 30
0.0
 10
0.1613372078180312
 20
-0.0437781458444368
 30
0.0
  0
SPLINE
  5
150
330
1F
100
AcDbEntity
  8
0
  6
Continuous
 62
     7
370
    25
100
AcDbSpline
210
0.0
220
0.0
230
1.0
 70
     8
 71
     3
 72
    26
 73
    22
 74
     0
 42
0.000000001
 43
0.00000001
 40
0.0
 40
0.0
 40
0.0
 40
0.0
 40
0.0282799067541725
 40
0.1402316842352383
 40
0.1928141601641356
 40
0.248750689608909
 40
0.3040473592941313
 40
0.3748015147657581
 40
0.4438422635704189
 40
0.4946339041480461
 40
0.5454238951064058
 40
0.5962148104529604
 40
0.6470048014113201
 40
0.6977957167578749
 40
0.7413300683364683
 40
0.7848653443020099
 40
0.8283996958806035
 40
0.8719349718461451
 40
0.9153184692524436
 40
0.958933992344288
 40
1.0
 40
1.0
 40
1.0
 40
1.0
 10
0.1610403543353079
 20
-0.0507639294214021
 30
0.0
 10
0.161054742120475
 20
-0.0510295375870695
 30
0.0
 10
0.1611260868870589
 20
-0.0523466098370568
 30
0.0
 10
0.1615587535533446
 20
-0.053834116495985
 30
0.0
 10
0.1621100514264875
 20
-0.0552949413150889
 30
0.0
 10
0.1626210623405719
 20
-0.0561217264210125
 30
0.0
 10
0.1632231785929284
 20
-0.0569032903324746
 30
0.0
 10
0.1639739587690594
 20
-0.0572734398334109
 30
0.0
 10
0.1647369936557074
 20
-0.0570488195223823
 30
0.0
 10
0.1654153443727626
 20
-0.0568384947553519
 30
0.0
 10
0.1660221172800739
 20
-0.0566527189087315
 30
0.0
 10
0.1666285970728537
 20
-0.0564664042903599
 30
0.0
 10
0.1672351816816114
 20
-0.0562802195575353
 30
0.0
 10
0.1678128289762198
 20
-0.0561028982621403
 30
0.0
 10
0.1683616314090091
 20
-0.0559343608823576
 30
0.0
 10
0.1688815160914677
 20
-0.0557748863539235
 30
0.0
 10
0.1694014308431613
 20
-0.0556147355478067
 30
0.0
 10
0.1699207325226031
 20
-0.0554572566957345
 30
0.0
 10
0.1704403003484526
 20
-0.0552904415441726
 30
0.0
 10
0.1709503509811597
 20
-0.0551609203936831
 30
0.0
 10
0.1712868271487735
 20
-0.0549934888305292
 30
0.0
 10
0.1714500000715254
 20
-0.05491229348848
 30
0.0
  0
SPLINE
  5
151
330
1F
100
AcDbEntity
  8
0
  6
Continuous
 62
     7
370
    25
100
AcDbSpline
210
0.0
220
0.0
230
1.0
 70
     8
 71
     3
 72
    13
 73
     9
 74
     0
 42
0.000000001
 43
0.00000001
 40
0.0
 40
0.0
 40
0.0
 40
0.0
 40
0.1439657577484174
 40
0.3151740001561745
 40
0.4863782425738296
 40
0.657585954563818
 40
0.8287905505952382
 40
1.0
 40
1.0
 40
1.0
 40
1.0
 10
0.1714500000715254
 20
-0.0351166372842563
 30
0.0
 10
0.1712804188822042
 20
-0.0351398846930477
 30
0.0
 10
0.1709091668384856
 20
-0.0351907785926579
 30
0.0
 10
0.1703343423172402
 20
-0.0353962463404373
 30
0.0
 10
0.1697279113186955
 20
-0.0355742095165705
 30
0.0
 10
0.1691213411244235
 20
-0.0357626257879648
 30
0.0
 10
0.168514778507842
 20
-0.0359482159396877
 30
0.0
 10
0.1681104188794886
 20
-0.0360725278039106
 30
0.0
 10
0.1679082361996172
 20
-0.03613468461702
 30
0.0
  0
SPLINE
  5
152
330
1F
100
AcDbEntity
  8
0
  6
Continuous
 62
     7
370
    25
100
AcDbSpline
210
0.0
220
0.0
230
1.0
 70
     8
 71
     3
 72
    13
 73
     9
 74
     0
 42
0.000000001
 43
0.00000001
 40
0.0
 40
0.0
 40
0.0
 40
0.0
 40
0.1430216253674534
 40
0.7170014089770588
 40
0.7414565320976129
 40
0.835553570160103
 40
0.9152084909258292
 40
0.9999999999999999
 40
0.9999999999999999
 40
0.9999999999999999
 40
0.9999999999999999
 10
0.1653240097701548
 20
-0.043018067414261
 30
0.0
 10
0.1652684230849519
 20
-0.043035554255133
 30
0.0
 10
0.1649897538172211
 20
-0.043123219945629
 30
0.0
 10
0.1647008354491616
 20
-0.0431795760337705
 30
0.0
 10
0.1644324107377662
 20
-0.043319458846942
 30
0.0
 10
0.1643577634402276
 20
-0.0434051438614371
 30
0.0
 10
0.1642732604287629
 20
-0.0435644473600948
 30
0.0
 10
0.1642207303693989
 20
-0.0436694214690047
 30
0.0
 10
0.1641936449348925
 20
-0.0437235479898228
 30
0.0
  0
SPLINE
  5
153
330
1F
100
AcDbEntity
  8
0
  6
Continuous
 62
     7
370
    25
100
AcDbSpline
210
0.0
220
0.0
230
1.0
 70
     8
 71
     3
 72
    22
 73
    18
 74
     0
 42
0.000000001
 43
0.00000001
 40
0.0
 40
0.0
 40
0.0
 40
0.0
 40
0.0665569871856321
 40
0.0784245183753977
 40
0.0924559940686748
 40
0.1195862406721617
 40
0.1292358804151658
 40
0.1457892149883811
 40
0.1792468970728508
 40
0.3228525040239366
 40
0.5351163697477689
 40
0.8412903122428053
 40
0.8959206645325923
 40
0.973897080647876
 40
0.9775727271165937
 40
0.9917337756654074
 40
1.0
 40
1.0
 40
1.0
 40
1.0
 10
0.1638709081351755
 20
-0.0501683598108066
 30
0.0
 10
0.1639909808134829
 20
-0.0504286703913197
 30
0.0
 10
0.1641324632087127
 20
-0.0507353959924625
 30
0.0
 10
0.1643320381783459
 20
-0.0509914517629732
 30
0.0
 10
0.1644642794027432
 20
-0.0510530790449348
 30
0.0
 10
0.164597105590526
 20
-0.0509983251419399
 30
0.0
 10
0.1647346914221599
 20
-0.0509582513462474
 30
0.0
 10
0.1648888320569136
 20
-0.0509102110786483
 30
0.0
 10
0.1653889197194259
 20
-0.0507573239755978
 30
0.0
 10
0.1663945776823856
 20
-0.0504483867235261
 30
0.0
 10
0.1681045239134131
 20
-0.049920240355781
 30
0.0
 10
0.1695850913062808
 20
-0.0494795250353741
 30
0.0
 10
0.1707180117342491
 20
-0.0491137220206347
 30
0.0
 10
0.1710707832690483
 20
-0.0490374070470671
 30
0.0
 10
0.1713175430689066
 20
-0.0489092318020243
 30
0.0
 10
0.1713833692508077
 20
-0.0488359603209227
 30
0.0
 10
0.1714320553809045
 20
-0.0487442373652102
 30
0.0
 10
0.1714500000715254
 20
-0.0487104301996006
 30
0.0
  0
SPLINE
  5
154
330
1F
100
AcDbEntity
  8
0
  6
Continuous
 62
     7
370
    25
100
AcDbSpline
210
0.0
220
0.0
230
1.0
 70
     8
 71
     3
 72
    11
 73
     7
 74
     0
 42
0.000000001
 43
0.00000001
 40
0.0
 40
0.0
 40
0.0
 40
0.0
 40
0.3570454400552129
 40
0.6548134897173826
 40
0.952583331098982
 40
1.0
 40
1.0
 40
1.0
 40
1.0
 10
0.1694144492983816
 20
-0.0575016384668125
 30
0.0
 10
0.1696562491856453
 20
-0.0574696292333405
 30
0.0
 10
0.1700997048644742
 20
-0.0574109250026701
 30
0.0
 10
0.1707469503989055
 20
-0.0571852672275232
 30
0.0
 10
0.1711833927889505
 20
-0.0570565926406938
 30
0.0
 10
0.171417800563435
 20
-0.0569847247718862
 30
0.0
 10
0.1714500000715254
 20
-0.0569748526162876
 30
0.0
  0
SPLINE
  5
155
330
1F
100
AcDbEntity
  8
0
  6
Continuous
 62
     7
370
    25
100
AcDbSpline
210
0.0
220
0.0
230
1.0
 70
     8
 71
     3
 72
    19
 73
    15
 74
     0
 42
0.000000001
 43
0.00000001
 40
0.0
 40
0.0
 40
0.0
 40
0.0
 40
0.0627692440807933
 40
0.1255398209727544
 40
0.1883090650535477
 40
0.2510788992190336
 40
0.313750807088241
 40
0.3765216864862996
 40
0.4658999567831181
 40
0.5993100190543741
 40
0.6965226404783964
 40
0.8036303894413126
 40
0.9650152490879736
 40
0.9999999999999999
 40
0.9999999999999999
 40
0.9999999999999999
 40
0.9999999999999999
 10
0.1528676411151884
 20
-0.0511786585397495
 30
0.0
 10
0.1526943403343087
 20
-0.0512318671840719
 30
0.0
 10
0.1523477350927659
 20
-0.0513382856025228
 30
0.0
 10
0.1518278340419467
 20
-0.0514978844992464
 30
0.0
 10
0.1513079777102632
 20
-0.0516575762239692
 30
0.0
 10
0.1507881373019677
 20
-0.0518168636318632
 30
0.0
 10
0.1502693004524738
 20
-0.0519766184763994
 30
0.0
 10
0.1496726028894491
 20
-0.0521580847349181
 30
0.0
 10
0.1489068823250931
 20
-0.0524039340460913
 30
0.0
 10
0.1488352038786582
 20
-0.0527120385796515
 30
0.0
 10
0.149297792298946
 20
-0.053026111162767
 30
0.0
 10
0.1503029712804125
 20
-0.053342291849473
 30
0.0
 10
0.151464707562565
 20
-0.0535960174449272
 30
0.0
 10
0.1525866322607219
 20
-0.0536982853024872
 30
0.0
 10
0.1527865117430685
 20
-0.0537165051049959
 30
0.0
  0
SPLINE
  5
156
330
1F
100
AcDbEntity
  8
0
  6
Continuous
 62
     7
370
    25
100
AcDbSpline
210
0.0
220
0.0
230
1.0
 70
     8
 71
     3
 72
    19
 73
    15
 74
     0
 42
0.000000001
 43
0.00000001
 40
0.0
 40
0.0
 40
0.0
 40
0.0
 40
0.1492456647505471
 40
0.2915047876224435
 40
0.3583220029391078
 40
0.4294023545846655
 40
0.4997166505066038
 40
0.5893141373945086
 40
0.67729489446098
 40
0.7418379422545839
 40
0.8063767579949708
 40
0.8709179896683104
 40
0.9354587016753771
 40
1.0
 40
1.0
 40
1.0
 40
1.0
 10
0.1690452022492884
 20
-0.0496344214029087
 30
0.0
 10
0.1679551356039784
 20
-0.0495791056835117
 30
0.0
 10
0.1658260309062539
 20
-0.0494710637041224
 30
0.0
 10
0.163029696859684
 20
-0.0494976137470679
 30
0.0
 10
0.1609665846200444
 20
-0.0495724499798313
 30
0.0
 10
0.1595453355921703
 20
-0.0496697788898738
 30
0.0
 10
0.1580520739817365
 20
-0.0497973271669755
 30
0.0
 10
0.1567436752059338
 20
-0.0499913325965253
 30
0.0
 10
0.1559716190474159
 20
-0.0502251299086569
 30
0.0
 10
0.1552943833782736
 20
-0.0504336733347465
 30
0.0
 10
0.1546871472995434
 20
-0.0506199508970079
 30
0.0
 10
0.1540807901619647
 20
-0.0508060823675786
 30
0.0
 10
0.1534741842836587
 20
-0.0509924960794803
 30
0.0
 10
0.1530698227835768
 20
-0.0511166041984181
 30
0.0
 10
0.1528676411151884
 20
-0.0511786585397495
 30
0.0
  0
SPLINE
  5
157
330
1F
100
AcDbEntity
  8
0
  6
Continuous
 62
     7
370
    25
100
AcDbSpline
210
0.0
220
0.0
230
1.0
 70
     8
 71
     3
 72
    23
 73
    19
 74
     0
 42
0.000000001
 43
0.00000001
 40
0.0
 40
0.0
 40
0.0
 40
0.0
 40
0.2813966856722631
 40
0.3184650865459158
 40
0.3395055080523267
 40
0.38412091607931
 40
0.4782790949347651
 40
0.4822890230455342
 40
0.4977256723031652
 40
0.5107950889152347
 40
0.5340210829505524
 40
0.5683120582380042
 40
0.6086415718893222
 40
0.6856970620232938
 40
0.7668826291749162
 40
0.8480969513899369
 40
0.9250992350686159
 40
1.0
 40
1.0
 40
1.0
 40
1.0
 10
0.1584827786326407
 20
-0.0515491610116733
 30
0.0
 10
0.1578157989204879
 20
-0.0517540692988314
 30
0.0
 10
0.1570609579341853
 20
-0.0519859701659217
 30
0.0
 10
0.156256947951747
 20
-0.0522324295768588
 30
0.0
 10
0.1560129650760058
 20
-0.0523073757343512
 30
0.0
 10
0.1556404396978308
 20
-0.0524237415313082
 30
0.0
 10
0.1552687338382134
 20
-0.0525254463583832
 30
0.0
 10
0.1550527101626423
 20
-0.052611716012278
 30
0.0
 10
0.1550360502323307
 20
-0.0526384372861494
 30
0.0
 10
0.1550843255793211
 20
-0.0526795996240851
 30
0.0
 10
0.1551608399348378
 20
-0.0527357380584112
 30
0.0
 10
0.155279138579156
 20
-0.0528136704053028
 30
0.0
 10
0.155674948556068
 20
-0.0529251501243723
 30
0.0
 10
0.1563704231764773
 20
-0.0530570895954887
 30
0.0
 10
0.1575501997208308
 20
-0.0531702437718715
 30
0.0
 10
0.1589061962837572
 20
-0.0532232412287822
 30
0.0
 10
0.1602918087508957
 20
-0.0532201690443299
 30
0.0
 10
0.1610757335228991
 20
-0.0531647249164708
 30
0.0
 10
0.1614622732639311
 20
-0.0531373863763584
 30
0.0
  0
SPLINE
  5
158
330
1F
100
AcDbEntity
  8
0
  6
Continuous
 62
     7
370
    25
100
AcDbSpline
210
0.0
220
0.0
230
1.0
 70
     8
 71
     3
 72
     9
 73
     5
 74
     0
 42
0.000000001
 43
0.00000001
 40
0.0
 40
0.0
 40
0.0
 40
0.0
 40
0.9650603654486796
 40
1.0
 40
1.0
 40
1.0
 40
1.0
 10
0.1669845318436621
 20
-0.050453270012833
 30
0.0
 10
0.1668477461928379
 20
-0.050435180948783
 30
0.0
 10
0.1667060082708162
 20
-0.0504164369772162
 30
0.0
 10
0.1665267325345997
 20
-0.0504097537143308
 30
0.0
 10
0.1665204687058924
 20
-0.0504095202035679
 30
0.0
  0
ARC
  5
159
330
1F
100
AcDbEntity
  8
0
  6
Continuous
 62
     7
370
    25
100
AcDbCircle
 10
0.1651513503
 20
-0.0688537385
 30
0.0
 40
0.0185450330501309
100
AcDbArc
 50
95.2663987815
 51
111.0748970093
  0
LINE
  5
15A
330
1F
100
AcDbEntity
  8
0
  6
Continuous
 62
     7
370
    25
100
AcDbLine
 10
0.1584827786
 20
-0.051549161
 30
0.0
 11
0.1528676411
 21
-0.0511786585
 31
0.0
  0
SPLINE
  5
15B
330
1F
100
AcDbEntity
  8
0
  6
Continuous
 62
     7
370
    25
100
AcDbSpline
210
0.0
220
0.0
230
1.0
 70
     8
 71
     3
 72
    15
 73
    11
 74
     0
 42
0.000000001
 43
0.00000001
 40
0.0
 40
0.0
 40
0.0
 40
0.0
 40
0.1086674341710965
 40
0.2173325610004891
 40
0.3259999951715856
 40
0.4346651220009781
 40
0.5431617419137755
 40
0.6518296997786638
 40
0.8065623213261378
 40
1.0
 40
1.0
 40
1.0
 40
1.0
 10
0.1528869306683539
 20
-0.0453903322763218
 30
0.0
 10
0.1527136305417507
 20
-0.0454435391490244
 30
0.0
 10
0.1523670339682356
 20
-0.0455499517646857
 30
0.0
 10
0.151847130462775
 20
-0.0457095749765823
 30
0.0
 10
0.15132719162276
 20
-0.045869202500369
 30
0.0
 10
0.1508077505136795
 20
-0.0460287017117544
 30
0.0
 10
0.1502873661867581
 20
-0.046188399118691
 30
0.0
 10
0.1496972875794955
 20
-0.0463698857535634
 30
0.0
 10
0.1489511579552416
 20
-0.046597054630028
 30
0.0
 10
0.1489798928610836
 20
-0.0467887355748348
 30
0.0
 10
0.1489958575010298
 20
-0.0468952303476108
 30
0.0
  0
SPLINE
  5
15C
330
1F
100
AcDbEntity
  8
0
  6
Continuous
 62
     7
370
    25
100
AcDbSpline
210
0.0
220
0.0
230
1.0
 70
     8
 71
     3
 72
    18
 73
    14
 74
     0
 42
0.000000001
 43
0.00000001
 40
0.0
 40
0.0
 40
0.0
 40
0.0
 40
0.1481968267365182
 40
0.2285291005884618
 40
0.3139875887402982
 40
0.3985237003602137
 40
0.506244331074374
 40
0.6120226756194136
 40
0.6896195407044725
 40
0.7672142223344128
 40
0.8448089840984343
 40
0.9224052382359786
 40
1.0
 40
1.0
 40
1.0
 40
1.0
 10
0.1653216814637183
 20
-0.0437168722696079
 30
0.0
 10
0.1643736994215127
 20
-0.0437142762646498
 30
0.0
 10
0.1629118497432843
 20
-0.0437102730569476
 30
0.0
 10
0.160985277946113
 20
-0.0437851347003317
 30
0.0
 10
0.1595647988250197
 20
-0.0438813305955341
 30
0.0
 10
0.1580712975131431
 20
-0.0440092047223226
 30
0.0
 10
0.1567629719986935
 20
-0.0442031043138915
 30
0.0
 10
0.1559909176722973
 20
-0.0444369206612844
 30
0.0
 10
0.1553136576506875
 20
-0.0446454736411572
 30
0.0
 10
0.1547064532850942
 20
-0.0448317273182434
 30
0.0
 10
0.1541000677116122
 20
-0.0450179222542175
 30
0.0
 10
0.153493479890105
 20
-0.0452041256258064
 30
0.0
 10
0.1530891124460892
 20
-0.0453282637907359
 30
0.0
 10
0.1528869306683539
 20
-0.0453903322763218
 30
0.0
  0
LINE
  5
15D
330
1F
100
AcDbEntity
  8
0
  6
Continuous
 62
     7
370
    25
100
AcDbLine
 10
0.1528676411
 20
-0.0511786585
 30
0.0
 11
0.1528869307
 21
-0.0453903323
 31
0.0
  0
SPLINE
  5
15E
330
1F
100
AcDbEntity
  8
0
  6
Continuous
 62
     7
370
    25
100
AcDbSpline
210
0.0
220
0.0
230
1.0
 70
     8
 71
     3
 72
    15
 73
    11
 74
     0
 42
0.000000001
 43
0.00000001
 40
0.0
 40
0.0
 40
0.0
 40
0.0
 40
0.2108873324974065
 40
0.4139722250663984
 40
0.5045924978998689
 40
0.5579170758003446
 40
0.7045310904325345
 40
0.7821989943276275
 40
0.8476151173641947
 40
0.9999999999999999
 40
0.9999999999999999
 40
0.9999999999999999
 40
0.9999999999999999
 10
0.2668252548217772
 20
-0.0433460121698154
 30
0.0
 10
0.2669245854202758
 20
-0.0433764512459315
 30
0.0
 10
0.2671195715694707
 20
-0.043436203208838
 30
0.0
 10
0.2673571436659075
 20
-0.0435095813631711
 30
0.0
 10
0.2675207104158544
 20
-0.0435590712813016
 30
0.0
 10
0.2676570972567552
 20
-0.043603612690791
 30
0.0
 10
0.26779094366529
 20
-0.0436300070650912
 30
0.0
 10
0.2679119903739367
 20
-0.0437723837005021
 30
0.0
 10
0.2680107878902651
 20
-0.0439901367013659
 30
0.0
 10
0.2680649513138784
 20
-0.0441881131744672
 30
0.0
 10
0.268102846854925
 20
-0.0443266277856602
 30
0.0
  0
SPLINE
  5
15F
330
1F
100
AcDbEntity
  8
0
  6
Continuous
 62
     7
370
    25
100
AcDbSpline
210
0.0
220
0.0
230
1.0
 70
     8
 71
     3
 72
    19
 73
    15
 74
     0
 42
0.000000001
 43
0.00000001
 40
0.0
 40
0.0
 40
0.0
 40
0.0
 40
0.0065230279321557
 40
0.0399088094982057
 40
0.0625423547433953
 40
0.0751712902092481
 40
0.090063001915866
 40
0.1179920421662846
 40
0.5598369828879988
 40
0.8090615638904932
 40
0.9339477298026497
 40
0.9730647373534554
 40
0.9905283659350314
 40
1.0
 40
1.0
 40
1.0
 40
1.0
 10
0.2676299845814704
 20
-0.0506835823602451
 30
0.0
 10
0.267616686985045
 20
-0.0507100468192742
 30
0.0
 10
0.2675353304052415
 20
-0.0508719601308293
 30
0.0
 10
0.2673834985996674
 20
-0.0510347930266632
 30
0.0
 10
0.2672234822482183
 20
-0.0512275069905772
 30
0.0
 10
0.2671039337815081
 20
-0.0513607431050584
 30
0.0
 10
0.2669624546332494
 20
-0.051420207909385
 30
0.0
 10
0.2657820762296502
 20
-0.0509807690488743
 30
0.0
 10
0.2640328383158718
 20
-0.0505274582770434
 30
0.0
 10
0.2620467518942138
 20
-0.0498991858540265
 30
0.0
 10
0.2610409940115372
 20
-0.049592017193563
 30
0.0
 10
0.2605993257049992
 20
-0.0494565645802655
 30
0.0
 10
0.2604385636270737
 20
-0.0494071312965391
 30
0.0
 10
0.2603730406987773
 20
-0.0493866388029977
 30
0.0
 10
0.2603499999284743
 20
-0.0493794327325596
 30
0.0
  0
SPLINE
  5
160
330
1F
100
AcDbEntity
  8
0
  6
Continuous
 62
     7
370
    25
100
AcDbSpline
210
0.0
220
0.0
230
1.0
 70
     8
 71
     3
 72
    18
 73
    14
 74
     0
 42
0.000000001
 43
0.00000001
 40
0.0
 40
0.0
 40
0.0
 40
0.0
 40
0.066945116787196
 40
0.1338888121249852
 40
0.2008339289121813
 40
0.2677777049070075
 40
0.3346177360337375
 40
0.4015629334762578
 40
0.4968847962850589
 40
0.6391686972615208
 40
0.7428472991052922
 40
0.8570740079659072
 40
1.0
 40
1.0
 40
1.0
 40
1.0
 10
0.2650421855986117
 20
-0.0365020876474155
 30
0.0
 10
0.2652154848633734
 20
-0.036555295642727
 30
0.0
 10
0.265562079713224
 20
-0.036661710503582
 30
0.0
 10
0.2660819961460495
 20
-0.0368213168766824
 30
0.0
 10
0.2666018860704298
 20
-0.0369810084526007
 30
0.0
 10
0.2671215112369227
 20
-0.0371402688574298
 30
0.0
 10
0.2676412299708772
 20
-0.0373008562157846
 30
0.0
 10
0.2682339749823159
 20
-0.0374777258514049
 30
0.0
 10
0.2690245378987952
 20
-0.0377529563328657
 30
0.0
 10
0.269777474763624
 20
-0.0388422523742228
 30
0.0
 10
0.2703869697009987
 20
-0.040407474748006
 30
0.0
 10
0.270864867871877
 20
-0.0422630213657542
 30
0.0
 10
0.2709848720326934
 20
-0.0438227305490117
 30
0.0
 10
0.2710515705883502
 20
-0.0446896200723423
 30
0.0
  0
SPLINE
  5
161
330
1F
100
AcDbEntity
  8
0
  6
Continuous
 62
     7
370
    25
100
AcDbSpline
210
0.0
220
0.0
230
1.0
 70
     8
 71
     3
 72
    24
 73
    20
 74
     0
 42
0.000000001
 43
0.00000001
 40
0.0
 40
0.0
 40
0.0
 40
0.0
 40
0.0262006477198061
 40
0.1494953296005238
 40
0.2074057302683221
 40
0.2690114490865291
 40
0.3299122579914247
 40
0.4078362067246984
 40
0.4838726746129627
 40
0.5398123787747584
 40
0.5957493636245447
 40
0.6516874243056532
 40
0.7076244091554394
 40
0.7635624120697594
 40
0.8115084801581263
 40
0.8594555663096536
 40
0.9074016343980205
 40
0.9553477024863873
 40
1.0
 40
1.0
 40
1.0
 40
1.0
 10
0.2705092949807643
 20
-0.0512576942987217
 30
0.0
 10
0.2704718620712013
 20
-0.0514808141282971
 30
0.0
 10
0.2702582778418012
 20
-0.0527538884743758
 30
0.0
 10
0.269657228913712
 20
-0.0542024698673666
 30
0.0
 10
0.2689272564468721
 20
-0.0556642840240126
 30
0.0
 10
0.2683078080919383
 20
-0.0564909863281539
 30
0.0
 10
0.2675993470107788
 20
-0.0572727834481454
 30
0.0
 10
0.2667824448494915
 20
-0.0576428067821959
 30
0.0
 10
0.2660183286805095
 20
-0.0574183989104262
 30
0.0
 10
0.265340218404391
 20
-0.0572080376743899
 30
0.0
 10
0.2647333857260271
 20
-0.0570222695988444
 30
0.0
 10
0.2641269158276474
 20
-0.0568359520114831
 30
0.0
 10
0.2635203283031027
 20
-0.056649771153215
 30
0.0
 10
0.2629426816988674
 20
-0.0564724376197891
 30
0.0
 10
0.2623938791511446
 20
-0.0563039392831348
 30
0.0
 10
0.2618739943390606
 20
-0.0561443241221271
 30
0.0
 10
0.2613540838945632
 20
-0.0559846999828341
 30
0.0
 10
0.2608460882828529
 20
-0.0558287338112617
 30
0.0
 10
0.2605113943020235
 20
-0.0557259762472925
 30
0.0
 10
0.2603499999284743
 20
-0.0556764250345005
 30
0.0
  0
SPLINE
  5
162
330
1F
100
AcDbEntity
  8
0
  6
Continuous
 62
     7
370
    25
100
AcDbSpline
210
0.0
220
0.0
230
1.0
 70
     8
 71
     3
 72
    14
 73
    10
 74
     0
 42
0.000000001
 43
0.00000001
 40
0.0
 40
0.0
 40
0.0
 40
0.0
 40
0.1712639014763394
 40
0.3488031251799901
 40
0.4790458232986112
 40
0.6092832427118621
 40
0.7395222528233057
 40
0.8697623115878996
 40
1.0
 40
1.0
 40
1.0
 40
1.0
 10
0.2603499999284743
 20
-0.0357977991647495
 30
0.0
 10
0.260624920528135
 20
-0.0356334713825958
 30
0.0
 10
0.2611848351599483
 20
-0.0352987946440947
 30
0.0
 10
0.2619374525749679
 20
-0.0355525100305173
 30
0.0
 10
0.2626156390534403
 20
-0.0357562010584313
 30
0.0
 10
0.2632226229439062
 20
-0.0359435676454269
 30
0.0
 10
0.2638290616850148
 20
-0.0361296538931137
 30
0.0
 10
0.2644356328947266
 20
-0.0363158868685224
 30
0.0
 10
0.264840002590574
 20
-0.0364400210976591
 30
0.0
 10
0.2650421855986117
 20
-0.0365020876474155
 30
0.0
  0
SPLINE
  5
163
330
1F
100
AcDbEntity
  8
0
  6
Continuous
 62
     7
370
    25
100
AcDbSpline
210
0.0
220
0.0
230
1.0
 70
     8
 71
     3
 72
     9
 73
     5
 74
     0
 42
0.000000001
 43
0.00000001
 40
0.0
 40
0.0
 40
0.0
 40
0.0
 40
0.5696543488911842
 40
1.0
 40
1.0
 40
1.0
 40
1.0
 10
0.2610546609401702
 20
-0.0571213608331455
 30
0.0
 10
0.260919631849206
 20
-0.0571037325202574
 30
0.0
 10
0.2606825949667053
 20
-0.0570727868899425
 30
0.0
 10
0.2604500672291104
 20
-0.056994316774475
 30
0.0
 10
0.2603499999284743
 20
-0.0569605475015415
 30
0.0
  0
SPLINE
  5
164
330
1F
100
AcDbEntity
  8
0
  6
Continuous
 62
     7
370
    25
100
AcDbSpline
210
0.0
220
0.0
230
1.0
 70
     8
 71
     3
 72
    32
 73
    28
 74
     0
 42
0.000000001
 43
0.00000001
 40
0.0
 40
0.0
 40
0.0
 40
0.0
 40
0.006829379330513
 40
0.0801258609343445
 40
0.1145519949640623
 40
0.1511752938829051
 40
0.1873786991266204
 40
0.2337026622554103
 40
0.278904509488835
 40
0.3121590417964703
 40
0.3454127558622137
 40
0.3786658647145934
 40
0.4119195787803368
 40
0.4451726876327165
 40
0.4736760401131873
 40
0.502178753040378
 40
0.530682071180116
 40
0.5591847841073068
 40
0.5875887859185543
 40
0.6161452210588847
 40
0.6567326153447686
 40
0.7173120190910512
 40
0.7614549099508843
 40
0.8100912580918193
 40
0.8833742817742277
 40
0.9606363711597291
 40
1.0
 40
1.0
 40
1.0
 40
1.0
 10
0.2790849169731139
 20
-0.0540728216714632
 30
0.0
 10
0.2791693863992548
 20
-0.0540767390218699
 30
0.0
 10
0.2801604260186135
 20
-0.0541226994318493
 30
0.0
 10
0.2810789182644157
 20
-0.0540808825947631
 30
0.0
 10
0.2820210125589728
 20
-0.0540076293874402
 30
0.0
 10
0.2824063536842732
 20
-0.053907609091746
 30
0.0
 10
0.28268650243741
 20
-0.0537789003390747
 30
0.0
 10
0.2824835545595911
 20
-0.0535832885896068
 30
0.0
 10
0.2817294018460281
 20
-0.0533496327975981
 30
0.0
 10
0.2810492516122802
 20
-0.0531410733970327
 30
0.0
 10
0.2804429305699593
 20
-0.0529548819008454
 30
0.0
 10
0.2798363013187799
 20
-0.0527686690287192
 30
0.0
 10
0.2792297833203312
 20
-0.0525824685986642
 30
0.0
 10
0.2786520943200395
 20
-0.0524051316009259
 30
0.0
 10
0.2781033177153405
 20
-0.0522366425503413
 30
0.0
 10
0.277583421852498
 20
-0.0520770178207752
 30
0.0
 10
0.277063452531391
 20
-0.0519173990566672
 30
0.0
 10
0.2765444566776333
 20
-0.0517579680330786
 30
0.0
 10
0.2760236579395064
 20
-0.0515983989156412
 30
0.0
 10
0.275435967584349
 20
-0.0514167384769419
 30
0.0
 10
0.2746129079416983
 20
-0.0511710871845207
 30
0.0
 10
0.2730110995671145
 20
-0.0508639396155232
 30
0.0
 10
0.2710392919399667
 20
-0.0505536009735114
 30
0.0
 10
0.2686926976319243
 20
-0.0502346014636298
 30
0.0
 10
0.2657364135390866
 20
-0.0499072516920588
 30
0.0
 10
0.2628995779086186
 20
-0.0496633482596371
 30
0.0
 10
0.2615113291837282
 20
-0.0496104374511698
 30
0.0
 10
0.2610427660882472
 20
-0.0495925789422764
 30
0.0
  0
SPLINE
  5
165
330
1F
100
AcDbEntity
  8
0
  6
Continuous
 62
     7
370
    25
100
AcDbSpline
210
0.0
220
0.0
230
1.0
 70
     8
 71
     3
 72
    32
 73
    28
 74
     0
 42
0.000000001
 43
0.00000001
 40
0.0
 40
0.0
 40
0.0
 40
0.0
 40
0.000078378385058
 40
0.0217514840870347
 40
0.0472409143880618
 40
0.0959426692915973
 40
0.1472544030927689
 40
0.1985849605769047
 40
0.2472526814032557
 40
0.3088650626247494
 40
0.3170405343142659
 40
0.3267075629818308
 40
0.3453978839093046
 40
0.3520461864018558
 40
0.3634498310194095
 40
0.3865011142421005
 40
0.4854355749486365
 40
0.6316713686835844
 40
0.8426042943374009
 40
0.8802410918870569
 40
0.9339619046257959
 40
0.9364941817268339
 40
0.9462503086582771
 40
0.9545104083081402
 40
0.9691909651223294
 40
0.9908629946095586
 40
1.0
 40
1.0
 40
1.0
 40
1.0
 10
0.2700976988315581
 20
-0.0527548437661899
 30
0.0
 10
0.2700983147352864
 20
-0.0527549232008537
 30
0.0
 10
0.2702692396674037
 20
-0.0527769678222618
 30
0.0
 10
0.2706459495488542
 20
-0.0528440123071491
 30
0.0
 10
0.2714942324796269
 20
-0.0529495809077522
 30
0.0
 10
0.2726463045352758
 20
-0.0530824186864879
 30
0.0
 10
0.274003927822189
 20
-0.0531918472798387
 30
0.0
 10
0.2751641330221866
 20
-0.0532437748845575
 30
0.0
 10
0.2760888368582582
 20
-0.053234077203635
 30
0.0
 10
0.2763763471856741
 20
-0.0531673902200082
 30
0.0
 10
0.2764941091886765
 20
-0.0531151139434884
 30
0.0
 10
0.2764544892482746
 20
-0.0530801523595232
 30
0.0
 10
0.276309217237436
 20
-0.0530386447707287
 30
0.0
 10
0.2761735071219925
 20
-0.0529966929162317
 30
0.0
 10
0.2760187990643705
 20
-0.0529491125639291
 30
0.0
 10
0.2755192943175667
 20
-0.0527957601162634
 30
0.0
 10
0.2745134520677684
 20
-0.0524870135658133
 30
0.0
 10
0.2728006470486011
 20
-0.0519619711263299
 30
0.0
 10
0.2713325392156081
 20
-0.0515077647938493
 30
0.0
 10
0.270183414769136
 20
-0.0511593264169578
 30
0.0
 10
0.2698596902923372
 20
-0.0510522941287643
 30
0.0
 10
0.2695651643129209
 20
-0.0509740585166669
 30
0.0
 10
0.2694332738757388
 20
-0.0509472968734589
 30
0.0
 10
0.2691814672160751
 20
-0.0509062973472993
 30
0.0
 10
0.2688316392117146
 20
-0.050850706859614
 30
0.0
 10
0.2684751289188853
 20
-0.0507930886278391
 30
0.0
 10
0.268203190867192
 20
-0.0507578191613828
 30
0.0
 10
0.268122542464733
 20
-0.0507473593301546
 30
0.0
  0
SPLINE
  5
166
330
1F
100
AcDbEntity
  8
0
  6
Continuous
 62
     7
370
    25
100
AcDbSpline
210
0.0
220
0.0
230
1.0
 70
     8
 71
     3
 72
     9
 73
     5
 74
     0
 42
0.000000001
 43
0.00000001
 40
0.0
 40
0.0
 40
0.0
 40
0.0
 40
0.497593123077727
 40
1.0
 40
1.0
 40
1.0
 40
1.0
 10
0.2655303997933863
 20
-0.0504743700570835
 30
0.0
 10
0.2653528217669206
 20
-0.0504585478432604
 30
0.0
 10
0.2649959478106099
 20
-0.0504267503503101
 30
0.0
 10
0.2647118755462506
 20
-0.0504171862808069
 30
0.0
 10
0.2645691556870936
 20
-0.0504123812265171
 30
0.0
  0
SPLINE
  5
167
330
1F
100
AcDbEntity
  8
0
  6
Continuous
 62
     7
370
    25
100
AcDbSpline
210
0.0
220
0.0
230
1.0
 70
     8
 71
     3
 72
    26
 73
    22
 74
     0
 42
0.000000001
 43
0.00000001
 40
0.0
 40
0.0
 40
0.0
 40
0.0
 40
0.0094946021731514
 40
0.0759875634498054
 40
0.1408712875545036
 40
0.1886035656594923
 40
0.2363360223519515
 40
0.2840676103197739
 40
0.3318000670122331
 40
0.3795316549800555
 40
0.4204453825717051
 40
0.4613582907337023
 40
0.5022720183253518
 40
0.5431848771935366
 40
0.5839569146499443
 40
0.6249460177953446
 40
0.6832052557313103
 40
0.770161739042543
 40
0.8335246018113251
 40
0.9033369465774098
 40
0.9999999999999999
 40
0.9999999999999999
 40
0.9999999999999999
 40
0.9999999999999999
 10
0.2831780573368071
 20
-0.0480160360879673
 30
0.0
 10
0.2831923955397523
 20
-0.0480087894919558
 30
0.0
 10
0.2833071475942552
 20
-0.0479507932574481
 30
0.0
 10
0.2830798959830301
 20
-0.0477918428782761
 30
0.0
 10
0.2823505921215901
 20
-0.0475611344225639
 30
0.0
 10
0.2816655601017105
 20
-0.0473521971018424
 30
0.0
 10
0.2810604134670309
 20
-0.0471660979396173
 30
0.0
 10
0.2804534708870802
 20
-0.0469798608045162
 30
0.0
 10
0.2798470375404197
 20
-0.0467936668529191
 30
0.0
 10
0.2792693246766988
 20
-0.0466163283472182
 30
0.0
 10
0.2787205602607132
 20
-0.0464478392943456
 30
0.0
 10
0.2782006559128472
 20
-0.0462882147257974
 30
0.0
 10
0.2776806901824623
 20
-0.0461285964095996
 30
0.0
 10
0.2771616839457628
 20
-0.0459691620497415
 30
0.0
 10
0.2766409081806128
 20
-0.0458096012334916
 30
0.0
 10
0.2760531960665014
 20
-0.0456279285995944
 30
0.0
 10
0.2752301189277308
 20
-0.0453823068148448
 30
0.0
 10
0.2736284518889544
 20
-0.0450750202776348
 30
0.0
 10
0.2716562375588239
 20
-0.0447651163472646
 30
0.0
 10
0.2693953282071066
 20
-0.0444547488754698
 30
0.0
 10
0.2676721253544325
 20
-0.044272707754446
 30
0.0
 10
0.2666715567946433
 20
-0.0441670065469517
 30
0.0
  0
SPLINE
  5
168
330
1F
100
AcDbEntity
  8
0
  6
Continuous
 62
     7
370
    25
100
AcDbSpline
210
0.0
220
0.0
230
1.0
 70
     8
 71
     3
 72
    24
 73
    20
 74
     0
 42
0.000000001
 43
0.00000001
 40
0.0
 40
0.0
 40
0.0
 40
0.0
 40
0.1166083750921616
 40
0.2326737825915868
 40
0.2871887319700509
 40
0.3451818839783478
 40
0.4025108939524678
 40
0.4758653954404326
 40
0.5474438302173865
 40
0.6001016976025827
 40
0.6527594404748068
 40
0.7054171833470311
 40
0.758073967855037
 40
0.8107319778704094
 40
0.8558664952917541
 40
0.901000958332891
 40
0.9461361126577239
 40
0.9912705756988608
 40
1.0
 40
1.0
 40
1.0
 40
1.0
 10
0.1713231576621531
 20
-0.4726836925096287
 30
0.0
 10
0.1703655498636556
 20
-0.4727630264801558
 30
0.0
 10
0.1684547932088311
 20
-0.4729213250157109
 30
0.0
 10
0.1668232574668603
 20
-0.4732370961297803
 30
0.0
 10
0.1658911965799924
 20
-0.4735096393523664
 30
0.0
 10
0.1654955985596265
 20
-0.4737268985576418
 30
0.0
 10
0.1652106484085073
 20
-0.473971594522643
 30
0.0
 10
0.16540948398492
 20
-0.4742393165858198
 30
0.0
 10
0.1661636604171577
 20
-0.4744740562870833
 30
0.0
 10
0.1668438313557593
 20
-0.4746823071850148
 30
0.0
 10
0.1674501526944521
 20
-0.4748685722024997
 30
0.0
 10
0.1680567571977748
 20
-0.4750547649396987
 30
0.0
 10
0.1686633115482455
 20
-0.4752409532489881
 30
0.0
 10
0.169240963988292
 20
-0.4754183796517343
 30
0.0
 10
0.1697897612129229
 20
-0.4755868467977628
 30
0.0
 10
0.170309671094502
 20
-0.475746501286297
 30
0.0
 10
0.170829545930516
 20
-0.4759060159701575
 30
0.0
 10
0.1712097143485
 20
-0.4760227398296266
 30
0.0
 10
0.1714164892063112
 20
-0.4760862435595497
 30
0.0
 10
0.1714500000715254
 20
-0.476096535260178
 30
0.0
  0
SPLINE
  5
169
330
1F
100
AcDbEntity
  8
0
  6
Continuous
 62
     7
370
    25
100
AcDbSpline
210
0.0
220
0.0
230
1.0
 70
     8
 71
     3
 72
    20
 73
    16
 74
     0
 42
0.000000001
 43
0.00000001
 40
0.0
 40
0.0
 40
0.0
 40
0.0
 40
0.0116022215229255
 40
0.1332897248210485
 40
0.2520302200409305
 40
0.3393856520758066
 40
0.4267397309129979
 40
0.5140926630896634
 40
0.6014467419268547
 40
0.6887992309309289
 40
0.7636745093728396
 40
0.8385481979837779
 40
0.9134235666352537
 40
0.988297255246192
 40
1.0
 40
1.0
 40
1.0
 40
1.0
 10
0.1653437314569949
 20
-0.4797125106401218
 30
0.0
 10
0.1653341886568597
 20
-0.4797215839619836
 30
0.0
 10
0.1652245581691534
 20
-0.4798258209455457
 30
0.0
 10
0.1654522340641258
 20
-0.4800277475960339
 30
0.0
 10
0.1661785407850816
 20
-0.4802623217281272
 30
0.0
 10
0.1668641444118071
 20
-0.4804705048725909
 30
0.0
 10
0.1674691604558854
 20
-0.480656760712283
 30
0.0
 10
0.1680761355438203
 20
-0.4808430509622501
 30
0.0
 10
0.1686825610232346
 20
-0.4810292308237383
 30
0.0
 10
0.1692602777828768
 20
-0.4812065739197788
 30
0.0
 10
0.1698090359784305
 20
-0.4813750591246931
 30
0.0
 10
0.1703289603085267
 20
-0.4815346944941518
 30
0.0
 10
0.1708488332108678
 20
-0.4816942743449253
 30
0.0
 10
0.1712225731847128
 20
-0.4818091044469319
 30
0.0
 10
0.1714229188641174
 20
-0.4818705374127232
 30
0.0
 10
0.1714500000715254
 20
-0.4818788414544834
 30
0.0
  0
SPLINE
  5
16A
330
1F
100
AcDbEntity
  8
0
  6
Continuous
 62
     7
370
    25
100
AcDbSpline
210
0.0
220
0.0
230
1.0
 70
     8
 71
     3
 72
    19
 73
    15
 74
     0
 42
0.000000001
 43
0.00000001
 40
0.0
 40
0.0
 40
0.0
 40
0.0
 40
0.0560585840250429
 40
0.1121159777550377
 40
0.1681745617800806
 40
0.2242319555100754
 40
0.2802024886327183
 40
0.3362608760227574
 40
0.4160831004947061
 40
0.5352274251202838
 40
0.6220449184545931
 40
0.7176996083949416
 40
0.8618275014751448
 40
1.0
 40
1.0
 40
1.0
 40
1.0
 10
0.262221004629135
 20
-0.4742095714158787
 30
0.0
 10
0.2623943028029743
 20
-0.4741563646910248
 30
0.0
 10
0.262740895471003
 20
-0.4740499523710582
 30
0.0
 10
0.2632608282673416
 20
-0.4738903269414711
 30
0.0
 10
0.2637806558010169
 20
-0.4737307078449861
 30
0.0
 10
0.2643005128316026
 20
-0.4735711770947772
 30
0.0
 10
0.2648193458411941
 20
-0.4734115974279025
 30
0.0
 10
0.26541605484573
 20
-0.4732296121004423
 30
0.0
 10
0.2661816805386764
 20
-0.4729875705274292
 30
0.0
 10
0.2662600238057241
 20
-0.4727789134450515
 30
0.0
 10
0.2658009608699727
 20
-0.4726248047830505
 30
0.0
 10
0.2648279770029943
 20
-0.4725221276972011
 30
0.0
 10
0.2631047642670485
 20
-0.4724906440882675
 30
0.0
 10
0.2612552489479542
 20
-0.4725890405427409
 30
0.0
 10
0.2603499999284743
 20
-0.4726372008867039
 30
0.0
  0
SPLINE
  5
16B
330
1F
100
AcDbEntity
  8
0
  6
Continuous
 62
     7
370
    25
100
AcDbSpline
210
0.0
220
0.0
230
1.0
 70
     8
 71
     3
 72
    11
 73
     7
 74
     0
 42
0.000000001
 43
0.00000001
 40
0.0
 40
0.0
 40
0.0
 40
0.0
 40
0.027445614921084
 40
0.3516294280913665
 40
0.6758178315298657
 40
1.0
 40
1.0
 40
1.0
 40
1.0
 10
0.2603499999284743
 20
-0.4747839813775791
 30
0.0
 10
0.2603671150715505
 20
-0.4747787366890796
 30
0.0
 10
0.2605863919210177
 20
-0.4747115424643233
 30
0.0
 10
0.2610079112482561
 20
-0.474581905452742
 30
0.0
 10
0.261614444235521
 20
-0.4743957971411114
 30
0.0
 10
0.2620188191274693
 20
-0.4742716462596631
 30
0.0
 10
0.262221004629135
 20
-0.4742095714158787
 30
0.0
  0
SPLINE
  5
16C
330
1F
100
AcDbEntity
  8
0
  6
Continuous
 62
     7
370
    25
100
AcDbSpline
210
0.0
220
0.0
230
1.0
 70
     8
 71
     3
 72
    15
 73
    11
 74
     0
 42
0.000000001
 43
0.00000001
 40
0.0
 40
0.0
 40
0.0
 40
0.0
 40
0.1077677188304501
 40
0.2155377259474854
 40
0.3233054447779355
 40
0.4310754518949708
 40
0.5386761852684154
 40
0.6464464520683433
 40
0.7998985968111307
 40
1.0
 40
1.0
 40
1.0
 40
1.0
 10
0.2628382405281066
 20
-0.4799984341211094
 30
0.0
 10
0.2630115431327258
 20
-0.47994522641646
 30
0.0
 10
0.2633581520217864
 20
-0.4798388098773752
 30
0.0
 10
0.2638780257159706
 20
-0.479679196885277
 30
0.0
 10
0.2643979880523349
 20
-0.4795195580926395
 30
0.0
 10
0.2649174424589503
 20
-0.4793600699431562
 30
0.0
 10
0.2654376920033273
 20
-0.4792003574472055
 30
0.0
 10
0.2660284044876472
 20
-0.4790189248817808
 30
0.0
 10
0.2667842705608441
 20
-0.4787873020063741
 30
0.0
 10
0.2667566339998116
 20
-0.4786627780288846
 30
0.0
 10
0.2667409924805163
 20
-0.4785923009462131
 30
0.0
  0
SPLINE
  5
16D
330
1F
100
AcDbEntity
  8
0
  6
Continuous
 62
     7
370
    25
100
AcDbSpline
210
0.0
220
0.0
230
1.0
 70
     8
 71
     3
 72
    12
 73
     8
 74
     0
 42
0.000000001
 43
0.00000001
 40
0.0
 40
0.0
 40
0.0
 40
0.0
 40
0.0249338348468061
 40
0.2686945786776631
 40
0.5124644473988182
 40
0.756229879539388
 40
1.0
 40
1.0
 40
1.0
 40
1.0
 10
0.2603499999284743
 20
-0.4807623272485508
 30
0.0
 10
0.2603706776013957
 20
-0.4807559689495661
 30
0.0
 10
0.2605935064862339
 20
-0.4806874499881921
 30
0.0
 10
0.261018608278383
 20
-0.4805570804700988
 30
0.0
 10
0.2616251209953823
 20
-0.4803708371627548
 30
0.0
 10
0.2622316930588221
 20
-0.48018463891951
 30
0.0
 10
0.2626360567421754
 20
-0.4800605027851558
 30
0.0
 10
0.2628382405281066
 20
-0.4799984341211094
 30
0.0
  0
LINE
  5
16E
330
1F
100
AcDbEntity
  8
0
  6
Continuous
 62
     7
370
    25
100
AcDbLine
 10
0.2622210046
 20
-0.4742095714
 30
0.0
 11
0.2628382405
 21
-0.4799984341
 31
0.0
  0
SPLINE
  5
16F
330
1F
100
AcDbEntity
  8
0
  6
Continuous
 62
     7
370
    25
100
AcDbSpline
210
0.0
220
0.0
230
1.0
 70
     8
 71
     3
 72
    19
 73
    15
 74
     0
 42
0.000000001
 43
0.00000001
 40
0.0
 40
0.0
 40
0.0
 40
0.0
 40
0.0640512014154983
 40
0.1281037628626141
 40
0.1921545852526934
 40
0.2562071466998092
 40
0.3201590239736103
 40
0.3842118941050071
 40
0.4754153378195596
 40
0.6115496927427186
 40
0.7107474342355655
 40
0.8200424495310845
 40
0.9847241213929017
 40
1.0
 40
1.0
 40
1.0
 40
1.0
 10
0.2786232193946837
 20
-0.4691738730020298
 30
0.0
 10
0.2787965203326966
 20
-0.4691206672679777
 30
0.0
 10
0.279143125888509
 20
-0.4690142546701295
 30
0.0
 10
0.2796630235567847
 20
-0.4688546124333802
 30
0.0
 10
0.2801828898702327
 20
-0.4686950862803212
 30
0.0
 10
0.2807027163033494
 20
-0.4685355307688661
 30
0.0
 10
0.2812215693451983
 20
-0.4683759767277707
 30
0.0
 10
0.2818182187585406
 20
-0.4681938955824373
 30
0.0
 10
0.282584231309943
 20
-0.4679518122065165
 30
0.0
 10
0.2826605618664417
 20
-0.4677435751309524
 30
0.0
 10
0.2822077087901841
 20
-0.4675881253848667
 30
0.0
 10
0.2812070145026433
 20
-0.4674914418919878
 30
0.0
 10
0.2801577953347722
 20
-0.4674476455435426
 30
0.0
 10
0.2791675448732042
 20
-0.4674934822622265
 30
0.0
 10
0.2790834864616393
 20
-0.4674973731584324
 30
0.0
  0
SPLINE
  5
170
330
1F
100
AcDbEntity
  8
0
  6
Continuous
 62
     7
370
    25
100
AcDbSpline
210
0.0
220
0.0
230
1.0
 70
     8
 71
     3
 72
    20
 73
    16
 74
     0
 42
0.000000001
 43
0.00000001
 40
0.0
 40
0.0
 40
0.0
 40
0.0
 40
0.0710324401548284
 40
0.2102513363727791
 40
0.3423092002729921
 40
0.4043352432504685
 40
0.4703189293517612
 40
0.5355902972101082
 40
0.618763487408748
 40
0.7004357326806312
 40
0.7603494378865402
 40
0.8202613953478097
 40
0.8801745050927152
 40
0.9400868283832406
 40
1.0
 40
1.0
 40
1.0
 40
1.0
 10
0.2610428666710852
 20
-0.4719775562829746
 30
0.0
 10
0.2615121727311778
 20
-0.4719596625927788
 30
0.0
 10
0.26290128770579
 20
-0.4719066984503655
 30
0.0
 10
0.2657404460579572
 20
-0.4716628557425442
 30
0.0
 10
0.2684825296771262
 20
-0.471357966790988
 30
0.0
 10
0.2705410249541546
 20
-0.471086733464553
 30
0.0
 10
0.2719550176796139
 20
-0.4708714609468989
 30
0.0
 10
0.2734426807295878
 20
-0.4706285936392782
 30
0.0
 10
0.2747472083740538
 20
-0.4703620602010996
 30
0.0
 10
0.2755192244092216
 20
-0.4701271730675098
 30
0.0
 10
0.2761964933972879
 20
-0.4699188326818365
 30
0.0
 10
0.2768037044622326
 20
-0.4697325185809925
 30
0.0
 10
0.2774100696478482
 20
-0.4695463712880831
 30
0.0
 10
0.2780166779403748
 20
-0.469360054461398
 30
0.0
 10
0.2784210379556674
 20
-0.4692359337813976
 30
0.0
 10
0.2786232193946837
 20
-0.4691738730020298
 30
0.0
  0
SPLINE
  5
171
330
1F
100
AcDbEntity
  8
0
  6
Continuous
 62
     7
370
    25
100
AcDbSpline
210
0.0
220
0.0
230
1.0
 70
     8
 71
     3
 72
    23
 73
    19
 74
     0
 42
0.000000001
 43
0.00000001
 40
0.0
 40
0.0
 40
0.0
 40
0.0
 40
0.2811823471979064
 40
0.3182244971802601
 40
0.3392480266457014
 40
0.3838303159710436
 40
0.4779160832433342
 40
0.4819238275114979
 40
0.4973478159040922
 40
0.5104070288028716
 40
0.5336150812712723
 40
0.5678803439604245
 40
0.6081789719255072
 40
0.685175894977224
 40
0.7662989934984906
 40
0.8474516271618233
 40
0.9243951170280572
 40
1.0
 40
1.0
 40
1.0
 40
1.0
 10
0.2730458041667937
 20
-0.4695337062425388
 30
0.0
 10
0.2737128091498667
 20
-0.4693289522784486
 30
0.0
 10
0.2744676834421911
 20
-0.4690972246187371
 30
0.0
 10
0.2752716230417402
 20
-0.4688503184318685
 30
0.0
 10
0.2755156253971579
 20
-0.4687755954584763
 30
0.0
 10
0.2758881674765116
 20
-0.4686597208755172
 30
0.0
 10
0.2762596687114357
 20
-0.4685534615999395
 30
0.0
 10
0.2764760430926794
 20
-0.4684744892619185
 30
0.0
 10
0.2764930931601784
 20
-0.4684553198709505
 30
0.0
 10
0.2764458258309671
 20
-0.4684335756228371
 30
0.0
 10
0.2763707400982482
 20
-0.4684052504730461
 30
0.0
 10
0.2762545131004253
 20
-0.4683671351555016
 30
0.0
 10
0.2758628800808208
 20
-0.4683369393333224
 30
0.0
 10
0.2751736468918715
 20
-0.4683253836596092
 30
0.0
 10
0.274002425055019
 20
-0.4683781124124424
 30
0.0
 10
0.2726548380383712
 20
-0.4684887566832531
 30
0.0
 10
0.2712725263280442
 20
-0.4686395446339451
 30
0.0
 10
0.2704881138015175
 20
-0.4687602411343351
 30
0.0
 10
0.2700993491351603
 20
-0.4688200598306431
 30
0.0
  0
SPLINE
  5
172
330
1F
100
AcDbEntity
  8
0
  6
Continuous
 62
     7
370
    25
100
AcDbSpline
210
0.0
220
0.0
230
1.0
 70
     8
 71
     3
 72
     9
 73
     5
 74
     0
 42
0.000000001
 43
0.00000001
 40
0.0
 40
0.0
 40
0.0
 40
0.0
 40
0.4976002755053539
 40
1.0
 40
1.0
 40
1.0
 40
1.0
 10
0.2645713238060473
 20
-0.4711576347894443
 30
0.0
 10
0.2647126678193247
 20
-0.4711529280678964
 30
0.0
 10
0.2649967191356828
 20
-0.471143469227579
 30
0.0
 10
0.2653536761275267
 20
-0.4711115982996461
 30
0.0
 10
0.2655330112218856
 20
-0.4710955863542332
 30
0.0
  0
ARC
  5
173
330
1F
100
AcDbEntity
  8
0
  6
Continuous
 62
     7
370
    25
100
AcDbCircle
 10
0.2632874264
 20
-0.4421642265
 30
0.0
 40
0.0290570878990331
100
AcDbArc
 50
279.5054374222
 51
289.623302198
  0
LINE
  5
174
330
1F
100
AcDbEntity
  8
0
  6
Continuous
 62
     7
370
    25
100
AcDbLine
 10
0.2730458042
 20
-0.4695337062
 30
0.0
 11
0.2786232194
 21
-0.469173873
 31
0.0
  0
SPLINE
  5
175
330
1F
100
AcDbEntity
  8
0
  6
Continuous
 62
     7
370
    25
100
AcDbSpline
210
0.0
220
0.0
230
1.0
 70
     8
 71
     3
 72
    15
 73
    11
 74
     0
 42
0.000000001
 43
0.00000001
 40
0.0
 40
0.0
 40
0.0
 40
0.0
 40
0.1077677123371883
 40
0.2155354246743765
 40
0.323305425298012
 40
0.4310731376352003
 40
0.5386760229378632
 40
0.646444254654929
 40
0.7998986287052908
 40
1.0
 40
1.0
 40
1.0
 40
1.0
 10
0.2792404552936553
 20
-0.4749627357072605
 30
0.0
 10
0.2794137561820752
 20
-0.4749095285257276
 30
0.0
 10
0.2797603579589151
 20
-0.4748031141626619
 30
0.0
 10
0.2802802573966726
 20
-0.474643493323642
 30
0.0
 10
0.2808001844638751
 20
-0.474483865143129
 30
0.0
 10
0.2813196767055691
 20
-0.4743243661853206
 30
0.0
 10
0.2818398831650548
 20
-0.4741646639052687
 30
0.0
 10
0.2824306443466021
 20
-0.4739832213889323
 30
0.0
 10
0.2831864744605078
 20
-0.4737516068760146
 30
0.0
 10
0.2831588423956624
 20
-0.4736270805148559
 30
0.0
 10
0.2831432035207747
 20
-0.4735566025323643
 30
0.0
  0
SPLINE
  5
176
330
1F
100
AcDbEntity
  8
0
  6
Continuous
 62
     7
370
    25
100
AcDbSpline
210
0.0
220
0.0
230
1.0
 70
     8
 71
     3
 72
    18
 73
    14
 74
     0
 42
0.000000001
 43
0.00000001
 40
0.0
 40
0.0
 40
0.0
 40
0.0
 40
0.1559125339822407
 40
0.2355170717502154
 40
0.3202012855102539
 40
0.4039717286463665
 40
0.5107167205565275
 40
0.6155358097212196
 40
0.6924297409123981
 40
0.7693214290282138
 40
0.8462135866534601
 40
0.9231068330302508
 40
1.0
 40
1.0
 40
1.0
 40
1.0
 10
0.2666713891565798
 20
-0.4774032478875889
 30
0.0
 10
0.2676723949402464
 20
-0.4772973668976838
 30
0.0
 10
0.269184486014342
 20
-0.47713742606381
 30
0.0
 10
0.2711580554060548
 20
-0.4768752576693707
 30
0.0
 10
0.2725723145197411
 20
-0.4766604377016496
 30
0.0
 10
0.2740598881147882
 20
-0.4764173220528029
 30
0.0
 10
0.2753644544749174
 20
-0.4761509608105509
 30
0.0
 10
0.2761364582894962
 20
-0.4759160312750007
 30
0.0
 10
0.2768137305671134
 20
-0.475707689501442
 30
0.0
 10
0.2774209342844396
 20
-0.4755214102905096
 30
0.0
 10
0.2780273155130918
 20
-0.4753351278710672
 30
0.0
 10
0.278633912939553
 20
-0.4751489449242062
 30
0.0
 10
0.2790382745785513
 20
-0.4750248054248762
 30
0.0
 10
0.2792404552936553
 20
-0.4749627357072605
 30
0.0
  0
LINE
  5
177
330
1F
100
AcDbEntity
  8
0
  6
Continuous
 62
     7
370
    25
100
AcDbLine
 10
0.2786232194
 20
-0.469173873
 30
0.0
 11
0.2792404553
 21
-0.4749627357
 31
0.0
  0
SPLINE
  5
178
330
1F
100
AcDbEntity
  8
0
  6
Continuous
 62
     7
370
    25
100
AcDbSpline
210
0.0
220
0.0
230
1.0
 70
     8
 71
     3
 72
    18
 73
    14
 74
     0
 42
0.000000001
 43
0.00000001
 40
0.0
 40
0.0
 40
0.0
 40
0.0
 40
0.0669629605017772
 40
0.133924499175271
 40
0.2008874596770482
 40
0.2678490790290775
 40
0.334707321979152
 40
0.4016703631577517
 40
0.497018223676958
 40
0.6393370999789595
 40
0.7430433365699427
 40
0.8573056175964027
 40
1.0
 40
1.0
 40
1.0
 40
1.0
 10
0.2650421855986117
 20
-0.4850681071824802
 30
0.0
 10
0.265215484856029
 20
-0.4850148990534521
 30
0.0
 10
0.2655620796911907
 20
-0.484908483925167
 30
0.0
 10
0.2660819962341815
 20
-0.4847488795577747
 30
0.0
 10
0.2666018857399295
 20
-0.4845891803600916
 30
0.0
 10
0.2671215134951124
 20
-0.4844299481073208
 30
0.0
 10
0.2676412274246504
 20
-0.4842692542846118
 30
0.0
 10
0.2682339787512825
 20
-0.4840924341005806
 30
0.0
 10
0.2690245209772726
 20
-0.4838170632499293
 30
0.0
 10
0.2697774882657178
 20
-0.4827279650216429
 30
0.0
 10
0.2703869707755898
 20
-0.4811626876465421
 30
0.0
 10
0.2708645514558541
 20
-0.4793085134526269
 30
0.0
 10
0.2709844749312691
 20
-0.4777504532414507
 30
0.0
 10
0.2710510713994502
 20
-0.4768852239198459
 30
0.0
  0
SPLINE
  5
179
330
1F
100
AcDbEntity
  8
0
  6
Continuous
 62
     7
370
    25
100
AcDbSpline
210
0.0
220
0.0
230
1.0
 70
     8
 71
     3
 72
    24
 73
    20
 74
     0
 42
0.000000001
 43
0.00000001
 40
0.0
 40
0.0
 40
0.0
 40
0.0
 40
0.0261984884300026
 40
0.1494951005828283
 40
0.2074055447017566
 40
0.2690113097437518
 40
0.32991216434353
 40
0.4078361715444293
 40
0.4838728548764551
 40
0.5398123171423326
 40
0.5957493439625623
 40
0.6516874466149215
 40
0.7076244734351512
 40
0.7635628021054478
 40
0.8115089061685414
 40
0.8594560282955592
 40
0.9074018486357596
 40
0.9553479526988532
 40
1.0
 40
1.0
 40
1.0
 40
1.0
 10
0.270509291255474
 20
-0.4703124409265293
 30
0.0
 10
0.2704718588771076
 20
-0.4700893416989954
 30
0.0
 10
0.2702582604023756
 20
-0.4688162819364347
 30
0.0
 10
0.2696572383266115
 20
-0.4673676717921121
 30
0.0
 10
0.2689272557026099
 20
-0.4659058524542908
 30
0.0
 10
0.2683078082379058
 20
-0.4650791470401794
 30
0.0
 10
0.2675993471788667
 20
-0.4642973585574554
 30
0.0
 10
0.2667824431023851
 20
-0.4639272955800276
 30
0.0
 10
0.2660183322970218
 20
-0.4641518407468186
 30
0.0
 10
0.2653402162138198
 20
-0.4643620740697317
 30
0.0
 10
0.2647333859594282
 20
-0.4645478705056403
 30
0.0
 10
0.2641269160581335
 20
-0.464734187492417
 30
0.0
 10
0.2635203261219922
 20
-0.4649203423934471
 30
0.0
 10
0.2629426837743155
 20
-0.4650977768990646
 30
0.0
 10
0.2623938785962162
 20
-0.4652662449686619
 30
0.0
 10
0.2618739966190101
 20
-0.4654258943110526
 30
0.0
 10
0.2613540814827779
 20
-0.4655854091253261
 30
0.0
 10
0.2608460904629125
 20
-0.4657414231138053
 30
0.0
 10
0.2605113946530341
 20
-0.4658441259343399
 30
0.0
 10
0.2603499999284743
 20
-0.4658936505861057
 30
0.0
  0
SPLINE
  5
17A
330
1F
100
AcDbEntity
  8
0
  6
Continuous
 62
     7
370
    25
100
AcDbSpline
210
0.0
220
0.0
230
1.0
 70
     8
 71
     3
 72
    14
 73
    10
 74
     0
 42
0.000000001
 43
0.00000001
 40
0.0
 40
0.0
 40
0.0
 40
0.0
 40
0.1712631420794526
 40
0.3488022404131821
 40
0.4790457762572102
 40
0.6092840334154739
 40
0.7395218988250777
 40
0.8697621345903963
 40
1.0
 40
1.0
 40
1.0
 40
1.0
 10
0.2603499999284743
 20
-0.4857723956651462
 30
0.0
 10
0.2606249206687098
 20
-0.4859366899709317
 30
0.0
 10
0.2611848366492639
 20
-0.4862712991650018
 30
0.0
 10
0.2619374552872354
 20
-0.4860177202544746
 30
0.0
 10
0.2626156396377294
 20
-0.4858139419297718
 30
0.0
 10
0.2632226167955881
 20
-0.4856264513287283
 30
0.0
 10
0.263829066197054
 20
-0.4854405869508416
 30
0.0
 10
0.2644356322796958
 20
-0.4852542963005219
 30
0.0
 10
0.2648400023855649
 20
-0.4851301698453098
 30
0.0
 10
0.2650421855986117
 20
-0.4850681071824802
 30
0.0
  0
SPLINE
  5
17B
330
1F
100
AcDbEntity
  8
0
  6
Continuous
 62
     7
370
    25
100
AcDbSpline
210
0.0
220
0.0
230
1.0
 70
     8
 71
     3
 72
    15
 73
    11
 74
     0
 42
0.000000001
 43
0.00000001
 40
0.0
 40
0.0
 40
0.0
 40
0.0
 40
0.0676517596931223
 40
0.2704508198188862
 40
0.6984379025787583
 40
0.716670169532082
 40
0.7868287686356966
 40
0.8462397370370318
 40
0.9518137307568201
 40
1.0
 40
1.0
 40
1.0
 40
1.0
 10
0.2666998093962668
 20
-0.4782626276559604
 30
0.0
 10
0.2667350854571669
 20
-0.4782518567397274
 30
0.0
 10
0.2668761082425857
 20
-0.4782087979465985
 30
0.0
 10
0.2672393707722838
 20
-0.478090508971841
 30
0.0
 10
0.2675823908173371
 20
-0.4780220135899648
 30
0.0
 10
0.2678445686160101
 20
-0.477882667784603
 30
0.0
 10
0.26791245826628
 20
-0.4777972888688438
 30
0.0
 10
0.2679969204259315
 20
-0.477601411483084
 30
0.0
 10
0.2680735447120939
 20
-0.4774239618078381
 30
0.0
 10
0.2681231753259103
 20
-0.4772835702432432
 30
0.0
 10
0.2681387288510798
 20
-0.4772395735330356
 30
0.0
  0
SPLINE
  5
17C
330
1F
100
AcDbEntity
  8
0
  6
Continuous
 62
     7
370
    25
100
AcDbSpline
210
0.0
220
0.0
230
1.0
 70
     8
 71
     3
 72
    19
 73
    15
 74
     0
 42
0.000000001
 43
0.00000001
 40
0.0
 40
0.0
 40
0.0
 40
0.0
 40
0.0700589386102264
 40
0.0825494003082771
 40
0.0973197857842088
 40
0.1258756734723315
 40
0.136035305022114
 40
0.1534563219047401
 40
0.1886755716198569
 40
0.3398360314166916
 40
0.563266747126817
 40
0.8855479930194196
 40
0.9430510281682444
 40
1.0
 40
1.0
 40
1.0
 40
1.0
 10
0.2676711043357848
 20
-0.471033001477219
 30
0.0
 10
0.2675183281483935
 20
-0.4707725871222526
 30
0.0
 10
0.2673383142500857
 20
-0.4704657447797826
 30
0.0
 10
0.2671037780777797
 20
-0.4702098596534055
 30
0.0
 10
0.2669603083605976
 20
-0.4701482386805085
 30
0.0
 10
0.2668289685927036
 20
-0.4702028512752407
 30
0.0
 10
0.2666912126214737
 20
-0.4702430878925459
 30
0.0
 10
0.2665370686817703
 20
-0.4702909722771391
 30
0.0
 10
0.2660370255031703
 20
-0.4704439830162283
 30
0.0
 10
0.2650313611997093
 20
-0.4707534869592815
 30
0.0
 10
0.2633211603052414
 20
-0.4712765190090255
 30
0.0
 10
0.2618416759568815
 20
-0.4717375817725226
 30
0.0
 10
0.2607690731919263
 20
-0.4720586133575634
 30
0.0
 10
0.260489239456983
 20
-0.47215413843002
 30
0.0
 10
0.2603499999284743
 20
-0.4722016697473301
 30
0.0
  0
SPLINE
  5
17D
330
1F
100
AcDbEntity
  8
0
  6
Continuous
 62
     7
370
    25
100
AcDbSpline
210
0.0
220
0.0
230
1.0
 70
     8
 71
     3
 72
     9
 73
     5
 74
     0
 42
0.000000001
 43
0.00000001
 40
0.0
 40
0.0
 40
0.0
 40
0.0
 40
0.5696593613154944
 40
1.0
 40
1.0
 40
1.0
 40
1.0
 10
0.2610546609401702
 20
-0.4644488339967502
 30
0.0
 10
0.2609196326184883
 20
-0.4644664770089393
 30
0.0
 10
0.2606825991720968
 20
-0.4644974481706322
 30
0.0
 10
0.2604500676795088
 20
-0.4645758070911586
 30
0.0
 10
0.2603499999284743
 20
-0.4646095281190647
 30
0.0
  0
SPLINE
  5
17E
330
1F
100
AcDbEntity
  8
0
  6
Continuous
 62
     7
370
    25
100
AcDbSpline
210
0.0
220
0.0
230
1.0
 70
     8
 71
     3
 72
    15
 73
    11
 74
     0
 42
0.000000001
 43
0.00000001
 40
0.0
 40
0.0
 40
0.0
 40
0.0
 40
0.1446434170752897
 40
0.393177581942075
 40
0.5040707778517588
 40
0.5693345248433734
 40
0.7487585290145494
 40
0.8438050774110788
 40
0.923863885982236
 40
1.0
 40
1.0
 40
1.0
 40
1.0
 10
0.1653237862527369
 20
-0.478552008206345
 30
0.0
 10
0.1652681201632859
 20
-0.4785349369771204
 30
0.0
 10
0.1651168055795388
 20
-0.478488533035876
 30
0.0
 10
0.1649228580299115
 20
-0.4784286025029432
 30
0.0
 10
0.16475933724223
 20
-0.4783791342441542
 30
0.0
 10
0.1646227155986017
 20
-0.4783345323051151
 30
0.0
 10
0.1644902122892729
 20
-0.4783086665660102
 30
0.0
 10
0.1643584552385611
 20
-0.4781649957324659
 30
0.0
 10
0.1642747039502109
 20
-0.4780169976669227
 30
0.0
 10
0.1642311004440991
 20
-0.4779024717103336
 30
0.0
 10
0.1642098462224005
 20
-0.477846646840073
 30
0.0
  0
SPLINE
  5
17F
330
1F
100
AcDbEntity
  8
0
  6
Continuous
 62
     7
370
    25
100
AcDbSpline
210
0.0
220
0.0
230
1.0
 70
     8
 71
     3
 72
    22
 73
    18
 74
     0
 42
0.000000001
 43
0.00000001
 40
0.0
 40
0.0
 40
0.0
 40
0.0
 40
0.0133550195510681
 40
0.0448243856185115
 40
0.0661602309086807
 40
0.0780654454632689
 40
0.092102943447556
 40
0.1184308843333428
 40
0.5349344338337749
 40
0.7698643508712432
 40
0.8875875944419218
 40
0.9244613636410987
 40
0.940923291023858
 40
0.9507227342297365
 40
0.9775654072953965
 40
0.9917305815216793
 40
1.0
 40
1.0
 40
1.0
 40
1.0
 10
0.1638591287672518
 20
-0.4713465815133823
 30
0.0
 10
0.1638806209344447
 20
-0.4712882399759789
 30
0.0
 10
0.1639527565974697
 20
-0.4710924241959909
 30
0.0
 10
0.1640956632751034
 20
-0.4709029310426184
 30
0.0
 10
0.1642304523790592
 20
-0.4707116593060987
 30
0.0
 10
0.1643318322824599
 20
-0.4705782702796816
 30
0.0
 10
0.1644623784201611
 20
-0.470518728405704
 30
0.0
 10
0.1656508762072953
 20
-0.470958817830725
 30
0.0
 10
0.167391309305526
 20
-0.4714113208752281
 30
0.0
 10
0.1693793206659361
 20
-0.4720401912788856
 30
0.0
 10
0.1703849390368065
 20
-0.472346568427691
 30
0.0
 10
0.1708265669878391
 20
-0.4724828325241674
 30
0.0
 10
0.1709896162471723
 20
-0.4725322508891938
 30
0.0
 10
0.1711266370545134
 20
-0.4725766627272953
 30
0.0
 10
0.1712587921652114
 20
-0.4726050523518037
 30
0.0
 10
0.171383406783283
 20
-0.4727333059262681
 30
0.0
 10
0.1714320647025913
 20
-0.4728256623384638
 30
0.0
 10
0.1714500000715254
 20
-0.4728597050256504
 30
0.0
  0
SPLINE
  5
180
330
1F
100
AcDbEntity
  8
0
  6
Continuous
 62
     7
370
    25
100
AcDbSpline
210
0.0
220
0.0
230
1.0
 70
     8
 71
     3
 72
    18
 73
    14
 74
     0
 42
0.000000001
 43
0.00000001
 40
0.0
 40
0.0
 40
0.0
 40
0.0
 40
0.0690426293137712
 40
0.1380866414570766
 40
0.2071291875850128
 40
0.2761727911751021
 40
0.3451092399703755
 40
0.4141533352977496
 40
0.5124640148089542
 40
0.6592073775159731
 40
0.7661356536237006
 40
0.8839453218042853
 40
1.0
 40
1.0
 40
1.0
 40
1.0
 10
0.1679082361996172
 20
-0.4854355102128757
 30
0.0
 10
0.1677349326110485
 20
-0.4853823006792387
 30
0.0
 10
0.1673883219628768
 20
-0.48527588054625
 30
0.0
 10
0.1668684410936568
 20
-0.4851162951176709
 30
0.0
 10
0.1663485099730098
 20
-0.4849565514253386
 30
0.0
 10
0.1658289406368807
 20
-0.4847974559411725
 30
0.0
 10
0.1653090960237727
 20
-0.4846366291177333
 30
0.0
 10
0.1647168807277229
 20
-0.4844598534251801
 30
0.0
 10
0.1639229644022394
 20
-0.4841844249840855
 30
0.0
 10
0.1630780983793827
 20
-0.4830960605627497
 30
0.0
 10
0.162323617155084
 20
-0.4815287395471333
 30
0.0
 10
0.1617127724106912
 20
-0.479837961588745
 30
0.0
 10
0.1614609340766457
 20
-0.4784666158769001
 30
0.0
 10
0.1613359598457812
 20
-0.4777860885209811
 30
0.0
  0
SPLINE
  5
181
330
1F
100
AcDbEntity
  8
0
  6
Continuous
 62
     7
370
    25
100
AcDbSpline
210
0.0
220
0.0
230
1.0
 70
     8
 71
     3
 72
    26
 73
    22
 74
     0
 42
0.000000001
 43
0.00000001
 40
0.0
 40
0.0
 40
0.0
 40
0.0
 40
0.0282780000634675
 40
0.1402299738871581
 40
0.1928125420359519
 40
0.2487491695830088
 40
0.3040467940599008
 40
0.3748006884931473
 40
0.4438414145048196
 40
0.49463288640864
 40
0.545423224120715
 40
0.5962142285451018
 40
0.6470043085796723
 40
0.6977953130040591
 40
0.7413297409338195
 40
0.7848650932521494
 40
0.8283995211819098
 40
0.8719348735002397
 40
0.915318446993135
 40
0.9589343041943542
 40
1.0
 40
1.0
 40
1.0
 40
1.0
 10
0.1610403543353079
 20
-0.4708062058038486
 30
0.0
 10
0.1610547426610199
 20
-0.4705406180588462
 30
0.0
 10
0.1611260940484712
 20
-0.4692235743335886
 30
0.0
 10
0.1615587535898641
 20
-0.4677360809231986
 30
0.0
 10
0.1621100506673772
 20
-0.4662752481448212
 30
0.0
 10
0.1626210684690833
 20
-0.4654484865436435
 30
0.0
 10
0.1632231687856499
 20
-0.4646668065393444
 30
0.0
 10
0.1639739624422635
 20
-0.4642967948492334
 30
0.0
 10
0.16473699114334
 20
-0.4645213326285779
 30
0.0
 10
0.1654153486343369
 20
-0.4647315445090498
 30
0.0
 10
0.1660221148376294
 20
-0.4649174416300679
 30
0.0
 10
0.1666285974524524
 20
-0.4651037240682657
 30
0.0
 10
0.1672351815800097
 20
-0.4652899175060053
 30
0.0
 10
0.1678128289969083
 20
-0.4654672365873738
 30
0.0
 10
0.1683616314107632
 20
-0.465635774315895
 30
0.0
 10
0.1688815160647584
 20
-0.4657952493367168
 30
0.0
 10
0.1694014309482423
 20
-0.4659553978429172
 30
0.0
 10
0.1699207321295576
 20
-0.4661128853922907
 30
0.0
 10
0.1704403028387075
 20
-0.4662796684327886
 30
0.0
 10
0.1709503461403251
 20
-0.4664093085963558
 30
0.0
 10
0.1712868264312229
 20
-0.4665766774453986
 30
0.0
 10
0.1714500000715254
 20
-0.466657841736771
 30
0.0
  0
SPLINE
  5
182
330
1F
100
AcDbEntity
  8
0
  6
Continuous
 62
     7
370
    25
100
AcDbSpline
210
0.0
220
0.0
230
1.0
 70
     8
 71
     3
 72
    13
 73
     9
 74
     0
 42
0.000000001
 43
0.00000001
 40
0.0
 40
0.0
 40
0.0
 40
0.0
 40
0.1439657577859149
 40
0.315174868806172
 40
0.4863791112684192
 40
0.6575868233030006
 40
0.8287922879654187
 40
1.0
 40
1.0
 40
1.0
 40
1.0
 10
0.1714500000715254
 20
-0.4864535575456394
 30
0.0
 10
0.1712804186197384
 20
-0.48643031512261
 30
0.0
 10
0.1709091649783106
 20
-0.4863794319977497
 30
0.0
 10
0.1703343443623152
 20
-0.4861738697503954
 30
0.0
 10
0.1697279114302593
 20
-0.4859959235820444
 30
0.0
 10
0.169121338632786
 20
-0.4858075370613862
 30
0.0
 10
0.1685147842599321
 20
-0.4856218096449871
 30
0.0
 10
0.1681104197710487
 20
-0.4854976102953003
 30
0.0
 10
0.1679082361996172
 20
-0.4854355102128757
 30
0.0
  0
SPLINE
  5
183
330
1F
100
AcDbEntity
  8
0
  6
Continuous
 62
     7
370
    25
100
AcDbSpline
210
0.0
220
0.0
230
1.0
 70
     8
 71
     3
 72
    11
 73
     7
 74
     0
 42
0.000000001
 43
0.00000001
 40
0.0
 40
0.0
 40
0.0
 40
0.0
 40
0.3570449020849563
 40
0.6548140137132306
 40
0.9525803847055192
 40
1.0
 40
1.0
 40
1.0
 40
1.0
 10
0.1694144492983816
 20
-0.4640684967584385
 30
0.0
 10
0.169656250474735
 20
-0.4641004814290232
 30
0.0
 10
0.1700997095407625
 20
-0.4641591407472229
 30
0.0
 10
0.1707469385701141
 20
-0.4643850935127967
 30
0.0
 10
0.1711834093243598
 20
-0.4645132469317798
 30
0.0
 10
0.1714178007584724
 20
-0.4645854265968514
 30
0.0
 10
0.1714500000715254
 20
-0.464595342213608
 30
0.0
  0
SPLINE
  5
184
330
1F
100
AcDbEntity
  8
0
  6
Continuous
 62
     7
370
    25
100
AcDbSpline
210
0.0
220
0.0
230
1.0
 70
     8
 71
     3
 72
    23
 73
    19
 74
     0
 42
0.000000001
 43
0.00000001
 40
0.0
 40
0.0
 40
0.0
 40
0.0
 40
0.1150603762274676
 40
0.2349728312908139
 40
0.2912938760368064
 40
0.3512092629147904
 40
0.4104388444367119
 40
0.4862244611489407
 40
0.5601743200856205
 40
0.614577971898665
 40
0.6689797908363029
 40
0.7233825998981417
 40
0.7777844188357794
 40
0.8321872278976182
 40
0.8788174372648104
 40
0.9254486929360309
 40
0.9720789023032231
 40
1.0
 40
1.0
 40
1.0
 40
1.0
 10
0.2603499999284743
 20
-0.0489329939431919
 30
0.0
 10
0.261257191765411
 20
-0.0489813735906374
 30
0.0
 10
0.2631098315832014
 20
-0.0490801730480168
 30
0.0
 10
0.2646930765940465
 20
-0.0490488731918712
 30
0.0
 10
0.2656156107021201
 20
-0.0489711417520801
 30
0.0
 10
0.2660049945196494
 20
-0.048872046931617
 30
0.0
 10
0.2662839859148164
 20
-0.0487430714818051
 30
0.0
 10
0.2660814316873488
 20
-0.04854756917737
 30
0.0
 10
0.2653271785247241
 20
-0.0483138111665475
 30
0.0
 10
0.2646470447925637
 20
-0.0481054789460202
 30
0.0
 10
0.2640406987569175
 20
-0.0479192266129437
 30
0.0
 10
0.2634341044844054
 20
-0.047733038784387
 30
0.0
 10
0.2628275506764687
 20
-0.0475468233050793
 30
0.0
 10
0.2622498950728193
 20
-0.0473694983878243
 30
0.0
 10
0.2617010953093413
 20
-0.0472009993094293
 30
0.0
 10
0.2611812062046563
 20
-0.0470413795435224
 30
0.0
 10
0.2607308239866329
 20
-0.0469031207695218
 30
0.0
 10
0.2604537647006386
 20
-0.0468180243288993
 30
0.0
 10
0.2603499999284743
 20
-0.0467861538476719
 30
0.0
  0
SPLINE
  5
185
330
1F
100
AcDbEntity
  8
0
  6
Continuous
 62
     7
370
    25
100
AcDbSpline
210
0.0
220
0.0
230
1.0
 70
     8
 71
     3
 72
    20
 73
    16
 74
     0
 42
0.000000001
 43
0.00000001
 40
0.0
 40
0.0
 40
0.0
 40
0.0
 40
0.0165029005399349
 40
0.132074277002889
 40
0.2448460667752891
 40
0.3278104070859368
 40
0.4107719523029847
 40
0.4937350074370771
 40
0.5766973945780041
 40
0.6596604497120965
 40
0.7307705515325222
 40
0.8018820775911318
 40
0.8729920937347336
 40
0.9441027783734341
 40
1.0
 40
1.0
 40
1.0
 40
1.0
 10
0.2667758462965487
 20
-0.0429803972787632
 30
0.0
 10
0.2667901831749381
 20
-0.0429731076192492
 30
0.0
 10
0.2669049225713961
 20
-0.0429147677833183
 30
0.0
 10
0.2666776954191191
 20
-0.042756369272807
 30
0.0
 10
0.265948364670908
 20
-0.0425254583813927
 30
0.0
 10
0.2652633616172094
 20
-0.0423165738746931
 30
0.0
 10
0.2646581814615526
 20
-0.0421304401137623
 30
0.0
 10
0.2640512701889016
 20
-0.0419442706206323
 30
0.0
 10
0.2634448082366663
 20
-0.0417578600778012
 30
0.0
 10
0.2628671277547342
 20
-0.041580586703684
 30
0.0
 10
0.2623183273693544
 20
-0.0414120701987352
 30
0.0
 10
0.2617984408631019
 20
-0.041252475497765
 30
0.0
 10
0.2612785324844791
 20
-0.0410927859140455
 30
0.0
 10
0.2607956923058047
 20
-0.040944769013576
 30
0.0
 10
0.2604862069658606
 20
-0.0408496643287923
 30
0.0
 10
0.2603499999284743
 20
-0.0408078079767002
 30
0.0
  0
SPLINE
  5
186
330
1F
100
AcDbEntity
  8
0
  6
Continuous
 62
     7
370
    25
100
AcDbSpline
210
0.0
220
0.0
230
1.0
 70
     8
 71
     3
 72
    18
 73
    14
 74
     0
 42
0.000000001
 43
0.00000001
 40
0.0
 40
0.0
 40
0.0
 40
0.0
 40
0.0669629735009215
 40
0.1339245251732836
 40
0.2008874986742051
 40
0.2678491310251184
 40
0.3347077832185094
 40
0.401670837396269
 40
0.4970181260359243
 40
0.6393370299654917
 40
0.7430432866883855
 40
0.8573055898959419
 40
1.0
 40
1.0
 40
1.0
 40
1.0
 10
0.2650421855986117
 20
0.4949318522863613
 30
0.0
 10
0.2652154848497194
 20
0.4949850605380875
 30
0.0
 10
0.2655620796722621
 20
0.4950914759117664
 30
0.0
 10
0.2660819963098945
 20
0.4952510784387221
 30
0.0
 10
0.2666018854560012
 20
0.4954107846301308
 30
0.0
 10
0.267121515579934
 20
0.4955699910764949
 30
0.0
 10
0.2676412255269021
 20
0.4957307826185212
 30
0.0
 10
0.2682339766039494
 20
0.4959075897318897
 30
0.0
 10
0.2690245248085399
 20
0.4961828675810652
 30
0.0
 10
0.2697774877121811
 20
0.4972720011274706
 30
0.0
 10
0.2703869709169677
 20
0.4988372701161017
 30
0.0
 10
0.2708645514082967
 20
0.5006914465901542
 30
0.0
 10
0.2709844749142888
 20
0.5022495064323145
 30
0.0
 10
0.2710510713994502
 20
0.5031147355489956
 30
0.0
  0
SPLINE
  5
187
330
1F
100
AcDbEntity
  8
0
  6
Continuous
 62
     7
370
    25
100
AcDbSpline
210
0.0
220
0.0
230
1.0
 70
     8
 71
     3
 72
    24
 73
    20
 74
     0
 42
0.000000001
 43
0.00000001
 40
0.0
 40
0.0
 40
0.0
 40
0.0
 40
0.0262006241487195
 40
0.1494953090138195
 40
0.2074057110833553
 40
0.269011431392746
 40
0.3299122417717628
 40
0.4078361923912076
 40
0.4838726621199559
 40
0.5398123676357878
 40
0.5957493538395445
 40
0.6516874158746495
 40
0.7076244020784062
 40
0.7635624063467211
 40
0.811508475595636
 40
0.8594555629077361
 40
0.9074016321566509
 40
0.9553477014055659
 40
1.0
 40
1.0
 40
1.0
 40
1.0
 10
0.270509291255474
 20
0.509687578146957
 30
0.0
 10
0.2704718597076579
 20
0.5099106979935835
 30
0.0
 10
0.2702582830853663
 20
0.5111837734069491
 30
0.0
 10
0.2696572279616093
 20
0.5126323535516037
 30
0.0
 10
0.2689272566322159
 20
0.5140941679041735
 30
0.0
 10
0.2683078080420424
 20
0.5149208701677948
 30
0.0
 10
0.2675993470283038
 20
0.5157026672993996
 30
0.0
 10
0.2667824448444031
 20
0.5160726906295541
 30
0.0
 10
0.266018328681468
 20
0.5158482827588275
 30
0.0
 10
0.2653402184041681
 20
0.5156379215225866
 30
0.0
 10
0.2647333857260868
 20
0.5154521534470904
 30
0.0
 10
0.2641269158276314
 20
0.5152658358597155
 30
0.0
 10
0.263520328303107
 20
0.5150796550014507
 30
0.0
 10
0.2629426816988664
 20
0.5149023214680248
 30
0.0
 10
0.2623938791511448
 20
0.5147338231313698
 30
0.0
 10
0.2618739943390605
 20
0.5145742079703624
 30
0.0
 10
0.2613540838945632
 20
0.5144145838310694
 30
0.0
 10
0.2608460882828529
 20
0.5142586176594974
 30
0.0
 10
0.2605113943020235
 20
0.514155860095528
 30
0.0
 10
0.2603499999284743
 20
0.5141063088827358
 30
0.0
  0
SPLINE
  5
188
330
1F
100
AcDbEntity
  8
0
  6
Continuous
 62
     7
370
    25
100
AcDbSpline
210
0.0
220
0.0
230
1.0
 70
     8
 71
     3
 72
    14
 73
    10
 74
     0
 42
0.000000001
 43
0.00000001
 40
0.0
 40
0.0
 40
0.0
 40
0.0
 40
0.1712624835000368
 40
0.3488022941223267
 40
0.4790454228042089
 40
0.6092832727632702
 40
0.7395213917220702
 40
0.8697618810411999
 40
1.0
 40
1.0
 40
1.0
 40
1.0
 10
0.2603499999284743
 20
0.4942275638036955
 30
0.0
 10
0.260624921376766
 20
0.4940632862875117
 30
0.0
 10
0.2611848410387247
 20
0.493728709949795
 30
0.0
 10
0.2619374518296192
 20
0.4939823920781684
 30
0.0
 10
0.2626156397703404
 20
0.4941860749587999
 30
0.0
 10
0.2632226186105761
 20
0.4943734933295303
 30
0.0
 10
0.2638290659865402
 20
0.4945593765513943
 30
0.0
 10
0.2644356323323235
 20
0.4947456621599849
 30
0.0
 10
0.2648400024031074
 20
0.4948697892874219
 30
0.0
 10
0.2650421855986117
 20
0.4949318522863613
 30
0.0
  0
SPLINE
  5
189
330
1F
100
AcDbEntity
  8
0
  6
Continuous
 62
     7
370
    25
100
AcDbSpline
210
0.0
220
0.0
230
1.0
 70
     8
 71
     3
 72
    15
 73
    11
 74
     0
 42
0.000000001
 43
0.00000001
 40
0.0
 40
0.0
 40
0.0
 40
0.0
 40
0.0296806064717464
 40
0.2407366265872369
 40
0.6861535134587691
 40
0.7051246031211562
 40
0.7781473552132129
 40
0.8399778394902183
 40
0.9498513415455281
 40
1.0
 40
1.0
 40
1.0
 40
1.0
 10
0.2667610159158705
 20
0.5017562264852748
 30
0.0
 10
0.2667758837620406
 20
0.5017607848846264
 30
0.0
 10
0.266896475473501
 20
0.5017977576359596
 30
0.0
 10
0.2672393708606611
 20
0.5019094892044724
 30
0.0
 10
0.2675823404859464
 20
0.5019785038000855
 30
0.0
 10
0.2678445808448096
 20
0.502117223210885
 30
0.0
 10
0.2679124504964376
 20
0.5022027638464328
 30
0.0
 10
0.2679969230000588
 20
0.5023985888188083
 30
0.0
 10
0.2680735443923015
 20
0.5025760595977056
 30
0.0
 10
0.2681231752496049
 20
0.5027164493866934
 30
0.0
 10
0.2681387288510798
 20
0.5027604455404506
 30
0.0
  0
SPLINE
  5
18A
330
1F
100
AcDbEntity
  8
0
  6
Continuous
 62
     7
370
    25
100
AcDbSpline
210
0.0
220
0.0
230
1.0
 70
     8
 71
     3
 72
    19
 73
    15
 74
     0
 42
0.000000001
 43
0.00000001
 40
0.0
 40
0.0
 40
0.0
 40
0.0
 40
0.0700588512247454
 40
0.0825506576428141
 40
0.0973210246954401
 40
0.1258771429174166
 40
0.1360363467878616
 40
0.1534577592226374
 40
0.188676965008298
 40
0.339837236260605
 40
0.5632676732825151
 40
0.8855485171892717
 40
0.9430506452170283
 40
1.0
 40
1.0
 40
1.0
 40
1.0
 10
0.2676711043357848
 20
0.5089669579916225
 30
0.0
 10
0.2675183180004756
 20
0.5092273245861259
 30
0.0
 10
0.2673382891784479
 20
0.5095341157085709
 30
0.0
 10
0.2671037850943628
 20
0.5097901708475454
 30
0.0
 10
0.2669603046036149
 20
0.509851795051933
 30
0.0
 10
0.2668289742657846
 20
0.5097970344666818
 30
0.0
 10
0.2666912081759184
 20
0.5097569759450549
 30
0.0
 10
0.2665370734369486
 20
0.5097089165997759
 30
0.0
 10
0.2660370194495686
 20
0.5095560914848003
 30
0.0
 10
0.2650313654589728
 20
0.5092463916215781
 30
0.0
 10
0.263321154218992
 20
0.5087235557923562
 30
0.0
 10
0.2618416934205496
 20
0.5082620865481746
 30
0.0
 10
0.2607690674750746
 20
0.5079415117904487
 30
0.0
 10
0.2604892386085439
 20
0.5078459162463942
 30
0.0
 10
0.2603499999284743
 20
0.5077983493261562
 30
0.0
  0
SPLINE
  5
18B
330
1F
100
AcDbEntity
  8
0
  6
Continuous
 62
     7
370
    25
100
AcDbSpline
210
0.0
220
0.0
230
1.0
 70
     8
 71
     3
 72
     9
 73
     5
 74
     0
 42
0.000000001
 43
0.00000001
 40
0.0
 40
0.0
 40
0.0
 40
0.0
 40
0.5696543488911842
 40
1.0
 40
1.0
 40
1.0
 40
1.0
 10
0.2610546609401702
 20
0.5155512446813808
 30
0.0
 10
0.260919631849206
 20
0.5155336163684925
 30
0.0
 10
0.2606825949667053
 20
0.5155026707381773
 30
0.0
 10
0.2604500672291104
 20
0.5154242006227103
 30
0.0
 10
0.2603499999284743
 20
0.5153904313497768
 30
0.0
  0
SPLINE
  5
18C
330
1F
100
AcDbEntity
  8
0
  6
Continuous
 62
     7
370
    25
100
AcDbSpline
210
0.0
220
0.0
230
1.0
 70
     8
 71
     3
 72
    19
 73
    15
 74
     0
 42
0.000000001
 43
0.00000001
 40
0.0
 40
0.0
 40
0.0
 40
0.0
 40
0.0640512073704935
 40
0.128103774772731
 40
0.1921549821432246
 40
0.2562075495454621
 40
0.3201586748105458
 40
0.384211550897093
 40
0.4754153704799139
 40
0.6115494459031781
 40
0.7107474005855122
 40
0.8200422990733292
 40
0.9847240086820919
 40
1.0
 40
1.0
 40
1.0
 40
1.0
 10
0.2786232193946837
 20
0.5108261460714565
 30
0.0
 10
0.2787965202525287
 20
0.5108793533366267
 30
0.0
 10
0.2791431256480036
 20
0.5109857689967445
 30
0.0
 10
0.2796630255443212
 20
0.5111453885811574
 30
0.0
 10
0.2801828883134764
 20
0.5113050023232237
 30
0.0
 10
0.2807027123377478
 20
0.5114645833412936
 30
0.0
 10
0.2812215734282585
 20
0.511623946407443
 30
0.0
 10
0.2818182194531785
 20
0.5118060628841721
 30
0.0
 10
0.2825842292380766
 20
0.5120482568336546
 30
0.0
 10
0.2826605615176998
 20
0.5122563196747019
 30
0.0
 10
0.2822077095972855
 20
0.5124119556959701
 30
0.0
 10
0.2812070151577759
 20
0.5125083930105214
 30
0.0
 10
0.2801577886316988
 20
0.5125525826960169
 30
0.0
 10
0.2791675448556283
 20
0.5125064982599485
 30
0.0
 10
0.2790834864616393
 20
0.5125025863104091
 30
0.0
  0
SPLINE
  5
18D
330
1F
100
AcDbEntity
  8
0
  6
Continuous
 62
     7
370
    25
100
AcDbSpline
210
0.0
220
0.0
230
1.0
 70
     8
 71
     3
 72
    20
 73
    16
 74
     0
 42
0.000000001
 43
0.00000001
 40
0.0
 40
0.0
 40
0.0
 40
0.0
 40
0.0710324442921223
 40
0.210251348618896
 40
0.3423094874692729
 40
0.4043352288092441
 40
0.4703185947133811
 40
0.5355902988596946
 40
0.6187631611512284
 40
0.7004354111801224
 40
0.7603491198757131
 40
0.8202610808265626
 40
0.8801741940611151
 40
0.9400868248935901
 40
1.0
 40
1.0
 40
1.0
 40
1.0
 10
0.2610428666710852
 20
0.5080224627905117
 30
0.0
 10
0.2615121726044701
 20
0.5080403575831465
 30
0.0
 10
0.262901287204036
 20
0.5080933249887074
 30
0.0
 10
0.2657404525843785
 20
0.5083371260237342
 30
0.0
 10
0.2684825199791639
 20
0.5086421532584786
 30
0.0
 10
0.2705410244323659
 20
0.5089132886175993
 30
0.0
 10
0.2719550269426602
 20
0.5091284593180263
 30
0.0
 10
0.2734426710895323
 20
0.5093714742803317
 30
0.0
 10
0.2747472129772659
 20
0.5096378679044733
 30
0.0
 10
0.2755192237297515
 20
0.5098727929045199
 30
0.0
 10
0.2761964936266937
 20
0.5100811239125493
 30
0.0
 10
0.2768037041259231
 20
0.5102674468951576
 30
0.0
 10
0.2774100717894578
 20
0.5104535673404498
 30
0.0
 10
0.2780166758658232
 20
0.5106399842509013
 30
0.0
 10
0.2784210376061649
 20
0.510764091943364
 30
0.0
 10
0.2786232193946837
 20
0.5108261460714565
 30
0.0
  0
SPLINE
  5
18E
330
1F
100
AcDbEntity
  8
0
  6
Continuous
 62
     7
370
    25
100
AcDbSpline
210
0.0
220
0.0
230
1.0
 70
     8
 71
     3
 72
    23
 73
    19
 74
     0
 42
0.000000001
 43
0.00000001
 40
0.0
 40
0.0
 40
0.0
 40
0.0
 40
0.281182325076317
 40
0.3182249046744097
 40
0.3392484324858571
 40
0.383830718303756
 40
0.4779164781739934
 40
0.4819238142331854
 40
0.497347801412321
 40
0.510407013283687
 40
0.5336150639262298
 40
0.5678803239196151
 40
0.6081790780191233
 40
0.6851759950132253
 40
0.7662990871522568
 40
0.8474517144310306
 40
0.9243955785788166
 40
1.0
 40
1.0
 40
1.0
 40
1.0
 10
0.2730458041667937
 20
0.5104662532263027
 30
0.0
 10
0.273712813681486
 20
0.510670921928299
 30
0.0
 10
0.2744676941284426
 20
0.5109025534085674
 30
0.0
 10
0.275271621656217
 20
0.5111497063042669
 30
0.0
 10
0.2755156253174648
 20
0.5112244276417728
 30
0.0
 10
0.2758881712283923
 20
0.5113401931289832
 30
0.0
 10
0.2762596493011489
 20
0.5114470638568092
 30
0.0
 10
0.2764760462828749
 20
0.511525399447138
 30
0.0
 10
0.2764930922134206
 20
0.5115446623007203
 30
0.0
 10
0.2764458262694555
 20
0.5115663729135433
 30
0.0
 10
0.2763707399292951
 20
0.5115947170947426
 30
0.0
 10
0.2762545127049003
 20
0.5116328054752901
 30
0.0
 10
0.2758628811557343
 20
0.5116631252137387
 30
0.0
 10
0.2751736464638727
 20
0.5116746210877496
 30
0.0
 10
0.2740024259477981
 20
0.5116219037010008
 30
0.0
 10
0.2726548328437702
 20
0.5115112880867214
 30
0.0
 10
0.271272535078541
 20
0.5113603802542368
 30
0.0
 10
0.2704881152630704
 20
0.5112397465070777
 30
0.0
 10
0.2700993491351603
 20
0.5111799592428432
 30
0.0
  0
SPLINE
  5
18F
330
1F
100
AcDbEntity
  8
0
  6
Continuous
 62
     7
370
    25
100
AcDbSpline
210
0.0
220
0.0
230
1.0
 70
     8
 71
     3
 72
     9
 73
     5
 74
     0
 42
0.000000001
 43
0.00000001
 40
0.0
 40
0.0
 40
0.0
 40
0.0
 40
0.4975981134207286
 40
1.0
 40
1.0
 40
1.0
 40
1.0
 10
0.2645713238060473
 20
0.5088423842840419
 30
0.0
 10
0.2647126682145934
 20
0.5088470861478043
 30
0.0
 10
0.2649967215595195
 20
0.508856535266754
 30
0.0
 10
0.265353676424364
 20
0.5088884555256223
 30
0.0
 10
0.2655330112218856
 20
0.5089044923238979
 30
0.0
  0
ARC
  5
190
330
1F
100
AcDbEntity
  8
0
  6
Continuous
 62
     7
370
    25
100
AcDbCircle
 10
0.2632850541
 20
0.5378448637
 30
0.0
 40
0.0290664850923263
100
AcDbArc
 50
279.5070772363
 51
289.621662384
  0
LINE
  5
191
330
1F
100
AcDbEntity
  8
0
  6
Continuous
 62
     7
370
    25
100
AcDbLine
 10
0.2730458042
 20
0.5104662532
 30
0.0
 11
0.2786232194
 21
0.5108261461
 31
0.0
  0
SPLINE
  5
192
330
1F
100
AcDbEntity
  8
0
  6
Continuous
 62
     7
370
    25
100
AcDbSpline
210
0.0
220
0.0
230
1.0
 70
     8
 71
     3
 72
    15
 73
    11
 74
     0
 42
0.000000001
 43
0.00000001
 40
0.0
 40
0.0
 40
0.0
 40
0.0
 40
0.1077676457226419
 40
0.2155352914452838
 40
0.3233052254529584
 40
0.4310728711756003
 40
0.5386756899656016
 40
0.6464438550677999
 40
0.7998987523941192
 40
1.0
 40
1.0
 40
1.0
 40
1.0
 10
0.2792404552936553
 20
0.505037223761581
 30
0.0
 10
0.2794137561818725
 20
0.5050904309481363
 30
0.0
 10
0.2797603579583071
 20
0.5051968453212474
 30
0.0
 10
0.2802802573991045
 20
0.5053564660849277
 30
0.0
 10
0.2808001844547553
 20
0.5055160945517345
 30
0.0
 10
0.2813196767395933
 20
0.5056755924402698
 30
0.0
 10
0.2818398830382055
 20
0.5058352987073902
 30
0.0
 10
0.2824306458959133
 20
0.5060167245241587
 30
0.0
 10
0.2831864729998924
 20
0.5062484400475507
 30
0.0
 10
0.2831588418503109
 20
0.5063729487028104
 30
0.0
 10
0.2831432035207747
 20
0.5064434165411222
 30
0.0
  0
SPLINE
  5
193
330
1F
100
AcDbEntity
  8
0
  6
Continuous
 62
     7
370
    25
100
AcDbSpline
210
0.0
220
0.0
230
1.0
 70
     8
 71
     3
 72
    18
 73
    14
 74
     0
 42
0.000000001
 43
0.00000001
 40
0.0
 40
0.0
 40
0.0
 40
0.0
 40
0.1559122479444415
 40
0.235517598436837
 40
0.3202014272577093
 40
0.4039719009980689
 40
0.5107169319058759
 40
0.615536059364615
 40
0.6924300186478122
 40
0.7693217348548271
 40
0.8462135304699522
 40
0.9231068049385114
 40
1.0
 40
1.0
 40
1.0
 40
1.0
 10
0.2666713891565798
 20
0.5025967711858974
 30
0.0
 10
0.2676724002114654
 20
0.5027025880290812
 30
0.0
 10
0.2691845054037361
 20
0.5028624326154394
 30
0.0
 10
0.2711580407218058
 20
0.5031248821468843
 30
0.0
 10
0.2725723208154582
 20
0.5033395491854975
 30
0.0
 10
0.2740598866928494
 20
0.5035827085293598
 30
0.0
 10
0.2753644549229484
 20
0.5038490542758354
 30
0.0
 10
0.2761364580990536
 20
0.5040839905719823
 30
0.0
 10
0.2768137308831634
 20
0.5042923237449157
 30
0.0
 10
0.2774209321291747
 20
0.504478629931046
 30
0.0
 10
0.2780273176605369
 20
0.5046648105461389
 30
0.0
 10
0.2786339126591446
 20
0.5048510198862941
 30
0.0
 10
0.2790382744850819
 20
0.5049751558245184
 30
0.0
 10
0.2792404552936553
 20
0.5050372237615812
 30
0.0
  0
LINE
  5
194
330
1F
100
AcDbEntity
  8
0
  6
Continuous
 62
     7
370
    25
100
AcDbLine
 10
0.2786232194
 20
0.5108261461
 30
0.0
 11
0.2792404553
 21
0.5050372238
 31
0.0
  0
SPLINE
  5
195
330
1F
100
AcDbEntity
  8
0
  6
Continuous
 62
     7
370
    25
100
AcDbSpline
210
0.0
220
0.0
230
1.0
 70
     8
 71
     3
 72
    31
 73
    27
 74
     0
 42
0.000000001
 43
0.00000001
 40
0.0
 40
0.0
 40
0.0
 40
0.0
 40
0.0164091511811333
 40
0.092029273138096
 40
0.1275463855153041
 40
0.1653303331144481
 40
0.2026824683937951
 40
0.2504745462218876
 40
0.2971092342809175
 40
0.3314175501041117
 40
0.3657247455006065
 40
0.4000327393454128
 40
0.4343405591398614
 40
0.4686477545363562
 40
0.4980539717434235
 40
0.5274608487768981
 40
0.5568670659839654
 40
0.5862739075881442
 40
0.6155782846467459
 40
0.6450391285362816
 40
0.6869137827547929
 40
0.7494133585685013
 40
0.7949558999345508
 40
0.8451336085465702
 40
0.9207396569047854
 40
1.0
 40
1.0
 40
1.0
 40
1.0
 10
0.1527845745921133
 20
-0.4678538089341892
 30
0.0
 10
0.1525843526369541
 20
-0.4678720326761984
 30
0.0
 10
0.1514614255095122
 20
-0.4679742389215083
 30
0.0
 10
0.1504338960660988
 20
-0.4682036345531006
 30
0.0
 10
0.1494864707320326
 20
-0.4684735125544889
 30
0.0
 10
0.1490940544363208
 20
-0.4686912940879949
 30
0.0
 10
0.1488082000115419
 20
-0.4689359617663135
 30
0.0
 10
0.1490073308380725
 20
-0.4692035665323155
 30
0.0
 10
0.1497614512896868
 20
-0.4694384684960568
 30
0.0
 10
0.1504416050275758
 20
-0.4696465847740829
 30
0.0
 10
0.1510479467693249
 20
-0.4698328632480825
 30
0.0
 10
0.1516545480984758
 20
-0.4700191417344003
 30
0.0
 10
0.1522610801771417
 20
-0.4702053267429105
 30
0.0
 10
0.1528387571452779
 20
-0.4703826646088721
 30
0.0
 10
0.1533875540565034
 20
-0.4705511606929665
 30
0.0
 10
0.1539074222157147
 20
-0.4707107769030176
 30
0.0
 10
0.1544274246393977
 20
-0.4708703982670052
 30
0.0
 10
0.1549463939188337
 20
-0.4710298513665152
 30
0.0
 10
0.1554672025050914
 20
-0.4711893103105124
 30
0.0
 10
0.1560548728040763
 20
-0.4713714487777065
 30
0.0
 10
0.1568781976492542
 20
-0.4716134824183986
 30
0.0
 10
0.1584846144256623
 20
-0.4718207300011369
 30
0.0
 10
0.1604663939425412
 20
-0.471972372645242
 30
0.0
 10
0.1628162840719442
 20
-0.4720722478067461
 30
0.0
 10
0.1658286883166712
 20
-0.4720983855466315
 30
0.0
 10
0.1679561853975254
 20
-0.4719907446412174
 30
0.0
 10
0.169045034611225
 20
-0.4719356542176975
 30
0.0
  0
SPLINE
  5
196
330
1F
100
AcDbEntity
  8
0
  6
Continuous
 62
     7
370
    25
100
AcDbSpline
210
0.0
220
0.0
230
1.0
 70
     8
 71
     3
 72
    31
 73
    27
 74
     0
 42
0.000000001
 43
0.00000001
 40
0.0
 40
0.0
 40
0.0
 40
0.0
 40
0.0212612517925547
 40
0.0467641868769154
 40
0.0954899006259037
 40
0.1468275883762825
 40
0.1981829124661233
 40
0.2468757675664968
 40
0.3085192437631262
 40
0.3166989615208408
 40
0.3263709015781071
 40
0.3450704628670318
 40
0.3517226413462861
 40
0.3631314481629123
 40
0.3861932913847696
 40
0.4851775629023164
 40
0.6314868516260304
 40
0.8425258273934927
 40
0.8801807616688797
 40
0.9339287998265333
 40
0.9364624256593918
 40
0.9462235802131194
 40
0.9544881587459584
 40
0.9691752838552177
 40
0.9908586373837589
 40
1.0
 40
1.0
 40
1.0
 40
1.0
 10
0.1614640614032744
 20
-0.4684251194543613
 30
0.0
 10
0.1612948765839336
 20
-0.4684121378330188
 30
0.0
 10
0.1609227540680261
 20
-0.4683835847180683
 30
0.0
 10
0.1600726513320394
 20
-0.4683549487094533
 30
0.0
 10
0.1589150187947166
 20
-0.4683449943099959
 30
0.0
 10
0.1575486520882133
 20
-0.4684002428363983
 30
0.0
 10
0.1563799756493535
 20
-0.4685129528424797
 30
0.0
 10
0.155447098764153
 20
-0.4686812817247091
 30
0.0
 10
0.15515525754521
 20
-0.4688311273057621
 30
0.0
 10
0.1550350322107604
 20
-0.4689316570654991
 30
0.0
 10
0.1550740144700548
 20
-0.4689786755110513
 30
0.0
 10
0.1552193834879736
 20
-0.4690184753196505
 30
0.0
 10
0.1553550648568998
 20
-0.4690609567034797
 30
0.0
 10
0.1555097893696419
 20
-0.4691081225026465
 30
0.0
 10
0.1560092996169551
 20
-0.4692619158071428
 30
0.0
 10
0.1570151219416949
 20
-0.4695703405917516
 30
0.0
 10
0.1587279630881022
 20
-0.4700954317845644
 30
0.0
 10
0.1601959530910267
 20
-0.4705505130522923
 30
0.0
 10
0.1613452203893745
 20
-0.4708974934741567
 30
0.0
 10
0.1616687397498999
 20
-0.4710075031062526
 30
0.0
 10
0.161963592409331
 20
-0.4710802091790863
 30
0.0
 10
0.1620958660075378
 20
-0.4710992707292886
 30
0.0
 10
0.16234867505048
 20
-0.4711207129569158
 30
0.0
 10
0.1626999856129407
 20
-0.4711482478375946
 30
0.0
 10
0.1630579008654765
 20
-0.4711781054037755
 30
0.0
 10
0.1633311978495422
 20
-0.47118718751565
 30
0.0
 10
0.1634122466683386
 20
-0.4711898809022678
 30
0.0
  0
SPLINE
  5
197
330
1F
100
AcDbEntity
  8
0
  6
Continuous
 62
     7
370
    25
100
AcDbSpline
210
0.0
220
0.0
230
1.0
 70
     8
 71
     3
 72
     9
 73
     5
 74
     0
 42
0.000000001
 43
0.00000001
 40
0.0
 40
0.0
 40
0.0
 40
0.0
 40
0.4975852269726355
 40
1.0
 40
1.0
 40
1.0
 40
1.0
 10
0.1660189701259135
 20
-0.4711806421823275
 30
0.0
 10
0.166197626890114
 20
-0.4711756165436115
 30
0.0
 10
0.1665566744552667
 20
-0.4711655164874932
 30
0.0
 10
0.1668429072694208
 20
-0.4711330154166264
 30
0.0
 10
0.166986714863777
 20
-0.4711166863984836
 30
0.0
  0
SPLINE
  5
198
330
1F
100
AcDbEntity
  8
0
  6
Continuous
 62
     7
370
    25
100
AcDbSpline
210
0.0
220
0.0
230
1.0
 70
     8
 71
     3
 72
    26
 73
    22
 74
     0
 42
0.000000001
 43
0.00000001
 40
0.0
 40
0.0
 40
0.0
 40
0.0
 40
0.0063959110734204
 40
0.0734779288262695
 40
0.1389362188304759
 40
0.1870922293958694
 40
0.235246812144457
 40
0.2834020270064471
 40
0.3315563654496556
 40
0.3797115803116457
 40
0.4209867973428897
 40
0.4622629405210767
 40
0.5035381575523208
 40
0.5448142510011642
 40
0.5859467672181793
 40
0.6272986594694527
 40
0.6860746140532722
 40
0.7738005884659586
 40
0.8377244985293727
 40
0.9081553083416848
 40
1.0
 40
1.0
 40
1.0
 40
1.0
 10
0.1489415204167364
 20
-0.4746768122262728
 30
0.0
 10
0.1489319763029789
 20
-0.4746858855500094
 30
0.0
 10
0.1488223309837526
 20
-0.4747901223081634
 30
0.0
 10
0.1490500319465187
 20
-0.4749920483250415
 30
0.0
 10
0.1497763144770972
 20
-0.4752266322628452
 30
0.0
 10
0.1504619248030893
 20
-0.4754347771118506
 30
0.0
 10
0.1510669577901309
 20
-0.4756211693152311
 30
0.0
 10
0.151673905150206
 20
-0.4758073200416885
 30
0.0
 10
0.1522803649926383
 20
-0.4759935456978638
 30
0.0
 10
0.152858043266518
 20
-0.4761708674809467
 30
0.0
 10
0.1534068435192641
 20
-0.4763393688557839
 30
0.0
 10
0.1539267119003891
 20
-0.4764989823557234
 30
0.0
 10
0.1544467137569388
 20
-0.4766586106181134
 30
0.0
 10
0.1549656861056033
 20
-0.4768180391774754
 30
0.0
 10
0.1554864881257684
 20
-0.4769775908185187
 30
0.0
 10
0.1560741697603106
 20
-0.477159738322362
 30
0.0
 10
0.1568974324040487
 20
-0.4774015410574462
 30
0.0
 10
0.1585042003253829
 20
-0.4776095407381319
 30
0.0
 10
0.1604848525923271
 20
-0.477759221152427
 30
0.0
 10
0.1627000705894397
 20
-0.4778608477264729
 30
0.0
 10
0.1643740302328887
 20
-0.4778559661983727
 30
0.0
 10
0.1653214579463003
 20
-0.4778532033509983
 30
0.0
  0
SPLINE
  5
199
330
1F
100
AcDbEntity
  8
0
  6
Continuous
 62
     7
370
    25
100
AcDbSpline
210
0.0
220
0.0
230
1.0
 70
     8
 71
     3
 72
    19
 73
    15
 74
     0
 42
0.000000001
 43
0.00000001
 40
0.0
 40
0.0
 40
0.0
 40
0.0
 40
0.0556960197495351
 40
0.1113908569023695
 40
0.1670868766519046
 40
0.222781713804739
 40
0.2783914347122864
 40
0.3340864060732462
 40
0.4133925705669123
 40
0.5317666434159865
 40
0.6180216149735912
 40
0.713057108104942
 40
0.8562547003400058
 40
1.0
 40
1.0
 40
1.0
 40
1.0
 10
0.1692698558807371
 20
-0.0461429005212559
 30
0.0
 10
0.1690965577452042
 20
-0.0461961073824157
 30
0.0
 10
0.1687499651537874
 20
-0.0463025199749911
 30
0.0
 10
0.1682300317828644
 20
-0.04646214336003
 30
0.0
 10
0.1677102064326298
 20
-0.0466217702258697
 30
0.0
 10
0.1671903375658622
 20
-0.0467812730881713
 30
0.0
 10
0.1666715339509266
 20
-0.0469409612702731
 30
0.0
 10
0.1660747694004803
 20
-0.0471224624103245
 30
0.0
 10
0.1653093637653565
 20
-0.0473682481976669
 30
0.0
 10
0.1652361056745568
 20
-0.0476766020826968
 30
0.0
 10
0.1657035659223996
 20
-0.0479899209206473
 30
0.0
 10
0.1666870297677338
 20
-0.0483094780068173
 30
0.0
 10
0.1684599910116271
 20
-0.0486487831705872
 30
0.0
 10
0.1703675972726386
 20
-0.0488070824120025
 30
0.0
 10
0.1713232209920882
 20
-0.0488863831109775
 30
0.0
  0
LWPOLYLINE
  5
19A
330
1F
100
AcDbEntity
  8
0
  6
Continuous
 62
     7
370
    25
100
AcDbPolyline
 90
        5
 70
   128
 43
0.0
 10
0.1714500001
 20
-0.0454736596
 10
0.1710895149
 20
-0.0455842858
 10
0.1704829631
 20
-0.0457704907
 10
0.1698764114
 20
-0.0459566956
 10
0.1692698559
 20
-0.0461429005
  0
SPLINE
  5
19B
330
1F
100
AcDbEntity
  8
0
  6
Continuous
 62
     7
370
    25
100
AcDbSpline
210
0.0
220
0.0
230
1.0
 70
     8
 71
     3
 72
    15
 73
    11
 74
     0
 42
0.000000001
 43
0.00000001
 40
0.0
 40
0.0
 40
0.0
 40
0.0
 40
0.108665382007889
 40
0.2173330713629002
 40
0.3259984533707891
 40
0.4346638353786781
 40
0.543163148325555
 40
0.6518312304506618
 40
0.8065618477655198
 40
0.9999999999999999
 40
0.9999999999999999
 40
0.9999999999999999
 40
0.9999999999999999
 10
0.1692891454339026
 20
-0.0403546934671177
 30
0.0
 10
0.1691158427510143
 20
-0.0404079011216258
 30
0.0
 10
0.1687692337054139
 20
-0.0405143175604263
 30
0.0
 10
0.1682493611852889
 20
-0.0406739313046617
 30
0.0
 10
0.1677293980677274
 20
-0.0408335661093408
 30
0.0
 10
0.1672099603214547
 20
-0.0409930649342187
 30
0.0
 10
0.1666895822755548
 20
-0.0411527580027783
 30
0.0
 10
0.1660995085557964
 20
-0.041334245559895
 30
0.0
 10
0.1653533679408043
 20
-0.0415614185290225
 30
0.0
 10
0.1653821034544077
 20
-0.0417530972643094
 30
0.0
 10
0.1653980685412882
 20
-0.0418595915384065
 30
0.0
  0
LWPOLYLINE
  5
19C
330
1F
100
AcDbEntity
  8
0
  6
Continuous
 62
     7
370
    25
100
AcDbPolyline
 90
        5
 70
   128
 43
0.0
 10
0.1714500001
 20
-0.0396912938
 10
0.1711088045
 20
-0.0397960787
 10
0.170502249
 20
-0.0399822836
 10
0.1698956972
 20
-0.0401684886
 10
0.1692891454
 20
-0.0403546935
  0
LINE
  5
19D
330
1F
100
AcDbEntity
  8
0
  6
Continuous
 62
     7
370
    25
100
AcDbLine
 10
0.1692698559
 20
-0.0461429005
 30
0.0
 11
0.1692891454
 21
-0.0403546935
 31
0.0
  0
SPLINE
  5
19E
330
1F
100
AcDbEntity
  8
0
  6
Continuous
 62
     7
370
    25
100
AcDbSpline
210
0.0
220
0.0
230
1.0
 70
     8
 71
     3
 72
    15
 73
    11
 74
     0
 42
0.000000001
 43
0.00000001
 40
0.0
 40
0.0
 40
0.0
 40
0.0
 40
0.1446457559187757
 40
0.3931786125704564
 40
0.504073601592016
 40
0.5693384038801149
 40
0.7487725279631499
 40
0.8438025517829887
 40
0.9238626548826263
 40
1.0
 40
1.0
 40
1.0
 40
1.0
 10
0.1653237862527369
 20
0.5014480704717861
 30
0.0
 10
0.165268120529263
 20
0.5014651483886923
 30
0.0
 10
0.1651168089903648
 20
0.501511569879818
 30
0.0
 10
0.1649228543647565
 20
0.5015713330286553
 30
0.0
 10
0.1647593380866586
 20
0.5016208333877576
 30
0.0
 10
0.1646227100812124
 20
0.5016654041410171
 30
0.0
 10
0.1644902385808094
 20
0.5016915038111414
 30
0.0
 10
0.1643584431902787
 20
0.5018349420196877
 30
0.0
 10
0.164274705268088
 20
0.5019829688762336
 30
0.0
 10
0.1642311008759744
 20
0.5020974900767987
 30
0.0
 10
0.1642098462224005
 20
0.5021533126287685
 30
0.0
  0
SPLINE
  5
19F
330
1F
100
AcDbEntity
  8
0
  6
Continuous
 62
     7
370
    25
100
AcDbSpline
210
0.0
220
0.0
230
1.0
 70
     8
 71
     3
 72
    22
 73
    18
 74
     0
 42
0.000000001
 43
0.00000001
 40
0.0
 40
0.0
 40
0.0
 40
0.0
 40
0.0133550459617625
 40
0.044822853566158
 40
0.0661587410497878
 40
0.0780639791479569
 40
0.0921021059794338
 40
0.118430349841271
 40
0.5349343259967464
 40
0.7698651048743038
 40
0.8875885812527745
 40
0.9244620263219364
 40
0.9409243851240545
 40
0.9507234448555852
 40
0.9775667086363269
 40
0.9917305651681962
 40
0.9999999999999999
 40
0.9999999999999999
 40
0.9999999999999999
 40
0.9999999999999999
 10
0.1638591287672518
 20
0.508653437560104
 30
0.0
 10
0.1638806205958848
 20
0.5087117806419998
 30
0.0
 10
0.1639527525144452
 20
0.5089075945256729
 30
0.0
 10
0.164095669583861
 20
0.5090970172491665
 30
0.0
 10
0.1642304515085954
 20
0.5092883096282459
 30
0.0
 10
0.1643318348408961
 20
0.5094216734572858
 30
0.0
 10
0.1644623746772147
 20
0.5094813396700861
 30
0.0
 10
0.1656508798710522
 20
0.5090404814711746
 30
0.0
 10
0.1673913083010802
 20
0.5085888341812506
 30
0.0
 10
0.1693793265605195
 20
0.5079598782999928
 30
0.0
 10
0.1703849285852891
 20
0.5076532170093486
 30
0.0
 10
0.1708265738241937
 20
0.5075172733555053
 30
0.0
 10
0.1709896114783525
 20
0.5074676623403576
 30
0.0
 10
0.1711266444042682
 20
0.5074234338618173
 30
0.0
 10
0.1712587781261423
 20
0.5073948476186361
 30
0.0
 10
0.17138341162082
 20
0.5072667186944042
 30
0.0
 10
0.1714320652194165
 20
0.5071743597211928
 30
0.0
 10
0.1714500000715254
 20
0.5071403140478359
 30
0.0
  0
SPLINE
  5
1A0
330
1F
100
AcDbEntity
  8
0
  6
Continuous
 62
     7
370
    25
100
AcDbSpline
210
0.0
220
0.0
230
1.0
 70
     8
 71
     3
 72
    18
 73
    14
 74
     0
 42
0.000000001
 43
0.00000001
 40
0.0
 40
0.0
 40
0.0
 40
0.0
 40
0.0690427596213872
 40
0.1380869020749184
 40
0.2071295785103136
 40
0.2761737209638448
 40
0.3451102998663344
 40
0.4141545255040914
 40
0.5124653905619706
 40
0.6592075098782605
 40
0.7661359877970847
 40
0.883951163104623
 40
1.0
 40
1.0
 40
1.0
 40
1.0
 10
0.1679082361996172
 20
0.4945644492559658
 30
0.0
 10
0.1677349325861429
 20
0.4946176583132296
 30
0.0
 10
0.1673883218881595
 20
0.4947240774934619
 30
0.0
 10
0.1668684413925305
 20
0.4948836700677717
 30
0.0
 10
0.1663485078267143
 20
0.4950433869216664
 30
0.0
 10
0.165828942767774
 20
0.4952025841354811
 30
0.0
 10
0.1653090957926366
 20
0.4953633846247639
 30
0.0
 10
0.1647168805525471
 20
0.495540166377275
 30
0.0
 10
0.1639229701523322
 20
0.4958156017788118
 30
0.0
 10
0.1630780956788765
 20
0.4969038968474389
 30
0.0
 10
0.1623235978965891
 20
0.4984712332630191
 30
0.0
 10
0.1617128036356827
 20
0.5001620727757345
 30
0.0
 10
0.1614609403477033
 20
0.501533390673893
 30
0.0
 10
0.1613359598457812
 20
0.5022138709478603
 30
0.0
  0
SPLINE
  5
1A1
330
1F
100
AcDbEntity
  8
0
  6
Continuous
 62
     7
370
    25
100
AcDbSpline
210
0.0
220
0.0
230
1.0
 70
     8
 71
     3
 72
    26
 73
    22
 74
     0
 42
0.000000001
 43
0.00000001
 40
0.0
 40
0.0
 40
0.0
 40
0.0
 40
0.0282799762599364
 40
0.1402286919592187
 40
0.1928112971242266
 40
0.2487501534186445
 40
0.3040469590108661
 40
0.3748005181810847
 40
0.4438411489775447
 40
0.4946329143898048
 40
0.5454230301787429
 40
0.5962140703581481
 40
0.6470041861470863
 40
0.6977952263264915
 40
0.7413296849029046
 40
0.7848650678685378
 40
0.828399526444951
 40
0.8719349094105842
 40
0.9153185134439361
 40
0.958934659059674
 40
1.0
 40
1.0
 40
1.0
 40
1.0
 10
0.1610403543353079
 20
0.5091938132696376
 30
0.0
 10
0.1610547418444133
 20
0.509459421865117
 30
0.0
 10
0.1611260835444154
 20
0.5107764649055664
 30
0.0
 10
0.1615587608781354
 20
0.5122639128550996
 30
0.0
 10
0.162110063159084
 20
0.5137246950132666
 30
0.0
 10
0.1626210488305577
 20
0.5145516200903459
 30
0.0
 10
0.1632231761633789
 20
0.5153332030510045
 30
0.0
 10
0.163973961876401
 20
0.5157031173524529
 30
0.0
 10
0.1647369952298558
 20
0.5154787415844673
 30
0.0
 10
0.1654153442726325
 20
0.5152683696315143
 30
0.0
 10
0.1660221173069957
 20
0.5150826051626973
 30
0.0
 10
0.1666285970652976
 20
0.5148962874878187
 30
0.0
 10
0.1672351816849145
 20
0.51471010360318
 30
0.0
 10
0.1678128289709901
 20
0.5145327819875349
 30
0.0
 10
0.1683616314241854
 20
0.5143642450034474
 30
0.0
 10
0.1688815160349172
 20
0.5142047692127425
 30
0.0
 10
0.1694014310541834
 20
0.5140446230807938
 30
0.0
 10
0.1699207317362054
 20
0.5138871268142922
 30
0.0
 10
0.1704403053297154
 20
0.5137203758898856
 30
0.0
 10
0.1709503412994576
 20
0.5135906167121265
 30
0.0
 10
0.1712868257136723
 20
0.513423310577668
 30
0.0
 10
0.1714500000715254
 20
0.5133421773367155
 30
0.0
  0
SPLINE
  5
1A2
330
1F
100
AcDbEntity
  8
0
  6
Continuous
 62
     7
370
    25
100
AcDbSpline
210
0.0
220
0.0
230
1.0
 70
     8
 71
     3
 72
    13
 73
     9
 74
     0
 42
0.000000001
 43
0.00000001
 40
0.0
 40
0.0
 40
0.0
 40
0.0
 40
0.1439657577491923
 40
0.3151757375672619
 40
0.4863799799858385
 40
0.6575876919767484
 40
0.8287922880090901
 40
1.0
 40
1.0
 40
1.0
 40
1.0
 10
0.1714500000715254
 20
0.4935464019232021
 30
0.0
 10
0.1712804183449925
 20
0.4935696391280252
 30
0.0
 10
0.1709091630786461
 20
0.4936205109692438
 30
0.0
 10
0.1703343465986161
 20
0.4938261720896716
 30
0.0
 10
0.1697279108312744
 20
0.494004084074839
 30
0.0
 10
0.1691213408440601
 20
0.4941925042925027
 30
0.0
 10
0.1685147821684885
 20
0.4943781298242887
 30
0.0
 10
0.1681104194158106
 20
0.4945023424019613
 30
0.0
 10
0.1679082361996172
 20
0.4945644492559658
 30
0.0
  0
SPLINE
  5
1A3
330
1F
100
AcDbEntity
  8
0
  6
Continuous
 62
     7
370
    25
100
AcDbSpline
210
0.0
220
0.0
230
1.0
 70
     8
 71
     3
 72
    11
 73
     7
 74
     0
 42
0.000000001
 43
0.00000001
 40
0.0
 40
0.0
 40
0.0
 40
0.0
 40
0.3570443625561897
 40
0.6548145353220487
 40
0.9525804563610627
 40
0.9999999999999999
 40
0.9999999999999999
 40
0.9999999999999999
 40
0.9999999999999999
 10
0.1694144492983816
 20
0.5159315223150478
 30
0.0
 10
0.1696562509336439
 20
0.5158995463655094
 30
0.0
 10
0.1700997118646632
 20
0.5158409029062248
 30
0.0
 10
0.1707469364136263
 20
0.5156148447087656
 30
0.0
 10
0.1711834093584925
 20
0.5154867131875616
 30
0.0
 10
0.1714178007625951
 20
0.5154145329505591
 30
0.0
 10
0.1714500000715254
 20
0.5154046172552333
 30
0.0
  0
SPLINE
  5
1A4
330
1F
100
AcDbEntity
  8
0
  6
Continuous
 62
     7
370
    25
100
AcDbSpline
210
0.0
220
0.0
230
1.0
 70
     8
 71
     3
 72
    31
 73
    27
 74
     0
 42
0.000000001
 43
0.00000001
 40
0.0
 40
0.0
 40
0.0
 40
0.0
 40
0.0164090417761763
 40
0.0920291697112112
 40
0.1275462848961885
 40
0.1653304226036248
 40
0.2026821776077834
 40
0.2504744504975895
 40
0.2971091422432773
 40
0.3314174607786807
 40
0.3657246588872961
 40
0.4000324813939146
 40
0.4343406520560979
 40
0.4686478501647132
 40
0.4980540696964592
 40
0.5274609490546647
 40
0.5568671685864107
 40
0.5862736645618237
 40
0.6155783920595934
 40
0.6450390642640109
 40
0.6869137217928805
 40
0.7494134358528465
 40
0.7949558886463617
 40
0.8451336578034733
 40
0.9207397039866916
 40
1.0
 40
1.0
 40
1.0
 40
1.0
 10
0.1527845745921133
 20
0.5121461505346523
 30
0.0
 10
0.1525843525439754
 20
0.5121279488763084
 30
0.0
 10
0.1514614186701178
 20
0.5120258659193875
 30
0.0
 10
0.1504338975549011
 20
0.5117963503664937
 30
0.0
 10
0.1494864686367202
 20
0.5115265399382045
 30
0.0
 10
0.1490940576370338
 20
0.5113085987946224
 30
0.0
 10
0.1488081987181664
 20
0.5110641955107655
 30
0.0
 10
0.149007330239705
 20
0.510796413735316
 30
0.0
 10
0.149761451028488
 20
0.5105615548489153
 30
0.0
 10
0.1504416055072164
 20
0.5103534412900932
 30
0.0
 10
0.1510479440074086
 20
0.5101671236165126
 30
0.0
 10
0.1516545545653268
 20
0.5099810004473202
 30
0.0
 10
0.1522610755372469
 20
0.5097945840671911
 30
0.0
 10
0.1528387577916151
 20
0.5096173071710703
 30
0.0
 10
0.1533875537022377
 20
0.5094487920225599
 30
0.0
 10
0.1539074230390997
 20
0.5092891982713037
 30
0.0
 10
0.1544274196492159
 20
0.5091295057640359
 30
0.0
 10
0.1549464027889835
 20
0.5089703169930773
 30
0.0
 10
0.1554671955977438
 20
0.5088105766221103
 30
0.0
 10
0.1560548763680784
 20
0.5086286188743612
 30
0.0
 10
0.1568781987301043
 20
0.5083865338668347
 30
0.0
 10
0.1584846089224747
 20
0.5081791806761822
 30
0.0
 10
0.1604663981237819
 20
0.5080276934145986
 30
0.0
 10
0.1628162811958536
 20
0.5079276502508705
 30
0.0
 10
0.165828687815453
 20
0.507901685234186
 30
0.0
 10
0.1679561854265975
 20
0.5080092525207911
 30
0.0
 10
0.169045034611225
 20
0.508064305251144
 30
0.0
  0
SPLINE
  5
1A5
330
1F
100
AcDbEntity
  8
0
  6
Continuous
 62
     7
370
    25
100
AcDbSpline
210
0.0
220
0.0
230
1.0
 70
     8
 71
     3
 72
    31
 73
    27
 74
     0
 42
0.000000001
 43
0.00000001
 40
0.0
 40
0.0
 40
0.0
 40
0.0
 40
0.0212611157392514
 40
0.0467641271525368
 40
0.0954898360649652
 40
0.1468275187195172
 40
0.1981828377117807
 40
0.2468756879788559
 40
0.3085191580566962
 40
0.3166988750024844
 40
0.3263708140997049
 40
0.3450706529632243
 40
0.3517222836468279
 40
0.3631316370160554
 40
0.3861934779487727
 40
0.48517746600267
 40
0.6314864664939015
 40
0.8425259687371279
 40
0.8801806255678808
 40
0.9339289306086638
 40
0.9364622977977587
 40
0.946223451382585
 40
0.9544880290950742
 40
0.9691751527464758
 40
0.9908586382911392
 40
1.0
 40
1.0
 40
1.0
 40
1.0
 10
0.1614640614032744
 20
0.511574899619125
 30
0.0
 10
0.1612948761254978
 20
0.5115878519107053
 30
0.0
 10
0.1609227506952375
 20
0.5116163406606757
 30
0.0
 10
0.1600726541590298
 20
0.5116451253548675
 30
0.0
 10
0.1589150180526368
 20
0.5116550052992928
 30
0.0
 10
0.1575486522774399
 20
0.5115997813116422
 30
0.0
 10
0.1563799756541402
 20
0.5114870659227593
 30
0.0
 10
0.1554470985624802
 20
0.5113187337626743
 30
0.0
 10
0.1551552582132816
 20
0.511168904109323
 30
0.0
 10
0.1550350319132407
 20
0.5110683565101188
 30
0.0
 10
0.1550740167513145
 20
0.5110213798537342
 30
0.0
 10
0.1552193728246126
 20
0.5109813420545652
 30
0.0
 10
0.1553550736144245
 20
0.5109392099284964
 30
0.0
 10
0.1555097799549795
 20
0.5108916970510207
 30
0.0
 10
0.15600931035295
 20
0.5107382683432695
 30
0.0
 10
0.1570151148825716
 20
0.5104295453229875
 30
0.0
 10
0.1587279781902743
 20
0.5099048650517264
 30
0.0
 10
0.1601959287778205
 20
0.5094490790654873
 30
0.0
 10
0.1613452329933715
 20
0.5091027028173829
 30
0.0
 10
0.1616687092602503
 20
0.5089919992365424
 30
0.0
 10
0.1619635981278051
 20
0.5089198809826618
 30
0.0
 10
0.1620958647401695
 20
0.5089007260699245
 30
0.0
 10
0.1623486755544818
 20
0.5088793149266555
 30
0.0
 10
0.1626999872467111
 20
0.5088517817712106
 30
0.0
 10
0.1630578992836376
 20
0.5088218466490249
 30
0.0
 10
0.1633311977598172
 20
0.5088127702478988
 30
0.0
 10
0.1634122466683386
 20
0.5088100785665737
 30
0.0
  0
SPLINE
  5
1A6
330
1F
100
AcDbEntity
  8
0
  6
Continuous
 62
     7
370
    25
100
AcDbSpline
210
0.0
220
0.0
230
1.0
 70
     8
 71
     3
 72
     9
 73
     5
 74
     0
 42
0.000000001
 43
0.00000001
 40
0.0
 40
0.0
 40
0.0
 40
0.0
 40
0.4975874345389556
 40
1.0
 40
1.0
 40
1.0
 40
1.0
 10
0.1660189701259135
 20
0.5088193768911586
 30
0.0
 10
0.1661976265905397
 20
0.5088244073858581
 30
0.0
 10
0.1665566719607103
 20
0.5088345171562223
 30
0.0
 10
0.166842906855807
 20
0.5088669689043346
 30
0.0
 10
0.166986714863777
 20
0.5088832730703579
 30
0.0
  0
SPLINE
  5
1A7
330
1F
100
AcDbEntity
  8
0
  6
Continuous
 62
     7
370
    25
100
AcDbSpline
210
0.0
220
0.0
230
1.0
 70
     8
 71
     3
 72
    26
 73
    22
 74
     0
 42
0.000000001
 43
0.00000001
 40
0.0
 40
0.0
 40
0.0
 40
0.0
 40
0.0063961803634971
 40
0.0734779293680492
 40
0.1389362190663071
 40
0.187092229406622
 40
0.2352465676247597
 40
0.2834022709404871
 40
0.3315566091586248
 40
0.37971182379554
 40
0.4209870406338659
 40
0.4622631836191303
 40
0.5035384004574562
 40
0.5448144937133774
 40
0.585946765466956
 40
0.6272984132749112
 40
0.6860746040623333
 40
0.7738005780649932
 40
0.8377244878296305
 40
0.9081552973127528
 40
1.0
 40
1.0
 40
1.0
 40
1.0
 10
0.1489415204167364
 20
0.5053232068472133
 30
0.0
 10
0.1489319762714552
 20
0.5053141125744971
 30
0.0
 10
0.148822335205538
 20
0.5052096395467955
 30
0.0
 10
0.1490500311848002
 20
0.5050080762507909
 30
0.0
 10
0.1497763154298966
 20
0.5047733784412098
 30
0.0
 10
0.1504619219870209
 20
0.5045652144637849
 30
0.0
 10
0.1510669642585502
 20
0.504378971452403
 30
0.0
 10
0.1516739005388462
 20
0.5041925917079282
 30
0.0
 10
0.1522803656833526
 20
0.5040064268170568
 30
0.0
 10
0.1528580431061365
 20
0.503829088957046
 30
0.0
 10
0.1534068435733121
 20
0.5036605916392372
 30
0.0
 10
0.153926711833295
 20
0.5035009758257567
 30
0.0
 10
0.1544467139712641
 20
0.5033413529739352
 30
0.0
 10
0.1549656842915909
 20
0.5031819054228308
 30
0.0
 10
0.1554864879780057
 20
0.5030224261190679
 30
0.0
 10
0.156074173835713
 20
0.5028403763720879
 30
0.0
 10
0.156897428269079
 20
0.5025984324264137
 30
0.0
 10
0.1585042008404476
 20
0.5023904892519879
 30
0.0
 10
0.1604848524472737
 20
0.502240792860281
 30
0.0
 10
0.1627000708192026
 20
0.5021391841644267
 30
0.0
 10
0.164374030283171
 20
0.5021440194453173
 30
0.0
 10
0.1653214579463003
 20
0.5021467561178432
 30
0.0
  0
SPLINE
  5
1A8
330
1F
100
AcDbEntity
  8
0
  6
Continuous
 62
     7
370
    25
100
AcDbSpline
210
0.0
220
0.0
230
1.0
 70
     8
 71
     3
 72
    19
 73
    15
 74
     0
 42
0.000000001
 43
0.00000001
 40
0.0
 40
0.0
 40
0.0
 40
0.0
 40
0.055696014702879
 40
0.1113908468091647
 40
0.1670868615120437
 40
0.2227816936183293
 40
0.2783914094870403
 40
0.3340863758014391
 40
0.4133925331091171
 40
0.5317665952322322
 40
0.6180215589742126
 40
0.7130577217180799
 40
0.8562547133648696
 40
1.0
 40
1.0
 40
1.0
 40
1.0
 10
0.1692698558807371
 20
0.9338571185522304
 30
0.0
 10
0.1690965577452145
 20
0.933803911691234
 30
0.0
 10
0.1687499651538181
 20
0.9336974990989848
 30
0.0
 10
0.1682300317827419
 20
0.9335378757114965
 30
0.0
 10
0.1677102064330892
 20
0.9333782488549667
 30
0.0
 10
0.1671903375641486
 20
0.9332187459578909
 30
0.0
 10
0.1666715339573154
 20
0.9330590579054567
 30
0.0
 10
0.1660747693723148
 20
0.932877556212413
 30
0.0
 10
0.1653093639546485
 20
0.9326317739051682
 30
0.0
 10
0.1652361047174835
 20
0.9323234016741853
 30
0.0
 10
0.1657035695692128
 20
0.9320101388741351
 30
0.0
 10
0.1666870196663286
 20
0.9316903287815377
 30
0.0
 10
0.1684599984275768
 20
0.9313512974231353
 30
0.0
 10
0.1703675984439537
 20
0.9311929573025302
 30
0.0
 10
0.1713232209920882
 20
0.9311136359625087
 30
0.0
  0
LWPOLYLINE
  5
1A9
330
1F
100
AcDbEntity
  8
0
  6
Continuous
 62
     7
370
    25
100
AcDbPolyline
 90
        5
 70
   128
 43
0.0
 10
0.1714500001
 20
0.9345263595
 10
0.1710895149
 20
0.9344157333
 10
0.1704829631
 20
0.9342295284
 10
0.1698764114
 20
0.9340433235
 10
0.1692698559
 20
0.9338571186
  0
SPLINE
  5
1AA
330
1F
100
AcDbEntity
  8
0
  6
Continuous
 62
     7
370
    25
100
AcDbSpline
210
0.0
220
0.0
230
1.0
 70
     8
 71
     3
 72
    15
 73
    11
 74
     0
 42
0.000000001
 43
0.00000001
 40
0.0
 40
0.0
 40
0.0
 40
0.0
 40
0.108665382007889
 40
0.2173330713629002
 40
0.3259984533707891
 40
0.4346638353786781
 40
0.543163148325555
 40
0.6518312304506618
 40
0.8065618477655198
 40
0.9999999999999999
 40
0.9999999999999999
 40
0.9999999999999999
 40
0.9999999999999999
 10
0.1692891454339026
 20
0.9396453256063686
 30
0.0
 10
0.1691158427510143
 20
0.9395921179518605
 30
0.0
 10
0.1687692337054139
 20
0.9394857015130598
 30
0.0
 10
0.1682493611852889
 20
0.939326087768825
 30
0.0
 10
0.1677293980677274
 20
0.9391664529641452
 30
0.0
 10
0.1672099603214547
 20
0.9390069541392678
 30
0.0
 10
0.1666895822755548
 20
0.9388472610707079
 30
0.0
 10
0.1660995085557964
 20
0.9386657735135915
 30
0.0
 10
0.1653533679408043
 20
0.9384386005444632
 30
0.0
 10
0.1653821034544077
 20
0.9382469218091767
 30
0.0
 10
0.1653980685412882
 20
0.9381404275350798
 30
0.0
  0
LWPOLYLINE
  5
1AB
330
1F
100
AcDbEntity
  8
0
  6
Continuous
 62
     7
370
    25
100
AcDbPolyline
 90
        5
 70
   128
 43
0.0
 10
0.1714500001
 20
0.9403087253
 10
0.1711088045
 20
0.9402039403
 10
0.170502249
 20
0.9400177354
 10
0.1698956972
 20
0.9398315305
 10
0.1692891454
 20
0.9396453256
  0
LINE
  5
1AC
330
1F
100
AcDbEntity
  8
0
  6
Continuous
 62
     7
370
    25
100
AcDbLine
 10
0.1692698559
 20
0.9338571186
 30
0.0
 11
0.1692891454
 21
0.9396453256
 31
0.0
  0
SPLINE
  5
1AD
330
1F
100
AcDbEntity
  8
0
  6
Continuous
 62
     7
370
    25
100
AcDbSpline
210
0.0
220
0.0
230
1.0
 70
     8
 71
     3
 72
    23
 73
    19
 74
     0
 42
0.000000001
 43
0.00000001
 40
0.0
 40
0.0
 40
0.0
 40
0.0
 40
0.1150603521703266
 40
0.2349727821620458
 40
0.2912936490903745
 40
0.3512092850723076
 40
0.410438522693313
 40
0.4862245685705485
 40
0.5601744120455876
 40
0.6145780524837665
 40
0.6689798600469219
 40
0.7233826577340712
 40
0.7777844652972266
 40
0.8321872629843758
 40
0.8788174626019951
 40
0.925448708523424
 40
0.9720789081410434
 40
1.0
 40
1.0
 40
1.0
 40
1.0
 10
0.2603499999284743
 20
0.9310670251302946
 30
0.0
 10
0.2612571919399428
 20
0.931018632576609
 30
0.0
 10
0.2631098321141566
 20
0.9309198067624953
 30
0.0
 10
0.2646930739573543
 20
0.9309512741054331
 30
0.0
 10
0.2656156133932331
 20
0.9310286643123824
 30
0.0
 10
0.2660049923032815
 20
0.9311280763226868
 30
0.0
 10
0.2662839867306365
 20
0.9312567201661428
 30
0.0
 10
0.2660814331125853
 20
0.931452515279191
 30
0.0
 10
0.2653271785659739
 20
0.9316861954950686
 30
0.0
 10
0.2646470447829683
 20
0.9318945430146717
 30
0.0
 10
0.2640406987594887
 20
0.932080791686893
 30
0.0
 10
0.2634341044837162
 20
0.9322669804964714
 30
0.0
 10
0.2628275506766544
 20
0.9324531957125561
 30
0.0
 10
0.2622498950727774
 20
0.9326305206982677
 30
0.0
 10
0.2617010953093518
 20
0.9327990197608984
 30
0.0
 10
0.2611812062046535
 20
0.93295863953082
 30
0.0
 10
0.2607308239866333
 20
0.9330968983038472
 30
0.0
 10
0.2604537647006387
 20
0.933181994744555
 30
0.0
 10
0.2603499999284743
 20
0.9332138652258144
 30
0.0
  0
SPLINE
  5
1AE
330
1F
100
AcDbEntity
  8
0
  6
Continuous
 62
     7
370
    25
100
AcDbSpline
210
0.0
220
0.0
230
1.0
 70
     8
 71
     3
 72
    20
 73
    16
 74
     0
 42
0.000000001
 43
0.00000001
 40
0.0
 40
0.0
 40
0.0
 40
0.0
 40
0.0165029005482519
 40
0.1320742770694505
 40
0.2448460668986841
 40
0.3278104072511435
 40
0.4107719525100015
 40
0.4937350076859048
 40
0.5766965529447627
 40
0.659659608120666
 40
0.7307697099769292
 40
0.8018812360713768
 40
0.872991252250816
 40
0.9441027783452636
 40
1.0
 40
1.0
 40
1.0
 40
1.0
 10
0.2667758462965487
 20
0.9370196217947231
 30
0.0
 10
0.2667901831748788
 20
0.9370269114531076
 30
0.0
 10
0.2669049225708627
 20
0.9370852512799999
 30
0.0
 10
0.2666776954388131
 20
0.937243650176091
 30
0.0
 10
0.2659483646102772
 20
0.9374745595363319
 30
0.0
 10
0.2652633617777323
 20
0.9376834482587255
 30
0.0
 10
0.2646581808564564
 20
0.9378695674252113
 30
0.0
 10
0.2640512745018318
 20
0.9380557909018894
 30
0.0
 10
0.2634448039045249
 20
0.9382419969556972
 30
0.0
 10
0.2628671283178374
 20
0.9384193238933953
 30
0.0
 10
0.2623183270785103
 20
0.9385878241202155
 30
0.0
 10
0.2617984415083205
 20
0.9387474366712898
 30
0.0
 10
0.2612785281438738
 20
0.9389070709064766
 30
0.0
 10
0.2607956959488769
 20
0.939055279804655
 30
0.0
 10
0.2604862074526151
 20
0.9391503640274275
 30
0.0
 10
0.2603499999284743
 20
0.9391922110967861
 30
0.0
  0
SPLINE
  5
1AF
330
1F
100
AcDbEntity
  8
0
  6
Continuous
 62
     7
370
    25
100
AcDbSpline
210
0.0
220
0.0
230
1.0
 70
     8
 71
     3
 72
    18
 73
    14
 74
     0
 42
0.000000001
 43
0.00000001
 40
0.0
 40
0.0
 40
0.0
 40
0.0
 40
0.0690672522498162
 40
0.138134252712813
 40
0.2072014217490981
 40
0.276268422212095
 40
0.3452294573703197
 40
0.4142965410470507
 40
0.5126411169161579
 40
0.6594335541284458
 40
0.7664031307826403
 40
0.8842534183414745
 40
1.0
 40
1.0
 40
1.0
 40
1.0
 10
0.1679082361996172
 20
0.9438654536657558
 30
0.0
 10
0.1677349340865346
 20
0.9438121762724343
 30
0.0
 10
0.1673883304921475
 20
0.9437056216800168
 30
0.0
 10
0.1668684315928787
 20
0.9435463401483686
 30
0.0
 10
0.1663485179075466
 20
0.9433862842710017
 30
0.0
 10
0.1658289327660754
 20
0.9432274292698142
 30
0.0
 10
0.1653091052117494
 20
0.9430663015806307
 30
0.0
 10
0.1647168733699702
 20
0.9428898219947146
 30
0.0
 10
0.163922976794276
 20
0.942614251921754
 30
0.0
 10
0.163078061768431
 20
0.9415260443993612
 30
0.0
 10
0.1623236532026398
 20
0.9399585333271505
 30
0.0
 10
0.1617133255482918
 20
0.9382696070314116
 30
0.0
 10
0.1614618254156122
 20
0.936900340757711
 30
0.0
 10
0.1613372078180312
 20
0.9362218732290493
 30
0.0
  0
SPLINE
  5
1B0
330
1F
100
AcDbEntity
  8
0
  6
Continuous
 62
     7
370
    25
100
AcDbSpline
210
0.0
220
0.0
230
1.0
 70
     8
 71
     3
 72
    26
 73
    22
 74
     0
 42
0.000000001
 43
0.00000001
 40
0.0
 40
0.0
 40
0.0
 40
0.0
 40
0.0282799067445888
 40
0.1402316841877154
 40
0.1928141600987932
 40
0.2487506895246103
 40
0.3040473591910932
 40
0.3748015146387423
 40
0.443842263420006
 40
0.4946333885566635
 40
0.5454238949330779
 40
0.5962148102624202
 40
0.6470048012035676
 40
0.69779571653291
 40
0.7413300680967502
 40
0.7848653440475382
 40
0.8283996956113784
 40
0.8719349715621665
 40
0.9153179539558356
 40
0.9589339923582048
 40
1.0
 40
1.0
 40
1.0
 40
1.0
 10
0.1610403543353079
 20
0.9292360896520839
 30
0.0
 10
0.1610547421203693
 20
0.9289704814884323
 30
0.0
 10
0.1611260868864292
 20
0.9276534092484394
 30
0.0
 10
0.1615587535627122
 20
0.9261659023988122
 30
0.0
 10
0.1621100514112642
 20
0.9247050780487853
 30
0.0
 10
0.1626210624025499
 20
0.9238782914702217
 30
0.0
 10
0.1632231783377407
 20
0.9230967336088021
 30
0.0
 10
0.1639739600095368
 20
0.9227265555775572
 30
0.0
 10
0.1647369876219656
 20
0.9229512746762223
 30
0.0
 10
0.165415352864603
 20
0.9231613227142832
 30
0.0
 10
0.1660221124032343
 20
0.923347353381301
 30
0.0
 10
0.1666285978289131
 20
0.9235336003733587
 30
0.0
 10
0.1672351814825816
 20
0.9237198033092042
 30
0.0
 10
0.1678128290048843
 20
0.9238971202652688
 30
0.0
 10
0.1683616314521
 20
0.9240656573690935
 30
0.0
 10
0.168881515889676
 20
0.9242251365683842
 30
0.0
 10
0.1694014316072244
 20
0.9243852689526744
 30
0.0
 10
0.1699207276222096
 20
0.9245428161201692
 30
0.0
 10
0.1704403089209394
 20
0.9247093742801453
 30
0.0
 10
0.1709503464512902
 20
0.9248391450662907
 30
0.0
 10
0.1712868263381325
 20
0.9250065457243088
 30
0.0
 10
0.1714500000715254
 20
0.9250877255850063
 30
0.0
  0
SPLINE
  5
1B1
330
1F
100
AcDbEntity
  8
0
  6
Continuous
 62
     7
370
    25
100
AcDbSpline
210
0.0
220
0.0
230
1.0
 70
     8
 71
     3
 72
    13
 73
     9
 74
     0
 42
0.000000001
 43
0.00000001
 40
0.0
 40
0.0
 40
0.0
 40
0.0
 40
0.1439668336582852
 40
0.3151752083683693
 40
0.4863795830852602
 40
0.6575874273771655
 40
0.8287921557080947
 40
1.0
 40
1.0
 40
1.0
 40
1.0
 10
0.1714500000715254
 20
0.9448835009985195
 30
0.0
 10
0.1712804191651375
 20
0.944860204132342
 30
0.0
 10
0.1709091690921312
 20
0.944809202144834
 30
0.0
 10
0.1703343419674658
 20
0.9446037844321031
 30
0.0
 10
0.1697279115222969
 20
0.9444258043283327
 30
0.0
 10
0.1691213406597897
 20
0.944237402500784
 30
0.0
 10
0.1685147822145567
 20
0.9440517721295283
 30
0.0
 10
0.1681104194311668
 20
0.9439275601971238
 30
0.0
 10
0.1679082361996172
 20
0.9438654536657558
 30
0.0
  0
SPLINE
  5
1B2
330
1F
100
AcDbEntity
  8
0
  6
Continuous
 62
     7
370
    25
100
AcDbSpline
210
0.0
220
0.0
230
1.0
 70
     8
 71
     3
 72
    13
 73
     9
 74
     0
 42
0.000000001
 43
0.00000001
 40
0.0
 40
0.0
 40
0.0
 40
0.0
 40
0.1430275089212458
 40
0.717009729244576
 40
0.7414554345042227
 40
0.8355528720364339
 40
0.9152081309608274
 40
1.0
 40
1.0
 40
1.0
 40
1.0
 10
0.1653240097701548
 20
0.936981951659225
 30
0.0
 10
0.1652684219125378
 20
0.9369644347836625
 30
0.0
 10
0.1649897549970621
 20
0.9368766211155137
 30
0.0
 10
0.1647009342914457
 20
0.9368193543330847
 30
0.0
 10
0.1644323937426811
 20
0.9366806937416938
 30
0.0
 10
0.1643577677794688
 20
0.936594830674012
 30
0.0
 10
0.1642732593434526
 20
0.9364355828530333
 30
0.0
 10
0.164220730000173
 20
0.9363306013942214
 30
0.0
 10
0.1641936449348925
 20
0.9362764710836635
 30
0.0
  0
SPLINE
  5
1B3
330
1F
100
AcDbEntity
  8
0
  6
Continuous
 62
     7
370
    25
100
AcDbSpline
210
0.0
220
0.0
230
1.0
 70
     8
 71
     3
 72
    22
 73
    18
 74
     0
 42
0.000000001
 43
0.00000001
 40
0.0
 40
0.0
 40
0.0
 40
0.0
 40
0.0665569825870522
 40
0.0784245129568618
 40
0.0924559876806711
 40
0.119586232409665
 40
0.1292358714859526
 40
0.1457892049154588
 40
0.179246884688258
 40
0.3228524817172921
 40
0.5351163327753109
 40
0.8412902541160641
 40
0.8959198090043013
 40
0.9738970824513885
 40
0.9775727286661472
 40
0.9917337762365405
 40
1.0
 40
1.0
 40
1.0
 40
1.0
 10
0.1638709081351755
 20
0.9298316592626796
 30
0.0
 10
0.1639909808134851
 20
0.9295713486821258
 30
0.0
 10
0.1641324632087174
 20
0.9292646230809345
 30
0.0
 10
0.1643320381783429
 20
0.9290085673105679
 30
0.0
 10
0.1644642794027629
 20
0.9289469400281809
 30
0.0
 10
0.1645971055904174
 20
0.9290016939335879
 30
0.0
 10
0.1647346914223236
 20
0.9290417677241605
 30
0.0
 10
0.1648888320552243
 20
0.9290898080265932
 30
0.0
 10
0.1653889197528628
 20
0.9292426944693153
 30
0.0
 10
0.1663945769579498
 20
0.9295516459684923
 30
0.0
 10
0.1681045286495997
 20
0.9300796896830301
 30
0.0
 10
0.1695850725959133
 20
0.9305208066153696
 30
0.0
 10
0.1707180208178677
 20
0.9308860905141909
 30
0.0
 10
0.1710707809246953
 20
0.930962613070655
 30
0.0
 10
0.1713175430858562
 20
0.9310907869672413
 30
0.0
 10
0.1713833692474657
 20
0.9311640588125485
 30
0.0
 10
0.1714320553800044
 20
0.9312557817244305
 30
0.0
 10
0.1714500000715254
 20
0.9312895888738857
 30
0.0
  0
SPLINE
  5
1B4
330
1F
100
AcDbEntity
  8
0
  6
Continuous
 62
     7
370
    25
100
AcDbSpline
210
0.0
220
0.0
230
1.0
 70
     8
 71
     3
 72
    11
 73
     7
 74
     0
 42
0.000000001
 43
0.00000001
 40
0.0
 40
0.0
 40
0.0
 40
0.0
 40
0.3570454414454677
 40
0.6548134922670792
 40
0.9525803130723218
 40
1.0
 40
1.0
 40
1.0
 40
1.0
 10
0.1694144492983816
 20
0.9224983806066738
 30
0.0
 10
0.1696562500159645
 20
0.9225303739984698
 30
0.0
 10
0.1700997072175805
 20
0.9225890491758553
 30
0.0
 10
0.1707469407259334
 20
0.9228148965087044
 30
0.0
 10
0.1711834092902374
 20
0.922943071825882
 30
0.0
 10
0.1714178007543511
 20
0.9230152509190124
 30
0.0
 10
0.1714500000715254
 20
0.9230251664571987
 30
0.0
  0
SPLINE
  5
1B5
330
1F
100
AcDbEntity
  8
0
  6
Continuous
 62
     7
370
    25
100
AcDbSpline
210
0.0
220
0.0
230
1.0
 70
     8
 71
     3
 72
    19
 73
    15
 74
     0
 42
0.000000001
 43
0.00000001
 40
0.0
 40
0.0
 40
0.0
 40
0.0
 40
0.0627692440844214
 40
0.1255398209800107
 40
0.188309065064432
 40
0.2510796419600213
 40
0.3137508070485759
 40
0.3765216864502626
 40
0.4658999567522472
 40
0.5993100190312144
 40
0.6965226404608557
 40
0.8036303894299627
 40
0.9650152490859517
 40
1.0
 40
1.0
 40
1.0
 40
1.0
 10
0.1528676411151884
 20
0.9288213605337368
 30
0.0
 10
0.1526943402709096
 20
0.9287681530984813
 30
0.0
 10
0.1523477349025673
 20
0.92866173709819
 30
0.0
 10
0.1518278348027533
 20
0.9285021200651031
 30
0.0
 10
0.1513079728068774
 20
0.9283424966280875
 30
0.0
 10
0.1507881458944628
 20
0.9281829518199596
 30
0.0
 10
0.1502692955728854
 20
0.9280234537388834
 30
0.0
 10
0.1496726039971394
 20
0.9278419131910747
 30
0.0
 10
0.1489068817941497
 20
0.9275960951639122
 30
0.0
 10
0.148835203994879
 20
0.9272879782750025
 30
0.0
 10
0.1492977922692255
 20
0.9269739084781305
 30
0.0
 10
0.1503029712938465
 20
0.9266577269675391
 30
0.0
 10
0.1514647075618857
 20
0.9264040016415278
 30
0.0
 10
0.1525866322606192
 20
0.92630173377296
 30
0.0
 10
0.1527865117430685
 20
0.9262835139684902
 30
0.0
  0
SPLINE
  5
1B6
330
1F
100
AcDbEntity
  8
0
  6
Continuous
 62
     7
370
    25
100
AcDbSpline
210
0.0
220
0.0
230
1.0
 70
     8
 71
     3
 72
    19
 73
    15
 74
     0
 42
0.000000001
 43
0.00000001
 40
0.0
 40
0.0
 40
0.0
 40
0.0
 40
0.1492456944653821
 40
0.2915048456610919
 40
0.3583222643817038
 40
0.4294026301793705
 40
0.4997165509120318
 40
0.5893140556388101
 40
0.6772948302222639
 40
0.7418378908663986
 40
0.8063767194564737
 40
0.8709186189441218
 40
0.9354586888251946
 40
1.0
 40
1.0
 40
1.0
 40
1.0
 10
0.1690452022492884
 20
0.9303655976705776
 30
0.0
 10
0.1679551359447962
 20
0.9304209029988306
 30
0.0
 10
0.1658260319127527
 20
0.9305289246823678
 30
0.0
 10
0.1630296924062314
 20
0.9305024958615951
 30
0.0
 10
0.1609665867887148
 20
0.9304274183616839
 30
0.0
 10
0.1595453404398242
 20
0.9303300898996976
 30
0.0
 10
0.15805206838463
 20
0.9302027443320124
 30
0.0
 10
0.1567436763234067
 20
0.9300086694980121
 30
0.0
 10
0.1559716185689575
 20
0.9297748974718893
 30
0.0
 10
0.1552943841762213
 20
0.9295663307157365
 30
0.0
 10
0.1546871423944408
 20
0.9293801218478073
 30
0.0
 10
0.1540807987189727
 20
0.929193733884274
 30
0.0
 10
0.1534741795795725
 20
0.9290075729124572
 30
0.0
 10
0.1530698218994669
 20
0.9288834317245729
 30
0.0
 10
0.1528676411151884
 20
0.9288213605337368
 30
0.0
  0
SPLINE
  5
1B7
330
1F
100
AcDbEntity
  8
0
  6
Continuous
 62
     7
370
    25
100
AcDbSpline
210
0.0
220
0.0
230
1.0
 70
     8
 71
     3
 72
    23
 73
    19
 74
     0
 42
0.000000001
 43
0.00000001
 40
0.0
 40
0.0
 40
0.0
 40
0.0
 40
0.2813966749824712
 40
0.3184659398897896
 40
0.3395054942818984
 40
0.3841217659087511
 40
0.4782799411872937
 40
0.4822889670125521
 40
0.4977256156837705
 40
0.510795985046541
 40
0.5340219781995417
 40
0.5683129521843364
 40
0.6086415867563779
 40
0.6856970739631396
 40
0.7668826380306574
 40
0.8480969571604811
 40
0.9250992379139714
 40
1.0
 40
1.0
 40
1.0
 40
1.0
 10
0.1584827786326407
 20
0.9284508580618129
 30
0.0
 10
0.157815784730331
 20
0.9282462187224618
 30
0.0
 10
0.1570609256332466
 20
0.9280146216023148
 30
0.0
 10
0.1562569566616627
 20
0.9277673849856132
 30
0.0
 10
0.1560129557426144
 20
0.9276927384724178
 30
0.0
 10
0.15564044282686
 20
0.9275761884773643
 30
0.0
 10
0.155268776840132
 20
0.9274734568554124
 30
0.0
 10
0.1550527030671595
 20
0.9273884409416586
 30
0.0
 10
0.1550360531284344
 20
0.9273615849773489
 30
0.0
 10
0.1550843223457486
 20
0.9273202437529797
 30
0.0
 10
0.1551608413728044
 20
0.9272641956147003
 30
0.0
 10
0.1552791349475576
 20
0.9271861863770849
 30
0.0
 10
0.1556749562841668
 20
0.927074962231518
 30
0.0
 10
0.1563704215231874
 20
0.9269428961372663
 30
0.0
 10
0.1575502001744216
 20
0.9268297844488613
 30
0.0
 10
0.1589061961696576
 20
0.9267767755437382
 30
0.0
 10
0.1602918087778971
 20
0.9267798505736726
 30
0.0
 10
0.1610757335318161
 20
0.9268352943368392
 30
0.0
 10
0.1614622732639311
 20
0.9268626326971279
 30
0.0
  0
SPLINE
  5
1B8
330
1F
100
AcDbEntity
  8
0
  6
Continuous
 62
     7
370
    25
100
AcDbSpline
210
0.0
220
0.0
230
1.0
 70
     8
 71
     3
 72
     9
 73
     5
 74
     0
 42
0.000000001
 43
0.00000001
 40
0.0
 40
0.0
 40
0.0
 40
0.0
 40
0.965051475866173
 40
1.0
 40
1.0
 40
1.0
 40
1.0
 10
0.1669845318436621
 20
0.9295467490606535
 30
0.0
 10
0.1668477241355112
 20
0.9295642505601223
 30
0.0
 10
0.166705962051755
 20
0.9295823858616128
 30
0.0
 10
0.1665267325137277
 20
0.9295902249068562
 30
0.0
 10
0.1665204687058924
 20
0.9295904988699184
 30
0.0
  0
ARC
  5
1B9
330
1F
100
AcDbEntity
  8
0
  6
Continuous
 62
     7
370
    25
100
AcDbCircle
 10
0.1651520779
 20
0.9111431714
 30
0.0
 40
0.018548195880158
100
AcDbArc
 50
95.2677552243
 51
111.0735405665
  0
LINE
  5
1BA
330
1F
100
AcDbEntity
  8
0
  6
Continuous
 62
     7
370
    25
100
AcDbLine
 10
0.1584827786
 20
0.9284508581
 30
0.0
 11
0.1528676411
 21
0.9288213605
 31
0.0
  0
SPLINE
  5
1BB
330
1F
100
AcDbEntity
  8
0
  6
Continuous
 62
     7
370
    25
100
AcDbSpline
210
0.0
220
0.0
230
1.0
 70
     8
 71
     3
 72
    15
 73
    11
 74
     0
 42
0.000000001
 43
0.00000001
 40
0.0
 40
0.0
 40
0.0
 40
0.0
 40
0.1086674195207108
 40
0.2173325317000286
 40
0.3259986654245357
 40
0.4346637776038536
 40
0.5431603828892941
 40
0.6518283261037261
 40
0.8065609267903726
 40
1.0
 40
1.0
 40
1.0
 40
1.0
 10
0.1528869306683538
 20
0.9346095675878752
 30
0.0
 10
0.1527136303550993
 20
0.934556364276762
 30
0.0
 10
0.1523670334082853
 20
0.934449958784205
 30
0.0
 10
0.1518471347531126
 20
0.9342902827793069
 30
0.0
 10
0.1513271873251702
 20
0.9341308588912793
 30
0.0
 10
0.1508077511110236
 20
0.9339713056569776
 30
0.0
 10
0.1502873660409363
 20
0.9338116239051775
 30
0.0
 10
0.1496972875832191
 20
0.933630128092251
 30
0.0
 10
0.1489511559732627
 20
0.9334029889210127
 30
0.0
 10
0.148979892119714
 20
0.9332112158312984
 30
0.0
 10
0.1489958575010298
 20
0.9331046695165859
 30
0.0
  0
SPLINE
  5
1BC
330
1F
100
AcDbEntity
  8
0
  6
Continuous
 62
     7
370
    25
100
AcDbSpline
210
0.0
220
0.0
230
1.0
 70
     8
 71
     3
 72
    18
 73
    14
 74
     0
 42
0.000000001
 43
0.00000001
 40
0.0
 40
0.0
 40
0.0
 40
0.0
 40
0.1481967100375647
 40
0.2285289206311208
 40
0.3139873414878852
 40
0.3985233865390625
 40
0.506243932427622
 40
0.6120221936765318
 40
0.689618997657226
 40
0.767213618184521
 40
0.844808318845834
 40
0.9224045118794948
 40
1.0
 40
1.0
 40
1.0
 40
1.0
 10
0.1653216814637183
 20
0.9362831468038786
 30
0.0
 10
0.1643736994215215
 20
0.9362857428086697
 30
0.0
 10
0.1629118497433067
 20
0.936289746016113
 30
0.0
 10
0.1609852779460677
 20
0.9362148843740166
 30
0.0
 10
0.1595647988252044
 20
0.9361186884744321
 30
0.0
 10
0.1580712975123836
 20
0.935990814365639
 30
0.0
 10
0.1567629720023783
 20
0.9357969146893637
 30
0.0
 10
0.1559909176604321
 20
0.9355630986383481
 30
0.0
 10
0.1553136576820673
 20
0.9353545448342391
 30
0.0
 10
0.1547064531667736
 20
0.9351682940103974
 30
0.0
 10
0.1541000681535203
 20
0.9349820883966347
 30
0.0
 10
0.1534934761888206
 20
0.9347959242537094
 30
0.0
 10
0.1530891118962736
 20
0.9346716862883815
 30
0.0
 10
0.1528869306683539
 20
0.934609567587875
 30
0.0
  0
LINE
  5
1BD
330
1F
100
AcDbEntity
  8
0
  6
Continuous
 62
     7
370
    25
100
AcDbLine
 10
0.1528676411
 20
0.9288213605
 30
0.0
 11
0.1528869307
 21
0.9346095676
 31
0.0
  0
SPLINE
  5
1BE
330
1F
100
AcDbEntity
  8
0
  6
Continuous
 62
     7
370
    25
100
AcDbSpline
210
0.0
220
0.0
230
1.0
 70
     8
 71
     3
 72
    15
 73
    11
 74
     0
 42
0.000000001
 43
0.00000001
 40
0.0
 40
0.0
 40
0.0
 40
0.0
 40
0.2451255749972102
 40
0.4393991780119506
 40
0.5260895468882356
 40
0.5771016127739722
 40
0.7173631012150375
 40
0.7916486850417636
 40
0.8542485858768832
 40
1.0
 40
1.0
 40
1.0
 40
1.0
 10
0.2667611910045146
 20
0.9366736764364467
 30
0.0
 10
0.266881875860199
 20
0.9366366194452946
 30
0.0
 10
0.2670982091676756
 20
0.936570193037312
 30
0.0
 10
0.2673571478036387
 20
0.9364904638303122
 30
0.0
 10
0.2675207094456082
 20
0.936440939003311
 30
0.0
 10
0.2676571031107237
 20
0.936396431151931
 30
0.0
 10
0.2677909144211709
 20
0.9363697858754811
 30
0.0
 10
0.2679120179496258
 20
0.9362276721646794
 30
0.0
 10
0.2680107489111345
 20
0.9360097141012085
 30
0.0
 10
0.2680649386310033
 20
0.9358118243515292
 30
0.0
 10
0.268102846854925
 20
0.9356733912878261
 30
0.0
  0
SPLINE
  5
1BF
330
1F
100
AcDbEntity
  8
0
  6
Continuous
 62
     7
370
    25
100
AcDbSpline
210
0.0
220
0.0
230
1.0
 70
     8
 71
     3
 72
    19
 73
    15
 74
     0
 42
0.000000001
 43
0.00000001
 40
0.0
 40
0.0
 40
0.0
 40
0.0
 40
0.0065230279321557
 40
0.0399088094982057
 40
0.0625423547433953
 40
0.0751712902092481
 40
0.090063001915866
 40
0.1179920421662846
 40
0.5598369828879988
 40
0.8090615638904932
 40
0.9339477298026497
 40
0.9730647373534554
 40
0.9905283659350314
 40
1.0
 40
1.0
 40
1.0
 40
1.0
 10
0.2676299845814704
 20
0.9293164367132412
 30
0.0
 10
0.267616686985045
 20
0.9292899722542118
 30
0.0
 10
0.2675353304052415
 20
0.9291280589426576
 30
0.0
 10
0.2673834985996674
 20
0.9289652260468235
 30
0.0
 10
0.2672234822482183
 20
0.9287725120829089
 30
0.0
 10
0.2671039337815081
 20
0.9286392759684281
 30
0.0
 10
0.2669624546332494
 20
0.9285798111641015
 30
0.0
 10
0.2657820762296502
 20
0.9290192500246097
 30
0.0
 10
0.2640328383158718
 20
0.9294725607964429
 30
0.0
 10
0.2620467518942138
 20
0.9301008332194596
 30
0.0
 10
0.2610409940115372
 20
0.9304080018799232
 30
0.0
 10
0.2605993257049992
 20
0.9305434544932212
 30
0.0
 10
0.2604385636270737
 20
0.9305928877769472
 30
0.0
 10
0.2603730406987773
 20
0.9306133802704888
 30
0.0
 10
0.2603499999284743
 20
0.9306205863409267
 30
0.0
  0
SPLINE
  5
1C0
330
1F
100
AcDbEntity
  8
0
  6
Continuous
 62
     7
370
    25
100
AcDbSpline
210
0.0
220
0.0
230
1.0
 70
     8
 71
     3
 72
    18
 73
    14
 74
     0
 42
0.000000001
 43
0.00000001
 40
0.0
 40
0.0
 40
0.0
 40
0.0
 40
0.0669459066942983
 40
0.1338888070974921
 40
0.2008347137917904
 40
0.2677776948529721
 40
0.3346193081144291
 40
0.4015637106400654
 40
0.4968855694668788
 40
0.6391694644995551
 40
0.7428480620122435
 40
0.8570798906354997
 40
1.0
 40
1.0
 40
1.0
 40
1.0
 10
0.2650421855986117
 20
0.9434980506353603
 30
0.0
 10
0.2652154833497509
 20
0.9434447740482983
 30
0.0
 10
0.2655620710698735
 20
0.9433382232666263
 30
0.0
 10
0.2660820061030937
 20
0.9431789317569703
 30
0.0
 10
0.2666018753991641
 20
0.9430188866384253
 30
0.0
 10
0.2671215254916116
 20
0.9428600220431855
 30
0.0
 10
0.2676412164422462
 20
0.9426989046479086
 30
0.0
 10
0.2682339823026102
 20
0.9425223939612541
 30
0.0
 10
0.2690245357515889
 20
0.9422470148988857
 30
0.0
 10
0.2697774732748356
 20
0.9411577730610385
 30
0.0
 10
0.2703869837678626
 20
0.9395925309529725
 30
0.0
 10
0.2708648467277812
 20
0.9377369194477416
 30
0.0
 10
0.2709848661166179
 20
0.9361772392862833
 30
0.0
 10
0.2710515705883502
 20
0.935310399001144
 30
0.0
  0
SPLINE
  5
1C1
330
1F
100
AcDbEntity
  8
0
  6
Continuous
 62
     7
370
    25
100
AcDbSpline
210
0.0
220
0.0
230
1.0
 70
     8
 71
     3
 72
    24
 73
    20
 74
     0
 42
0.000000001
 43
0.00000001
 40
0.0
 40
0.0
 40
0.0
 40
0.0
 40
0.026200662583946
 40
0.1494954144121483
 40
0.2074058479336496
 40
0.2690116017019858
 40
0.3299124451571016
 40
0.4078364380981556
 40
0.4838729491233953
 40
0.5398126850208794
 40
0.5957497016048113
 40
0.6516877940206757
 40
0.7076248106046076
 40
0.7635628452536507
 40
0.8115089405427598
 40
0.8594560538956069
 40
0.9074021491847161
 40
0.9553482444738252
 40
1.0
 40
1.0
 40
1.0
 40
1.0
 10
0.2705092949807643
 20
0.9287423247747646
 30
0.0
 10
0.2704718620712013
 20
0.9285192049451894
 30
0.0
 10
0.2702582778418012
 20
0.9272461305991098
 30
0.0
 10
0.2696572289137121
 20
0.9257975492061221
 30
0.0
 10
0.268927256446872
 20
0.9243357350494714
 30
0.0
 10
0.2683078080919387
 20
0.9235090327453395
 30
0.0
 10
0.2675993470107773
 20
0.9227272356253124
 30
0.0
 10
0.2667824448494987
 20
0.9223572122914272
 30
0.0
 10
0.2660183286804866
 20
0.9225816201626242
 30
0.0
 10
0.2653402184044517
 20
0.9227919814002536
 30
0.0
 10
0.2647333857257984
 20
0.9229777494702789
 30
0.0
 10
0.2641269158285018
 20
0.9231640670782986
 30
0.0
 10
0.2635203282999137
 20
0.9233502478594537
 30
0.0
 10
0.2629426817100503
 20
0.9235275816669706
 30
0.0
 10
0.2623938791159878
 20
0.923696079119865
 30
0.0
 10
0.2618739944709458
 20
0.9238556974665879
 30
0.0
 10
0.2613540834021915
 20
0.9240153097004633
 30
0.0
 10
0.2608460921176616
 20
0.92417131866055
 30
0.0
 10
0.2605113948332796
 20
0.9242739734850474
 30
0.0
 10
0.2603499999284743
 20
0.9243234748296965
 30
0.0
  0
SPLINE
  5
1C2
330
1F
100
AcDbEntity
  8
0
  6
Continuous
 62
     7
370
    25
100
AcDbSpline
210
0.0
220
0.0
230
1.0
 70
     8
 71
     3
 72
    14
 73
    10
 74
     0
 42
0.000000001
 43
0.00000001
 40
0.0
 40
0.0
 40
0.0
 40
0.0
 40
0.1712624835000368
 40
0.3488022941223267
 40
0.4790454228042089
 40
0.6092832727632702
 40
0.7395213917220702
 40
0.8697618810411999
 40
1.0
 40
1.0
 40
1.0
 40
1.0
 10
0.2603499999284743
 20
0.9442023391180268
 30
0.0
 10
0.260624921376766
 20
0.9443666166342108
 30
0.0
 10
0.2611848410387247
 20
0.9447011929719271
 30
0.0
 10
0.2619374518296192
 20
0.9444475108435535
 30
0.0
 10
0.2626156397703404
 20
0.9442438279629211
 30
0.0
 10
0.2632226186105761
 20
0.9440564095921924
 30
0.0
 10
0.2638290659865402
 20
0.9438705263703264
 30
0.0
 10
0.2644356323323235
 20
0.9436842407617374
 30
0.0
 10
0.2648400024031074
 20
0.943560113634299
 30
0.0
 10
0.2650421855986117
 20
0.9434980506353603
 30
0.0
  0
SPLINE
  5
1C3
330
1F
100
AcDbEntity
  8
0
  6
Continuous
 62
     7
370
    25
100
AcDbSpline
210
0.0
220
0.0
230
1.0
 70
     8
 71
     3
 72
     9
 73
     5
 74
     0
 42
0.000000001
 43
0.00000001
 40
0.0
 40
0.0
 40
0.0
 40
0.0
 40
0.5696593613154944
 40
1.0
 40
1.0
 40
1.0
 40
1.0
 10
0.2610546609401702
 20
0.9228786582403408
 30
0.0
 10
0.2609196326184883
 20
0.92289630125253
 30
0.0
 10
0.2606825991720968
 20
0.922927272414223
 30
0.0
 10
0.2604500676795088
 20
0.9230056313347492
 30
0.0
 10
0.2603499999284743
 20
0.9230393523626552
 30
0.0
  0
SPLINE
  5
1C4
330
1F
100
AcDbEntity
  8
0
  6
Continuous
 62
     7
370
    25
100
AcDbSpline
210
0.0
220
0.0
230
1.0
 70
     8
 71
     3
 72
    32
 73
    28
 74
     0
 42
0.000000001
 43
0.00000001
 40
0.0
 40
0.0
 40
0.0
 40
0.0
 40
0.0068293795894303
 40
0.0801258639720982
 40
0.1145519993069892
 40
0.1511752996143046
 40
0.1873787062305733
 40
0.2337026711156101
 40
0.2789045200627397
 40
0.3121587161775172
 40
0.3454124315039845
 40
0.3786658790816989
 40
0.4119195944081663
 40
0.445172704521247
 40
0.4736760580823448
 40
0.5021787720901382
 40
0.5306820913105019
 40
0.5591848053182953
 40
0.5875888082064032
 40
0.6161449070395734
 40
0.6567326494200789
 40
0.7173120554630646
 40
0.7614549479964551
 40
0.8100909542865037
 40
0.8833742773526813
 40
0.9606363696673642
 40
0.9999999999999999
 40
0.9999999999999999
 40
0.9999999999999999
 40
0.9999999999999999
 10
0.2790849169731139
 20
0.9259271974020229
 30
0.0
 10
0.2791693863992671
 20
0.9259232800518518
 30
0.0
 10
0.2801604260187712
 20
0.9258773196446395
 30
0.0
 10
0.2810789182574689
 20
0.9259191363465107
 30
0.0
 10
0.2820210125701572
 20
0.9259923898989109
 30
0.0
 10
0.2824063536387914
 20
0.9260924091161129
 30
0.0
 10
0.2826865026246568
 20
0.9262211222981642
 30
0.0
 10
0.2824835536493773
 20
0.9264167131603431
 30
0.0
 10
0.2817294067987046
 20
0.9266504410883705
 30
0.0
 10
0.2810492479976333
 20
0.9268587972925042
 30
0.0
 10
0.2804429268462573
 20
0.9270449867175379
 30
0.0
 10
0.2798363054684927
 20
0.9272313894011563
 30
0.0
 10
0.2792297827564046
 20
0.9274175397261368
 30
0.0
 10
0.2786520944434163
 20
0.9275948898266517
 30
0.0
 10
0.2781033176965156
 20
0.9277633761560631
 30
0.0
 10
0.2775834218119079
 20
0.9279230005102206
 30
0.0
 10
0.2770634527125799
 20
0.9280826233539285
 30
0.0
 10
0.2765444559944844
 20
0.9282420384531864
 30
0.0
 10
0.276023662543092
 20
0.9284016664692709
 30
0.0
 10
0.2754359582747123
 20
0.9285830723191411
 30
0.0
 10
0.2746129174349246
 20
0.9288290334346299
 30
0.0
 10
0.2730110964933191
 20
0.9291360423648705
 30
0.0
 10
0.2710393018352103
 20
0.9294464645369092
 30
0.0
 10
0.2686926769158492
 20
0.9297652020683973
 30
0.0
 10
0.2657364261887504
 20
0.9300928394242571
 30
0.0
 10
0.2628995769533252
 20
0.9303366623960483
 30
0.0
 10
0.2615113289426616
 20
0.9303895794981003
 30
0.0
 10
0.2610427660882472
 20
0.9304074401312101
 30
0.0
  0
SPLINE
  5
1C5
330
1F
100
AcDbEntity
  8
0
  6
Continuous
 62
     7
370
    25
100
AcDbSpline
210
0.0
220
0.0
230
1.0
 70
     8
 71
     3
 72
    32
 73
    28
 74
     0
 42
0.000000001
 43
0.00000001
 40
0.0
 40
0.0
 40
0.0
 40
0.0
 40
0.0000783784233314
 40
0.0217514947086306
 40
0.0472414861575982
 40
0.0959427833612722
 40
0.1472545422187801
 40
0.1985851247684442
 40
0.247252869360018
 40
0.3088652806678182
 40
0.3170407563495476
 40
0.3267077897376765
 40
0.3453981197919315
 40
0.3520464255309546
 40
0.3634500757170894
 40
0.3865008232596684
 40
0.4854358793276369
 40
0.6316717444718506
 40
0.8426047731275721
 40
0.8802415890558755
 40
0.9339624280273423
 40
0.9364947063649316
 40
0.9462508380604469
 40
0.954510941743848
 40
0.9691909119632984
 40
0.9908635389921873
 40
1.0
 40
1.0
 40
1.0
 40
1.0
 10
0.2700976988315581
 20
0.9272451753072963
 30
0.0
 10
0.2700983147352766
 20
0.9272450958725544
 30
0.0
 10
0.2702692396646827
 20
0.9272230512293924
 30
0.0
 10
0.270645958818032
 20
0.9271560452359793
 30
0.0
 10
0.2714942099591801
 20
0.927050209364721
 30
0.0
 10
0.2726463182132972
 20
0.9269176811365951
 30
0.0
 10
0.2740039252546071
 20
0.9268081495456106
 30
0.0
 10
0.2751641336675438
 20
0.9267562497780144
 30
0.0
 10
0.2760888366301527
 20
0.9267659399055101
 30
0.0
 10
0.2763763471895573
 20
0.9268326288498401
 30
0.0
 10
0.2764941091896272
 20
0.9268849051548302
 30
0.0
 10
0.2764544892380678
 20
0.9269198665149256
 30
0.0
 10
0.2763092172956849
 20
0.9269613754160964
 30
0.0
 10
0.2761735070340929
 20
0.9270033244777116
 30
0.0
 10
0.2760188020296269
 20
0.9270509231990895
 30
0.0
 10
0.2755192783873524
 20
0.9272039154275897
 30
0.0
 10
0.2745134648447557
 20
0.9275132093843936
 30
0.0
 10
0.2728006419133956
 20
0.9280379497966125
 30
0.0
 10
0.2713325393828124
 20
0.9284922582649819
 30
0.0
 10
0.270183414783218
 20
0.9288406924010855
 30
0.0
 10
0.2698596901242549
 20
0.9289477235525787
 30
0.0
 10
0.2695651643608198
 20
0.9290259609541236
 30
0.0
 10
0.2694332730354614
 20
0.9290527152208004
 30
0.0
 10
0.2691814751357794
 20
0.9290937487817716
 30
0.0
 10
0.2688316151885745
 20
0.9291490721630935
 30
0.0
 10
0.268475151453498
 20
0.9292070347333536
 30
0.0
 10
0.268203192208044
 20
0.9292421323162663
 30
0.0
 10
0.268122542464733
 20
0.9292525405340419
 30
0.0
  0
SPLINE
  5
1C6
330
1F
100
AcDbEntity
  8
0
  6
Continuous
 62
     7
370
    25
100
AcDbSpline
210
0.0
220
0.0
230
1.0
 70
     8
 71
     3
 72
     9
 73
     5
 74
     0
 42
0.000000001
 43
0.00000001
 40
0.0
 40
0.0
 40
0.0
 40
0.0
 40
0.497593123077727
 40
1.0
 40
1.0
 40
1.0
 40
1.0
 10
0.2655303997933863
 20
0.9295256490164028
 30
0.0
 10
0.2653528217669206
 20
0.9295414712302259
 30
0.0
 10
0.2649959478106099
 20
0.9295732687231761
 30
0.0
 10
0.2647118755462506
 20
0.9295828327926794
 30
0.0
 10
0.2645691556870936
 20
0.9295876378469692
 30
0.0
  0
SPLINE
  5
1C7
330
1F
100
AcDbEntity
  8
0
  6
Continuous
 62
     7
370
    25
100
AcDbSpline
210
0.0
220
0.0
230
1.0
 70
     8
 71
     3
 72
    26
 73
    22
 74
     0
 42
0.000000001
 43
0.00000001
 40
0.0
 40
0.0
 40
0.0
 40
0.0
 40
0.0094946023372409
 40
0.0759875647630528
 40
0.1408708191520364
 40
0.1886035824724412
 40
0.2363360399898318
 40
0.2840676287825705
 40
0.3318000862999611
 40
0.3795316750926997
 40
0.4204454033914367
 40
0.4613583122605071
 40
0.5022720405592441
 40
0.543184900134501
 40
0.5839569382955474
 40
0.6249460421493378
 40
0.6832052810921628
 40
0.7701617659062122
 40
0.8335241055947455
 40
0.9033369449068404
 40
0.9999999999999999
 40
0.9999999999999999
 40
0.9999999999999999
 40
0.9999999999999999
 10
0.2831780573368071
 20
0.931983982985519
 30
0.0
 10
0.2831923955292434
 20
0.9319912293778279
 30
0.0
 10
0.2833071474996409
 20
0.932049223982061
 30
0.0
 10
0.283079900235646
 20
0.9322082433725898
 30
0.0
 10
0.2823505836501379
 20
0.9324386755814262
 30
0.0
 10
0.2816655646177781
 20
0.9326478698251284
 30
0.0
 10
0.2810604128054506
 20
0.9328339081428343
 30
0.0
 10
0.2804534710644246
 20
0.9330201617512901
 30
0.0
 10
0.2798470374926312
 20
0.9332063512825017
 30
0.0
 10
0.2792693246875774
 20
0.9333836909387316
 30
0.0
 10
0.2787205602577029
 20
0.9335521797236488
 30
0.0
 10
0.278200655914741
 20
0.9337118043712977
 30
0.0
 10
0.2776806901778974
 20
0.9338714226249449
 30
0.0
 10
0.2771616839621044
 20
0.9340308571557023
 30
0.0
 10
0.2766409081199004
 20
0.9341904173518139
 30
0.0
 10
0.2760531963350104
 20
0.9343720926322985
 30
0.0
 10
0.2752301171272099
 20
0.9346176977855618
 30
0.0
 10
0.2736284650179509
 20
0.9349250712029031
 30
0.0
 10
0.2716562182174193
 20
0.9352347040142099
 30
0.0
 10
0.2693953423288782
 20
0.9355453446908992
 30
0.0
 10
0.2676721286661187
 20
0.9357273388818781
 30
0.0
 10
0.2666715567946433
 20
0.9358330125265348
 30
0.0
  0
SPLINE
  5
1C8
330
1F
100
AcDbEntity
  8
0
  6
Continuous
 62
     7
370
    25
100
AcDbSpline
210
0.0
220
0.0
230
1.0
 70
     8
 71
     3
 72
    24
 73
    20
 74
     0
 42
0.000000001
 43
0.00000001
 40
0.0
 40
0.0
 40
0.0
 40
0.0
 40
0.1166083674499184
 40
0.2326735292276995
 40
0.2871882039411782
 40
0.345181639353784
 40
0.4025109397154212
 40
0.4758654363959018
 40
0.5474435927127916
 40
0.600101723874911
 40
0.6527594632960686
 40
0.7054172027172262
 40
0.7580739837742282
 40
0.8107317231953857
 40
0.8558662376587185
 40
0.9010006977418471
 40
0.9461361161878385
 40
0.9912705762709672
 40
1.0
 40
1.0
 40
1.0
 40
1.0
 10
0.1713231576621531
 20
0.5073162669592128
 30
0.0
 10
0.1703655500325517
 20
0.5072369317486796
 30
0.0
 10
0.1684547956701735
 20
0.5070786309008892
 30
0.0
 10
0.1668232600031229
 20
0.5067628756969331
 30
0.0
 10
0.1658911931378924
 20
0.5064904722636836
 30
0.0
 10
0.1654955990963087
 20
0.5062731137764729
 30
0.0
 10
0.1652106488429661
 20
0.5060283532647321
 30
0.0
 10
0.1654094818396941
 20
0.5057606162713353
 30
0.0
 10
0.1661636647558052
 20
0.505526006222188
 30
0.0
 10
0.1668438291078085
 20
0.5053176290902792
 30
0.0
 10
0.1674501529435305
 20
0.5051313920702425
 30
0.0
 10
0.1680567574237541
 20
0.504945198822107
 30
0.0
 10
0.1686633093695431
 20
0.5047589845593634
 30
0.0
 10
0.1692409660591311
 20
0.5045816590291694
 30
0.0
 10
0.1697897606717413
 20
0.5044131619578753
 30
0.0
 10
0.1703096733231491
 20
0.504253540413351
 30
0.0
 10
0.1708295437098916
 20
0.5040939210267101
 30
0.0
 10
0.1712097143932633
 20
0.5039772204927804
 30
0.0
 10
0.171416489212554
 20
0.503913716028332
 30
0.0
 10
0.1714500000715254
 20
0.5039034242086635
 30
0.0
  0
SPLINE
  5
1C9
330
1F
100
AcDbEntity
  8
0
  6
Continuous
 62
     7
370
    25
100
AcDbSpline
210
0.0
220
0.0
230
1.0
 70
     8
 71
     3
 72
    20
 73
    16
 74
     0
 42
0.000000001
 43
0.00000001
 40
0.0
 40
0.0
 40
0.0
 40
0.0
 40
0.0116017391665974
 40
0.1332897834928983
 40
0.2520303313899356
 40
0.3393858021785298
 40
0.4267399197688387
 40
0.5140924475253253
 40
0.6014465651156342
 40
0.6887990928721208
 40
0.7636744045311464
 40
0.8385481263584943
 40
0.913423528227125
 40
0.9882972500544729
 40
1.0
 40
1.0
 40
1.0
 40
1.0
 10
0.1653437314569949
 20
0.5002874488287197
 30
0.0
 10
0.1653341886885644
 20
0.5002783964604287
 30
0.0
 10
0.1652245539588265
 20
0.5001743958280869
 30
0.0
 10
0.1654522346474666
 20
0.4999721030372711
 30
0.0
 10
0.1661785403659588
 20
0.4997376562888186
 30
0.0
 10
0.1668641447818627
 20
0.4995294554736243
 30
0.0
 10
0.1674691582872658
 20
0.4993431789046486
 30
0.0
 10
0.1680761377010672
 20
0.4991569889259054
 30
0.0
 10
0.168682560718443
 20
0.498970782559167
 30
0.0
 10
0.1692602778516682
 20
0.4987934464380693
 30
0.0
 10
0.1698090359612071
 20
0.4986249596272253
 30
0.0
 10
0.1703289603131571
 20
0.4984653246657858
 30
0.0
 10
0.1708488332095699
 20
0.4983057447043289
 30
0.0
 10
0.1712225731847513
 20
0.4981909146272708
 30
0.0
 10
0.1714229188641219
 20
0.4981294816608484
 30
0.0
 10
0.1714500000715254
 20
0.4981211776190032
 30
0.0
  0
SPLINE
  5
1CA
330
1F
100
AcDbEntity
  8
0
  6
Continuous
 62
     7
370
    25
100
AcDbSpline
210
0.0
220
0.0
230
1.0
 70
     8
 71
     3
 72
    19
 73
    15
 74
     0
 42
0.000000001
 43
0.00000001
 40
0.0
 40
0.0
 40
0.0
 40
0.0
 40
0.0560585666060966
 40
0.1121159429175149
 40
0.1681745095236115
 40
0.2242318858350299
 40
0.2802024015660863
 40
0.3362611032510525
 40
0.4160836244522332
 40
0.5352276563619961
 40
0.6220449442882736
 40
0.7176997157013778
 40
0.8618275444091462
 40
1.0
 40
1.0
 40
1.0
 40
1.0
 10
0.262221004629135
 20
0.5057903880529628
 30
0.0
 10
0.2623943028044717
 20
0.5058435947507369
 30
0.0
 10
0.2627408954754953
 20
0.5059500070165444
 30
0.0
 10
0.2632608282493729
 20
0.5061096328523202
 30
0.0
 10
0.2637806558684008
 20
0.5062692504052759
 30
0.0
 10
0.2643005125802071
 20
0.506428786920339
 30
0.0
 10
0.2648193478023471
 20
0.506588345406497
 30
0.0
 10
0.265416053782687
 20
0.5067704230281485
 30
0.0
 10
0.2661816786092727
 20
0.507012534907989
 30
0.0
 10
0.2662600244789837
 20
0.5072211233022481
 30
0.0
 10
0.2658009594735187
 20
0.507375116112287
 30
0.0
 10
0.2648279782736859
 20
0.5074779470219781
 30
0.0
 10
0.2631047638813906
 20
0.5075092834531856
 30
0.0
 10
0.2612552488633937
 20
0.5074109084366163
 30
0.0
 10
0.2603499999284743
 20
0.5073627585821376
 30
0.0
  0
SPLINE
  5
1CB
330
1F
100
AcDbEntity
  8
0
  6
Continuous
 62
     7
370
    25
100
AcDbSpline
210
0.0
220
0.0
230
1.0
 70
     8
 71
     3
 72
    11
 73
     7
 74
     0
 42
0.000000001
 43
0.00000001
 40
0.0
 40
0.0
 40
0.0
 40
0.0
 40
0.0274456600609651
 40
0.351628361714437
 40
0.6758172983465283
 40
1.0
 40
1.0
 40
1.0
 40
1.0
 10
0.2603499999284743
 20
0.5052160376959074
 30
0.0
 10
0.2603671150666556
 20
0.5052212824777058
 30
0.0
 10
0.2605863908277721
 20
0.5052884775834969
 30
0.0
 10
0.2610079136409278
 20
0.5054180282740313
 30
0.0
 10
0.2616144438937872
 20
0.5056041688418356
 30
0.0
 10
0.2620188190135587
 20
0.5057283153805332
 30
0.0
 10
0.262221004629135
 20
0.5057903880529628
 30
0.0
  0
SPLINE
  5
1CC
330
1F
100
AcDbEntity
  8
0
  6
Continuous
 62
     7
370
    25
100
AcDbSpline
210
0.0
220
0.0
230
1.0
 70
     8
 71
     3
 72
    15
 73
    11
 74
     0
 42
0.000000001
 43
0.00000001
 40
0.0
 40
0.0
 40
0.0
 40
0.0
 40
0.1077676794555798
 40
0.2155376471969087
 40
0.3233053266524885
 40
0.4310752943938174
 40
0.5386759884534028
 40
0.6464462158775294
 40
0.7998976865785516
 40
1.0
 40
1.0
 40
1.0
 40
1.0
 10
0.2628382405281066
 20
0.5000015849523769
 30
0.0
 10
0.2630115431329146
 20
0.5000547926506207
 30
0.0
 10
0.2633581520223526
 20
0.5001612091768934
 30
0.0
 10
0.2638780257137054
 20
0.5003208222650797
 30
0.0
 10
0.264397988060829
 20
0.5004804606925872
 30
0.0
 10
0.2649174424272596
 20
0.5006399502058114
 30
0.0
 10
0.2654376921214735
 20
0.5007996576167812
 30
0.0
 10
0.2660284029770169
 20
0.5009811115644136
 30
0.0
 10
0.2667842733925576
 20
0.5012126061980595
 30
0.0
 10
0.266756635062012
 20
0.5013372388620085
 30
0.0
 10
0.2667409924805163
 20
0.5014077777319181
 30
0.0
  0
SPLINE
  5
1CD
330
1F
100
AcDbEntity
  8
0
  6
Continuous
 62
     7
370
    25
100
AcDbSpline
210
0.0
220
0.0
230
1.0
 70
     8
 71
     3
 72
    12
 73
     8
 74
     0
 42
0.000000001
 43
0.00000001
 40
0.0
 40
0.0
 40
0.0
 40
0.0
 40
0.0249338348468061
 40
0.2686945786776631
 40
0.5124644473988182
 40
0.756229879539388
 40
1.0
 40
1.0
 40
1.0
 40
1.0
 10
0.2603499999284743
 20
0.4992376918249355
 30
0.0
 10
0.2603706776013957
 20
0.49924405012392
 30
0.0
 10
0.2605935064862339
 20
0.4993125690852938
 30
0.0
 10
0.261018608278383
 20
0.4994429386033879
 30
0.0
 10
0.2616251209953823
 20
0.4996291819107315
 30
0.0
 10
0.2622316930588221
 20
0.4998153801539763
 30
0.0
 10
0.2626360567421754
 20
0.4999395162883305
 30
0.0
 10
0.2628382405281066
 20
0.5000015849523769
 30
0.0
  0
LINE
  5
1CE
330
1F
100
AcDbEntity
  8
0
  6
Continuous
 62
     7
370
    25
100
AcDbLine
 10
0.2622210046
 20
0.5057903881
 30
0.0
 11
0.2628382405
 21
0.500001585
 31
0.0
  0
LINE
  5
1CF
330
1F
100
AcDbEntity
  8
0
  6
Continuous
 62
     8
370
    25
100
AcDbLine
 10
0.290900003
 20
0.9342148656
 30
0.0
 11
0.276561938
 21
0.9342148656
 31
0.0
  0
LINE
  5
1D0
330
1F
100
AcDbEntity
  8
0
  6
Continuous
 62
     8
370
    25
100
AcDbLine
 10
0.1516013553
 20
0.9342148656
 30
0.0
 11
0.140899997
 21
0.9342148656
 31
0.0
  0
LINE
  5
1D1
330
1F
100
AcDbEntity
  8
0
  6
Continuous
 62
     8
370
    25
100
AcDbLine
 10
0.140899997
 20
0.5042149181
 30
0.0
 11
0.1516013553
 21
0.5042149181
 31
0.0
  0
LINE
  5
1D2
330
1F
100
AcDbEntity
  8
0
  6
Continuous
 62
     8
370
    25
100
AcDbLine
 10
0.2765619045
 20
0.5042149181
 30
0.0
 11
0.290900003
 21
0.5042149181
 31
0.0
  0
LINE
  5
1D3
330
1F
100
AcDbEntity
  8
0
  6
Continuous
 62
     8
370
    25
100
AcDbLine
 10
0.290900003
 20
-0.0457850342
 30
0.0
 11
0.276561938
 21
-0.0457850342
 31
0.0
  0
LINE
  5
1D4
330
1F
100
AcDbEntity
  8
0
  6
Continuous
 62
     8
370
    25
100
AcDbLine
 10
0.1516013553
 20
-0.0457850342
 30
0.0
 11
0.140899997
 21
-0.0457850342
 31
0.0
  0
LINE
  5
1D5
330
1F
100
AcDbEntity
  8
0
  6
Continuous
 62
     8
370
    25
100
AcDbLine
 10
0.140899997
 20
-0.475785101
 30
0.0
 11
0.1516013553
 21
-0.475785101
 31
0.0
  0
LINE
  5
1D6
330
1F
100
AcDbEntity
  8
0
  6
Continuous
 62
     8
370
    25
100
AcDbLine
 10
0.2765619045
 20
-0.475785101
 30
0.0
 11
0.290900003
 21
-0.475785101
 31
0.0
  0
LINE
  5
1D7
330
1F
100
AcDbEntity
  8
0
  6
Continuous
 62
     8
370
    25
100
AcDbLine
 10
0.1678927427
 20
-0.0407833701
 30
0.0
 11
0.1679082362
 21
-0.0361346846
 31
0.0
  0
LINE
  5
1D8
330
1F
100
AcDbEntity
  8
0
  6
Continuous
 62
     8
370
    25
100
AcDbLine
 10
0.2650421856
 20
-0.0365020876
 30
0.0
 11
0.2644489033
 21
-0.0420661812
 31
0.0
  0
LINE
  5
1D9
330
1F
100
AcDbEntity
  8
0
  6
Continuous
 62
     8
370
    25
100
AcDbLine
 10
0.2603499999
 20
-0.4743302708
 30
0.0
 11
0.2622210046
 21
-0.4742095714
 31
0.0
  0
LINE
  5
1DA
330
1F
100
AcDbEntity
  8
0
  6
Continuous
 62
     8
370
    25
100
AcDbLine
 10
0.2644489033
 20
-0.4795038944
 30
0.0
 11
0.2650421856
 21
-0.4850681072
 31
0.0
  0
LINE
  5
1DB
330
1F
100
AcDbEntity
  8
0
  6
Continuous
 62
     8
370
    25
100
AcDbLine
 10
0.1679082362
 20
-0.4854355102
 30
0.0
 11
0.1678927427
 21
-0.4807867055
 31
0.0
  0
LINE
  5
1DC
330
1F
100
AcDbEntity
  8
0
  6
Continuous
 62
     8
370
    25
100
AcDbLine
 10
0.2644489033
 20
0.5004960651
 30
0.0
 11
0.2650421856
 21
0.4949318523
 31
0.0
  0
LINE
  5
1DD
330
1F
100
AcDbEntity
  8
0
  6
Continuous
 62
     8
370
    25
100
AcDbLine
 10
0.1714500001
 20
-0.0462867861
 30
0.0
 11
0.1692698559
 21
-0.0461429005
 31
0.0
  0
LINE
  5
1DE
330
1F
100
AcDbEntity
  8
0
  6
Continuous
 62
     8
370
    25
100
AcDbLine
 10
0.1679082362
 20
0.4945644493
 30
0.0
 11
0.1678927427
 21
0.4992132539
 31
0.0
  0
LINE
  5
1DF
330
1F
100
AcDbEntity
  8
0
  6
Continuous
 62
     8
370
    25
100
AcDbLine
 10
0.1714500001
 20
0.9337132329
 30
0.0
 11
0.1692698559
 21
0.9338571186
 31
0.0
  0
LINE
  5
1E0
330
1F
100
AcDbEntity
  8
0
  6
Continuous
 62
     8
370
    25
100
AcDbLine
 10
0.1678927427
 20
0.9392165298
 30
0.0
 11
0.1679082362
 21
0.9438654537
 31
0.0
  0
LINE
  5
1E1
330
1F
100
AcDbEntity
  8
0
  6
Continuous
 62
     8
370
    25
100
AcDbLine
 10
0.2650421856
 20
0.9434980506
 30
0.0
 11
0.2644489033
 21
0.9379337186
 31
0.0
  0
LINE
  5
1E2
330
1F
100
AcDbEntity
  8
0
  6
Continuous
 62
     8
370
    25
100
AcDbLine
 10
0.2603499999
 20
0.5056697483
 30
0.0
 11
0.2622210046
 21
0.5057903881
 31
0.0
  0
ENDSEC
  0
SECTION
  2
OBJECTS
  0
DICTIONARY
  5
C
330
0
100
AcDbDictionary
281
     1
  3
ACAD_GROUP
350
D
  3
ACAD_LAYOUT
350
1A
  3
ACAD_MLINESTYLE
350
17
  3
ACAD_PLOTSETTINGS
350
19
  3
ACAD_PLOTSTYLENAME
350
E
  3
ACAD_SCALELIST
350
47
  0
DICTIONARY
  5
D
102
{ACAD_REACTORS
330
C
102
}
330
C
100
AcDbDictionary
281
     1
  0
DICTIONARY
  5
1A
102
{ACAD_REACTORS
330
C
102
}
330
C
100
AcDbDictionary
281
     1
  3
Layout1
350
1E
  3
Layout2
350
26
  3
Model
350
22
  0
DICTIONARY
  5
17
102
{ACAD_REACTORS
330
C
102
}
330
C
100
AcDbDictionary
281
     1
  3
Standard
350
18
  0
DICTIONARY
  5
19
102
{ACAD_REACTORS
330
C
102
}
330
C
100
AcDbDictionary
281
     1
  0
ACDBDICTIONARYWDFLT
  5
E
102
{ACAD_REACTORS
330
C
102
}
330
C
100
AcDbDictionary
281
     1
  3
Normal
350
F
100
AcDbDictionaryWithDefault
340
F
  0
DICTIONARY
  5
47
102
{ACAD_REACTORS
330
C
102
}
330
C
100
AcDbDictionary
281
     1
  3
A0
350
48
  3
A1
350
49
  3
A2
350
4A
  3
A3
350
4B
  3
A4
350
4C
  3
A5
350
4D
  3
A6
350
4E
  3
A7
350
4F
  3
A8
350
50
  3
A9
350
51
  3
B0
350
52
  3
B1
350
53
  3
B2
350
54
  3
B3
350
55
  3
B4
350
56
  3
B5
350
57
  3
B6
350
58
  3
B7
350
59
  3
B8
350
5A
  3
B9
350
5B
  3
C0
350
5C
  3
C1
350
5D
  3
C2
350
5E
  3
C3
350
5F
  3
C4
350
60
  3
C5
350
61
  3
C6
350
62
  3
C7
350
63
  3
C8
350
64
  3
C9
350
65
  3
D0
350
66
  3
D1
350
67
  3
D2
350
68
  0
LAYOUT
  5
1E
102
{ACAD_REACTORS
330
1A
102
}
330
1A
100
AcDbPlotSettings
  1

  2
none_device
  4

  6

 40
0.0
 41
0.0
 42
0.0
 43
0.0
 44
0.0
 45
0.0
 46
0.0
 47
0.0
 48
0.0
 49
0.0
140
0.0
141
0.0
142
1.0
143
1.0
 70
   688
 72
     1
 73
     0
 74
     5
  7

 75
    16
147
1.0
148
0.0
149
0.0
100
AcDbLayout
  1
Layout1
 70
     1
 71
     1
 10
0.0
 20
0.0
 11
420.0
 21
297.0
 12
0.0
 22
0.0
 32
0.0
 14
1.0000000000E+20
 24
1.0000000000E+20
 34
1.0000000000E+20
 15
-1.0000000000E+20
 25
-1.0000000000E+20
 35
-1.0000000000E+20
146
0.0
 13
0.0
 23
0.0
 33
0.0
 16
1.0
 26
0.0
 36
0.0
 17
0.0
 27
1.0
 37
0.0
 76
     0
330
1B
  0
LAYOUT
  5
26
102
{ACAD_REACTORS
330
1A
102
}
330
1A
100
AcDbPlotSettings
  1

  2
none_device
  4

  6

 40
0.0
 41
0.0
 42
0.0
 43
0.0
 44
0.0
 45
0.0
 46
0.0
 47
0.0
 48
0.0
 49
0.0
140
0.0
141
0.0
142
1.0
143
1.0
 70
   688
 72
     1
 73
     0
 74
     5
  7

 75
    16
147
1.0
148
0.0
149
0.0
100
AcDbLayout
  1
Layout2
 70
     1
 71
     2
 10
0.0
 20
0.0
 11
0.0
 21
0.0
 12
0.0
 22
0.0
 32
0.0
 14
0.0
 24
0.0
 34
0.0
 15
0.0
 25
0.0
 35
0.0
146
0.0
 13
0.0
 23
0.0
 33
0.0
 16
1.0
 26
0.0
 36
0.0
 17
0.0
 27
1.0
 37
0.0
 76
     0
330
23
  0
LAYOUT
  5
22
102
{ACAD_REACTORS
330
1A
102
}
330
1A
100
AcDbPlotSettings
  1

  2
none_device
  4
Letter_(8.50_x_11.00_Inches)
  6

 40
6.35
 41
6.35
 42
6.35000508
 43
6.35000508
 44
215.9
 45
279.4
 46
0.0
 47
0.0
 48
0.0
 49
0.0
140
0.0
141
0.0
142
1.0
143
1.0
 70
  1712
 72
     1
 73
     0
 74
     0
  7

 75
     0
147
1.0
148
0.0
149
0.0
100
AcDbLayout
  1
Model
 70
     1
 71
     0
 10
0.0
 20
0.0
 11
0.4318
 21
0.2794
 12
0.0
 22
0.0
 32
0.0
 14
0.0
 24
0.0
 34
0.0
 15
0.4318
 25
0.2794
 35
0.0
146
0.0
 13
0.0
 23
0.0
 33
0.0
 16
1.0
 26
0.0
 36
0.0
 17
0.0
 27
1.0
 37
0.0
 76
     0
330
1F
331
29
  0
MLINESTYLE
  5
18
102
{ACAD_REACTORS
330
17
102
}
330
17
100
AcDbMlineStyle
  2
Standard
 70
     0
  3

 62
   256
 51
90.0
 52
90.0
 71
     2
 49
0.5
 62
   256
  6
BYLAYER
 49
-0.5
 62
   256
  6
BYLAYER
  0
ACDBPLACEHOLDER
  5
F
102
{ACAD_REACTORS
330
E
102
}
330
E
  0
SCALE
  5
48
102
{ACAD_REACTORS
330
47
102
}
330
47
100
AcDbScale
 70
     0
300
1:1
140
1.0
141
1.0
290
     1
  0
SCALE
  5
49
102
{ACAD_REACTORS
330
47
102
}
330
47
100
AcDbScale
 70
     0
300
1:2
140
1.0
141
2.0
290
     0
  0
SCALE
  5
4A
102
{ACAD_REACTORS
330
47
102
}
330
47
100
AcDbScale
 70
     0
300
1:4
140
1.0
141
4.0
290
     0
  0
SCALE
  5
4B
102
{ACAD_REACTORS
330
47
102
}
330
47
100
AcDbScale
 70
     0
300
1:5
140
1.0
141
5.0
290
     0
  0
SCALE
  5
4C
102
{ACAD_REACTORS
330
47
102
}
330
47
100
AcDbScale
 70
     0
300
1:8
140
1.0
141
8.0
290
     0
  0
SCALE
  5
4D
102
{ACAD_REACTORS
330
47
102
}
330
47
100
AcDbScale
 70
     0
300
1:10
140
1.0
141
10.0
290
     0
  0
SCALE
  5
4E
102
{ACAD_REACTORS
330
47
102
}
330
47
100
AcDbScale
 70
     0
300
1:16
140
1.0
141
16.0
290
     0
  0
SCALE
  5
4F
102
{ACAD_REACTORS
330
47
102
}
330
47
100
AcDbScale
 70
     0
300
1:20
140
1.0
141
20.0
290
     0
  0
SCALE
  5
50
102
{ACAD_REACTORS
330
47
102
}
330
47
100
AcDbScale
 70
     0
300
1:30
140
1.0
141
30.0
290
     0
  0
SCALE
  5
51
102
{ACAD_REACTORS
330
47
102
}
330
47
100
AcDbScale
 70
     0
300
1:40
140
1.0
141
40.0
290
     0
  0
SCALE
  5
52
102
{ACAD_REACTORS
330
47
102
}
330
47
100
AcDbScale
 70
     0
300
1:50
140
1.0
141
50.0
290
     0
  0
SCALE
  5
53
102
{ACAD_REACTORS
330
47
102
}
330
47
100
AcDbScale
 70
     0
300
1:100
140
1.0
141
100.0
290
     0
  0
SCALE
  5
54
102
{ACAD_REACTORS
330
47
102
}
330
47
100
AcDbScale
 70
     0
300
2:1
140
2.0
141
1.0
290
     0
  0
SCALE
  5
55
102
{ACAD_REACTORS
330
47
102
}
330
47
100
AcDbScale
 70
     0
300
4:1
140
4.0
141
1.0
290
     0
  0
SCALE
  5
56
102
{ACAD_REACTORS
330
47
102
}
330
47
100
AcDbScale
 70
     0
300
8:1
140
8.0
141
1.0
290
     0
  0
SCALE
  5
57
102
{ACAD_REACTORS
330
47
102
}
330
47
100
AcDbScale
 70
     0
300
10:1
140
10.0
141
1.0
290
     0
  0
SCALE
  5
58
102
{ACAD_REACTORS
330
47
102
}
330
47
100
AcDbScale
 70
     0
300
100:1
140
100.0
141
1.0
290
     0
  0
SCALE
  5
59
102
{ACAD_REACTORS
330
47
102
}
330
47
100
AcDbScale
 70
     0
300
1/128" = 1'-0"
140
0.0078125
141
12.0
290
     0
  0
SCALE
  5
5A
102
{ACAD_REACTORS
330
47
102
}
330
47
100
AcDbScale
 70
     0
300
1/64" = 1'-0"
140
0.015625
141
12.0
290
     0
  0
SCALE
  5
5B
102
{ACAD_REACTORS
330
47
102
}
330
47
100
AcDbScale
 70
     0
300
1/32" = 1'-0"
140
0.03125
141
12.0
290
     0
  0
SCALE
  5
5C
102
{ACAD_REACTORS
330
47
102
}
330
47
100
AcDbScale
 70
     0
300
1/16" = 1'-0"
140
0.0625
141
12.0
290
     0
  0
SCALE
  5
5D
102
{ACAD_REACTORS
330
47
102
}
330
47
100
AcDbScale
 70
     0
300
3/32" = 1'-0"
140
0.09375
141
12.0
290
     0
  0
SCALE
  5
5E
102
{ACAD_REACTORS
330
47
102
}
330
47
100
AcDbScale
 70
     0
300
1/8" = 1'-0"
140
0.125
141
12.0
290
     0
  0
SCALE
  5
5F
102
{ACAD_REACTORS
330
47
102
}
330
47
100
AcDbScale
 70
     0
300
3/16" = 1'-0"
140
0.1875
141
12.0
290
     0
  0
SCALE
  5
60
102
{ACAD_REACTORS
330
47
102
}
330
47
100
AcDbScale
 70
     0
300
1/4" = 1'-0"
140
0.25
141
12.0
290
     0
  0
SCALE
  5
61
102
{ACAD_REACTORS
330
47
102
}
330
47
100
AcDbScale
 70
     0
300
3/8" = 1'-0"
140
0.375
141
12.0
290
     0
  0
SCALE
  5
62
102
{ACAD_REACTORS
330
47
102
}
330
47
100
AcDbScale
 70
     0
300
1/2" = 1'-0"
140
0.5
141
12.0
290
     0
  0
SCALE
  5
63
102
{ACAD_REACTORS
330
47
102
}
330
47
100
AcDbScale
 70
     0
300
3/4" = 1'-0"
140
0.75
141
12.0
290
     0
  0
SCALE
  5
64
102
{ACAD_REACTORS
330
47
102
}
330
47
100
AcDbScale
 70
     0
300
1" = 1'-0"
140
1.0
141
12.0
290
     0
  0
SCALE
  5
65
102
{ACAD_REACTORS
330
47
102
}
330
47
100
AcDbScale
 70
     0
300
1-1/2" = 1'-0"
140
1.5
141
12.0
290
     0
  0
SCALE
  5
66
102
{ACAD_REACTORS
330
47
102
}
330
47
100
AcDbScale
 70
     0
300
3" = 1'-0"
140
3.0
141
12.0
290
     0
  0
SCALE
  5
67
102
{ACAD_REACTORS
330
47
102
}
330
47
100
AcDbScale
 70
     0
300
6" = 1'-0"
140
6.0
141
12.0
290
     0
  0
SCALE
  5
68
102
{ACAD_REACTORS
330
47
102
}
330
47
100
AcDbScale
 70
     0
300
1'-0" = 1'-0"
140
12.0
141
12.0
290
     0
  0
ENDSEC
  0
EOF
