  0
SECTION
  2
HEADER
  9
$ACADVER
  1
AC1021
  9
$ACADMAINTVER
 70
    25
  9
$DWGCODEPAGE
  3
ANSI_1250
  9
$INSBASE
 10
0.0
 20
0.0
 30
0.0
  9
$EXTMIN
 10
0.0
 20
0.0
 30
0.0
  9
$EXTMAX
 10
210.0
 20
297.0
 30
0.0
  9
$LIMMIN
 10
0.0
 20
0.0
  9
$LIMMAX
 10
210.0
 20
297.0
  9
$ORTHOMODE
 70
     0
  9
$REGENMODE
 70
     1
  9
$FILLMODE
 70
     1
  9
$QTEXTMODE
 70
     0
  9
$MIRRTEXT
 70
     1
  9
$LTSCALE
 40
1.0
  9
$ATTMODE
 70
     1
  9
$TEXTSIZE
 40
3.5
  9
$TRACEWID
 40
1.0
  9
$TEXTSTYLE
  7
Standard
  9
$CLAYER
  8
0
  9
$CELTYPE
  6
ByLayer
  9
$CECOLOR
 62
   256
  9
$CELTSCALE
 40
1.0
  9
$DISPSILH
 70
     0
  9
$DIMSCALE
 40
1.0
  9
$DIMASZ
 40
3.302
  9
$DIMEXO
 40
1.0
  9
$DIMDLI
 40
3.75
  9
$DIMRND
 40
0.0
  9
$DIMDLE
 40
0.0
  9
$DIMEXE
 40
1.0
  9
$DIMTP
 40
0.0
  9
$DIMTM
 40
0.0
  9
$DIMTXT
 40
3.5
  9
$DIMCEN
 40
2.5
  9
$DIMTSZ
 40
0.0
  9
$DIMTOL
 70
     0
  9
$DIMLIM
 70
     0
  9
$DIMTIH
 70
     1
  9
$DIMTOH
 70
     1
  9
$DIMSE1
 70
     0
  9
$DIMSE2
 70
     0
  9
$DIMTAD
 70
     1
  9
$DIMZIN
 70
     0
  9
$DIMBLK
  1

  9
$DIMASO
 70
     1
  9
$DIMSHO
 70
     1
  9
$DIMPOST
  1

  9
$DIMAPOST
  1

  9
$DIMALT
 70
     0
  9
$DIMALTD
 70
     3
  9
$DIMALTF
 40
0.0393700787
  9
$DIMLFAC
 40
1.0
  9
$DIMTOFL
 70
     1
  9
$DIMTVP
 40
0.0
  9
$DIMTIX
 70
     0
  9
$DIMSOXD
 70
     0
  9
$DIMSAH
 70
     0
  9
$DIMBLK1
  1

  9
$DIMBLK2
  1

  9
$DIMSTYLE
  2
ISO-25
  9
$DIMCLRD
 70
     0
  9
$DIMCLRE
 70
     0
  9
$DIMCLRT
 70
     0
  9
$DIMTFAC
 40
1.0
  9
$DIMGAP
 40
1.524
  9
$DIMJUST
 70
     0
  9
$DIMSD1
 70
     0
  9
$DIMSD2
 70
     0
  9
$DIMTOLJ
 70
     0
  9
$DIMTZIN
 70
     0
  9
$DIMALTZ
 70
     0
  9
$DIMALTTZ
 70
     0
  9
$DIMUPT
 70
     0
  9
$DIMDEC
 70
     2
  9
$DIMTDEC
 70
     2
  9
$DIMALTU
 70
     2
  9
$DIMALTTD
 70
     3
  9
$DIMTXSTY
  7
Standard
  9
$DIMAUNIT
 70
     0
  9
$DIMADEC
 70
     2
  9
$DIMALTRND
 40
0.0
  9
$DIMAZIN
 70
     0
  9
$DIMDSEP
 70
    44
  9
$DIMATFIT
 70
     3
  9
$DIMFRAC
 70
     0
  9
$DIMLDRBLK
  1

  9
$DIMLUNIT
 70
     2
  9
$DIMLWD
 70
    -2
  9
$DIMLWE
 70
    -2
  9
$DIMTMOVE
 70
     0
  9
$DIMFXL
 40
1.0
  9
$DIMFXLON
 70
     0
  9
$DIMJOGANG
 40
0.7853981634
  9
$DIMTFILL
 70
     0
  9
$DIMTFILLCLR
 70
     0
  9
$DIMARCSYM
 70
     0
  9
$DIMLTYPE
  6

  9
$DIMLTEX1
  6

  9
$DIMLTEX2
  6

  9
$LUNITS
 70
     2
  9
$LUPREC
 70
     2
  9
$SKETCHINC
 40
1.0
  9
$FILLETRAD
 40
10.0
  9
$AUNITS
 70
     0
  9
$AUPREC
 70
     2
  9
$MENU
  1
.
  9
$ELEVATION
 40
0.0
  9
$PELEVATION
 40
0.0
  9
$THICKNESS
 40
0.0
  9
$LIMCHECK
 70
     0
  9
$CHAMFERA
 40
0.0
  9
$CHAMFERB
 40
0.0
  9
$CHAMFERC
 40
0.0
  9
$CHAMFERD
 40
0.0
  9
$SKPOLY
 70
     0
  9
$TDCREATE
 40
2458577.32600169
  9
$TDUCREATE
 40
2458577.242668356
  9
$TDUPDATE
 40
2458577.326001944
  9
$TDUUPDATE
 40
2458577.242668611
  9
$TDINDWG
 40
0.0000000116
  9
$TDUSRTIMER
 40
0.0000000116
  9
$USRTIMER
 70
     1
  9
$ANGBASE
 50
0.0
  9
$ANGDIR
 70
     0
  9
$PDMODE
 70
     0
  9
$PDSIZE
 40
-1.0
  9
$PLINEWID
 40
0.0
  9
$SPLFRAME
 70
     0
  9
$SPLINETYPE
 70
     6
  9
$SPLINESEGS
 70
     8
  9
$HANDSEED
  5
116
  9
$SURFTAB1
 70
     6
  9
$SURFTAB2
 70
     6
  9
$SURFTYPE
 70
     6
  9
$SURFU
 70
     6
  9
$SURFV
 70
     6
  9
$UCSBASE
  2

  9
$UCSNAME
  2

  9
$UCSORG
 10
0.0
 20
0.0
 30
0.0
  9
$UCSXDIR
 10
1.0
 20
0.0
 30
0.0
  9
$UCSYDIR
 10
0.0
 20
1.0
 30
0.0
  9
$UCSORTHOREF
  2

  9
$UCSORTHOVIEW
 70
     0
  9
$UCSORGTOP
 10
0.0
 20
0.0
 30
0.0
  9
$UCSORGBOTTOM
 10
0.0
 20
0.0
 30
0.0
  9
$UCSORGLEFT
 10
0.0
 20
0.0
 30
0.0
  9
$UCSORGRIGHT
 10
0.0
 20
0.0
 30
0.0
  9
$UCSORGFRONT
 10
0.0
 20
0.0
 30
0.0
  9
$UCSORGBACK
 10
0.0
 20
0.0
 30
0.0
  9
$PUCSBASE
  2

  9
$PUCSNAME
  2

  9
$PUCSORG
 10
0.0
 20
0.0
 30
0.0
  9
$PUCSXDIR
 10
1.0
 20
0.0
 30
0.0
  9
$PUCSYDIR
 10
0.0
 20
1.0
 30
0.0
  9
$PUCSORTHOREF
  2

  9
$PUCSORTHOVIEW
 70
     0
  9
$PUCSORGTOP
 10
0.0
 20
0.0
 30
0.0
  9
$PUCSORGBOTTOM
 10
0.0
 20
0.0
 30
0.0
  9
$PUCSORGLEFT
 10
0.0
 20
0.0
 30
0.0
  9
$PUCSORGRIGHT
 10
0.0
 20
0.0
 30
0.0
  9
$PUCSORGFRONT
 10
0.0
 20
0.0
 30
0.0
  9
$PUCSORGBACK
 10
0.0
 20
0.0
 30
0.0
  9
$USERI1
 70
     0
  9
$USERI2
 70
     0
  9
$USERI3
 70
     0
  9
$USERI4
 70
     0
  9
$USERI5
 70
     0
  9
$USERR1
 40
0.0
  9
$USERR2
 40
0.0
  9
$USERR3
 40
0.0
  9
$USERR4
 40
0.0
  9
$USERR5
 40
0.0
  9
$WORLDVIEW
 70
     1
  9
$SHADEDGE
 70
     3
  9
$SHADEDIF
 70
    70
  9
$TILEMODE
 70
     1
  9
$MAXACTVP
 70
    64
  9
$PINSBASE
 10
0.0
 20
0.0
 30
0.0
  9
$PLIMCHECK
 70
     0
  9
$PEXTMIN
 10
1.0000000000E+20
 20
1.0000000000E+20
 30
1.0000000000E+20
  9
$PEXTMAX
 10
-1.0000000000E+20
 20
-1.0000000000E+20
 30
-1.0000000000E+20
  9
$PLIMMIN
 10
0.0
 20
0.0
  9
$PLIMMAX
 10
420.0
 20
297.0
  9
$UNITMODE
 70
     0
  9
$VISRETAIN
 70
     1
  9
$PLINEGEN
 70
     0
  9
$PSLTSCALE
 70
     1
  9
$TREEDEPTH
 70
  3020
  9
$CMLSTYLE
  2
Standard
  9
$CMLJUST
 70
     0
  9
$CMLSCALE
 40
20.0
  9
$PROXYGRAPHICS
 70
     1
  9
$MEASUREMENT
 70
     1
  9
$CELWEIGHT
370
    -1
  9
$ENDCAPS
280
     0
  9
$JOINSTYLE
280
     0
  9
$LWDISPLAY
290
     1
  9
$INSUNITS
 70
     4
  9
$HYPERLINKBASE
  1

  9
$STYLESHEET
  1

  9
$XEDIT
290
     1
  9
$CEPSNTYPE
380
     0
  9
$PSTYLEMODE
290
     1
  9
$FINGERPRINTGUID
  2
{E490062C-7147-4A55-B97E-9D701DE9578B}
  9
$VERSIONGUID
  2
{FAEB1C32-E019-11D5-929B-00C0DF256EC4}
  9
$EXTNAMES
290
     1
  9
$PSVPSCALE
 40
0.0
  9
$OLESTARTUP
290
     0
  9
$SORTENTS
280
   127
  9
$INDEXCTL
280
     0
  9
$HIDETEXT
280
     1
  9
$XCLIPFRAME
290
     0
  9
$HALOGAP
280
     0
  9
$OBSCOLOR
 70
   257
  9
$OBSLTYPE
280
     0
  9
$INTERSECTIONDISPLAY
280
     0
  9
$INTERSECTIONCOLOR
 70
   257
  9
$DIMASSOC
280
     2
  9
$PROJECTNAME
  1

  9
$CAMERADISPLAY
290
     0
  9
$LENSLENGTH
 40
50.0
  9
$CAMERAHEIGHT
 40
0.0
  9
$STEPSPERSEC
 40
2.0
  9
$STEPSIZE
 40
6.0
  9
$3DDWFPREC
 40
2.0
  9
$PSOLWIDTH
 40
5.0
  9
$PSOLHEIGHT
 40
80.0
  9
$LOFTANG1
 40
1.5707963268
  9
$LOFTANG2
 40
1.5707963268
  9
$LOFTMAG1
 40
0.0
  9
$LOFTMAG2
 40
0.0
  9
$LOFTPARAM
 70
     7
  9
$LOFTNORMALS
280
     1
  9
$LATITUDE
 40
37.795
  9
$LONGITUDE
 40
-122.394
  9
$NORTHDIRECTION
 40
0.0
  9
$TIMEZONE
 70
 -8000
  9
$LIGHTGLYPHDISPLAY
280
     1
  9
$TILEMODELIGHTSYNCH
280
     1
  9
$CMATERIAL
347
44
  9
$SOLIDHIST
280
     0
  9
$SHOWHIST
280
     1
  9
$DWFFRAME
280
     2
  9
$DGNFRAME
280
     2
  9
$REALWORLDSCALE
290
     1
  9
$INTERFERECOLOR
 62
   256
  9
$CSHADOW
280
     0
  9
$SHADOWPLANELOCATION
 40
0.0
  0
ENDSEC
  0
SECTION
  2
CLASSES
  0
CLASS
  1
ACDBDICTIONARYWDFLT
  2
AcDbDictionaryWithDefault
  3
ObjectDBX Classes
 90
        0
 91
        4
280
     0
281
     0
  0
CLASS
  1
VISUALSTYLE
  2
AcDbVisualStyle
  3
ObjectDBX Classes
 90
     4095
 91
        4
280
     0
281
     0
  0
CLASS
  1
MATERIAL
  2
AcDbMaterial
  3
ObjectDBX Classes
 90
     1153
 91
        4
280
     0
281
     0
  0
CLASS
  1
SCALE
  2
AcDbScale
  3
ObjectDBX Classes
 90
     1153
 91
        4
280
     0
281
     0
  0
CLASS
  1
TABLESTYLE
  2
AcDbTableStyle
  3
ObjectDBX Classes
 90
     4095
 91
        4
280
     0
281
     0
  0
CLASS
  1
MLEADERSTYLE
  2
AcDbMLeaderStyle
  3
ACDB_MLEADERSTYLE_CLASS
 90
     4095
 91
        4
280
     0
281
     0
  0
CLASS
  1
SUN
  2
AcDbSun
  3
SCENEOE
 90
     1153
 91
        4
280
     0
281
     0
  0
CLASS
  1
DICTIONARYVAR
  2
AcDbDictionaryVar
  3
ObjectDBX Classes
 90
        0
 91
        4
280
     0
281
     0
  0
CLASS
  1
CELLSTYLEMAP
  2
AcDbCellStyleMap
  3
ObjectDBX Classes
 90
     1152
 91
        4
280
     0
281
     0
  0
ENDSEC
  0
SECTION
  2
TABLES
  0
TABLE
  2
VPORT
  5
8
330
0
100
AcDbSymbolTable
 70
     1
  0
VPORT
  5
29
330
8
100
AcDbSymbolTableRecord
100
AcDbViewportTableRecord
  2
*Active
 70
     0
 10
0.0
 20
0.0
 11
1.0
 21
1.0
 12
105.0
 22
148.5
 13
0.0
 23
0.0
 14
10.0
 24
10.0
 15
10.0
 25
10.0
 16
0.0
 26
0.0
 36
1.0
 17
0.0
 27
0.0
 37
0.0
 40
297.0
 41
0.7070707071
 42
50.0
 43
0.0
 44
0.0
 50
0.0
 51
0.0
 71
     0
 72
  2000
 73
     1
 74
     3
 75
     0
 76
     0
 77
     0
 78
     0
281
     0
 65
     1
110
0.0
120
0.0
130
0.0
111
1.0
121
0.0
131
0.0
112
0.0
122
1.0
132
0.0
 79
     0
146
0.0
 60
     3
 61
     5
292
     1
282
     1
141
0.0
142
0.0
 63
   250
361
6D
  0
ENDTAB
  0
TABLE
  2
LTYPE
  5
5
330
0
100
AcDbSymbolTable
 70
     6
  0
LTYPE
  5
14
330
5
100
AcDbSymbolTableRecord
100
AcDbLinetypeTableRecord
  2
ByBlock
 70
     0
  3

 72
    65
 73
     0
 40
0.0
  0
LTYPE
  5
15
330
5
100
AcDbSymbolTableRecord
100
AcDbLinetypeTableRecord
  2
ByLayer
 70
     0
  3

 72
    65
 73
     0
 40
0.0
  0
LTYPE
  5
16
330
5
100
AcDbSymbolTableRecord
100
AcDbLinetypeTableRecord
  2
Continuous
 70
     0
  3
Solid line
 72
    65
 73
     0
 40
0.0
  0
LTYPE
  5
6E
330
5
100
AcDbSymbolTableRecord
100
AcDbLinetypeTableRecord
  2
HIDDEN
 70
     0
  3
Hidden __ __ __ __ __ __ __ __ __ __ __ __ __ __
 72
    65
 73
     2
 40
1.905
 49
1.27
 74
     0
 49
-0.635
 74
     0
  0
LTYPE
  5
6F
330
5
100
AcDbSymbolTableRecord
100
AcDbLinetypeTableRecord
  2
PHANTOM
 70
     0
  3
Phantom ______  __  __  ______  __  __  ______
 72
    65
 73
     6
 40
12.7
 49
6.35
 74
     0
 49
-1.27
 74
     0
 49
1.27
 74
     0
 49
-1.27
 74
     0
 49
1.27
 74
     0
 49
-1.27
 74
     0
  0
LTYPE
  5
70
330
5
100
AcDbSymbolTableRecord
100
AcDbLinetypeTableRecord
  2
CENTER
 70
     0
  3
Center ____ _ ____ _ ____ _ ____ _ ____ _ ____
 72
    65
 73
     4
 40
10.16
 49
6.35
 74
     0
 49
-1.27
 74
     0
 49
1.27
 74
     0
 49
-1.27
 74
     0
  0
LTYPE
  5
71
330
5
100
AcDbSymbolTableRecord
100
AcDbLinetypeTableRecord
  2
CENTERX2
 70
     0
  3
Center (2x) ________  __  ________  __  _____
 72
    65
 73
     4
 40
20.32
 49
12.7
 74
     0
 49
-2.54
 74
     0
 49
2.54
 74
     0
 49
-2.54
 74
     0
  0
LTYPE
  5
72
330
5
100
AcDbSymbolTableRecord
100
AcDbLinetypeTableRecord
  2
DOT2
 70
     0
  3
Dot (.5x) ........................................
 72
    65
 73
     2
 40
0.635
 49
0.0
 74
     0
 49
-0.635
 74
     0
  0
ENDTAB
  0
TABLE
  2
LAYER
  5
2
330
0
100
AcDbSymbolTable
 70
     1
  0
LAYER
  5
10
330
2
100
AcDbSymbolTableRecord
100
AcDbLayerTableRecord
  2
0
 70
     0
 62
     7
  6
Continuous
370
    -3
390
F
347
46
  0
ENDTAB
  0
TABLE
  2
STYLE
  5
3
330
0
100
AcDbSymbolTable
 70
     1
  0
STYLE
  5
11
330
3
100
AcDbSymbolTableRecord
100
AcDbTextStyleTableRecord
  2
Standard
 70
     0
 40
0.0
 41
1.0
 50
0.0
 71
     0
 42
3.5
  3
txt
  4

  0
ENDTAB
  0
TABLE
  2
VIEW
  5
6
330
0
100
AcDbSymbolTable
 70
     0
  0
ENDTAB
  0
TABLE
  2
UCS
  5
7
330
0
100
AcDbSymbolTable
 70
     0
  0
ENDTAB
  0
TABLE
  2
APPID
  5
9
330
0
100
AcDbSymbolTable
 70
     2
  0
APPID
  5
12
330
9
100
AcDbSymbolTableRecord
100
AcDbRegAppTableRecord
  2
ACAD
 70
     0
  0
APPID
  5
110
330
9
100
AcDbSymbolTableRecord
100
AcDbRegAppTableRecord
  2
ACAD_MLEADERVER
 70
     0
  0
ENDTAB
  0
TABLE
  2
DIMSTYLE
  5
A
330
0
100
AcDbSymbolTable
 70
     1
100
AcDbDimStyleTable
  0
DIMSTYLE
105
27
330
A
100
AcDbSymbolTableRecord
100
AcDbDimStyleTableRecord
  2
ISO-25
 70
     0
 41
2.5
 42
0.625
 43
3.75
 44
1.25
 73
     0
 74
     0
 77
     1
 78
     8
140
2.5
141
2.5
143
0.0393700787
147
0.625
171
     3
172
     1
178
     0
271
     2
272
     2
274
     3
278
    44
283
     0
284
     8
340
11
  0
ENDTAB
  0
TABLE
  2
BLOCK_RECORD
  5
1
330
0
100
AcDbSymbolTable
 70
     1
  0
BLOCK_RECORD
  5
1F
330
1
100
AcDbSymbolTableRecord
100
AcDbBlockTableRecord
  2
*Model_Space
340
22
 70
     0
280
     1
281
     0
  0
BLOCK_RECORD
  5
1B
330
1
100
AcDbSymbolTableRecord
100
AcDbBlockTableRecord
  2
*Paper_Space
340
1E
 70
     0
280
     1
281
     0
  0
BLOCK_RECORD
  5
23
330
1
100
AcDbSymbolTableRecord
100
AcDbBlockTableRecord
  2
*Paper_Space0
340
26
 70
     0
280
     1
281
     0
  0
ENDTAB
  0
ENDSEC
  0
SECTION
  2
BLOCKS
  0
BLOCK
  5
20
330
1F
100
AcDbEntity
  8
0
100
AcDbBlockBegin
  2
*Model_Space
 70
     0
 10
0.0
 20
0.0
 30
0.0
  3
*Model_Space
  1

  0
ENDBLK
  5
21
330
1F
100
AcDbEntity
  8
0
100
AcDbBlockEnd
  0
BLOCK
  5
1C
330
1B
100
AcDbEntity
 67
     1
  8
0
100
AcDbBlockBegin
  2
*Paper_Space
 70
     0
 10
0.0
 20
0.0
 30
0.0
  3
*Paper_Space
  1

  0
ENDBLK
  5
1D
330
1B
100
AcDbEntity
 67
     1
  8
0
100
AcDbBlockEnd
  0
BLOCK
  5
24
330
23
100
AcDbEntity
  8
0
100
AcDbBlockBegin
  2
*Paper_Space0
 70
     0
 10
0.0
 20
0.0
 30
0.0
  3
*Paper_Space0
  1

  0
ENDBLK
  5
25
330
23
100
AcDbEntity
  8
0
100
AcDbBlockEnd
  0
ENDSEC
  0
SECTION
  2
ENTITIES
  0
CIRCLE
  5
73
330
1F
100
AcDbEntity
  8
0
  6
Continuous
 62
     7
100
AcDbCircle
 10
107.7867857143
 20
183.9085714286
 30
0.0
 40
2780.000000000001
  0
LWPOLYLINE
  5
74
330
1F
100
AcDbEntity
  8
0
  6
Continuous
 62
     7
370
    25
100
AcDbPolyline
 90
       61
 70
   128
 43
0.0
 10
696.9193330928
 20
543.5010985797
 10
696.7145315334
 20
543.3828727668
 10
696.1003652736
 20
543.028284735
 10
695.077251546
 20
542.437572903
 10
693.6458460018
 20
541.6111545031
 10
691.8071023151
 20
540.5495659774
 10
689.5623913928
 20
539.253582186
 10
686.9131437465
 20
537.7240375941
 10
683.8612667247
 20
535.9620050853
 10
680.4087272808
 20
533.9687065547
 10
676.5580288097
 20
531.7455129092
 10
672.3117343112
 20
529.293914265
 10
667.672764413
 20
526.6156093543
 10
662.6442781612
 20
523.7124161189
 10
657.2297922298
 20
520.5863313144
 10
651.4329425022
 20
517.2395305102
 10
645.2577820941
 20
513.674278683
 10
638.7084237262
 20
509.8930196231
 10
631.789456956
 20
505.8983461326
 10
624.5055905506
 20
501.6930000251
 10
616.8617716953
 20
497.2798721259
 10
608.8633648082
 20
492.6619426673
 10
600.5157045051
 20
487.8424303
 10
591.8246022388
 20
482.8246430819
 10
582.7959886714
 20
477.6119486754
 10
573.4360626861
 20
472.2080127662
 10
563.7512019798
 20
466.6164414351
 10
553.7480822727
 20
460.8411685889
 10
543.4335580989
 20
454.8860685294
 10
532.814692609
 20
448.7552539771
 10
521.8987575694
 20
442.4529270594
 10
510.6932333633
 20
435.9834389155
 10
499.2058089897
 20
429.3511555856
 10
487.4443522617
 20
422.5606815284
 10
475.4169098064
 20
415.6166361039
 10
463.1317666694
 20
408.5237876838
 10
450.5972973033
 20
401.2870089476
 10
437.822084777
 20
393.9112470811
 10
424.8149505779
 20
386.4015684789
 10
411.5847459957
 20
378.7630991404
 10
398.1405607387
 20
371.0010991757
 10
384.4916037246
 20
363.1208733981
 10
370.6472328826
 20
355.1278160279
 10
356.6169402524
 20
347.0274255936
 10
342.4103221818
 20
338.8252453273
 10
328.0371538326
 20
330.5268780654
 10
313.5072550699
 20
322.1380458539
 10
298.8305947706
 20
313.6644707387
 10
284.0172163173
 20
305.1119641726
 10
269.0772972032
 20
296.4863897627
 10
254.0210596248
 20
287.7936707204
 10
238.8588151857
 20
279.039752609
 10
223.6009797975
 20
270.2306331461
 10
208.2579991743
 20
261.3723547523
 10
192.8403786346
 20
252.470989651
 10
177.358698003
 20
243.5326361423
 10
161.8235557302
 20
234.5634186035
 10
146.245609872
 20
225.5694874888
 10
130.6355296596
 20
216.5570044284
 10
115.0040183179
 20
207.5321459537
 10
113.9543139338
 20
206.9260989641
  0
LWPOLYLINE
  5
75
330
1F
100
AcDbEntity
  8
0
  6
Continuous
 62
     7
370
    25
100
AcDbPolyline
 90
       61
 70
   128
 43
0.0
 10
84.7692581787
 20
190.0760996481
 10
83.719553329
 20
189.4700521929
 10
68.0880396589
 20
180.4451946495
 10
52.4779631719
 20
171.4327120548
 10
36.9000173136
 20
162.4387790774
 10
21.3648787662
 20
153.4695634013
 10
5.883190684
 20
144.5312098925
 10
-9.5344224051
 20
135.6298447912
 10
-24.8774179295
 20
126.7715663975
 10
-40.1352533177
 20
117.9624469345
 10
-55.2974828557
 20
109.2085288232
 10
-70.3537204341
 20
100.5158097809
 10
-85.2936395482
 20
91.8902353709
 10
-100.1070180014
 20
83.3377362554
 10
-114.7836783007
 20
74.8641611402
 10
-129.3135770634
 20
66.4753140276
 10
-143.6867603139
 20
58.1769542163
 10
-157.8933485821
 20
49.9747739499
 10
-171.9236561135
 20
41.8743835156
 10
-185.7680269555
 20
33.8813261454
 10
-199.4169839696
 20
26.0011003678
 10
-212.8611692265
 20
18.2391004031
 10
-226.0913738087
 20
10.6006310647
 10
-239.0985378102
 20
3.0909524625
 10
-251.8737205342
 20
-4.2848094041
 10
-264.4081899003
 20
-11.5215881402
 10
-276.6933628396
 20
-18.6144365604
 10
-288.7207754925
 20
-25.5584819848
 10
-300.4822322205
 20
-32.348956042
 10
-311.9696863965
 20
-38.9812244708
 10
-323.1752106026
 20
-45.4507424171
 10
-334.0911456421
 20
-51.7530544336
 10
-344.7100111321
 20
-57.8838689859
 10
-355.0245353058
 20
-63.8389541442
 10
-365.0276252106
 20
-69.6142418916
 10
-374.712485917
 20
-75.2058132226
 10
-384.0724119023
 20
-80.6097491319
 10
-393.1010254696
 20
-85.8224435384
 10
-401.7920979336
 20
-90.8402307565
 10
-410.1397880391
 20
-95.6597431237
 10
-418.1381949261
 20
-100.2776725824
 10
-425.7820137814
 20
-104.6908004815
 10
-433.0658801869
 20
-108.896146589
 10
-439.9848469571
 20
-112.8908200795
 10
-446.534205325
 20
-116.6720791394
 10
-452.709365733
 20
-120.2373309667
 10
-458.5062154606
 20
-123.5841317708
 10
-463.9207609967
 20
-126.7102165754
 10
-468.9491876439
 20
-129.6134098107
 10
-473.5881575421
 20
-132.2917147214
 10
-477.8344520405
 20
-134.7433133657
 10
-481.6852101163
 20
-136.9665070111
 10
-485.1376899556
 20
-138.9598055417
 10
-488.1895669774
 20
-140.7218380506
 10
-490.8388146237
 20
-142.2513826425
 10
-493.0835851506
 20
-143.5473664338
 10
-494.9222692326
 20
-144.6089549596
 10
-496.3536747769
 20
-145.4353733594
 10
-497.3767885045
 20
-146.0260851915
 10
-497.9909547642
 20
-146.3806732232
 10
-498.1957563237
 20
-146.4988990361
  0
LWPOLYLINE
  5
76
330
1F
100
AcDbEntity
  8
0
  6
Continuous
 62
     7
370
    25
100
AcDbPolyline
 90
       61
 70
   128
 43
0.0
 10
-481.3457616643
 20
-175.6839557225
 10
-481.1409601048
 20
-175.5657299096
 10
-480.526793845
 20
-175.2111418779
 10
-479.5036801175
 20
-174.6204300458
 10
-478.0722745732
 20
-173.794011646
 10
-476.2335308865
 20
-172.7324231202
 10
-473.9888199643
 20
-171.4364393289
 10
-471.3395723179
 20
-169.906894737
 10
-468.2876952962
 20
-168.1448622281
 10
-464.8351558522
 20
-166.1515636975
 10
-460.9844573811
 20
-163.9283700521
 10
-456.7381628827
 20
-161.4767714078
 10
-452.0991929844
 20
-158.7984664971
 10
-447.0707067326
 20
-155.8952732618
 10
-441.6562208012
 20
-152.7691884572
 10
-435.8593710736
 20
-149.4223876531
 10
-429.6842106656
 20
-145.8571358258
 10
-423.1348522976
 20
-142.0758767659
 10
-416.2158855275
 20
-138.0812032754
 10
-408.932019122
 20
-133.8758571679
 10
-401.2882002667
 20
-129.4627292688
 10
-393.2897933796
 20
-124.8447998101
 10
-384.9421330765
 20
-120.0252874429
 10
-376.2510308102
 20
-115.0075002248
 10
-367.2224172429
 20
-109.7948058183
 10
-357.8624912575
 20
-104.390869909
 10
-348.1776305512
 20
-98.799298578
 10
-338.1745108441
 20
-93.0240257318
 10
-327.8599866704
 20
-87.0689256723
 10
-317.2411211804
 20
-80.93811112
 10
-306.3251861409
 20
-74.6357842023
 10
-295.1196619347
 20
-68.1662960584
 10
-283.6322375611
 20
-61.5340127284
 10
-271.8707808331
 20
-54.7435386712
 10
-259.8433383778
 20
-47.7994932468
 10
-247.5581952408
 20
-40.7066448266
 10
-235.0237258748
 20
-33.4698660905
 10
-222.2485133484
 20
-26.0941042239
 10
-209.2413791493
 20
-18.5844256217
 10
-196.0111745671
 20
-10.9459562833
 10
-182.5669893101
 20
-3.1839563186
 10
-168.918032296
 20
4.696269459
 10
-155.0736614541
 20
12.6893268292
 10
-141.0433688239
 20
20.7897172635
 10
-126.8367507533
 20
28.9918975299
 10
-112.463582404
 20
37.2902647918
 10
-97.9336836413
 20
45.6790970033
 10
-83.257023342
 20
54.1526721185
 10
-68.4436448887
 20
62.7051786845
 10
-53.5037257746
 20
71.3307530945
 10
-38.4474881962
 20
80.0234721368
 10
-23.2852437571
 20
88.7773902481
 10
-8.0274083689
 20
97.5865097111
 10
7.3155722543
 20
106.4447881048
 10
22.733192794
 20
115.3461532061
 10
38.2148734256
 20
124.2845067149
 10
53.7500156983
 20
133.2537242537
 10
69.3279615566
 20
142.2476553684
 10
84.9380417689
 20
151.2601384287
 10
100.5695531107
 20
160.2849969035
 10
101.6192574948
 20
160.891043893
  0
LWPOLYLINE
  5
77
330
1F
100
AcDbEntity
  8
0
  6
Continuous
 62
     7
370
    25
100
AcDbPolyline
 90
       61
 70
   128
 43
0.0
 10
130.8043132498
 20
177.7410432091
 10
131.8540180996
 20
178.3470906643
 10
147.4855317697
 20
187.3719482077
 10
163.0956082567
 20
196.3844308024
 10
178.673554115
 20
205.3783637797
 10
194.2086926624
 20
214.3475794559
 10
209.6903807446
 20
223.2859329646
 10
225.1079938337
 20
232.1872980659
 10
240.4509893581
 20
241.0455764597
 10
255.7088247463
 20
249.8546959226
 10
270.8710542842
 20
258.608614034
 10
285.9272918626
 20
267.3013330763
 10
300.8672109767
 20
275.9269074862
 10
315.68058943
 20
284.4794066017
 10
330.3572497293
 20
292.9529817169
 10
344.887148492
 20
301.3418288296
 10
359.2603317424
 20
309.6401886409
 10
373.4669200107
 20
317.8423689072
 10
387.4972275421
 20
325.9427593415
 10
401.341598384
 20
333.9358167117
 10
414.9905553981
 20
341.8160424893
 10
428.4347406551
 20
349.578042454
 10
441.6649452373
 20
357.2165117925
 10
454.6721092388
 20
364.7261903947
 10
467.4472919628
 20
372.1019522612
 10
479.9817613288
 20
379.3387309974
 10
492.2669342681
 20
386.4315794175
 10
504.2943469211
 20
393.375624842
 10
516.0558036491
 20
400.1660988992
 10
527.543257825
 20
406.798367328
 10
538.7487820312
 20
413.2678852742
 10
549.6647170707
 20
419.5701972907
 10
560.2835825607
 20
425.701011843
 10
570.5981067344
 20
431.6560970013
 10
580.6011966392
 20
437.4313847487
 10
590.2860573455
 20
443.0229560798
 10
599.6459833309
 20
448.426891989
 10
608.6745968982
 20
453.6395863955
 10
617.3656693622
 20
458.6573736136
 10
625.7133594676
 20
463.4768859809
 10
633.7117663547
 20
468.0948154395
 10
641.35558521
 20
472.5079433387
 10
648.6394516155
 20
476.7132894461
 10
655.5584183856
 20
480.7079629367
 10
662.1077767536
 20
484.4892219966
 10
668.2829371616
 20
488.0544738238
 10
674.0797868892
 20
491.401274628
 10
679.4943324253
 20
494.5273594325
 10
684.5227590724
 20
497.4305526679
 10
689.1617289707
 20
500.1088575786
 10
693.4080234691
 20
502.5604562228
 10
697.2587815448
 20
504.7836498683
 10
700.7112613841
 20
506.7769483989
 10
703.7631384059
 20
508.5389809077
 10
706.4123860523
 20
510.0685254996
 10
708.6571565792
 20
511.364509291
 10
710.4958406612
 20
512.4260978167
 10
711.9272462055
 20
513.2525162166
 10
712.950359933
 20
513.8432280486
 10
713.5645261928
 20
514.1978160804
 10
713.7693277522
 20
514.3160418933
  0
LWPOLYLINE
  5
78
330
1F
100
AcDbEntity
  8
0
  6
Continuous
 62
     7
370
    25
100
AcDbPolyline
 90
       69
 70
   128
 43
0.0
 10
467.3793128654
 20
-405.22397595
 10
467.2901145145
 20
-405.0694211061
 10
467.0225194618
 20
-404.6059949929
 10
466.5767065212
 20
-403.8338168199
 10
465.952884309
 20
-402.7533038194
 10
465.1513806507
 20
-401.3650520379
 10
464.1725829765
 20
-399.6697767312
 10
463.0170575305
 20
-397.6683123643
 10
461.685370557
 20
-395.3617318208
 10
460.1781777069
 20
-392.7512271936
 10
458.4963134452
 20
-389.8381693895
 10
456.6406122371
 20
-386.6239889199
 10
454.6120575591
 20
-383.1104143197
 10
452.4116924926
 20
-379.2992933328
 10
450.0406197235
 20
-375.1924737031
 10
447.5001207515
 20
-370.7921608026
 10
444.7914770767
 20
-366.1006792123
 10
441.9160894081
 20
-361.1203535134
 10
438.8754478618
 20
-355.8538063104
 10
435.671131961
 20
-350.3037794168
 10
432.3047808334
 20
-344.4730742509
 10
428.778152816
 20
-338.3647902543
 10
425.0930956527
 20
-331.9820864732
 10
421.2514570877
 20
-325.3281815583
 10
417.2552636787
 20
-318.4065325791
 10
413.1065717861
 20
-311.2208052213
 10
408.807527177
 20
-303.7746651704
 10
404.3603650257
 20
-296.0719271238
 10
399.7673503086
 20
-288.1166143949
 10
395.0308970138
 20
-279.9128397042
 10
390.1534489318
 20
-271.4648349816
 10
385.1375094577
 20
-262.7769513662
 10
379.9856713935
 20
-253.8537486131
 10
374.7006169483
 20
-244.6997566754
 10
369.2850879356
 20
-235.3197737271
 10
363.7418559715
 20
-225.7185979421
 10
358.0737820789
 20
-215.9012361104
 10
352.28384649
 20
-205.8727844293
 10
346.375014536
 20
-195.6383688981
 10
340.3503260538
 20
-185.2032943303
 10
334.212910287
 20
-174.5729847486
 10
327.9659560844
 20
-163.7529237802
 10
321.6126671955
 20
-152.7487142617
 10
315.156351678
 20
-141.5660484368
 10
308.6003324911
 20
-130.210707956
 10
301.9480220004
 20
-118.6885638768
 10
295.2028325721
 20
-107.0055468614
 10
288.3682659789
 20
-95.1677365834
 10
281.4478686973
 20
-83.1812425191
 10
274.4452021047
 20
-71.0522635514
 10
267.3638871833
 20
-58.7870730693
 10
260.2075896188
 20
-46.3920189674
 10
252.9800198003
 20
-33.8734938438
 10
245.6849179193
 20
-21.2379946048
 10
238.3260390684
 20
-8.4920330579
 10
230.9071904942
 20
4.3577746814
 10
223.432224147
 20
17.3047975963
 10
215.9049919769
 20
30.3423450654
 10
208.3293906375
 20
43.4636668628
 10
200.7093465849
 20
56.6619680589
 10
193.0487937256
 20
69.9304462736
 10
185.3516883179
 20
83.2622171705
 10
177.6220164224
 20
96.6504038637
 10
169.8637790009
 20
110.0880698626
 10
162.0809807404
 20
123.5682675009
 10
154.2776524052
 20
137.0840267604
 10
146.4578284844
 20
150.6283627217
 10
138.6255490556
 20
164.1942643886
 10
130.7848709598
 20
177.7747198333
  0
LWPOLYLINE
  5
79
330
1F
100
AcDbEntity
  8
0
  6
Continuous
 62
     7
370
    25
100
AcDbPolyline
 90
       69
 70
   128
 43
0.0
 10
101.6028997451
 20
160.9193765884
 10
109.4435313912
 20
147.3390021687
 10
117.2757594809
 20
133.7731861835
 10
125.0955331102
 20
120.2289359038
 10
132.898811154
 20
106.7132697766
 10
140.6815535351
 20
93.23315782
 10
148.4397388026
 20
79.7955886786
 10
156.1693548187
 20
66.4075062936
 10
163.8664006218
 20
53.0758248036
 10
171.5268976017
 20
39.8074583476
 10
179.1468895003
 20
26.6092465585
 10
186.7224237844
 20
13.4880290692
 10
194.2495963499
 20
0.4505859082
 10
201.7245030924
 20
-12.4963326985
 10
209.1432846114
 20
-25.3460361297
 10
216.5021038577
 20
-38.0918784673
 10
223.7971535846
 20
-50.7272882993
 10
231.0246637985
 20
-63.2456942136
 10
238.1808868572
 20
-75.6406291062
 10
245.2621421739
 20
-87.9057152803
 10
252.2647491619
 20
-100.034604841
 10
259.1850868389
 20
-112.020979696
 10
266.0195789262
 20
-123.8586707647
 10
272.7647087499
 20
-135.5415685708
 10
279.4169596359
 20
-147.0636232431
 10
285.9729192182
 20
-158.4188743169
 10
292.429175131
 20
-169.6014209325
 10
298.7823895141
 20
-180.6055112416
 10
305.0292841121
 20
-191.4254828031
 10
311.1666402742
 20
-202.0556731755
 10
317.1912691518
 20
-212.490628534
 10
323.1000415012
 20
-222.7249248559
 10
328.8899323865
 20
-232.7533169324
 10
334.5579317733
 20
-242.5705595548
 10
340.1011041328
 20
-252.1716459329
 10
345.516588442
 20
-261.5515394742
 10
350.8015832826
 20
-270.7054122026
 10
355.9533617422
 20
-279.628555351
 10
360.9692565128
 20
-288.3163197572
 10
365.8466449901
 20
-296.7642350728
 10
370.5830684825
 20
-304.9679203565
 10
375.1759937927
 20
-312.9231436784
 10
379.6231261417
 20
-320.6257923181
 10
383.9221111461
 20
-328.071842962
 10
388.0707732364
 20
-335.2575405175
 10
392.0669070407
 20
-342.1790702874
 10
395.9085158035
 20
-348.8329155976
 10
399.5935431644
 20
-355.2155597741
 10
403.1201115772
 20
-361.3237841661
 10
406.4864329025
 20
-367.1543701226
 10
409.690719001
 20
-372.7043374116
 10
412.7313009426
 20
-377.97082501
 10
415.6066588088
 20
-382.9510911042
 10
418.3152726814
 20
-387.6425726945
 10
420.8557716533
 20
-392.0428259904
 10
423.2268146202
 20
-396.1495860154
 10
425.4271498844
 20
-399.9607070024
 10
427.4557045623
 20
-403.4742219979
 10
429.3113759681
 20
-406.6883428628
 10
430.9932104274
 20
-409.6014006669
 10
432.5003734752
 20
-412.2118456895
 10
433.8320604488
 20
-414.518426233
 10
434.9875858947
 20
-416.5198309953
 10
435.9663537666
 20
-418.215106302
 10
436.7678276225
 20
-419.6032984788
 10
437.3916498348
 20
-420.6838114793
 10
437.8374627754
 20
-421.4559896524
 10
438.1050578281
 20
-421.9194157655
 10
438.194256179
 20
-422.0739706094
  0
LWPOLYLINE
  5
7A
330
1F
100
AcDbEntity
  8
0
  6
Continuous
 62
     7
370
    25
100
AcDbPolyline
 90
       69
 70
   128
 43
0.0
 10
113.9706716835
 20
206.8977662688
 10
106.1300400374
 20
220.4781406885
 10
98.2978119477
 20
234.0439566737
 10
90.4780383184
 20
247.5882069533
 10
82.6747602745
 20
261.1038730805
 10
74.8920178935
 20
274.5839850371
 10
67.133832626
 20
288.0215541785
 10
59.4042166099
 20
301.4096365636
 10
51.7071708068
 20
314.7413180535
 10
44.0466738268
 20
328.0096845095
 10
36.4266819283
 20
341.2078962987
 10
28.8511476442
 20
354.3291137879
 10
21.3239750787
 20
367.3665569489
 10
13.8490683361
 20
380.3134755557
 10
6.4302868172
 20
393.1631789868
 10
-0.9285324291
 20
405.9090213244
 10
-8.223582156
 20
418.5444311564
 10
-15.4510923699
 20
431.0628370707
 10
-22.6073154286
 20
443.4577719634
 10
-29.6885707453
 20
455.7228581374
 10
-36.6911777333
 20
467.8517476981
 10
-43.6115154103
 20
479.8381225531
 10
-50.4460074977
 20
491.6758136218
 10
-57.1911373213
 20
503.358711428
 10
-63.8433882073
 20
514.8807661002
 10
-70.3993477896
 20
526.236017174
 10
-76.8556037024
 20
537.4185637896
 10
-83.2088180855
 20
548.4226540988
 10
-89.4557126835
 20
559.2426256602
 10
-95.5930688456
 20
569.8728160327
 10
-101.6176977233
 20
580.3077713912
 10
-107.5264700726
 20
590.5420677131
 10
-113.316360958
 20
600.5704597895
 10
-118.9843603448
 20
610.3877024119
 10
-124.5275327042
 20
619.98878879
 10
-129.9430170134
 20
629.3686823314
 10
-135.228011854
 20
638.5225550597
 10
-140.3797903136
 20
647.4456982081
 10
-145.3956850842
 20
656.1334626143
 10
-150.2730735615
 20
664.58137793
 10
-155.009497054
 20
672.7850632136
 10
-159.6024223641
 20
680.7402865355
 10
-164.0495547131
 20
688.4429351752
 10
-168.3485397175
 20
695.8889858191
 10
-172.4972018078
 20
703.0746833747
 10
-176.4933356122
 20
709.9962131446
 10
-180.3349443749
 20
716.6500584548
 10
-184.0199717358
 20
723.0327026313
 10
-187.5465401486
 20
729.1409270232
 10
-190.9128614739
 20
734.9715129798
 10
-194.1171475724
 20
740.5214802688
 10
-197.157729514
 20
745.7879678672
 10
-200.0330873803
 20
750.7682339614
 10
-202.7417012528
 20
755.4597155516
 10
-205.2822002247
 20
759.8599688475
 10
-207.6532431916
 20
763.9667288726
 10
-209.8535784558
 20
767.7778498595
 10
-211.8821331338
 20
771.2913648551
 10
-213.7378045395
 20
774.50548572
 10
-215.4196389988
 20
777.4185435241
 10
-216.9268020466
 20
780.0289885466
 10
-218.2584890202
 20
782.3355690902
 10
-219.4140144661
 20
784.3369738524
 10
-220.392782338
 20
786.0322491591
 10
-221.194256194
 20
787.420441336
 10
-221.8180784062
 20
788.5009543364
 10
-222.2638913468
 20
789.2731325095
 10
-222.5314863995
 20
789.7365586226
 10
-222.6206847504
 20
789.8911134665
  0
LWPOLYLINE
  5
7B
330
1F
100
AcDbEntity
  8
0
  6
Continuous
 62
     7
370
    25
100
AcDbPolyline
 90
       69
 70
   128
 43
0.0
 10
-251.8057414368
 20
773.0411188071
 10
-251.7165430859
 20
772.8865639632
 10
-251.4489480332
 20
772.4231378501
 10
-251.0031350926
 20
771.650959677
 10
-250.3793128804
 20
770.5704466765
 10
-249.5778092221
 20
769.1821948951
 10
-248.5990115479
 20
767.4869195884
 10
-247.443486102
 20
765.4854552214
 10
-246.1117991284
 20
763.1788746779
 10
-244.6046062783
 20
760.5683700507
 10
-242.9227420167
 20
757.6553122466
 10
-241.0670408085
 20
754.4411317771
 10
-239.0384861306
 20
750.9275571769
 10
-236.838121064
 20
747.1164361899
 10
-234.4670482949
 20
743.0096165603
 10
-231.9265493229
 20
738.6093036597
 10
-229.2179056481
 20
733.9178220694
 10
-226.3425179795
 20
728.9374963706
 10
-223.3018764332
 20
723.6709491675
 10
-220.0975605324
 20
718.1209222739
 10
-216.7312094048
 20
712.290217108
 10
-213.2045813874
 20
706.1819331115
 10
-209.5195242241
 20
699.7992293303
 10
-205.6778856591
 20
693.1453244155
 10
-201.6816922501
 20
686.2236754363
 10
-197.5330003575
 20
679.0379480784
 10
-193.2339557484
 20
671.5918080275
 10
-188.7867935971
 20
663.8890699809
 10
-184.19377888
 20
655.933757252
 10
-179.4573255852
 20
647.7299825614
 10
-174.5798775033
 20
639.2819778388
 10
-169.5639380292
 20
630.5940942233
 10
-164.412099965
 20
621.6708914702
 10
-159.1270455197
 20
612.5168995326
 10
-153.711516507
 20
603.1369165843
 10
-148.1682845429
 20
593.5357407992
 10
-142.5002106503
 20
583.7183789676
 10
-136.7102750615
 20
573.6899272864
 10
-130.8014431075
 20
563.4555117553
 10
-124.7767546252
 20
553.0204371875
 10
-118.6393388585
 20
542.3901276057
 10
-112.3923846558
 20
531.5700666373
 10
-106.0390957669
 20
520.5658571189
 10
-99.5827802495
 20
509.383191294
 10
-93.0267610625
 20
498.0278508132
 10
-86.3744505719
 20
486.505706734
 10
-79.6292611435
 20
474.8226897185
 10
-72.7946945504
 20
462.9848794406
 10
-65.8742972687
 20
450.9983853762
 10
-58.8716306761
 20
438.8694064086
 10
-51.7903157548
 20
426.6042159264
 10
-44.6340181902
 20
414.2091618245
 10
-37.4064483718
 20
401.6906367009
 10
-30.1113464907
 20
389.0551374619
 10
-22.7524676398
 20
376.309175915
 10
-15.3336190656
 20
363.4593681758
 10
-7.8586527184
 20
350.5123452609
 10
-0.3314205483
 20
337.4747977918
 10
7.244180791
 20
324.3534759944
 10
14.8642248436
 20
311.1551747983
 10
22.5247777029
 20
297.8866965835
 10
30.2218831107
 20
284.5549256866
 10
37.9515550062
 20
271.1667389934
 10
45.7097924277
 20
257.7290729945
 10
53.4925906881
 20
244.2488753562
 10
61.2959190234
 20
230.7331160968
 10
69.1157429441
 20
217.1887801354
 10
76.948022373
 20
203.6228784685
 10
84.7887004688
 20
190.0424230238
  0
CIRCLE
  5
7C
330
1F
100
AcDbEntity
  8
0
  6
Continuous
 62
     7
370
    25
100
AcDbCircle
 10
107.7867857143
 20
183.9085714286
 30
0.0
 40
2780.000000000001
  0
ARC
  5
7D
330
1F
100
AcDbEntity
  8
0
  6
Continuous
 62
     7
370
    25
100
AcDbCircle
 10
-489.7707442911
 20
-161.0914261568
 30
0.0
 40
16.84999999999996
100
AcDbArc
 50
119.9999997685
 51
299.9999997685
  0
ARC
  5
7E
330
1F
100
AcDbEntity
  8
0
  6
Continuous
 62
     7
370
    25
100
AcDbCircle
 10
705.3443157196
 20
528.9085690139
 30
0.0
 40
16.85000000000002
100
AcDbArc
 50
299.9999997685
 51
119.9999997685
  0
LWPOLYLINE
  5
7F
330
1F
100
AcDbEntity
  8
0
  6
Continuous
 62
     7
370
    25
100
AcDbPolyline
 90
       11
 70
   128
 43
0.0
 10
101.63294328
 20
160.9421194857
 10
101.6360189728
 20
160.9535989677
 10
101.9106841608
 20
161.9786628847
 10
102.5037107952
 20
164.1918671643
 10
103.1041917353
 20
166.4328919118
 10
103.8128574341
 20
169.0776692098
 10
104.8786834776
 20
173.0553861102
 10
106.050413005
 20
177.4283400131
 10
106.905759681
 20
180.6205375446
 10
107.7799848317
 20
183.8831901909
 10
107.7867857143
 20
183.9085714286
  0
LWPOLYLINE
  5
80
330
1F
100
AcDbEntity
  8
0
  6
Continuous
 62
     7
370
    25
100
AcDbPolyline
 90
       12
 70
   128
 43
0.0
 10
107.7867857143
 20
183.9085714286
 10
107.812166952
 20
183.901770546
 10
112.9203065261
 20
182.5330486148
 10
118.0277288854
 20
181.1645191023
 10
121.4553303048
 20
180.246095811
 10
124.679895021
 20
179.3820764264
 10
126.7393882349
 20
178.8302370673
 10
128.5243927463
 20
178.3519465802
 10
129.6101453676
 20
178.0610195687
 10
130.3896176591
 20
177.8521607024
 10
130.7675912007
 20
177.7508830977
 10
130.7468543723
 20
177.7564393682
  0
ARC
  5
81
330
1F
100
AcDbEntity
  8
0
  6
Continuous
 62
     7
370
    25
100
AcDbCircle
 10
452.7867832996
 20
-413.6489585768
 30
0.0
 40
16.84999999999997
100
AcDbArc
 50
209.9999997685
 51
299.9999997685
  0
ARC
  5
82
330
1F
100
AcDbEntity
  8
0
  6
Continuous
 62
     7
370
    25
100
AcDbCircle
 10
452.7867832996
 20
-413.6489585768
 30
0.0
 40
16.85000000000004
100
AcDbArc
 50
299.9999997685
 51
29.9999997685
  0
LWPOLYLINE
  5
83
330
1F
100
AcDbEntity
  8
0
  6
Continuous
 62
     7
370
    25
100
AcDbPolyline
 90
       12
 70
   128
 43
0.0
 10
107.7867857143
 20
183.9085714286
 10
107.7614044766
 20
183.9153723112
 10
102.6532649025
 20
185.2840942423
 10
97.5458425432
 20
186.6526237549
 10
94.1182411238
 20
187.5710470462
 10
90.8936764076
 20
188.4350664308
 10
88.8341831937
 20
188.9869057899
 10
87.0491786822
 20
189.465196277
 10
85.9634260609
 20
189.7561232885
 10
85.1839537695
 20
189.9649821547
 10
84.8059802278
 20
190.0662597594
 10
84.8264451101
 20
190.0607765978
  0
LWPOLYLINE
  5
84
330
1F
100
AcDbEntity
  8
0
  6
Continuous
 62
     7
370
    25
100
AcDbPolyline
 90
       11
 70
   128
 43
0.0
 10
113.9406607449
 20
206.8751444434
 10
113.9375524558
 20
206.8635438894
 10
113.6628872677
 20
205.8384799724
 10
113.0698606334
 20
203.6252756929
 10
112.4693796932
 20
201.3842509454
 10
111.7607139945
 20
198.7394736474
 10
110.694887951
 20
194.761756747
 10
109.5231584236
 20
190.3888028441
 10
108.6678117476
 20
187.1966053126
 10
107.7935865969
 20
183.9339526663
 10
107.7867857143
 20
183.9085714286
  0
ARC
  5
85
330
1F
100
AcDbEntity
  8
0
  6
Continuous
 62
     7
370
    25
100
AcDbCircle
 10
-237.2132118711
 20
781.4661014339
 30
0.0
 40
16.84999999999997
100
AcDbArc
 50
119.9999997685
 51
209.9999997685
  0
ARC
  5
86
330
1F
100
AcDbEntity
  8
0
  6
Continuous
 62
     7
370
    25
100
AcDbCircle
 10
-237.2132118711
 20
781.4661014339
 30
0.0
 40
16.85
100
AcDbArc
 50
29.9999997685
 51
119.9999997685
  0
CIRCLE
  5
87
330
1F
100
AcDbEntity
  8
0
  6
Continuous
 62
     7
370
    25
100
AcDbCircle
 10
107.7867857143
 20
118.9085714286
 30
0.0
 40
9.740000000000009
  0
LINE
  5
88
330
1F
100
AcDbEntity
  8
0
  6
Continuous
 62
     7
370
    25
100
AcDbLine
 10
105.8061918206
 20
121.7646831041
 30
0.0
 11
109.2699550986
 21
122.0518731838
 31
0.0
  0
LINE
  5
89
330
1F
100
AcDbEntity
  8
0
  6
Continuous
 62
     7
370
    25
100
AcDbLine
 10
106.30361633
 20
115.7652707165
 30
0.0
 11
104.3230224363
 21
118.6213837331
 31
0.0
  0
LINE
  5
8A
330
1F
100
AcDbEntity
  8
0
  6
Continuous
 62
     7
370
    25
100
AcDbLine
 10
104.3230224363
 20
118.6213837331
 30
0.0
 11
105.8061918206
 21
121.7646831041
 31
0.0
  0
LINE
  5
8B
330
1F
100
AcDbEntity
  8
0
  6
Continuous
 62
     7
370
    25
100
AcDbLine
 10
109.2699550986
 20
122.0518731838
 30
0.0
 11
111.2505489923
 21
119.1957564419
 31
0.0
  0
LINE
  5
8C
330
1F
100
AcDbEntity
  8
0
  6
Continuous
 62
     7
370
    25
100
AcDbLine
 10
111.2505489923
 20
119.1957564419
 30
0.0
 11
109.767379608
 21
116.0524607962
 31
0.0
  0
LINE
  5
8D
330
1F
100
AcDbEntity
  8
0
  6
Continuous
 62
     7
370
    25
100
AcDbLine
 10
109.767379608
 20
116.0524607962
 30
0.0
 11
106.30361633
 21
115.7652707165
 31
0.0
  0
ARC
  5
8E
330
1F
100
AcDbEntity
  8
0
  6
Continuous
 62
     7
370
    25
100
AcDbCircle
 10
107.7867857143
 20
118.9085714286
 30
0.0
 40
3.010000000000012
100
AcDbArc
 50
334.7396783828
 51
34.7396783828
  0
ARC
  5
8F
330
1F
100
AcDbEntity
  8
0
  6
Continuous
 62
     7
370
    25
100
AcDbCircle
 10
107.7867857143
 20
118.9085714286
 30
0.0
 40
3.010000000000009
100
AcDbArc
 50
274.7396783828
 51
334.7396783828
  0
ARC
  5
90
330
1F
100
AcDbEntity
  8
0
  6
Continuous
 62
     7
370
    25
100
AcDbCircle
 10
107.7867857143
 20
118.9085714286
 30
0.0
 40
3.009999999999994
100
AcDbArc
 50
214.7396783828
 51
274.7396783828
  0
ARC
  5
91
330
1F
100
AcDbEntity
  8
0
  6
Continuous
 62
     7
370
    25
100
AcDbCircle
 10
107.7867857143
 20
118.9085714286
 30
0.0
 40
3.010000000000002
100
AcDbArc
 50
154.7396783828
 51
214.7396783828
  0
ARC
  5
92
330
1F
100
AcDbEntity
  8
0
  6
Continuous
 62
     7
370
    25
100
AcDbCircle
 10
107.7867857143
 20
118.9085714286
 30
0.0
 40
3.010000000000002
100
AcDbArc
 50
94.7396783828
 51
154.7396783828
  0
ARC
  5
93
330
1F
100
AcDbEntity
  8
0
  6
Continuous
 62
     7
370
    25
100
AcDbCircle
 10
107.7867857143
 20
118.9085714286
 30
0.0
 40
3.010000000000012
100
AcDbArc
 50
34.7396783828
 51
94.7396783828
  0
LINE
  5
94
330
1F
100
AcDbEntity
  8
0
  6
Continuous
 62
     7
370
    25
100
AcDbLine
 10
324.4392088577
 20
182.9737659986
 30
0.0
 11
325.3034315034
 21
186.3402553694
 31
0.0
  0
LINE
  5
95
330
1F
100
AcDbEntity
  8
0
  6
Continuous
 62
     7
370
    25
100
AcDbLine
 10
328.651007168
 20
187.2750608576
 30
0.0
 11
331.1343601867
 21
184.8433768586
 31
0.0
  0
LINE
  5
96
330
1F
100
AcDbEntity
  8
0
  6
Continuous
 62
     7
370
    25
100
AcDbLine
 10
325.3034315034
 20
186.3402553694
 30
0.0
 11
328.651007168
 21
187.2750608576
 31
0.0
  0
CIRCLE
  5
97
330
1F
100
AcDbEntity
  8
0
  6
Continuous
 62
     7
370
    25
100
AcDbCircle
 10
327.7867857143
 20
183.9085714286
 30
0.0
 40
9.740000000000027
  0
LINE
  5
98
330
1F
100
AcDbEntity
  8
0
  6
Continuous
 62
     7
370
    25
100
AcDbLine
 10
331.1343601867
 20
184.8433768586
 30
0.0
 11
330.270137541
 21
181.4768874878
 31
0.0
  0
LINE
  5
99
330
1F
100
AcDbEntity
  8
0
  6
Continuous
 62
     7
370
    25
100
AcDbLine
 10
330.270137541
 20
181.4768874878
 30
0.0
 11
326.9225618764
 21
180.5420819995
 31
0.0
  0
LINE
  5
9A
330
1F
100
AcDbEntity
  8
0
  6
Continuous
 62
     7
370
    25
100
AcDbLine
 10
326.9225618764
 20
180.5420819995
 30
0.0
 11
324.4392088577
 21
182.9737659986
 31
0.0
  0
ARC
  5
9B
330
1F
100
AcDbEntity
  8
0
  6
Continuous
 62
     7
370
    25
100
AcDbCircle
 10
327.7867857143
 20
183.9085714286
 30
0.0
 40
3.009999999999982
100
AcDbArc
 50
225.6023044725
 51
285.6023044725
  0
ARC
  5
9C
330
1F
100
AcDbEntity
  8
0
  6
Continuous
 62
     7
370
    25
100
AcDbCircle
 10
327.7867857143
 20
183.9085714286
 30
0.0
 40
3.010000000000011
100
AcDbArc
 50
105.6023044725
 51
165.6023044725
  0
ARC
  5
9D
330
1F
100
AcDbEntity
  8
0
  6
Continuous
 62
     7
370
    25
100
AcDbCircle
 10
327.7867857143
 20
183.9085714286
 30
0.0
 40
3.010000000000011
100
AcDbArc
 50
165.6023044725
 51
225.6023044725
  0
ARC
  5
9E
330
1F
100
AcDbEntity
  8
0
  6
Continuous
 62
     7
370
    25
100
AcDbCircle
 10
327.7867857143
 20
183.9085714286
 30
0.0
 40
3.010000000000004
100
AcDbArc
 50
45.6023044725
 51
105.6023044725
  0
ARC
  5
9F
330
1F
100
AcDbEntity
  8
0
  6
Continuous
 62
     7
370
    25
100
AcDbCircle
 10
327.7867857143
 20
183.9085714286
 30
0.0
 40
3.010000000000005
100
AcDbArc
 50
345.6023044725
 51
45.6023044725
  0
ARC
  5
A0
330
1F
100
AcDbEntity
  8
0
  6
Continuous
 62
     7
370
    25
100
AcDbCircle
 10
327.7867857143
 20
183.9085714286
 30
0.0
 40
3.010000000000005
100
AcDbArc
 50
285.6023044725
 51
345.6023044725
  0
LINE
  5
A1
330
1F
100
AcDbEntity
  8
0
  6
Continuous
 62
     7
370
    25
100
AcDbLine
 10
216.9225624725
 20
371.0676775639
 30
0.0
 11
214.4392094537
 21
373.4993533557
 31
0.0
  0
LINE
  5
A2
330
1F
100
AcDbEntity
  8
0
  6
Continuous
 62
     7
370
    25
100
AcDbLine
 10
218.651007764
 20
377.8006480401
 30
0.0
 11
221.1343607828
 21
375.3689722483
 31
0.0
  0
LINE
  5
A3
330
1F
100
AcDbEntity
  8
0
  6
Continuous
 62
     7
370
    25
100
AcDbLine
 10
215.3034320995
 20
376.8658385938
 30
0.0
 11
218.651007764
 21
377.8006480401
 31
0.0
  0
LINE
  5
A4
330
1F
100
AcDbEntity
  8
0
  6
Continuous
 62
     7
370
    25
100
AcDbLine
 10
214.4392094537
 20
373.4993533557
 30
0.0
 11
215.3034320995
 21
376.8658385938
 31
0.0
  0
CIRCLE
  5
A5
330
1F
100
AcDbEntity
  8
0
  6
Continuous
 62
     7
370
    25
100
AcDbCircle
 10
217.7867857143
 20
374.4341602612
 30
0.0
 40
9.739999999999997
  0
LINE
  5
A6
330
1F
100
AcDbEntity
  8
0
  6
Continuous
 62
     7
370
    25
100
AcDbLine
 10
221.1343607828
 20
375.3689722483
 30
0.0
 11
220.270138137
 21
372.0024721091
 31
0.0
  0
LINE
  5
A7
330
1F
100
AcDbEntity
  8
0
  6
Continuous
 62
     7
370
    25
100
AcDbLine
 10
220.270138137
 20
372.0024721091
 30
0.0
 11
216.9225624725
 21
371.0676775639
 31
0.0
  0
ARC
  5
A8
330
1F
100
AcDbEntity
  8
0
  6
Continuous
 62
     7
370
    25
100
AcDbCircle
 10
217.7867857143
 20
374.4341602612
 30
0.0
 40
3.010000000000011
100
AcDbArc
 50
45.6023044725
 51
105.6023044725
  0
ARC
  5
A9
330
1F
100
AcDbEntity
  8
0
  6
Continuous
 62
     7
370
    25
100
AcDbCircle
 10
217.7867857143
 20
374.4341602612
 30
0.0
 40
3.010000000000011
100
AcDbArc
 50
105.6023044725
 51
165.6023044725
  0
ARC
  5
AA
330
1F
100
AcDbEntity
  8
0
  6
Continuous
 62
     7
370
    25
100
AcDbCircle
 10
217.7867857143
 20
374.4341602612
 30
0.0
 40
3.010000000000011
100
AcDbArc
 50
285.6023044725
 51
345.6023044725
  0
ARC
  5
AB
330
1F
100
AcDbEntity
  8
0
  6
Continuous
 62
     7
370
    25
100
AcDbCircle
 10
217.7867857143
 20
374.4341602612
 30
0.0
 40
3.010000000000005
100
AcDbArc
 50
345.6023044725
 51
45.6023044725
  0
ARC
  5
AC
330
1F
100
AcDbEntity
  8
0
  6
Continuous
 62
     7
370
    25
100
AcDbCircle
 10
217.7867857143
 20
374.4341602612
 30
0.0
 40
3.010000000000005
100
AcDbArc
 50
165.6023044725
 51
225.6023044725
  0
ARC
  5
AD
330
1F
100
AcDbEntity
  8
0
  6
Continuous
 62
     7
370
    25
100
AcDbCircle
 10
217.7867857143
 20
374.4341602612
 30
0.0
 40
3.010000000000011
100
AcDbArc
 50
225.6023044725
 51
285.6023044725
  0
LINE
  5
AE
330
1F
100
AcDbEntity
  8
0
  6
Continuous
 62
     7
370
    25
100
AcDbLine
 10
106.30361633
 20
245.7652696734
 30
0.0
 11
104.3230224363
 21
248.6213864153
 31
0.0
  0
LINE
  5
AF
330
1F
100
AcDbEntity
  8
0
  6
Continuous
 62
     7
370
    25
100
AcDbLine
 10
111.2505489923
 20
249.1957591241
 30
0.0
 11
109.767379608
 21
246.0524597531
 31
0.0
  0
LINE
  5
B0
330
1F
100
AcDbEntity
  8
0
  6
Continuous
 62
     7
370
    25
100
AcDbLine
 10
104.3230224363
 20
248.6213864153
 30
0.0
 11
105.8061918206
 21
251.764682061
 31
0.0
  0
LINE
  5
B1
330
1F
100
AcDbEntity
  8
0
  6
Continuous
 62
     7
370
    25
100
AcDbLine
 10
105.8061918206
 20
251.764682061
 30
0.0
 11
109.2699550986
 21
252.0518721407
 31
0.0
  0
CIRCLE
  5
B2
330
1F
100
AcDbEntity
  8
0
  6
Continuous
 62
     7
370
    25
100
AcDbCircle
 10
107.7867857143
 20
248.9085714286
 30
0.0
 40
9.740000000000007
  0
LINE
  5
B3
330
1F
100
AcDbEntity
  8
0
  6
Continuous
 62
     7
370
    25
100
AcDbLine
 10
109.767379608
 20
246.0524597531
 30
0.0
 11
106.30361633
 21
245.7652696734
 31
0.0
  0
LINE
  5
B4
330
1F
100
AcDbEntity
  8
0
  6
Continuous
 62
     7
370
    25
100
AcDbLine
 10
109.2699550986
 20
252.0518721407
 30
0.0
 11
111.2505489923
 21
249.1957591241
 31
0.0
  0
ARC
  5
B5
330
1F
100
AcDbEntity
  8
0
  6
Continuous
 62
     7
370
    25
100
AcDbCircle
 10
107.7867857143
 20
248.9085714286
 30
0.0
 40
3.010000000000021
100
AcDbArc
 50
154.7396783828
 51
214.7396783828
  0
ARC
  5
B6
330
1F
100
AcDbEntity
  8
0
  6
Continuous
 62
     7
370
    25
100
AcDbCircle
 10
107.7867857143
 20
248.9085714286
 30
0.0
 40
3.01000000000001
100
AcDbArc
 50
94.7396783828
 51
154.7396783828
  0
ARC
  5
B7
330
1F
100
AcDbEntity
  8
0
  6
Continuous
 62
     7
370
    25
100
AcDbCircle
 10
107.7867857143
 20
248.9085714286
 30
0.0
 40
3.01000000000001
100
AcDbArc
 50
34.7396783828
 51
94.7396783828
  0
ARC
  5
B8
330
1F
100
AcDbEntity
  8
0
  6
Continuous
 62
     7
370
    25
100
AcDbCircle
 10
107.7867857143
 20
248.9085714286
 30
0.0
 40
3.010000000000015
100
AcDbArc
 50
334.7396783828
 51
34.7396783828
  0
ARC
  5
B9
330
1F
100
AcDbEntity
  8
0
  6
Continuous
 62
     7
370
    25
100
AcDbCircle
 10
107.7867857143
 20
248.9085714286
 30
0.0
 40
3.010000000000015
100
AcDbArc
 50
274.7396783828
 51
334.7396783828
  0
ARC
  5
BA
330
1F
100
AcDbEntity
  8
0
  6
Continuous
 62
     7
370
    25
100
AcDbCircle
 10
107.7867857143
 20
248.9085714286
 30
0.0
 40
3.010000000000021
100
AcDbArc
 50
214.7396783828
 51
274.7396783828
  0
LINE
  5
BB
330
1F
100
AcDbEntity
  8
0
  6
Continuous
 62
     7
370
    25
100
AcDbLine
 10
54.9588984772
 20
216.6957603162
 30
0.0
 11
53.4757300242
 21
213.5524590825
 31
0.0
  0
LINE
  5
BC
330
1F
100
AcDbEntity
  8
0
  6
Continuous
 62
     7
370
    25
100
AcDbLine
 10
52.9783031866
 20
219.5518733328
 30
0.0
 11
54.9588984772
 21
216.6957603162
 31
0.0
  0
LINE
  5
BD
330
1F
100
AcDbEntity
  8
0
  6
Continuous
 62
     7
370
    25
100
AcDbLine
 10
49.5145394429
 20
219.2646832531
 30
0.0
 11
52.9783031866
 21
219.5518733328
 31
0.0
  0
LINE
  5
BE
330
1F
100
AcDbEntity
  8
0
  6
Continuous
 62
     7
370
    25
100
AcDbLine
 10
48.0313709899
 20
216.1213838821
 30
0.0
 11
49.5145394429
 21
219.2646832531
 31
0.0
  0
CIRCLE
  5
BF
330
1F
100
AcDbEntity
  8
0
  6
Continuous
 62
     7
370
    25
100
AcDbCircle
 10
51.4951344683
 20
216.4085714286
 30
0.0
 40
9.74000000000001
  0
LINE
  5
C0
330
1F
100
AcDbEntity
  8
0
  6
Continuous
 62
     7
370
    25
100
AcDbLine
 10
53.4757300242
 20
213.5524590825
 30
0.0
 11
50.0119662806
 21
213.2652708655
 31
0.0
  0
LINE
  5
C1
330
1F
100
AcDbEntity
  8
0
  6
Continuous
 62
     7
370
    25
100
AcDbLine
 10
50.0119662806
 20
213.2652708655
 30
0.0
 11
48.0313709899
 21
216.1213838821
 31
0.0
  0
ARC
  5
C2
330
1F
100
AcDbEntity
  8
0
  6
Continuous
 62
     7
370
    25
100
AcDbCircle
 10
51.4951344683
 20
216.4085714286
 30
0.0
 40
3.009999999999994
100
AcDbArc
 50
34.7396783828
 51
94.7396783828
  0
ARC
  5
C3
330
1F
100
AcDbEntity
  8
0
  6
Continuous
 62
     7
370
    25
100
AcDbCircle
 10
51.4951344683
 20
216.4085714286
 30
0.0
 40
3.009999999999984
100
AcDbArc
 50
94.7396783828
 51
154.7396783828
  0
ARC
  5
C4
330
1F
100
AcDbEntity
  8
0
  6
Continuous
 62
     7
370
    25
100
AcDbCircle
 10
51.4951344683
 20
216.4085714286
 30
0.0
 40
3.01000000000001
100
AcDbArc
 50
214.7396783828
 51
274.7396783828
  0
ARC
  5
C5
330
1F
100
AcDbEntity
  8
0
  6
Continuous
 62
     7
370
    25
100
AcDbCircle
 10
51.4951344683
 20
216.4085714286
 30
0.0
 40
3.009999999999999
100
AcDbArc
 50
154.7396783828
 51
214.7396783828
  0
ARC
  5
C6
330
1F
100
AcDbEntity
  8
0
  6
Continuous
 62
     7
370
    25
100
AcDbCircle
 10
51.4951344683
 20
216.4085714286
 30
0.0
 40
3.009999999999997
100
AcDbArc
 50
334.7396783828
 51
34.7396783828
  0
ARC
  5
C7
330
1F
100
AcDbEntity
  8
0
  6
Continuous
 62
     7
370
    25
100
AcDbCircle
 10
51.4951344683
 20
216.4085714286
 30
0.0
 40
3.01000000000001
100
AcDbArc
 50
274.7396783828
 51
334.7396783828
  0
LINE
  5
C8
330
1F
100
AcDbEntity
  8
0
  6
Continuous
 62
     7
370
    25
100
AcDbLine
 10
162.0978414043
 20
154.2646837746
 30
0.0
 11
165.561605148
 21
154.5518719917
 31
0.0
  0
LINE
  5
C9
330
1F
100
AcDbEntity
  8
0
  6
Continuous
 62
     7
370
    25
100
AcDbLine
 10
167.5422004386
 20
151.6957589751
 30
0.0
 11
166.0590319857
 21
148.5524596041
 31
0.0
  0
LINE
  5
CA
330
1F
100
AcDbEntity
  8
0
  6
Continuous
 62
     7
370
    25
100
AcDbLine
 10
165.561605148
 20
154.5518719917
 30
0.0
 11
167.5422004386
 21
151.6957589751
 31
0.0
  0
LINE
  5
CB
330
1F
100
AcDbEntity
  8
0
  6
Continuous
 62
     7
370
    25
100
AcDbLine
 10
160.6146729514
 20
151.121382541
 30
0.0
 11
162.0978414043
 21
154.2646837746
 31
0.0
  0
LINE
  5
CC
330
1F
100
AcDbEntity
  8
0
  6
Continuous
 62
     7
370
    25
100
AcDbLine
 10
166.0590319857
 20
148.5524596041
 30
0.0
 11
162.595268242
 21
148.2652695244
 31
0.0
  0
CIRCLE
  5
CD
330
1F
100
AcDbEntity
  8
0
  6
Continuous
 62
     7
370
    25
100
AcDbCircle
 10
164.0784369603
 20
151.4085714286
 30
0.0
 40
9.740000000000006
  0
LINE
  5
CE
330
1F
100
AcDbEntity
  8
0
  6
Continuous
 62
     7
370
    25
100
AcDbLine
 10
162.595268242
 20
148.2652695244
 30
0.0
 11
160.6146729514
 21
151.121382541
 31
0.0
  0
ARC
  5
CF
330
1F
100
AcDbEntity
  8
0
  6
Continuous
 62
     7
370
    25
100
AcDbCircle
 10
164.0784369603
 20
151.4085714286
 30
0.0
 40
3.01
100
AcDbArc
 50
334.7396783828
 51
34.7396783828
  0
ARC
  5
D0
330
1F
100
AcDbEntity
  8
0
  6
Continuous
 62
     7
370
    25
100
AcDbCircle
 10
164.0784369603
 20
151.4085714286
 30
0.0
 40
3.010000000000006
100
AcDbArc
 50
274.7396783828
 51
334.7396783828
  0
ARC
  5
D1
330
1F
100
AcDbEntity
  8
0
  6
Continuous
 62
     7
370
    25
100
AcDbCircle
 10
164.0784369603
 20
151.4085714286
 30
0.0
 40
3.01000000000001
100
AcDbArc
 50
34.7396783828
 51
94.7396783828
  0
ARC
  5
D2
330
1F
100
AcDbEntity
  8
0
  6
Continuous
 62
     7
370
    25
100
AcDbCircle
 10
164.0784369603
 20
151.4085714286
 30
0.0
 40
3.01000000000004
100
AcDbArc
 50
214.7396783828
 51
274.7396783828
  0
ARC
  5
D3
330
1F
100
AcDbEntity
  8
0
  6
Continuous
 62
     7
370
    25
100
AcDbCircle
 10
164.0784369603
 20
151.4085714286
 30
0.0
 40
3.01000000000004
100
AcDbArc
 50
154.7396783828
 51
214.7396783828
  0
ARC
  5
D4
330
1F
100
AcDbEntity
  8
0
  6
Continuous
 62
     7
370
    25
100
AcDbCircle
 10
164.0784369603
 20
151.4085714286
 30
0.0
 40
3.010000000000028
100
AcDbArc
 50
94.7396783828
 51
154.7396783828
  0
LINE
  5
D5
330
1F
100
AcDbEntity
  8
0
  6
Continuous
 62
     7
370
    25
100
AcDbLine
 10
-111.3489904479
 20
187.2750608576
 30
0.0
 11
-108.8656374291
 21
184.8433768586
 31
0.0
  0
LINE
  5
D6
330
1F
100
AcDbEntity
  8
0
  6
Continuous
 62
     7
370
    25
100
AcDbLine
 10
-114.6965661124
 20
186.3402553694
 30
0.0
 11
-111.3489904479
 21
187.2750608576
 31
0.0
  0
LINE
  5
D7
330
1F
100
AcDbEntity
  8
0
  6
Continuous
 62
     7
370
    25
100
AcDbLine
 10
-115.5607887581
 20
182.9737659986
 30
0.0
 11
-114.6965661124
 21
186.3402553694
 31
0.0
  0
LINE
  5
D8
330
1F
100
AcDbEntity
  8
0
  6
Continuous
 62
     7
370
    25
100
AcDbLine
 10
-113.0774357394
 20
180.5420819995
 30
0.0
 11
-115.5607887581
 21
182.9737659986
 31
0.0
  0
CIRCLE
  5
D9
330
1F
100
AcDbEntity
  8
0
  6
Continuous
 62
     7
370
    25
100
AcDbCircle
 10
-112.2132142857
 20
183.9085714286
 30
0.0
 40
9.74
  0
LINE
  5
DA
330
1F
100
AcDbEntity
  8
0
  6
Continuous
 62
     7
370
    25
100
AcDbLine
 10
-108.8656374291
 20
184.8433768586
 30
0.0
 11
-109.7298600749
 21
181.4768874878
 31
0.0
  0
LINE
  5
DB
330
1F
100
AcDbEntity
  8
0
  6
Continuous
 62
     7
370
    25
100
AcDbLine
 10
-109.7298600749
 20
181.4768874878
 30
0.0
 11
-113.0774357394
 21
180.5420819995
 31
0.0
  0
ARC
  5
DC
330
1F
100
AcDbEntity
  8
0
  6
Continuous
 62
     7
370
    25
100
AcDbCircle
 10
-112.2132142857
 20
183.9085714286
 30
0.0
 40
3.010000000000007
100
AcDbArc
 50
285.6023044725
 51
345.6023044725
  0
ARC
  5
DD
330
1F
100
AcDbEntity
  8
0
  6
Continuous
 62
     7
370
    25
100
AcDbCircle
 10
-112.2132142857
 20
183.9085714286
 30
0.0
 40
3.010000000000007
100
AcDbArc
 50
225.6023044725
 51
285.6023044725
  0
ARC
  5
DE
330
1F
100
AcDbEntity
  8
0
  6
Continuous
 62
     7
370
    25
100
AcDbCircle
 10
-112.2132142857
 20
183.9085714286
 30
0.0
 40
3.009999999999991
100
AcDbArc
 50
165.6023044725
 51
225.6023044725
  0
ARC
  5
DF
330
1F
100
AcDbEntity
  8
0
  6
Continuous
 62
     7
370
    25
100
AcDbCircle
 10
-112.2132142857
 20
183.9085714286
 30
0.0
 40
3.010000000000007
100
AcDbArc
 50
105.6023044725
 51
165.6023044725
  0
ARC
  5
E0
330
1F
100
AcDbEntity
  8
0
  6
Continuous
 62
     7
370
    25
100
AcDbCircle
 10
-112.2132142857
 20
183.9085714286
 30
0.0
 40
3.010000000000011
100
AcDbArc
 50
45.6023044725
 51
105.6023044725
  0
ARC
  5
E1
330
1F
100
AcDbEntity
  8
0
  6
Continuous
 62
     7
370
    25
100
AcDbCircle
 10
-112.2132142857
 20
183.9085714286
 30
0.0
 40
3.010000000000011
100
AcDbArc
 50
345.6023044725
 51
45.6023044725
  0
LINE
  5
E2
330
1F
100
AcDbEntity
  8
0
  6
Continuous
 62
     7
370
    25
100
AcDbLine
 10
-1.3489910439
 20
-3.2505347068
 30
0.0
 11
1.1343619749
 21
-5.6822104985
 31
0.0
  0
LINE
  5
E3
330
1F
100
AcDbEntity
  8
0
  6
Continuous
 62
     7
370
    25
100
AcDbLine
 10
-4.6965667084
 20
-4.185329252
 30
0.0
 11
-1.3489910439
 21
-3.2505347068
 31
0.0
  0
LINE
  5
E4
330
1F
100
AcDbEntity
  8
0
  6
Continuous
 62
     7
370
    25
100
AcDbLine
 10
0.2701393291
 20
-9.0486957366
 30
0.0
 11
-3.0774363354
 21
-9.9835051829
 31
0.0
  0
LINE
  5
E5
330
1F
100
AcDbEntity
  8
0
  6
Continuous
 62
     7
370
    25
100
AcDbLine
 10
1.1343619749
 20
-5.6822104985
 30
0.0
 11
0.2701393291
 21
-9.0486957366
 31
0.0
  0
CIRCLE
  5
E6
330
1F
100
AcDbEntity
  8
0
  6
Continuous
 62
     7
370
    25
100
AcDbCircle
 10
-2.2132142857
 20
-6.617017404
 30
0.0
 40
9.739999999999993
  0
LINE
  5
E7
330
1F
100
AcDbEntity
  8
0
  6
Continuous
 62
     7
370
    25
100
AcDbLine
 10
-3.0774363354
 20
-9.9835051829
 30
0.0
 11
-5.5607893542
 21
-7.5518293912
 31
0.0
  0
LINE
  5
E8
330
1F
100
AcDbEntity
  8
0
  6
Continuous
 62
     7
370
    25
100
AcDbLine
 10
-5.5607893542
 20
-7.5518293912
 30
0.0
 11
-4.6965667084
 21
-4.185329252
 31
0.0
  0
ARC
  5
E9
330
1F
100
AcDbEntity
  8
0
  6
Continuous
 62
     7
370
    25
100
AcDbCircle
 10
-2.2132142857
 20
-6.617017404
 30
0.0
 40
3.010000000000013
100
AcDbArc
 50
105.6023044725
 51
165.6023044725
  0
ARC
  5
EA
330
1F
100
AcDbEntity
  8
0
  6
Continuous
 62
     7
370
    25
100
AcDbCircle
 10
-2.2132142857
 20
-6.617017404
 30
0.0
 40
3.009999999999998
100
AcDbArc
 50
165.6023044725
 51
225.6023044725
  0
ARC
  5
EB
330
1F
100
AcDbEntity
  8
0
  6
Continuous
 62
     7
370
    25
100
AcDbCircle
 10
-2.2132142857
 20
-6.617017404
 30
0.0
 40
3.010000000000013
100
AcDbArc
 50
45.6023044725
 51
105.6023044725
  0
ARC
  5
EC
330
1F
100
AcDbEntity
  8
0
  6
Continuous
 62
     7
370
    25
100
AcDbCircle
 10
-2.2132142857
 20
-6.617017404
 30
0.0
 40
3.009999999999998
100
AcDbArc
 50
285.6023044725
 51
345.6023044725
  0
ARC
  5
ED
330
1F
100
AcDbEntity
  8
0
  6
Continuous
 62
     7
370
    25
100
AcDbCircle
 10
-2.2132142857
 20
-6.617017404
 30
0.0
 40
3.009999999999998
100
AcDbArc
 50
345.6023044725
 51
45.6023044725
  0
ARC
  5
EE
330
1F
100
AcDbEntity
  8
0
  6
Continuous
 62
     7
370
    25
100
AcDbCircle
 10
-2.2132142857
 20
-6.617017404
 30
0.0
 40
3.009999999999994
100
AcDbArc
 50
225.6023044725
 51
285.6023044725
  0
ARC
  5
EF
330
1F
100
AcDbEntity
  8
0
  6
Continuous
 62
     7
370
    25
100
AcDbCircle
 10
107.7867857143
 20
183.9085714286
 30
0.0
 40
30.15000000000002
100
AcDbArc
 50
63.9778457224
 51
86.0221538146
  0
ARC
  5
F0
330
1F
100
AcDbEntity
  8
0
  6
Continuous
 62
     7
370
    25
100
AcDbCircle
 10
107.7867857143
 20
183.9085714286
 30
0.0
 40
30.15
100
AcDbArc
 50
153.9778457224
 51
176.0221538146
  0
ARC
  5
F1
330
1F
100
AcDbEntity
  8
0
  6
Continuous
 62
     7
370
    25
100
AcDbCircle
 10
107.7867857143
 20
183.9085714286
 30
0.0
 40
30.15
100
AcDbArc
 50
243.9778457223
 51
266.0221538146
  0
ARC
  5
F2
330
1F
100
AcDbEntity
  8
0
  6
Continuous
 62
     7
370
    25
100
AcDbCircle
 10
107.7867857143
 20
183.9085714286
 30
0.0
 40
30.15000000000001
100
AcDbArc
 50
333.9778457224
 51
356.0221538146
  0
ARC
  5
F3
330
1F
100
AcDbEntity
  8
0
  6
Continuous
 62
     7
370
    25
100
AcDbCircle
 10
107.7867857143
 20
183.9085714286
 30
0.0
 40
30.0
100
AcDbArc
 50
334.1711371549
 51
355.8288623821
  0
ARC
  5
F4
330
1F
100
AcDbEntity
  8
0
  6
Continuous
 62
     7
370
    25
100
AcDbCircle
 10
107.7867857143
 20
183.9085714286
 30
0.0
 40
30.00000000000002
100
AcDbArc
 50
64.1711371549
 51
85.8288623821
  0
ARC
  5
F5
330
1F
100
AcDbEntity
  8
0
  6
Continuous
 62
     7
370
    25
100
AcDbCircle
 10
107.7867857143
 20
183.9085714286
 30
0.0
 40
30.00000000000002
100
AcDbArc
 50
154.1711371549
 51
175.828862382
  0
ARC
  5
F6
330
1F
100
AcDbEntity
  8
0
  6
Continuous
 62
     7
370
    25
100
AcDbCircle
 10
107.7867857143
 20
183.9085714286
 30
0.0
 40
29.99999999999999
100
AcDbArc
 50
244.1711371549
 51
265.8288623821
  0
ARC
  5
F7
330
1F
100
AcDbEntity
  8
0
  6
Continuous
 62
     7
370
    25
100
AcDbCircle
 10
107.7867857143
 20
183.9085714286
 30
0.0
 40
32.00000000000001
100
AcDbArc
 50
331.7734894323
 51
358.2265101047
  0
ARC
  5
F8
330
1F
100
AcDbEntity
  8
0
  6
Continuous
 62
     7
370
    25
100
AcDbCircle
 10
107.7867857143
 20
183.9085714286
 30
0.0
 40
32.00000000000002
100
AcDbArc
 50
61.7734894323
 51
88.2265101047
  0
ARC
  5
F9
330
1F
100
AcDbEntity
  8
0
  6
Continuous
 62
     7
370
    25
100
AcDbCircle
 10
107.7867857143
 20
183.9085714286
 30
0.0
 40
32.00000000000001
100
AcDbArc
 50
151.7734894323
 51
178.2265101046
  0
ARC
  5
FA
330
1F
100
AcDbEntity
  8
0
  6
Continuous
 62
     7
370
    25
100
AcDbCircle
 10
107.7867857143
 20
183.9085714286
 30
0.0
 40
32.00000000000001
100
AcDbArc
 50
241.7734894323
 51
268.2265101047
  0
CIRCLE
  5
FB
330
1F
100
AcDbEntity
  8
0
  6
Continuous
 62
     7
370
    25
100
AcDbCircle
 10
327.7867857143
 20
183.9085714286
 30
0.0
 40
9.999999999999973
  0
CIRCLE
  5
FC
330
1F
100
AcDbEntity
  8
0
  6
Continuous
 62
     7
370
    25
100
AcDbCircle
 10
107.7867857143
 20
118.9085714286
 30
0.0
 40
10.0
  0
ARC
  5
FD
330
1F
100
AcDbEntity
  8
0
  6
Continuous
 62
     7
370
    25
100
AcDbCircle
 10
-237.2132118711
 20
781.4661014339
 30
0.0
 40
17.49999999999995
100
AcDbArc
 50
30.0
 51
225.6649412758
  0
LWPOLYLINE
  5
FE
330
1F
100
AcDbEntity
  8
0
  6
Continuous
 62
     7
370
    25
100
AcDbPolyline
 90
        3
 70
   128
 43
0.0
 10
-220.2580758408
 20
785.7989565795
 10
-220.9667750672
 20
787.9701749747
 10
-222.0577784852
 20
790.2160779899
  0
ARC
  5
FF
330
1F
100
AcDbEntity
  8
0
  6
Continuous
 62
     7
370
    25
100
AcDbCircle
 10
-489.7707442911
 20
-161.0914261568
 30
0.0
 40
17.50000000000003
100
AcDbArc
 50
104.3350582613
 51
315.6649412759
  0
LWPOLYLINE
  5
100
330
1F
100
AcDbEntity
  8
0
  6
Continuous
 62
     7
370
    25
100
AcDbPolyline
 90
        3
 70
   128
 43
0.0
 10
467.9422191307
 20
-404.898951822
 10
466.5427020713
 20
-402.8311474855
 10
465.0167039558
 20
-401.1318190629
  0
ARC
  5
101
330
1F
100
AcDbEntity
  8
0
  6
Continuous
 62
     7
370
    25
100
AcDbCircle
 10
452.7867832997
 20
-413.6489585768
 30
0.0
 40
17.49999999999996
100
AcDbArc
 50
194.3350582612
 51
30.0
  0
CIRCLE
  5
102
330
1F
100
AcDbEntity
  8
0
  6
Continuous
 62
     7
370
    25
100
AcDbCircle
 10
107.7867857143
 20
183.9085714286
 30
0.0
 40
720.0
  0
CIRCLE
  5
103
330
1F
100
AcDbEntity
  8
0
  6
Continuous
 62
     7
370
    25
100
AcDbCircle
 10
-2.2132142857
 20
-6.617017404
 30
0.0
 40
9.999999999999956
  0
CIRCLE
  5
104
330
1F
100
AcDbEntity
  8
0
  6
Continuous
 62
     7
370
    25
100
AcDbCircle
 10
217.7867857143
 20
374.4341602612
 30
0.0
 40
10.00000000000005
  0
CIRCLE
  5
105
330
1F
100
AcDbEntity
  8
0
  6
Continuous
 62
     7
370
    25
100
AcDbCircle
 10
-112.2132142857
 20
183.9085714286
 30
0.0
 40
9.999999999999975
  0
CIRCLE
  5
106
330
1F
100
AcDbEntity
  8
0
  6
Continuous
 62
     7
370
    25
100
AcDbCircle
 10
51.4951344683
 20
216.4085714286
 30
0.0
 40
10.00000000000001
  0
CIRCLE
  5
107
330
1F
100
AcDbEntity
  8
0
  6
Continuous
 62
     7
370
    25
100
AcDbCircle
 10
107.7867857143
 20
248.9085714286
 30
0.0
 40
10.0
  0
CIRCLE
  5
108
330
1F
100
AcDbEntity
  8
0
  6
Continuous
 62
     7
370
    25
100
AcDbCircle
 10
164.0784369603
 20
151.4085714286
 30
0.0
 40
10.00000000000001
  0
ARC
  5
109
330
1F
100
AcDbEntity
  8
0
  6
Continuous
 62
     7
370
    25
100
AcDbCircle
 10
705.3443157196
 20
528.9085690139
 30
0.0
 40
17.50000000000008
100
AcDbArc
 50
30.0
 51
135.6649412758
  0
ARC
  5
10A
330
1F
100
AcDbEntity
  8
0
  6
Continuous
 62
     7
370
    25
100
AcDbCircle
 10
705.3443157196
 20
528.9085690139
 30
0.0
 40
17.50000000000004
100
AcDbArc
 50
284.3350582611
 51
30.0
  0
CIRCLE
  5
10B
330
1F
100
AcDbEntity
  8
0
  6
Continuous
 62
     7
370
    25
100
AcDbCircle
 10
107.7867857143
 20
183.9085714286
 30
0.0
 40
724.9999999999999
  0
ENDSEC
  0
SECTION
  2
OBJECTS
  0
DICTIONARY
  5
C
330
0
100
AcDbDictionary
281
     1
  3
ACAD_DETAILVIEWSTYLE
350
114
  3
ACAD_GROUP
350
D
  3
ACAD_LAYOUT
350
1A
  3
ACAD_MATERIAL
350
43
  3
ACAD_MLEADERSTYLE
350
6B
  3
ACAD_MLINESTYLE
350
17
  3
ACAD_PLOTSETTINGS
350
19
  3
ACAD_PLOTSTYLENAME
350
E
  3
ACAD_SCALELIST
350
47
  3
ACAD_SECTIONVIEWSTYLE
350
115
  3
ACAD_TABLESTYLE
350
69
  3
ACAD_VISUALSTYLE
350
2A
  3
ACDB_RECOMPOSE_DATA
350
111
  3
AcDbVariableDictionary
350
10C
  0
SUN
  5
6D
330
29
100
AcDbSun
 90
        1
290
     0
 63
     7
421
 16777215
 40
1.0
291
     1
 91
  2455826
 92
 54000000
292
     0
 70
     2
 71
   256
280
     1
  0
DICTIONARY
  5
114
102
{ACAD_REACTORS
330
C
102
}
330
C
100
AcDbDictionary
281
     1
  0
DICTIONARY
  5
D
102
{ACAD_REACTORS
330
C
102
}
330
C
100
AcDbDictionary
281
     1
  0
DICTIONARY
  5
1A
102
{ACAD_REACTORS
330
C
102
}
330
C
100
AcDbDictionary
281
     1
  3
Layout1
350
1E
  3
Layout2
350
26
  3
Model
350
22
  0
DICTIONARY
  5
43
102
{ACAD_REACTORS
330
C
102
}
330
C
100
AcDbDictionary
281
     1
  3
ByBlock
350
45
  3
ByLayer
350
44
  3
Global
350
46
  0
DICTIONARY
  5
6B
102
{ACAD_REACTORS
330
C
102
}
330
C
100
AcDbDictionary
281
     1
  3
Standard
350
6C
  0
DICTIONARY
  5
17
102
{ACAD_REACTORS
330
C
102
}
330
C
100
AcDbDictionary
281
     1
  3
Standard
350
18
  0
DICTIONARY
  5
19
102
{ACAD_REACTORS
330
C
102
}
330
C
100
AcDbDictionary
281
     1
  0
ACDBDICTIONARYWDFLT
  5
E
102
{ACAD_REACTORS
330
C
102
}
330
C
100
AcDbDictionary
281
     1
  3
Normal
350
F
100
AcDbDictionaryWithDefault
340
F
  0
DICTIONARY
  5
47
102
{ACAD_REACTORS
330
C
102
}
330
C
100
AcDbDictionary
281
     1
  3
A0
350
48
  3
A1
350
49
  3
A2
350
4A
  3
A3
350
4B
  3
A4
350
4C
  3
A5
350
4D
  3
A6
350
4E
  3
A7
350
4F
  3
A8
350
50
  3
A9
350
51
  3
B0
350
52
  3
B1
350
53
  3
B2
350
54
  3
B3
350
55
  3
B4
350
56
  3
B5
350
57
  3
B6
350
58
  3
B7
350
59
  3
B8
350
5A
  3
B9
350
5B
  3
C0
350
5C
  3
C1
350
5D
  3
C2
350
5E
  3
C3
350
5F
  3
C4
350
60
  3
C5
350
61
  3
C6
350
62
  3
C7
350
63
  3
C8
350
64
  3
C9
350
65
  3
D0
350
66
  3
D1
350
67
  3
D2
350
68
  0
DICTIONARY
  5
115
102
{ACAD_REACTORS
330
C
102
}
330
C
100
AcDbDictionary
281
     1
  0
DICTIONARY
  5
69
102
{ACAD_REACTORS
330
C
102
}
330
C
100
AcDbDictionary
281
     1
  3
Standard
350
6A
  0
DICTIONARY
  5
2A
102
{ACAD_REACTORS
330
C
102
}
330
C
100
AcDbDictionary
281
     1
  3
2dWireframe
350
2F
  3
Basic
350
32
  3
Brighten
350
36
  3
ColorChange
350
3A
  3
Conceptual
350
34
  3
Dim
350
35
  3
EdgeColorOff
350
3D
  3
Facepattern
350
39
  3
Flat
350
2B
  3
FlatWithEdges
350
2C
  3
Gouraud
350
2D
  3
GouraudWithEdges
350
2E
  3
Hidden
350
31
  3
JitterOff
350
3B
  3
Linepattern
350
38
  3
OverhangOff
350
3C
  3
Realistic
350
33
  3
Shaded
350
42
  3
Shaded with edges
350
41
  3
Shades of Gray
350
3E
  3
Sketchy
350
3F
  3
Thicken
350
37
  3
Wireframe
350
30
  3
X-Ray
350
40
  0
XRECORD
  5
111
102
{ACAD_REACTORS
330
C
102
}
330
C
100
AcDbXrecord
280
     1
 90
        1
330
6A
  0
DICTIONARY
  5
10C
102
{ACAD_REACTORS
330
C
102
}
330
C
100
AcDbDictionary
281
     1
  3
CANNOSCALE
350
10D
  3
CMLEADERSTYLE
350
113
  3
CTABLESTYLE
350
112
  0
LAYOUT
  5
1E
102
{ACAD_REACTORS
330
1A
102
}
330
1A
100
AcDbPlotSettings
  1

  2
none_device
  4

  6

 40
0.0
 41
0.0
 42
0.0
 43
0.0
 44
0.0
 45
0.0
 46
0.0
 47
0.0
 48
0.0
 49
0.0
140
0.0
141
0.0
142
1.0
143
1.0
 70
   688
 72
     1
 73
     0
 74
     5
  7

 75
    16
 76
     0
 77
     2
 78
   300
147
1.0
148
0.0
149
0.0
100
AcDbLayout
  1
Layout1
 70
     1
 71
     1
 10
0.0
 20
0.0
 11
420.0
 21
297.0
 12
0.0
 22
0.0
 32
0.0
 14
1.0000000000E+20
 24
1.0000000000E+20
 34
1.0000000000E+20
 15
-1.0000000000E+20
 25
-1.0000000000E+20
 35
-1.0000000000E+20
146
0.0
 13
0.0
 23
0.0
 33
0.0
 16
1.0
 26
0.0
 36
0.0
 17
0.0
 27
1.0
 37
0.0
 76
     0
330
1B
  0
LAYOUT
  5
26
102
{ACAD_REACTORS
330
1A
102
}
330
1A
100
AcDbPlotSettings
  1

  2
none_device
  4

  6

 40
0.0
 41
0.0
 42
0.0
 43
0.0
 44
0.0
 45
0.0
 46
0.0
 47
0.0
 48
0.0
 49
0.0
140
0.0
141
0.0
142
1.0
143
1.0
 70
   688
 72
     1
 73
     0
 74
     5
  7

 75
    16
 76
     0
 77
     2
 78
   300
147
1.0
148
0.0
149
0.0
100
AcDbLayout
  1
Layout2
 70
     1
 71
     2
 10
0.0
 20
0.0
 11
0.0
 21
0.0
 12
0.0
 22
0.0
 32
0.0
 14
0.0
 24
0.0
 34
0.0
 15
0.0
 25
0.0
 35
0.0
146
0.0
 13
0.0
 23
0.0
 33
0.0
 16
1.0
 26
0.0
 36
0.0
 17
0.0
 27
1.0
 37
0.0
 76
     0
330
23
  0
LAYOUT
  5
22
102
{ACAD_REACTORS
330
1A
102
}
330
1A
100
AcDbPlotSettings
  1

  2
none_device
  4
Letter_(8.50_x_11.00_Inches)
  6

 40
6.35
 41
6.35
 42
6.35000508
 43
6.35000508
 44
215.9
 45
279.4
 46
0.0
 47
0.0
 48
0.0
 49
0.0
140
0.0
141
0.0
142
1.0
143
1.0
 70
  1712
 72
     1
 73
     0
 74
     0
  7

 75
     0
 76
     0
 77
     2
 78
   300
147
1.0
148
0.0
149
0.0
100
AcDbLayout
  1
Model
 70
     1
 71
     0
 10
0.0
 20
0.0
 11
210.0
 21
297.0
 12
0.0
 22
0.0
 32
0.0
 14
0.0
 24
0.0
 34
0.0
 15
210.0
 25
297.0
 35
0.0
146
0.0
 13
0.0
 23
0.0
 33
0.0
 16
1.0
 26
0.0
 36
0.0
 17
0.0
 27
1.0
 37
0.0
 76
     0
330
1F
331
29
  0
MATERIAL
  5
45
102
{ACAD_REACTORS
330
43
102
}
330
43
100
AcDbMaterial
  1
ByBlock
 72
     1
 94
      127
  0
MATERIAL
  5
44
102
{ACAD_REACTORS
330
43
102
}
330
43
100
AcDbMaterial
  1
ByLayer
 72
     1
 94
      127
  0
MATERIAL
  5
46
102
{ACAD_REACTORS
330
43
102
}
330
43
100
AcDbMaterial
  1
Global
 72
     1
 94
      127
  0
MLEADERSTYLE
  5
6C
102
{ACAD_REACTORS
330
6B
102
}
330
6B
100
AcDbMLeaderStyle
170
     2
171
     1
172
     0
 90
        2
 40
0.0
 41
0.0
173
     1
 91
-1056964608
340
14
 92
       -2
290
     1
 42
2.0
291
     1
 43
8.0
  3
Standard
341
0
 44
4.0
300

342
11
174
     1
178
     6
175
     1
176
     0
 93
-1056964608
 45
4.0
292
     0
297
     0
 46
4.0
343
0
 94
-1056964608
 47
1.0
 49
1.0
140
1.0
293
     1
141
0.0
294
     1
177
     0
142
1.0
295
     0
296
     0
143
3.75
1001
ACAD_MLEADERVER
1070
     2
  0
MLINESTYLE
  5
18
102
{ACAD_REACTORS
330
17
102
}
330
17
100
AcDbMlineStyle
  2
Standard
 70
     0
  3

 62
   256
 51
90.0
 52
90.0
 71
     2
 49
0.5
 62
   256
  6
BYLAYER
 49
-0.5
 62
   256
  6
BYLAYER
  0
ACDBPLACEHOLDER
  5
F
102
{ACAD_REACTORS
330
E
102
}
330
E
  0
SCALE
  5
48
102
{ACAD_REACTORS
330
47
102
}
330
47
100
AcDbScale
 70
     0
300
1:1
140
1.0
141
1.0
290
     1
  0
SCALE
  5
49
102
{ACAD_REACTORS
330
47
102
}
330
47
100
AcDbScale
 70
     0
300
1:2
140
1.0
141
2.0
290
     0
  0
SCALE
  5
4A
102
{ACAD_REACTORS
330
47
102
}
330
47
100
AcDbScale
 70
     0
300
1:4
140
1.0
141
4.0
290
     0
  0
SCALE
  5
4B
102
{ACAD_REACTORS
330
47
102
}
330
47
100
AcDbScale
 70
     0
300
1:5
140
1.0
141
5.0
290
     0
  0
SCALE
  5
4C
102
{ACAD_REACTORS
330
47
102
}
330
47
100
AcDbScale
 70
     0
300
1:8
140
1.0
141
8.0
290
     0
  0
SCALE
  5
4D
102
{ACAD_REACTORS
330
47
102
}
330
47
100
AcDbScale
 70
     0
300
1:10
140
1.0
141
10.0
290
     0
  0
SCALE
  5
4E
102
{ACAD_REACTORS
330
47
102
}
330
47
100
AcDbScale
 70
     0
300
1:16
140
1.0
141
16.0
290
     0
  0
SCALE
  5
4F
102
{ACAD_REACTORS
330
47
102
}
330
47
100
AcDbScale
 70
     0
300
1:20
140
1.0
141
20.0
290
     0
  0
SCALE
  5
50
102
{ACAD_REACTORS
330
47
102
}
330
47
100
AcDbScale
 70
     0
300
1:30
140
1.0
141
30.0
290
     0
  0
SCALE
  5
51
102
{ACAD_REACTORS
330
47
102
}
330
47
100
AcDbScale
 70
     0
300
1:40
140
1.0
141
40.0
290
     0
  0
SCALE
  5
52
102
{ACAD_REACTORS
330
47
102
}
330
47
100
AcDbScale
 70
     0
300
1:50
140
1.0
141
50.0
290
     0
  0
SCALE
  5
53
102
{ACAD_REACTORS
330
47
102
}
330
47
100
AcDbScale
 70
     0
300
1:100
140
1.0
141
100.0
290
     0
  0
SCALE
  5
54
102
{ACAD_REACTORS
330
47
102
}
330
47
100
AcDbScale
 70
     0
300
2:1
140
2.0
141
1.0
290
     0
  0
SCALE
  5
55
102
{ACAD_REACTORS
330
47
102
}
330
47
100
AcDbScale
 70
     0
300
4:1
140
4.0
141
1.0
290
     0
  0
SCALE
  5
56
102
{ACAD_REACTORS
330
47
102
}
330
47
100
AcDbScale
 70
     0
300
8:1
140
8.0
141
1.0
290
     0
  0
SCALE
  5
57
102
{ACAD_REACTORS
330
47
102
}
330
47
100
AcDbScale
 70
     0
300
10:1
140
10.0
141
1.0
290
     0
  0
SCALE
  5
58
102
{ACAD_REACTORS
330
47
102
}
330
47
100
AcDbScale
 70
     0
300
100:1
140
100.0
141
1.0
290
     0
  0
SCALE
  5
59
102
{ACAD_REACTORS
330
47
102
}
330
47
100
AcDbScale
 70
     0
300
1/128" = 1'-0"
140
0.0078125
141
12.0
290
     0
  0
SCALE
  5
5A
102
{ACAD_REACTORS
330
47
102
}
330
47
100
AcDbScale
 70
     0
300
1/64" = 1'-0"
140
0.015625
141
12.0
290
     0
  0
SCALE
  5
5B
102
{ACAD_REACTORS
330
47
102
}
330
47
100
AcDbScale
 70
     0
300
1/32" = 1'-0"
140
0.03125
141
12.0
290
     0
  0
SCALE
  5
5C
102
{ACAD_REACTORS
330
47
102
}
330
47
100
AcDbScale
 70
     0
300
1/16" = 1'-0"
140
0.0625
141
12.0
290
     0
  0
SCALE
  5
5D
102
{ACAD_REACTORS
330
47
102
}
330
47
100
AcDbScale
 70
     0
300
3/32" = 1'-0"
140
0.09375
141
12.0
290
     0
  0
SCALE
  5
5E
102
{ACAD_REACTORS
330
47
102
}
330
47
100
AcDbScale
 70
     0
300
1/8" = 1'-0"
140
0.125
141
12.0
290
     0
  0
SCALE
  5
5F
102
{ACAD_REACTORS
330
47
102
}
330
47
100
AcDbScale
 70
     0
300
3/16" = 1'-0"
140
0.1875
141
12.0
290
     0
  0
SCALE
  5
60
102
{ACAD_REACTORS
330
47
102
}
330
47
100
AcDbScale
 70
     0
300
1/4" = 1'-0"
140
0.25
141
12.0
290
     0
  0
SCALE
  5
61
102
{ACAD_REACTORS
330
47
102
}
330
47
100
AcDbScale
 70
     0
300
3/8" = 1'-0"
140
0.375
141
12.0
290
     0
  0
SCALE
  5
62
102
{ACAD_REACTORS
330
47
102
}
330
47
100
AcDbScale
 70
     0
300
1/2" = 1'-0"
140
0.5
141
12.0
290
     0
  0
SCALE
  5
63
102
{ACAD_REACTORS
330
47
102
}
330
47
100
AcDbScale
 70
     0
300
3/4" = 1'-0"
140
0.75
141
12.0
290
     0
  0
SCALE
  5
64
102
{ACAD_REACTORS
330
47
102
}
330
47
100
AcDbScale
 70
     0
300
1" = 1'-0"
140
1.0
141
12.0
290
     0
  0
SCALE
  5
65
102
{ACAD_REACTORS
330
47
102
}
330
47
100
AcDbScale
 70
     0
300
1-1/2" = 1'-0"
140
1.5
141
12.0
290
     0
  0
SCALE
  5
66
102
{ACAD_REACTORS
330
47
102
}
330
47
100
AcDbScale
 70
     0
300
3" = 1'-0"
140
3.0
141
12.0
290
     0
  0
SCALE
  5
67
102
{ACAD_REACTORS
330
47
102
}
330
47
100
AcDbScale
 70
     0
300
6" = 1'-0"
140
6.0
141
12.0
290
     0
  0
SCALE
  5
68
102
{ACAD_REACTORS
330
47
102
}
330
47
100
AcDbScale
 70
     0
300
1'-0" = 1'-0"
140
12.0
141
12.0
290
     0
  0
TABLESTYLE
  5
6A
102
{ACAD_REACTORS
330
69
102
}
102
{ACAD_XDICTIONARY
360
10E
102
}
330
69
100
AcDbTableStyle
  3
Standard
 70
     0
 71
     0
 40
0.06
 41
0.06
280
     0
281
     0
  7
Standard
140
4.5
170
     2
 62
     0
 63
   257
283
     0
 90
        4
 91
        0
  1

274
    -2
284
     1
 64
     0
275
    -2
285
     1
 65
     0
276
    -2
286
     1
 66
     0
277
    -2
287
     1
 67
     0
278
    -2
288
     1
 68
     0
279
    -2
289
     1
 69
     0
  7
Standard
140
6.0
170
     5
 62
     0
 63
   257
283
     0
 90
        4
 91
        0
  1

274
    -2
284
     1
 64
     0
275
    -2
285
     1
 65
     0
276
    -2
286
     1
 66
     0
277
    -2
287
     1
 67
     0
278
    -2
288
     1
 68
     0
279
    -2
289
     1
 69
     0
  7
Standard
140
4.5
170
     5
 62
     0
 63
   257
283
     0
 90
        4
 91
        0
  1

274
    -2
284
     1
 64
     0
275
    -2
285
     1
 65
     0
276
    -2
286
     1
 66
     0
277
    -2
287
     1
 67
     0
278
    -2
288
     1
 68
     0
279
    -2
289
     1
 69
     0
  0
VISUALSTYLE
  5
2F
102
{ACAD_REACTORS
330
2A
102
}
330
2A
100
AcDbVisualStyle
  2
2dWireframe
 70
     4
 71
     0
 72
     2
 73
     0
 90
        0
 40
0.6
 41
30.0
 62
     5
 63
     7
421
 16777215
 74
     1
 91
        4
 64
     7
 65
   257
 75
     1
175
     1
 42
1.0
 92
        0
 66
   257
 43
1.0
 76
     1
 77
     6
 78
     2
 67
     7
 79
     5
170
     0
171
     0
290
     0
174
     0
 93
        1
 44
0.0
173
     0
291
     0
 45
0.0
  0
VISUALSTYLE
  5
32
102
{ACAD_REACTORS
330
2A
102
}
330
2A
100
AcDbVisualStyle
  2
Basic
 70
     7
 71
     1
 72
     0
 73
     1
 90
        0
 40
0.6
 41
30.0
 62
     5
 63
     7
421
 16777215
 74
     0
 91
        4
 64
     7
 65
   257
 75
     1
175
     1
 42
1.0
 92
        8
 66
     7
 43
1.0
 76
     1
 77
     6
 78
     2
 67
     7
 79
     5
170
     0
171
     0
290
     0
174
     0
 93
        1
 44
0.0
173
     0
291
     1
 45
0.0
  0
VISUALSTYLE
  5
36
102
{ACAD_REACTORS
330
2A
102
}
330
2A
100
AcDbVisualStyle
  2
Brighten
 70
    12
 71
     2
 72
     2
 73
     0
 90
        0
 40
0.6
 41
30.0
 62
     5
 63
     7
421
 16777215
 74
     1
 91
        4
 64
     7
 65
   257
 75
     1
175
     1
 42
1.0
 92
        8
 66
     7
 43
1.0
 76
     1
 77
     6
 78
     2
 67
     7
 79
     5
170
     0
171
     0
290
     0
174
     0
 93
        1
 44
50.0
173
     0
291
     1
 45
0.0
  0
VISUALSTYLE
  5
3A
102
{ACAD_REACTORS
330
2A
102
}
330
2A
100
AcDbVisualStyle
  2
ColorChange
 70
    16
 71
     2
 72
     2
 73
     3
 90
        0
 40
0.6
 41
30.0
 62
     5
 63
     8
421
  8421504
 74
     1
 91
        4
 64
     7
 65
   257
 75
     1
175
     1
 42
1.0
 92
        8
 66
     8
424
  8421504
 43
1.0
 76
     1
 77
     6
 78
     2
 67
     7
 79
     5
170
     0
171
     0
290
     0
174
     0
 93
        1
 44
0.0
173
     0
291
     1
 45
0.0
  0
VISUALSTYLE
  5
34
102
{ACAD_REACTORS
330
2A
102
}
330
2A
100
AcDbVisualStyle
  2
Conceptual
 70
     9
 71
     3
 72
     2
 73
     0
 90
        0
 40
0.6
 41
30.0
 62
     5
 63
     7
421
 16777215
 74
     2
 91
        2
 64
     7
 65
   257
 75
     1
175
     1
 42
179.0
 92
        8
 66
     7
 43
1.0
 76
     1
 77
     6
 78
     2
 67
     7
 79
     3
170
     0
171
     0
290
     0
174
     0
 93
        1
 44
0.0
173
     0
291
     0
 45
0.0
  0
VISUALSTYLE
  5
35
102
{ACAD_REACTORS
330
2A
102
}
330
2A
100
AcDbVisualStyle
  2
Dim
 70
    11
 71
     2
 72
     2
 73
     0
 90
        0
 40
0.6
 41
30.0
 62
     5
 63
     7
421
 16777215
 74
     1
 91
        4
 64
     7
 65
   257
 75
     1
175
     1
 42
1.0
 92
        8
 66
     7
 43
1.0
 76
     1
 77
     6
 78
     2
 67
     7
 79
     5
170
     0
171
     0
290
     0
174
     0
 93
        1
 44
-50.0
173
     0
291
     1
 45
0.0
  0
VISUALSTYLE
  5
3D
102
{ACAD_REACTORS
330
2A
102
}
330
2A
100
AcDbVisualStyle
  2
EdgeColorOff
 70
    22
 71
     2
 72
     2
 73
     0
 90
        0
 40
0.6
 41
30.0
 62
     5
 63
     7
421
 16777215
 74
     1
 91
        4
 64
     7
 65
   257
 75
     1
175
     1
 42
1.0
 92
        8
 66
     7
 43
1.0
 76
     1
 77
     6
 78
     2
 67
     7
 79
     5
170
     0
171
     0
290
     0
174
     0
 93
        1
 44
0.0
173
     0
291
     1
 45
0.0
  0
VISUALSTYLE
  5
39
102
{ACAD_REACTORS
330
2A
102
}
330
2A
100
AcDbVisualStyle
  2
Facepattern
 70
    15
 71
     2
 72
     2
 73
     0
 90
        0
 40
0.6
 41
30.0
 62
     5
 63
     7
421
 16777215
 74
     1
 91
        4
 64
     7
 65
   257
 75
     1
175
     1
 42
1.0
 92
        8
 66
     7
 43
1.0
 76
     1
 77
     6
 78
     2
 67
     7
 79
     5
170
     0
171
     0
290
     0
174
     0
 93
        1
 44
0.0
173
     0
291
     1
 45
0.0
  0
VISUALSTYLE
  5
2B
102
{ACAD_REACTORS
330
2A
102
}
330
2A
100
AcDbVisualStyle
  2
Flat
 70
     0
 71
     2
 72
     1
 73
     1
 90
        2
 40
0.6
 41
30.0
 62
     5
 63
     7
421
 16777215
 74
     0
 91
        0
 64
     7
 65
   257
 75
     1
175
     1
 42
1.0
 92
        8
 66
     7
 43
1.0
 76
     1
 77
     6
 78
     2
 67
     7
 79
     5
170
     0
171
     0
290
     0
174
     0
 93
       13
 44
0.0
173
     0
291
     1
 45
0.0
  0
VISUALSTYLE
  5
2C
102
{ACAD_REACTORS
330
2A
102
}
330
2A
100
AcDbVisualStyle
  2
FlatWithEdges
 70
     1
 71
     2
 72
     1
 73
     1
 90
        2
 40
0.6
 41
30.0
 62
     5
 63
     7
421
 16777215
 74
     1
 91
        0
 64
     7
 65
   257
 75
     1
175
     1
 42
1.0
 92
        0
 66
   257
 43
1.0
 76
     1
 77
     6
 78
     2
 67
     7
 79
     5
170
     0
171
     0
290
     0
174
     0
 93
       13
 44
0.0
173
     0
291
     1
 45
0.0
  0
VISUALSTYLE
  5
2D
102
{ACAD_REACTORS
330
2A
102
}
330
2A
100
AcDbVisualStyle
  2
Gouraud
 70
     2
 71
     2
 72
     2
 73
     1
 90
        2
 40
0.6
 41
30.0
 62
     5
 63
     7
421
 16777215
 74
     0
 91
        0
 64
     7
 65
   257
 75
     1
175
     1
 42
1.0
 92
        0
 66
     7
 43
1.0
 76
     1
 77
     6
 78
     2
 67
     7
 79
     5
170
     0
171
     0
290
     0
174
     0
 93
       13
 44
0.0
173
     0
291
     1
 45
0.0
  0
VISUALSTYLE
  5
2E
102
{ACAD_REACTORS
330
2A
102
}
330
2A
100
AcDbVisualStyle
  2
GouraudWithEdges
 70
     3
 71
     2
 72
     2
 73
     1
 90
        2
 40
0.6
 41
30.0
 62
     5
 63
     7
421
 16777215
 74
     1
 91
        0
 64
     7
 65
   257
 75
     1
175
     1
 42
1.0
 92
        0
 66
   257
 43
1.0
 76
     1
 77
     6
 78
     2
 67
     7
 79
     5
170
     0
171
     0
290
     0
174
     0
 93
       13
 44
0.0
173
     0
291
     1
 45
0.0
  0
VISUALSTYLE
  5
31
102
{ACAD_REACTORS
330
2A
102
}
330
2A
100
AcDbVisualStyle
  2
Hidden
 70
     6
 71
     1
 72
     2
 73
     2
 90
        0
 40
0.6
 41
30.0
 62
     5
 63
     7
421
 16777215
 74
     2
 91
        2
 64
     7
 65
   257
 75
     2
175
     1
 42
40.0
 92
        0
 66
   257
 43
1.0
 76
     1
 77
     6
 78
     2
 67
     7
 79
     3
170
     0
171
     0
290
     0
174
     0
 93
        1
 44
0.0
173
     0
291
     0
 45
0.0
  0
VISUALSTYLE
  5
3B
102
{ACAD_REACTORS
330
2A
102
}
330
2A
100
AcDbVisualStyle
  2
JitterOff
 70
    20
 71
     2
 72
     2
 73
     0
 90
        0
 40
0.6
 41
30.0
 62
     5
 63
     7
421
 16777215
 74
     1
 91
        4
 64
     7
 65
   257
 75
     1
175
     1
 42
1.0
 92
       10
 66
     7
 43
1.0
 76
     1
 77
     6
 78
     2
 67
     7
 79
     5
170
     0
171
     0
290
     0
174
     0
 93
        1
 44
0.0
173
     0
291
     1
 45
0.0
  0
VISUALSTYLE
  5
38
102
{ACAD_REACTORS
330
2A
102
}
330
2A
100
AcDbVisualStyle
  2
Linepattern
 70
    14
 71
     2
 72
     2
 73
     0
 90
        0
 40
0.6
 41
30.0
 62
     5
 63
     7
421
 16777215
 74
     1
 91
        4
 64
     7
 65
   257
 75
     7
175
     7
 42
1.0
 92
        8
 66
     7
 43
1.0
 76
     1
 77
     6
 78
     2
 67
     7
 79
     5
170
     0
171
     0
290
     0
174
     0
 93
        1
 44
0.0
173
     0
291
     1
 45
0.0
  0
VISUALSTYLE
  5
3C
102
{ACAD_REACTORS
330
2A
102
}
330
2A
100
AcDbVisualStyle
  2
OverhangOff
 70
    21
 71
     2
 72
     2
 73
     0
 90
        0
 40
0.6
 41
30.0
 62
     5
 63
     7
421
 16777215
 74
     1
 91
        4
 64
     7
 65
   257
 75
     1
175
     1
 42
1.0
 92
        9
 66
     7
 43
1.0
 76
     1
 77
     6
 78
     2
 67
     7
 79
     5
170
     0
171
     0
290
     0
174
     0
 93
        1
 44
0.0
173
     0
291
     1
 45
0.0
  0
VISUALSTYLE
  5
33
102
{ACAD_REACTORS
330
2A
102
}
330
2A
100
AcDbVisualStyle
  2
Realistic
 70
     8
 71
     2
 72
     3
 73
     0
 90
        2
 40
0.6
 41
30.0
 62
     5
 63
     7
421
 16777215
 74
     0
 91
        0
 64
     7
 65
   257
 75
     1
175
     1
 42
1.0
 92
        8
 66
   257
 43
1.0
 76
     1
 77
     6
 78
     2
 67
     7
 79
     3
170
     0
171
     0
290
     0
174
     0
 93
       13
 44
0.0
173
     0
291
     0
 45
0.0
  0
VISUALSTYLE
  5
42
102
{ACAD_REACTORS
330
2A
102
}
330
2A
100
AcDbVisualStyle
  2
Shaded
 70
    27
 71
     2
 72
     2
 73
     1
 90
        2
 40
0.6
 41
30.0
 62
     5
 63
     7
421
 16777215
 74
     0
 91
        4
 64
     7
 65
   257
 75
     1
175
     1
 42
1.0
 92
        8
 66
   257
 43
1.0
 76
     1
 77
     6
 78
     2
 67
     8
425
  7895160
 79
     3
170
     0
171
     0
290
     0
174
     0
 93
        5
 44
0.0
173
     0
291
     0
 45
0.0
  0
VISUALSTYLE
  5
41
102
{ACAD_REACTORS
330
2A
102
}
330
2A
100
AcDbVisualStyle
  2
Shaded with edges
 70
    26
 71
     2
 72
     2
 73
     1
 90
        2
 40
0.6
 41
30.0
 62
     5
 63
     7
421
 16777215
 74
     1
 91
       10
 64
     7
 65
   257
 75
     2
175
     1
 42
1.0
 92
        8
 66
   257
 43
1.0
 76
     1
 77
     6
 78
     2
 67
     7
 79
     3
170
     0
171
     0
290
     0
174
     0
 93
        5
 44
0.0
173
     0
291
     0
 45
0.0
  0
VISUALSTYLE
  5
3E
102
{ACAD_REACTORS
330
2A
102
}
330
2A
100
AcDbVisualStyle
  2
Shades of Gray
 70
    23
 71
     2
 72
     2
 73
     3
 90
        0
 40
0.6
 41
30.0
 62
     5
 63
     7
421
 16777215
 74
     2
 91
        2
 64
     7
 65
     7
 75
     1
175
     1
 42
40.0
 92
        8
 66
     7
 43
1.0
 76
     1
 77
     6
 78
     2
 67
     7
 79
     3
170
     0
171
     0
290
     0
174
     0
 93
        1
 44
0.0
173
     0
291
     0
 45
0.0
  0
VISUALSTYLE
  5
3F
102
{ACAD_REACTORS
330
2A
102
}
330
2A
100
AcDbVisualStyle
  2
Sketchy
 70
    24
 71
     1
 72
     2
 73
     2
 90
        0
 40
0.6
 41
30.0
 62
     5
 63
     7
421
 16777215
 74
     2
 91
        2
 64
     7
 65
     7
 75
     1
175
     1
 42
40.0
 92
       11
 66
     7
 43
1.0
 76
     1
 77
     6
 78
     2
 67
     7
 79
     6
170
     0
171
     0
290
     0
174
     0
 93
        1
 44
0.0
173
     0
291
     0
 45
0.0
  0
VISUALSTYLE
  5
37
102
{ACAD_REACTORS
330
2A
102
}
330
2A
100
AcDbVisualStyle
  2
Thicken
 70
    13
 71
     2
 72
     2
 73
     0
 90
        0
 40
0.6
 41
30.0
 62
     5
 63
     7
421
 16777215
 74
     1
 91
        4
 64
     7
 65
   257
 75
     1
175
     1
 42
1.0
 92
       12
 66
     7
 43
1.0
 76
     1
 77
     6
 78
     2
 67
     7
 79
     5
170
     0
171
     0
290
     0
174
     0
 93
        1
 44
0.0
173
     0
291
     1
 45
0.0
  0
VISUALSTYLE
  5
30
102
{ACAD_REACTORS
330
2A
102
}
330
2A
100
AcDbVisualStyle
  2
Wireframe
 70
     5
 71
     0
 72
     2
 73
     0
 90
        0
 40
0.6
 41
30.0
 62
     5
 63
     7
421
 16777215
 74
     1
 91
        4
 64
     7
 65
   257
 75
     1
175
     1
 42
1.0
 92
        0
 66
   257
 43
1.0
 76
     1
 77
     6
 78
     2
 67
     7
 79
     3
170
     0
171
     0
290
     0
174
     0
 93
        1
 44
0.0
173
     0
291
     0
 45
0.0
  0
VISUALSTYLE
  5
40
102
{ACAD_REACTORS
330
2A
102
}
330
2A
100
AcDbVisualStyle
  2
X-Ray
 70
    25
 71
     2
 72
     2
 73
     1
 90
        1
 40
0.5
 41
30.0
 62
     5
 63
     7
421
 16777215
 74
     1
 91
        0
 64
     7
 65
   257
 75
     1
175
     1
 42
1.0
 92
        8
 66
     7
 43
1.0
 76
     1
 77
     6
 78
     2
 67
     7
 79
     3
170
     0
171
     0
290
     0
174
     0
 93
       13
 44
0.0
173
     0
291
     0
 45
0.0
  0
DICTIONARYVAR
  5
10D
102
{ACAD_REACTORS
330
10C
102
}
330
10C
100
DictionaryVariables
280
     0
  1
1:1
  0
DICTIONARYVAR
  5
113
102
{ACAD_REACTORS
330
10C
102
}
330
10C
100
DictionaryVariables
280
     0
  1
Standard
  0
DICTIONARYVAR
  5
112
102
{ACAD_REACTORS
330
10C
102
}
330
10C
100
DictionaryVariables
280
     0
  1
Standard
  0
DICTIONARY
  5
10E
330
6A
100
AcDbDictionary
280
     1
281
     1
  3
ACAD_ROUNDTRIP_2008_TABLESTYLE_CELLSTYLEMAP
360
10F
  0
CELLSTYLEMAP
  5
10F
102
{ACAD_REACTORS
330
10E
102
}
330
10E
100
AcDbCellStyleMap
 90
        3
300
CELLSTYLE
  1
TABLEFORMAT_BEGIN
 90
        5
170
     1
 91
        0
 92
    32768
 62
   257
 93
        1
300
CONTENTFORMAT
  1
CONTENTFORMAT_BEGIN
 90
        0
 91
        0
 92
        4
 93
        0
300

 40
0.0
140
1.0
 94
        5
 62
     0
340
11
144
6.0
309
CONTENTFORMAT_END
171
     1
301
MARGIN
  1
CELLMARGIN_BEGIN
 40
1.5
 40
1.5
 40
1.5
 40
1.5
 40
1.5
 40
1.5
309
CELLMARGIN_END
 94
        6
 95
        1
302
GRIDFORMAT
  1
GRIDFORMAT_BEGIN
 90
        0
 91
        1
 62
     0
 92
       -2
340
14
 93
        0
 40
0.045
309
GRIDFORMAT_END
 95
        2
302
GRIDFORMAT
  1
GRIDFORMAT_BEGIN
 90
        0
 91
        1
 62
     0
 92
       -2
340
14
 93
        0
 40
0.045
309
GRIDFORMAT_END
 95
        4
302
GRIDFORMAT
  1
GRIDFORMAT_BEGIN
 90
        0
 91
        1
 62
     0
 92
       -2
340
14
 93
        0
 40
0.045
309
GRIDFORMAT_END
 95
        8
302
GRIDFORMAT
  1
GRIDFORMAT_BEGIN
 90
        0
 91
        1
 62
     0
 92
       -2
340
14
 93
        0
 40
0.045
309
GRIDFORMAT_END
 95
       16
302
GRIDFORMAT
  1
GRIDFORMAT_BEGIN
 90
        0
 91
        1
 62
     0
 92
       -2
340
14
 93
        0
 40
0.045
309
GRIDFORMAT_END
 95
       32
302
GRIDFORMAT
  1
GRIDFORMAT_BEGIN
 90
        0
 91
        1
 62
     0
 92
       -2
340
14
 93
        0
 40
0.045
309
GRIDFORMAT_END
309
TABLEFORMAT_END
  1
CELLSTYLE_BEGIN
 90
        1
 91
        1
300
_TITLE
309
CELLSTYLE_END
300
CELLSTYLE
  1
TABLEFORMAT_BEGIN
 90
        5
170
     1
 91
        0
 92
        0
 62
   257
 93
        1
300
CONTENTFORMAT
  1
CONTENTFORMAT_BEGIN
 90
        0
 91
        0
 92
        4
 93
        0
300

 40
0.0
140
1.0
 94
        5
 62
     0
340
11
144
4.5
309
CONTENTFORMAT_END
171
     1
301
MARGIN
  1
CELLMARGIN_BEGIN
 40
1.5
 40
1.5
 40
1.5
 40
1.5
 40
1.5
 40
1.5
309
CELLMARGIN_END
 94
        6
 95
        1
302
GRIDFORMAT
  1
GRIDFORMAT_BEGIN
 90
        0
 91
        1
 62
     0
 92
       -2
340
14
 93
        0
 40
0.045
309
GRIDFORMAT_END
 95
        2
302
GRIDFORMAT
  1
GRIDFORMAT_BEGIN
 90
        0
 91
        1
 62
     0
 92
       -2
340
14
 93
        0
 40
0.045
309
GRIDFORMAT_END
 95
        4
302
GRIDFORMAT
  1
GRIDFORMAT_BEGIN
 90
        0
 91
        1
 62
     0
 92
       -2
340
14
 93
        0
 40
0.045
309
GRIDFORMAT_END
 95
        8
302
GRIDFORMAT
  1
GRIDFORMAT_BEGIN
 90
        0
 91
        1
 62
     0
 92
       -2
340
14
 93
        0
 40
0.045
309
GRIDFORMAT_END
 95
       16
302
GRIDFORMAT
  1
GRIDFORMAT_BEGIN
 90
        0
 91
        1
 62
     0
 92
       -2
340
14
 93
        0
 40
0.045
309
GRIDFORMAT_END
 95
       32
302
GRIDFORMAT
  1
GRIDFORMAT_BEGIN
 90
        0
 91
        1
 62
     0
 92
       -2
340
14
 93
        0
 40
0.045
309
GRIDFORMAT_END
309
TABLEFORMAT_END
  1
CELLSTYLE_BEGIN
 90
        2
 91
        1
300
_HEADER
309
CELLSTYLE_END
300
CELLSTYLE
  1
TABLEFORMAT_BEGIN
 90
        5
170
     1
 91
        0
 92
        0
 62
   257
 93
        1
300
CONTENTFORMAT
  1
CONTENTFORMAT_BEGIN
 90
        0
 91
        0
 92
        4
 93
        0
300

 40
0.0
140
1.0
 94
        2
 62
     0
340
11
144
4.5
309
CONTENTFORMAT_END
171
     1
301
MARGIN
  1
CELLMARGIN_BEGIN
 40
1.5
 40
1.5
 40
1.5
 40
1.5
 40
1.5
 40
1.5
309
CELLMARGIN_END
 94
        6
 95
        1
302
GRIDFORMAT
  1
GRIDFORMAT_BEGIN
 90
        0
 91
        1
 62
     0
 92
       -2
340
14
 93
        0
 40
0.045
309
GRIDFORMAT_END
 95
        2
302
GRIDFORMAT
  1
GRIDFORMAT_BEGIN
 90
        0
 91
        1
 62
     0
 92
       -2
340
14
 93
        0
 40
0.045
309
GRIDFORMAT_END
 95
        4
302
GRIDFORMAT
  1
GRIDFORMAT_BEGIN
 90
        0
 91
        1
 62
     0
 92
       -2
340
14
 93
        0
 40
0.045
309
GRIDFORMAT_END
 95
        8
302
GRIDFORMAT
  1
GRIDFORMAT_BEGIN
 90
        0
 91
        1
 62
     0
 92
       -2
340
14
 93
        0
 40
0.045
309
GRIDFORMAT_END
 95
       16
302
GRIDFORMAT
  1
GRIDFORMAT_BEGIN
 90
        0
 91
        1
 62
     0
 92
       -2
340
14
 93
        0
 40
0.045
309
GRIDFORMAT_END
 95
       32
302
GRIDFORMAT
  1
GRIDFORMAT_BEGIN
 90
        0
 91
        1
 62
     0
 92
       -2
340
14
 93
        0
 40
0.045
309
GRIDFORMAT_END
309
TABLEFORMAT_END
  1
CELLSTYLE_BEGIN
 90
        3
 91
        2
300
_DATA
309
CELLSTYLE_END
  0
ENDSEC
  0
EOF
