  0
SECTION
  2
HEADER
  9
$ACADVER
  1
AC1021
  9
$ACADMAINTVER
 70
    25
  9
$DWGCODEPAGE
  3
ANSI_1250
  9
$INSBASE
 10
0.0
 20
0.0
 30
0.0
  9
$EXTMIN
 10
0.0
 20
0.0
 30
0.0
  9
$EXTMAX
 10
0.21
 20
0.297
 30
0.0
  9
$LIMMIN
 10
0.0
 20
0.0
  9
$LIMMAX
 10
0.21
 20
0.297
  9
$ORTHOMODE
 70
     0
  9
$REGENMODE
 70
     1
  9
$FILLMODE
 70
     1
  9
$QTEXTMODE
 70
     0
  9
$MIRRTEXT
 70
     1
  9
$LTSCALE
 40
1.0
  9
$ATTMODE
 70
     1
  9
$TEXTSIZE
 40
0.0035
  9
$TRACEWID
 40
1.0
  9
$TEXTSTYLE
  7
Standard
  9
$CLAYER
  8
0
  9
$CELTYPE
  6
ByLayer
  9
$CECOLOR
 62
   256
  9
$CELTSCALE
 40
1.0
  9
$DISPSILH
 70
     0
  9
$DIMSCALE
 40
1.0
  9
$DIMASZ
 40
0.003302
  9
$DIMEXO
 40
0.001
  9
$DIMDLI
 40
3.75
  9
$DIMRND
 40
0.0
  9
$DIMDLE
 40
0.0
  9
$DIMEXE
 40
0.001
  9
$DIMTP
 40
0.0
  9
$DIMTM
 40
0.0
  9
$DIMTXT
 40
0.0035
  9
$DIMCEN
 40
2.5
  9
$DIMTSZ
 40
0.0
  9
$DIMTOL
 70
     0
  9
$DIMLIM
 70
     0
  9
$DIMTIH
 70
     1
  9
$DIMTOH
 70
     1
  9
$DIMSE1
 70
     0
  9
$DIMSE2
 70
     0
  9
$DIMTAD
 70
     1
  9
$DIMZIN
 70
     0
  9
$DIMBLK
  1

  9
$DIMASO
 70
     1
  9
$DIMSHO
 70
     1
  9
$DIMPOST
  1

  9
$DIMAPOST
  1

  9
$DIMALT
 70
     0
  9
$DIMALTD
 70
     3
  9
$DIMALTF
 40
39.3700787402
  9
$DIMLFAC
 40
30.0
  9
$DIMTOFL
 70
     1
  9
$DIMTVP
 40
0.0
  9
$DIMTIX
 70
     0
  9
$DIMSOXD
 70
     0
  9
$DIMSAH
 70
     0
  9
$DIMBLK1
  1

  9
$DIMBLK2
  1

  9
$DIMSTYLE
  2
ISO-25
  9
$DIMCLRD
 70
     0
  9
$DIMCLRE
 70
     0
  9
$DIMCLRT
 70
     0
  9
$DIMTFAC
 40
1.0
  9
$DIMGAP
 40
0.001524
  9
$DIMJUST
 70
     0
  9
$DIMSD1
 70
     0
  9
$DIMSD2
 70
     0
  9
$DIMTOLJ
 70
     0
  9
$DIMTZIN
 70
     0
  9
$DIMALTZ
 70
     0
  9
$DIMALTTZ
 70
     0
  9
$DIMUPT
 70
     0
  9
$DIMDEC
 70
     2
  9
$DIMTDEC
 70
     2
  9
$DIMALTU
 70
     2
  9
$DIMALTTD
 70
     3
  9
$DIMTXSTY
  7
Standard
  9
$DIMAUNIT
 70
     0
  9
$DIMADEC
 70
     2
  9
$DIMALTRND
 40
0.0
  9
$DIMAZIN
 70
     0
  9
$DIMDSEP
 70
    44
  9
$DIMATFIT
 70
     3
  9
$DIMFRAC
 70
     0
  9
$DIMLDRBLK
  1

  9
$DIMLUNIT
 70
     2
  9
$DIMLWD
 70
    -2
  9
$DIMLWE
 70
    -2
  9
$DIMTMOVE
 70
     0
  9
$DIMFXL
 40
1.0
  9
$DIMFXLON
 70
     0
  9
$DIMJOGANG
 40
0.7853981634
  9
$DIMTFILL
 70
     0
  9
$DIMTFILLCLR
 70
     0
  9
$DIMARCSYM
 70
     0
  9
$DIMLTYPE
  6

  9
$DIMLTEX1
  6

  9
$DIMLTEX2
  6

  9
$LUNITS
 70
     2
  9
$LUPREC
 70
     2
  9
$SKETCHINC
 40
1.0
  9
$FILLETRAD
 40
10.0
  9
$AUNITS
 70
     0
  9
$AUPREC
 70
     2
  9
$MENU
  1
.
  9
$ELEVATION
 40
0.0
  9
$PELEVATION
 40
0.0
  9
$THICKNESS
 40
0.0
  9
$LIMCHECK
 70
     0
  9
$CHAMFERA
 40
0.0
  9
$CHAMFERB
 40
0.0
  9
$CHAMFERC
 40
0.0
  9
$CHAMFERD
 40
0.0
  9
$SKPOLY
 70
     0
  9
$TDCREATE
 40
2458074.440472211
  9
$TDUCREATE
 40
2458074.398805544
  9
$TDUPDATE
 40
2458074.440472709
  9
$TDUUPDATE
 40
2458074.398806042
  9
$TDINDWG
 40
0.0000000116
  9
$TDUSRTIMER
 40
0.0000000116
  9
$USRTIMER
 70
     1
  9
$ANGBASE
 50
0.0
  9
$ANGDIR
 70
     0
  9
$PDMODE
 70
     0
  9
$PDSIZE
 40
-1.0
  9
$PLINEWID
 40
0.0
  9
$SPLFRAME
 70
     0
  9
$SPLINETYPE
 70
     6
  9
$SPLINESEGS
 70
     8
  9
$HANDSEED
  5
4D4
  9
$SURFTAB1
 70
     6
  9
$SURFTAB2
 70
     6
  9
$SURFTYPE
 70
     6
  9
$SURFU
 70
     6
  9
$SURFV
 70
     6
  9
$UCSBASE
  2

  9
$UCSNAME
  2

  9
$UCSORG
 10
0.0
 20
0.0
 30
0.0
  9
$UCSXDIR
 10
1.0
 20
0.0
 30
0.0
  9
$UCSYDIR
 10
0.0
 20
1.0
 30
0.0
  9
$UCSORTHOREF
  2

  9
$UCSORTHOVIEW
 70
     0
  9
$UCSORGTOP
 10
0.0
 20
0.0
 30
0.0
  9
$UCSORGBOTTOM
 10
0.0
 20
0.0
 30
0.0
  9
$UCSORGLEFT
 10
0.0
 20
0.0
 30
0.0
  9
$UCSORGRIGHT
 10
0.0
 20
0.0
 30
0.0
  9
$UCSORGFRONT
 10
0.0
 20
0.0
 30
0.0
  9
$UCSORGBACK
 10
0.0
 20
0.0
 30
0.0
  9
$PUCSBASE
  2

  9
$PUCSNAME
  2

  9
$PUCSORG
 10
0.0
 20
0.0
 30
0.0
  9
$PUCSXDIR
 10
1.0
 20
0.0
 30
0.0
  9
$PUCSYDIR
 10
0.0
 20
1.0
 30
0.0
  9
$PUCSORTHOREF
  2

  9
$PUCSORTHOVIEW
 70
     0
  9
$PUCSORGTOP
 10
0.0
 20
0.0
 30
0.0
  9
$PUCSORGBOTTOM
 10
0.0
 20
0.0
 30
0.0
  9
$PUCSORGLEFT
 10
0.0
 20
0.0
 30
0.0
  9
$PUCSORGRIGHT
 10
0.0
 20
0.0
 30
0.0
  9
$PUCSORGFRONT
 10
0.0
 20
0.0
 30
0.0
  9
$PUCSORGBACK
 10
0.0
 20
0.0
 30
0.0
  9
$USERI1
 70
     0
  9
$USERI2
 70
     0
  9
$USERI3
 70
     0
  9
$USERI4
 70
     0
  9
$USERI5
 70
     0
  9
$USERR1
 40
0.0
  9
$USERR2
 40
0.0
  9
$USERR3
 40
0.0
  9
$USERR4
 40
0.0
  9
$USERR5
 40
0.0
  9
$WORLDVIEW
 70
     1
  9
$SHADEDGE
 70
     3
  9
$SHADEDIF
 70
    70
  9
$TILEMODE
 70
     1
  9
$MAXACTVP
 70
    64
  9
$PINSBASE
 10
0.0
 20
0.0
 30
0.0
  9
$PLIMCHECK
 70
     0
  9
$PEXTMIN
 10
1.0000000000E+20
 20
1.0000000000E+20
 30
1.0000000000E+20
  9
$PEXTMAX
 10
-1.0000000000E+20
 20
-1.0000000000E+20
 30
-1.0000000000E+20
  9
$PLIMMIN
 10
0.0
 20
0.0
  9
$PLIMMAX
 10
420.0
 20
297.0
  9
$UNITMODE
 70
     0
  9
$VISRETAIN
 70
     1
  9
$PLINEGEN
 70
     0
  9
$PSLTSCALE
 70
     1
  9
$TREEDEPTH
 70
  3020
  9
$CMLSTYLE
  2
Standard
  9
$CMLJUST
 70
     0
  9
$CMLSCALE
 40
20.0
  9
$PROXYGRAPHICS
 70
     1
  9
$MEASUREMENT
 70
     1
  9
$CELWEIGHT
370
    -1
  9
$ENDCAPS
280
     0
  9
$JOINSTYLE
280
     0
  9
$LWDISPLAY
290
     1
  9
$INSUNITS
 70
     4
  9
$HYPERLINKBASE
  1

  9
$STYLESHEET
  1

  9
$XEDIT
290
     1
  9
$CEPSNTYPE
380
     0
  9
$PSTYLEMODE
290
     1
  9
$FINGERPRINTGUID
  2
{1CF6CE78-0A5A-480C-9127-1E975519DDB1}
  9
$VERSIONGUID
  2
{FAEB1C32-E019-11D5-929B-00C0DF256EC4}
  9
$EXTNAMES
290
     1
  9
$PSVPSCALE
 40
0.0
  9
$OLESTARTUP
290
     0
  9
$SORTENTS
280
   127
  9
$INDEXCTL
280
     0
  9
$HIDETEXT
280
     1
  9
$XCLIPFRAME
290
     0
  9
$HALOGAP
280
     0
  9
$OBSCOLOR
 70
   257
  9
$OBSLTYPE
280
     0
  9
$INTERSECTIONDISPLAY
280
     0
  9
$INTERSECTIONCOLOR
 70
   257
  9
$DIMASSOC
280
     2
  9
$PROJECTNAME
  1

  9
$CAMERADISPLAY
290
     0
  9
$LENSLENGTH
 40
50.0
  9
$CAMERAHEIGHT
 40
0.0
  9
$STEPSPERSEC
 40
2.0
  9
$STEPSIZE
 40
6.0
  9
$3DDWFPREC
 40
2.0
  9
$PSOLWIDTH
 40
5.0
  9
$PSOLHEIGHT
 40
80.0
  9
$LOFTANG1
 40
1.5707963268
  9
$LOFTANG2
 40
1.5707963268
  9
$LOFTMAG1
 40
0.0
  9
$LOFTMAG2
 40
0.0
  9
$LOFTPARAM
 70
     7
  9
$LOFTNORMALS
280
     1
  9
$LATITUDE
 40
37.795
  9
$LONGITUDE
 40
-122.394
  9
$NORTHDIRECTION
 40
0.0
  9
$TIMEZONE
 70
 -8000
  9
$LIGHTGLYPHDISPLAY
280
     1
  9
$TILEMODELIGHTSYNCH
280
     1
  9
$CMATERIAL
347
44
  9
$SOLIDHIST
280
     0
  9
$SHOWHIST
280
     1
  9
$DWFFRAME
280
     2
  9
$DGNFRAME
280
     2
  9
$REALWORLDSCALE
290
     1
  9
$INTERFERECOLOR
 62
   256
  9
$CSHADOW
280
     0
  9
$SHADOWPLANELOCATION
 40
0.0
  0
ENDSEC
  0
SECTION
  2
CLASSES
  0
CLASS
  1
ACDBDICTIONARYWDFLT
  2
AcDbDictionaryWithDefault
  3
ObjectDBX Classes
 90
        0
 91
        4
280
     0
281
     0
  0
CLASS
  1
VISUALSTYLE
  2
AcDbVisualStyle
  3
ObjectDBX Classes
 90
     4095
 91
        4
280
     0
281
     0
  0
CLASS
  1
MATERIAL
  2
AcDbMaterial
  3
ObjectDBX Classes
 90
     1153
 91
        4
280
     0
281
     0
  0
CLASS
  1
SCALE
  2
AcDbScale
  3
ObjectDBX Classes
 90
     1153
 91
        4
280
     0
281
     0
  0
CLASS
  1
TABLESTYLE
  2
AcDbTableStyle
  3
ObjectDBX Classes
 90
     4095
 91
        4
280
     0
281
     0
  0
CLASS
  1
MLEADERSTYLE
  2
AcDbMLeaderStyle
  3
ACDB_MLEADERSTYLE_CLASS
 90
     4095
 91
        4
280
     0
281
     0
  0
CLASS
  1
SUN
  2
AcDbSun
  3
SCENEOE
 90
     1153
 91
        4
280
     0
281
     0
  0
CLASS
  1
DICTIONARYVAR
  2
AcDbDictionaryVar
  3
ObjectDBX Classes
 90
        0
 91
        4
280
     0
281
     0
  0
CLASS
  1
CELLSTYLEMAP
  2
AcDbCellStyleMap
  3
ObjectDBX Classes
 90
     1152
 91
        4
280
     0
281
     0
  0
ENDSEC
  0
SECTION
  2
TABLES
  0
TABLE
  2
VPORT
  5
8
330
0
100
AcDbSymbolTable
 70
     1
  0
VPORT
  5
29
330
8
100
AcDbSymbolTableRecord
100
AcDbViewportTableRecord
  2
*Active
 70
     0
 10
0.0
 20
0.0
 11
1.0
 21
1.0
 12
0.105
 22
0.1485
 13
0.0
 23
0.0
 14
10.0
 24
10.0
 15
10.0
 25
10.0
 16
0.0
 26
0.0
 36
1.0
 17
0.0
 27
0.0
 37
0.0
 40
0.297
 41
0.7070707071
 42
50.0
 43
0.0
 44
0.0
 50
0.0
 51
0.0
 71
     0
 72
  2000
 73
     1
 74
     3
 75
     0
 76
     0
 77
     0
 78
     0
281
     0
 65
     1
110
0.0
120
0.0
130
0.0
111
1.0
121
0.0
131
0.0
112
0.0
122
1.0
132
0.0
 79
     0
146
0.0
 60
     3
 61
     5
292
     1
282
     1
141
0.0
142
0.0
 63
   250
361
6D
  0
ENDTAB
  0
TABLE
  2
LTYPE
  5
5
330
0
100
AcDbSymbolTable
 70
     6
  0
LTYPE
  5
14
330
5
100
AcDbSymbolTableRecord
100
AcDbLinetypeTableRecord
  2
ByBlock
 70
     0
  3

 72
    65
 73
     0
 40
0.0
  0
LTYPE
  5
15
330
5
100
AcDbSymbolTableRecord
100
AcDbLinetypeTableRecord
  2
ByLayer
 70
     0
  3

 72
    65
 73
     0
 40
0.0
  0
LTYPE
  5
16
330
5
100
AcDbSymbolTableRecord
100
AcDbLinetypeTableRecord
  2
Continuous
 70
     0
  3
Solid line
 72
    65
 73
     0
 40
0.0
  0
LTYPE
  5
6E
330
5
100
AcDbSymbolTableRecord
100
AcDbLinetypeTableRecord
  2
HIDDEN
 70
     0
  3
Hidden __ __ __ __ __ __ __ __ __ __ __ __ __ __
 72
    65
 73
     2
 40
0.001905
 49
0.00127
 74
     0
 49
-0.000635
 74
     0
  0
LTYPE
  5
6F
330
5
100
AcDbSymbolTableRecord
100
AcDbLinetypeTableRecord
  2
PHANTOM
 70
     0
  3
Phantom ______  __  __  ______  __  __  ______
 72
    65
 73
     6
 40
0.0127
 49
0.00635
 74
     0
 49
-0.00127
 74
     0
 49
0.00127
 74
     0
 49
-0.00127
 74
     0
 49
0.00127
 74
     0
 49
-0.00127
 74
     0
  0
LTYPE
  5
70
330
5
100
AcDbSymbolTableRecord
100
AcDbLinetypeTableRecord
  2
CENTER
 70
     0
  3
Center ____ _ ____ _ ____ _ ____ _ ____ _ ____
 72
    65
 73
     4
 40
0.01016
 49
0.00635
 74
     0
 49
-0.00127
 74
     0
 49
0.00127
 74
     0
 49
-0.00127
 74
     0
  0
LTYPE
  5
71
330
5
100
AcDbSymbolTableRecord
100
AcDbLinetypeTableRecord
  2
CENTERX2
 70
     0
  3
Center (2x) ________  __  ________  __  _____
 72
    65
 73
     4
 40
0.02032
 49
0.0127
 74
     0
 49
-0.00254
 74
     0
 49
0.00254
 74
     0
 49
-0.00254
 74
     0
  0
LTYPE
  5
72
330
5
100
AcDbSymbolTableRecord
100
AcDbLinetypeTableRecord
  2
DOT2
 70
     0
  3
Dot (.5x) ........................................
 72
    65
 73
     2
 40
0.000635
 49
0.0
 74
     0
 49
-0.000635
 74
     0
  0
ENDTAB
  0
TABLE
  2
LAYER
  5
2
330
0
100
AcDbSymbolTable
 70
     2
  0
LAYER
  5
10
330
2
100
AcDbSymbolTableRecord
100
AcDbLayerTableRecord
  2
0
 70
     0
 62
     7
  6
Continuous
370
    -3
390
F
347
46
  0
LAYER
  5
73
330
2
100
AcDbSymbolTableRecord
100
AcDbLayerTableRecord
  2
FORMAT
 70
     0
 62
     7
  6
Continuous
370
    -3
390
F
347
46
  0
ENDTAB
  0
TABLE
  2
STYLE
  5
3
330
0
100
AcDbSymbolTable
 70
     1
  0
STYLE
  5
11
330
3
100
AcDbSymbolTableRecord
100
AcDbTextStyleTableRecord
  2
Standard
 70
     0
 40
0.0
 41
1.0
 50
0.0
 71
     0
 42
0.0035
  3
txt
  4

  0
ENDTAB
  0
TABLE
  2
VIEW
  5
6
330
0
100
AcDbSymbolTable
 70
     0
  0
ENDTAB
  0
TABLE
  2
UCS
  5
7
330
0
100
AcDbSymbolTable
 70
     0
  0
ENDTAB
  0
TABLE
  2
APPID
  5
9
330
0
100
AcDbSymbolTable
 70
     2
  0
APPID
  5
12
330
9
100
AcDbSymbolTableRecord
100
AcDbRegAppTableRecord
  2
ACAD
 70
     0
  0
APPID
  5
4CE
330
9
100
AcDbSymbolTableRecord
100
AcDbRegAppTableRecord
  2
ACAD_MLEADERVER
 70
     0
  0
ENDTAB
  0
TABLE
  2
DIMSTYLE
  5
A
330
0
100
AcDbSymbolTable
 70
     1
100
AcDbDimStyleTable
  0
DIMSTYLE
105
27
330
A
100
AcDbSymbolTableRecord
100
AcDbDimStyleTableRecord
  2
ISO-25
 70
     0
 41
2.5
 42
0.625
 43
3.75
 44
1.25
 73
     0
 74
     0
 77
     1
 78
     8
140
2.5
141
2.5
143
0.0393700787
147
0.625
171
     3
172
     1
178
     0
271
     2
272
     2
274
     3
278
    44
283
     0
284
     8
340
11
  0
ENDTAB
  0
TABLE
  2
BLOCK_RECORD
  5
1
330
0
100
AcDbSymbolTable
 70
     9
  0
BLOCK_RECORD
  5
1F
330
1
100
AcDbSymbolTableRecord
100
AcDbBlockTableRecord
  2
*Model_Space
340
22
 70
     0
280
     1
281
     0
  0
BLOCK_RECORD
  5
1B
330
1
100
AcDbSymbolTableRecord
100
AcDbBlockTableRecord
  2
*Paper_Space
340
1E
 70
     0
280
     1
281
     0
  0
BLOCK_RECORD
  5
23
330
1
100
AcDbSymbolTableRecord
100
AcDbBlockTableRecord
  2
*Paper_Space0
340
26
 70
     0
280
     1
281
     0
  0
BLOCK_RECORD
  5
74
330
1
100
AcDbSymbolTableRecord
100
AcDbBlockTableRecord
  2
Blok3_5
340
0
 70
     0
280
     1
281
     0
  0
BLOCK_RECORD
  5
7F
330
1
100
AcDbSymbolTableRecord
100
AcDbBlockTableRecord
  2
Blok3_6
340
0
 70
     0
280
     1
281
     0
  0
BLOCK_RECORD
  5
8A
330
1
100
AcDbSymbolTableRecord
100
AcDbBlockTableRecord
  2
Blok3
340
0
 70
     0
280
     1
281
     0
  0
BLOCK_RECORD
  5
95
330
1
100
AcDbSymbolTableRecord
100
AcDbBlockTableRecord
  2
Blok3_7
340
0
 70
     0
280
     1
281
     0
  0
BLOCK_RECORD
  5
A0
330
1
100
AcDbSymbolTableRecord
100
AcDbBlockTableRecord
  2
Blok3_8
340
0
 70
     0
280
     1
281
     0
  0
BLOCK_RECORD
  5
AB
330
1
100
AcDbSymbolTableRecord
100
AcDbBlockTableRecord
  2
Blok4
340
0
 70
     0
280
     1
281
     0
  0
BLOCK_RECORD
  5
B6
330
1
100
AcDbSymbolTableRecord
100
AcDbBlockTableRecord
  2
Blok5
340
0
 70
     0
280
     1
281
     0
  0
BLOCK_RECORD
  5
C1
330
1
100
AcDbSymbolTableRecord
100
AcDbBlockTableRecord
  2
Blok6
340
0
 70
     0
280
     1
281
     0
  0
ENDTAB
  0
ENDSEC
  0
SECTION
  2
BLOCKS
  0
BLOCK
  5
20
330
1F
100
AcDbEntity
  8
0
100
AcDbBlockBegin
  2
*Model_Space
 70
     0
 10
0.0
 20
0.0
 30
0.0
  3
*Model_Space
  1

  0
ENDBLK
  5
21
330
1F
100
AcDbEntity
  8
0
100
AcDbBlockEnd
  0
BLOCK
  5
1C
330
1B
100
AcDbEntity
 67
     1
  8
0
100
AcDbBlockBegin
  2
*Paper_Space
 70
     0
 10
0.0
 20
0.0
 30
0.0
  3
*Paper_Space
  1

  0
ENDBLK
  5
1D
330
1B
100
AcDbEntity
 67
     1
  8
0
100
AcDbBlockEnd
  0
BLOCK
  5
24
330
23
100
AcDbEntity
  8
0
100
AcDbBlockBegin
  2
*Paper_Space0
 70
     0
 10
0.0
 20
0.0
 30
0.0
  3
*Paper_Space0
  1

  0
ENDBLK
  5
25
330
23
100
AcDbEntity
  8
0
100
AcDbBlockEnd
  0
BLOCK
  5
75
330
74
100
AcDbEntity
  8
0
100
AcDbBlockBegin
  2
Blok3_5
 70
     0
 10
0.0
 20
0.0
 30
0.0
  3
Blok3_5
  1

  0
ARC
  5
77
330
74
100
AcDbEntity
  8
0
  6
Continuous
 62
     7
370
    18
100
AcDbCircle
 10
0.0
 20
0.0
 30
0.0
 40
0.0052651662208297
100
AcDbArc
 50
197.1531468723
 51
6.1853684648
  0
ARC
  5
78
330
74
100
AcDbEntity
  8
0
  6
Continuous
 62
     7
370
    18
100
AcDbCircle
 10
0.0
 20
0.0
 30
0.0
 40
0.0052651662208297
100
AcDbArc
 50
17.1531468723
 51
186.1853684648
  0
ARC
  5
79
330
74
100
AcDbEntity
  8
0
  6
Continuous
 62
     7
370
    18
100
AcDbCircle
 10
0.0009855407
 20
0.0015528385
 30
0.0
 40
0.0009855406751265
100
AcDbArc
 50
360.0
 51
270.0
  0
ARC
  5
7A
330
74
100
AcDbEntity
  8
0
  6
Continuous
 62
     7
370
    18
100
AcDbCircle
 10
-0.0009855407
 20
-0.0015528385
 30
0.0
 40
0.0009855406751265
100
AcDbArc
 50
180.0
 51
90.0
  0
LINE
  5
7B
330
74
100
AcDbEntity
  8
0
  6
Continuous
 62
     7
370
    18
100
AcDbLine
 10
-0.0019710814
 20
-0.0015528385
 30
0.0
 11
-0.0050309709
 21
-0.0015528385
 31
0.0
  0
LINE
  5
7C
330
74
100
AcDbEntity
  8
0
  6
Continuous
 62
     7
370
    18
100
AcDbLine
 10
0.0009855407
 20
0.0005672978
 30
0.0
 11
0.0052345151
 21
0.0005672978
 31
0.0
  0
LINE
  5
7D
330
74
100
AcDbEntity
  8
0
  6
Continuous
 62
     7
370
    18
100
AcDbLine
 10
-0.0009855407
 20
-0.0005672978
 30
0.0
 11
-0.0052345151
 21
-0.0005672978
 31
0.0
  0
LINE
  5
7E
330
74
100
AcDbEntity
  8
0
  6
Continuous
 62
     7
370
    18
100
AcDbLine
 10
0.0019710814
 20
0.0015528385
 30
0.0
 11
0.0050309709
 21
0.0015528385
 31
0.0
  0
ENDBLK
  5
76
330
74
100
AcDbEntity
  8
0
100
AcDbBlockEnd
  0
BLOCK
  5
80
330
7F
100
AcDbEntity
  8
0
100
AcDbBlockBegin
  2
Blok3_6
 70
     0
 10
0.0
 20
0.0
 30
0.0
  3
Blok3_6
  1

  0
ARC
  5
82
330
7F
100
AcDbEntity
  8
0
  6
Continuous
 62
     7
370
    18
100
AcDbCircle
 10
0.0
 20
0.0
 30
0.0
 40
0.0052651662208297
100
AcDbArc
 50
197.1531468723
 51
6.1853684648
  0
ARC
  5
83
330
7F
100
AcDbEntity
  8
0
  6
Continuous
 62
     7
370
    18
100
AcDbCircle
 10
0.0
 20
0.0
 30
0.0
 40
0.0052651662208297
100
AcDbArc
 50
17.1531468723
 51
186.1853684648
  0
ARC
  5
84
330
7F
100
AcDbEntity
  8
0
  6
Continuous
 62
     7
370
    18
100
AcDbCircle
 10
0.0009855407
 20
0.0015528385
 30
0.0
 40
0.0009855406751265
100
AcDbArc
 50
360.0
 51
270.0
  0
ARC
  5
85
330
7F
100
AcDbEntity
  8
0
  6
Continuous
 62
     7
370
    18
100
AcDbCircle
 10
-0.0009855407
 20
-0.0015528385
 30
0.0
 40
0.0009855406751265
100
AcDbArc
 50
180.0
 51
90.0
  0
LINE
  5
86
330
7F
100
AcDbEntity
  8
0
  6
Continuous
 62
     7
370
    18
100
AcDbLine
 10
-0.0019710814
 20
-0.0015528385
 30
0.0
 11
-0.0050309709
 21
-0.0015528385
 31
0.0
  0
LINE
  5
87
330
7F
100
AcDbEntity
  8
0
  6
Continuous
 62
     7
370
    18
100
AcDbLine
 10
0.0009855407
 20
0.0005672978
 30
0.0
 11
0.0052345151
 21
0.0005672978
 31
0.0
  0
LINE
  5
88
330
7F
100
AcDbEntity
  8
0
  6
Continuous
 62
     7
370
    18
100
AcDbLine
 10
-0.0009855407
 20
-0.0005672978
 30
0.0
 11
-0.0052345151
 21
-0.0005672978
 31
0.0
  0
LINE
  5
89
330
7F
100
AcDbEntity
  8
0
  6
Continuous
 62
     7
370
    18
100
AcDbLine
 10
0.0019710814
 20
0.0015528385
 30
0.0
 11
0.0050309709
 21
0.0015528385
 31
0.0
  0
ENDBLK
  5
81
330
7F
100
AcDbEntity
  8
0
100
AcDbBlockEnd
  0
BLOCK
  5
8B
330
8A
100
AcDbEntity
  8
0
100
AcDbBlockBegin
  2
Blok3
 70
     0
 10
0.0
 20
0.0
 30
0.0
  3
Blok3
  1

  0
ARC
  5
8D
330
8A
100
AcDbEntity
  8
0
  6
Continuous
 62
     7
370
    18
100
AcDbCircle
 10
0.0
 20
0.0
 30
0.0
 40
0.0052651662208297
100
AcDbArc
 50
197.1531468723
 51
6.1853684648
  0
ARC
  5
8E
330
8A
100
AcDbEntity
  8
0
  6
Continuous
 62
     7
370
    18
100
AcDbCircle
 10
0.0
 20
0.0
 30
0.0
 40
0.0052651662208297
100
AcDbArc
 50
17.1531468723
 51
186.1853684648
  0
ARC
  5
8F
330
8A
100
AcDbEntity
  8
0
  6
Continuous
 62
     7
370
    18
100
AcDbCircle
 10
0.0009855407
 20
0.0015528385
 30
0.0
 40
0.0009855406751265
100
AcDbArc
 50
360.0
 51
270.0
  0
ARC
  5
90
330
8A
100
AcDbEntity
  8
0
  6
Continuous
 62
     7
370
    18
100
AcDbCircle
 10
-0.0009855407
 20
-0.0015528385
 30
0.0
 40
0.0009855406751265
100
AcDbArc
 50
180.0
 51
90.0
  0
LINE
  5
91
330
8A
100
AcDbEntity
  8
0
  6
Continuous
 62
     7
370
    18
100
AcDbLine
 10
-0.0019710814
 20
-0.0015528385
 30
0.0
 11
-0.0050309709
 21
-0.0015528385
 31
0.0
  0
LINE
  5
92
330
8A
100
AcDbEntity
  8
0
  6
Continuous
 62
     7
370
    18
100
AcDbLine
 10
0.0009855407
 20
0.0005672978
 30
0.0
 11
0.0052345151
 21
0.0005672978
 31
0.0
  0
LINE
  5
93
330
8A
100
AcDbEntity
  8
0
  6
Continuous
 62
     7
370
    18
100
AcDbLine
 10
-0.0009855407
 20
-0.0005672978
 30
0.0
 11
-0.0052345151
 21
-0.0005672978
 31
0.0
  0
LINE
  5
94
330
8A
100
AcDbEntity
  8
0
  6
Continuous
 62
     7
370
    18
100
AcDbLine
 10
0.0019710814
 20
0.0015528385
 30
0.0
 11
0.0050309709
 21
0.0015528385
 31
0.0
  0
ENDBLK
  5
8C
330
8A
100
AcDbEntity
  8
0
100
AcDbBlockEnd
  0
BLOCK
  5
96
330
95
100
AcDbEntity
  8
0
100
AcDbBlockBegin
  2
Blok3_7
 70
     0
 10
0.0
 20
0.0
 30
0.0
  3
Blok3_7
  1

  0
ARC
  5
98
330
95
100
AcDbEntity
  8
0
  6
Continuous
 62
     7
370
    18
100
AcDbCircle
 10
0.0
 20
0.0
 30
0.0
 40
0.0052651662208297
100
AcDbArc
 50
197.1531468723
 51
6.1853684648
  0
ARC
  5
99
330
95
100
AcDbEntity
  8
0
  6
Continuous
 62
     7
370
    18
100
AcDbCircle
 10
0.0
 20
0.0
 30
0.0
 40
0.0052651662208297
100
AcDbArc
 50
17.1531468723
 51
186.1853684648
  0
ARC
  5
9A
330
95
100
AcDbEntity
  8
0
  6
Continuous
 62
     7
370
    18
100
AcDbCircle
 10
0.0009855407
 20
0.0015528385
 30
0.0
 40
0.0009855406751265
100
AcDbArc
 50
360.0
 51
270.0
  0
ARC
  5
9B
330
95
100
AcDbEntity
  8
0
  6
Continuous
 62
     7
370
    18
100
AcDbCircle
 10
-0.0009855407
 20
-0.0015528385
 30
0.0
 40
0.0009855406751265
100
AcDbArc
 50
180.0
 51
90.0
  0
LINE
  5
9C
330
95
100
AcDbEntity
  8
0
  6
Continuous
 62
     7
370
    18
100
AcDbLine
 10
-0.0019710814
 20
-0.0015528385
 30
0.0
 11
-0.0050309709
 21
-0.0015528385
 31
0.0
  0
LINE
  5
9D
330
95
100
AcDbEntity
  8
0
  6
Continuous
 62
     7
370
    18
100
AcDbLine
 10
0.0009855407
 20
0.0005672978
 30
0.0
 11
0.0052345151
 21
0.0005672978
 31
0.0
  0
LINE
  5
9E
330
95
100
AcDbEntity
  8
0
  6
Continuous
 62
     7
370
    18
100
AcDbLine
 10
-0.0009855407
 20
-0.0005672978
 30
0.0
 11
-0.0052345151
 21
-0.0005672978
 31
0.0
  0
LINE
  5
9F
330
95
100
AcDbEntity
  8
0
  6
Continuous
 62
     7
370
    18
100
AcDbLine
 10
0.0019710814
 20
0.0015528385
 30
0.0
 11
0.0050309709
 21
0.0015528385
 31
0.0
  0
ENDBLK
  5
97
330
95
100
AcDbEntity
  8
0
100
AcDbBlockEnd
  0
BLOCK
  5
A1
330
A0
100
AcDbEntity
  8
0
100
AcDbBlockBegin
  2
Blok3_8
 70
     0
 10
0.0
 20
0.0
 30
0.0
  3
Blok3_8
  1

  0
ARC
  5
A3
330
A0
100
AcDbEntity
  8
0
  6
Continuous
 62
     7
370
    18
100
AcDbCircle
 10
0.0
 20
0.0
 30
0.0
 40
0.0052651662208297
100
AcDbArc
 50
197.1531468723
 51
6.1853684648
  0
ARC
  5
A4
330
A0
100
AcDbEntity
  8
0
  6
Continuous
 62
     7
370
    18
100
AcDbCircle
 10
0.0
 20
0.0
 30
0.0
 40
0.0052651662208297
100
AcDbArc
 50
17.1531468723
 51
186.1853684648
  0
ARC
  5
A5
330
A0
100
AcDbEntity
  8
0
  6
Continuous
 62
     7
370
    18
100
AcDbCircle
 10
0.0009855407
 20
0.0015528385
 30
0.0
 40
0.0009855406751265
100
AcDbArc
 50
360.0
 51
270.0
  0
ARC
  5
A6
330
A0
100
AcDbEntity
  8
0
  6
Continuous
 62
     7
370
    18
100
AcDbCircle
 10
-0.0009855407
 20
-0.0015528385
 30
0.0
 40
0.0009855406751265
100
AcDbArc
 50
180.0
 51
90.0
  0
LINE
  5
A7
330
A0
100
AcDbEntity
  8
0
  6
Continuous
 62
     7
370
    18
100
AcDbLine
 10
-0.0019710814
 20
-0.0015528385
 30
0.0
 11
-0.0050309709
 21
-0.0015528385
 31
0.0
  0
LINE
  5
A8
330
A0
100
AcDbEntity
  8
0
  6
Continuous
 62
     7
370
    18
100
AcDbLine
 10
0.0009855407
 20
0.0005672978
 30
0.0
 11
0.0052345151
 21
0.0005672978
 31
0.0
  0
LINE
  5
A9
330
A0
100
AcDbEntity
  8
0
  6
Continuous
 62
     7
370
    18
100
AcDbLine
 10
-0.0009855407
 20
-0.0005672978
 30
0.0
 11
-0.0052345151
 21
-0.0005672978
 31
0.0
  0
LINE
  5
AA
330
A0
100
AcDbEntity
  8
0
  6
Continuous
 62
     7
370
    18
100
AcDbLine
 10
0.0019710814
 20
0.0015528385
 30
0.0
 11
0.0050309709
 21
0.0015528385
 31
0.0
  0
ENDBLK
  5
A2
330
A0
100
AcDbEntity
  8
0
100
AcDbBlockEnd
  0
BLOCK
  5
AC
330
AB
100
AcDbEntity
  8
0
100
AcDbBlockBegin
  2
Blok4
 70
     0
 10
0.0
 20
0.0
 30
0.0
  3
Blok4
  1

  0
ARC
  5
AE
330
AB
100
AcDbEntity
  8
0
  6
Continuous
 62
     7
370
    18
100
AcDbCircle
 10
0.0
 20
0.0
 30
0.0
 40
0.0052651662208297
100
AcDbArc
 50
197.1531468723
 51
6.1853684648
  0
ARC
  5
AF
330
AB
100
AcDbEntity
  8
0
  6
Continuous
 62
     7
370
    18
100
AcDbCircle
 10
0.0
 20
0.0
 30
0.0
 40
0.0052651662208297
100
AcDbArc
 50
17.1531468723
 51
186.1853684648
  0
ARC
  5
B0
330
AB
100
AcDbEntity
  8
0
  6
Continuous
 62
     7
370
    18
100
AcDbCircle
 10
0.0009855407
 20
0.0015528385
 30
0.0
 40
0.0009855406751265
100
AcDbArc
 50
360.0
 51
270.0
  0
ARC
  5
B1
330
AB
100
AcDbEntity
  8
0
  6
Continuous
 62
     7
370
    18
100
AcDbCircle
 10
-0.0009855407
 20
-0.0015528385
 30
0.0
 40
0.0009855406751265
100
AcDbArc
 50
180.0
 51
90.0
  0
LINE
  5
B2
330
AB
100
AcDbEntity
  8
0
  6
Continuous
 62
     7
370
    18
100
AcDbLine
 10
-0.0019710814
 20
-0.0015528385
 30
0.0
 11
-0.0050309709
 21
-0.0015528385
 31
0.0
  0
LINE
  5
B3
330
AB
100
AcDbEntity
  8
0
  6
Continuous
 62
     7
370
    18
100
AcDbLine
 10
0.0009855407
 20
0.0005672978
 30
0.0
 11
0.0052345151
 21
0.0005672978
 31
0.0
  0
LINE
  5
B4
330
AB
100
AcDbEntity
  8
0
  6
Continuous
 62
     7
370
    18
100
AcDbLine
 10
-0.0009855407
 20
-0.0005672978
 30
0.0
 11
-0.0052345151
 21
-0.0005672978
 31
0.0
  0
LINE
  5
B5
330
AB
100
AcDbEntity
  8
0
  6
Continuous
 62
     7
370
    18
100
AcDbLine
 10
0.0019710814
 20
0.0015528385
 30
0.0
 11
0.0050309709
 21
0.0015528385
 31
0.0
  0
ENDBLK
  5
AD
330
AB
100
AcDbEntity
  8
0
100
AcDbBlockEnd
  0
BLOCK
  5
B7
330
B6
100
AcDbEntity
  8
0
100
AcDbBlockBegin
  2
Blok5
 70
     0
 10
0.0
 20
0.0
 30
0.0
  3
Blok5
  1

  0
ARC
  5
B9
330
B6
100
AcDbEntity
  8
0
  6
Continuous
 62
     7
370
    18
100
AcDbCircle
 10
0.0
 20
0.0
 30
0.0
 40
0.0052651662208297
100
AcDbArc
 50
197.1531468723
 51
6.1853684648
  0
ARC
  5
BA
330
B6
100
AcDbEntity
  8
0
  6
Continuous
 62
     7
370
    18
100
AcDbCircle
 10
0.0
 20
0.0
 30
0.0
 40
0.0052651662208297
100
AcDbArc
 50
17.1531468723
 51
186.1853684648
  0
ARC
  5
BB
330
B6
100
AcDbEntity
  8
0
  6
Continuous
 62
     7
370
    18
100
AcDbCircle
 10
0.0009855407
 20
0.0015528385
 30
0.0
 40
0.0009855406751265
100
AcDbArc
 50
360.0
 51
270.0
  0
ARC
  5
BC
330
B6
100
AcDbEntity
  8
0
  6
Continuous
 62
     7
370
    18
100
AcDbCircle
 10
-0.0009855407
 20
-0.0015528385
 30
0.0
 40
0.0009855406751265
100
AcDbArc
 50
180.0
 51
90.0
  0
LINE
  5
BD
330
B6
100
AcDbEntity
  8
0
  6
Continuous
 62
     7
370
    18
100
AcDbLine
 10
-0.0019710814
 20
-0.0015528385
 30
0.0
 11
-0.0050309709
 21
-0.0015528385
 31
0.0
  0
LINE
  5
BE
330
B6
100
AcDbEntity
  8
0
  6
Continuous
 62
     7
370
    18
100
AcDbLine
 10
0.0009855407
 20
0.0005672978
 30
0.0
 11
0.0052345151
 21
0.0005672978
 31
0.0
  0
LINE
  5
BF
330
B6
100
AcDbEntity
  8
0
  6
Continuous
 62
     7
370
    18
100
AcDbLine
 10
-0.0009855407
 20
-0.0005672978
 30
0.0
 11
-0.0052345151
 21
-0.0005672978
 31
0.0
  0
LINE
  5
C0
330
B6
100
AcDbEntity
  8
0
  6
Continuous
 62
     7
370
    18
100
AcDbLine
 10
0.0019710814
 20
0.0015528385
 30
0.0
 11
0.0050309709
 21
0.0015528385
 31
0.0
  0
ENDBLK
  5
B8
330
B6
100
AcDbEntity
  8
0
100
AcDbBlockEnd
  0
BLOCK
  5
C2
330
C1
100
AcDbEntity
  8
0
100
AcDbBlockBegin
  2
Blok6
 70
     0
 10
0.0
 20
0.0
 30
0.0
  3
Blok6
  1

  0
ARC
  5
C4
330
C1
100
AcDbEntity
  8
0
  6
Continuous
 62
     7
370
    18
100
AcDbCircle
 10
0.0
 20
0.0
 30
0.0
 40
0.0052651662208297
100
AcDbArc
 50
197.1531468723
 51
6.1853684648
  0
ARC
  5
C5
330
C1
100
AcDbEntity
  8
0
  6
Continuous
 62
     7
370
    18
100
AcDbCircle
 10
0.0
 20
0.0
 30
0.0
 40
0.0052651662208297
100
AcDbArc
 50
17.1531468723
 51
186.1853684648
  0
ARC
  5
C6
330
C1
100
AcDbEntity
  8
0
  6
Continuous
 62
     7
370
    18
100
AcDbCircle
 10
0.0009855407
 20
0.0015528385
 30
0.0
 40
0.0009855406751265
100
AcDbArc
 50
360.0
 51
270.0
  0
ARC
  5
C7
330
C1
100
AcDbEntity
  8
0
  6
Continuous
 62
     7
370
    18
100
AcDbCircle
 10
-0.0009855407
 20
-0.0015528385
 30
0.0
 40
0.0009855406751265
100
AcDbArc
 50
180.0
 51
90.0
  0
LINE
  5
C8
330
C1
100
AcDbEntity
  8
0
  6
Continuous
 62
     7
370
    18
100
AcDbLine
 10
-0.0019710814
 20
-0.0015528385
 30
0.0
 11
-0.0050309709
 21
-0.0015528385
 31
0.0
  0
LINE
  5
C9
330
C1
100
AcDbEntity
  8
0
  6
Continuous
 62
     7
370
    18
100
AcDbLine
 10
0.0009855407
 20
0.0005672978
 30
0.0
 11
0.0052345151
 21
0.0005672978
 31
0.0
  0
LINE
  5
CA
330
C1
100
AcDbEntity
  8
0
  6
Continuous
 62
     7
370
    18
100
AcDbLine
 10
-0.0009855407
 20
-0.0005672978
 30
0.0
 11
-0.0052345151
 21
-0.0005672978
 31
0.0
  0
LINE
  5
CB
330
C1
100
AcDbEntity
  8
0
  6
Continuous
 62
     7
370
    18
100
AcDbLine
 10
0.0019710814
 20
0.0015528385
 30
0.0
 11
0.0050309709
 21
0.0015528385
 31
0.0
  0
ENDBLK
  5
C3
330
C1
100
AcDbEntity
  8
0
100
AcDbBlockEnd
  0
ENDSEC
  0
SECTION
  2
ENTITIES
  0
ARC
  5
CC
330
1F
100
AcDbEntity
  8
0
  6
Continuous
 62
     7
100
AcDbCircle
 10
0.1261501518
 20
0.18221926
 30
0.0
 40
0.05
100
AcDbArc
 50
0.3691719139
 51
89.9971037974
  0
ARC
  5
CD
330
1F
100
AcDbEntity
  8
0
  6
Continuous
 62
     7
100
AcDbCircle
 10
0.1262038464
 20
0.1738859267
 30
0.0
 40
0.05
100
AcDbArc
 50
269.9971037974
 51
0.3691719139
  0
ARC
  5
CE
330
1F
100
AcDbEntity
  8
0
  6
Continuous
 62
     7
100
AcDbCircle
 10
0.092249437
 20
0.1822209736
 30
0.0
 40
0.05
100
AcDbArc
 50
89.9971037974
 51
180.3691719139
  0
ARC
  5
CF
330
1F
100
AcDbEntity
  8
0
  6
Continuous
 62
     7
100
AcDbCircle
 10
0.0923031317
 20
0.1738876403
 30
0.0
 40
0.05
100
AcDbArc
 50
180.3691719139
 51
269.9971037974
  0
LINE
  5
D0
330
1F
100
AcDbEntity
  8
0
  6
Continuous
 62
     7
100
AcDbLine
 10
0.0923006042
 20
0.1238876403
 30
0.0
 11
0.126201319
 21
0.1238859267
 31
0.0
  0
LINE
  5
D1
330
1F
100
AcDbEntity
  8
0
  6
Continuous
 62
     7
100
AcDbLine
 10
0.1762028085
 20
0.1742080877
 30
0.0
 11
0.1761491139
 21
0.182541421
 31
0.0
  0
LINE
  5
D2
330
1F
100
AcDbEntity
  8
0
  6
Continuous
 62
     7
100
AcDbLine
 10
0.0922519645
 20
0.2322209735
 30
0.0
 11
0.1261526792
 21
0.2322192599
 31
0.0
  0
LINE
  5
D3
330
1F
100
AcDbEntity
  8
0
  6
Continuous
 62
     7
100
AcDbLine
 10
0.0423041695
 20
0.1735654792
 30
0.0
 11
0.0422504749
 21
0.1818988126
 31
0.0
  0
LINE
  5
D4
330
1F
100
AcDbEntity
  8
0
  6
Continuous
 62
     7
370
    25
100
AcDbLine
 10
0.0960375311
 20
0.1769435864
 30
0.0
 11
0.0960375706
 21
0.1769435864
 31
0.0
  0
LINE
  5
D5
330
1F
100
AcDbEntity
  8
0
  6
Continuous
 62
     7
370
    25
100
AcDbLine
 10
0.0960375706
 20
0.1774515864
 30
0.0
 11
0.0960375311
 21
0.1774515864
 31
0.0
  0
LINE
  5
D6
330
1F
100
AcDbEntity
  8
0
  6
Continuous
 62
     7
370
    25
100
AcDbLine
 10
0.0997041799
 20
0.1769435864
 30
0.0
 11
0.0997042194
 21
0.1769435864
 31
0.0
  0
LINE
  5
D7
330
1F
100
AcDbEntity
  8
0
  6
Continuous
 62
     7
370
    25
100
AcDbLine
 10
0.0997042194
 20
0.1774515864
 30
0.0
 11
0.0997041799
 21
0.1774515864
 31
0.0
  0
LINE
  5
D8
330
1F
100
AcDbEntity
  8
0
  6
Continuous
 62
     7
370
    25
100
AcDbLine
 10
0.1190612717
 20
0.1769435864
 30
0.0
 11
0.1190613112
 21
0.1769435864
 31
0.0
  0
LINE
  5
D9
330
1F
100
AcDbEntity
  8
0
  6
Continuous
 62
     7
370
    25
100
AcDbLine
 10
0.1190613112
 20
0.1774515864
 30
0.0
 11
0.1190612717
 21
0.1774515864
 31
0.0
  0
LINE
  5
DA
330
1F
100
AcDbEntity
  8
0
  6
Continuous
 62
     7
370
    25
100
AcDbLine
 10
0.0960375311
 20
0.1782102531
 30
0.0
 11
0.0960375706
 21
0.1782102531
 31
0.0
  0
LINE
  5
DB
330
1F
100
AcDbEntity
  8
0
  6
Continuous
 62
     7
370
    25
100
AcDbLine
 10
0.0960375706
 20
0.1787182531
 30
0.0
 11
0.0960375311
 21
0.1787182531
 31
0.0
  0
LINE
  5
DC
330
1F
100
AcDbEntity
  8
0
  6
Continuous
 62
     7
370
    25
100
AcDbLine
 10
0.1190612717
 20
0.1782102531
 30
0.0
 11
0.1190613112
 21
0.1782102531
 31
0.0
  0
LINE
  5
DD
330
1F
100
AcDbEntity
  8
0
  6
Continuous
 62
     7
370
    25
100
AcDbLine
 10
0.1190613112
 20
0.1787182531
 30
0.0
 11
0.1190612717
 21
0.1787182531
 31
0.0
  0
LINE
  5
DE
330
1F
100
AcDbEntity
  8
0
  6
Continuous
 62
     7
370
    25
100
AcDbLine
 10
0.1227279205
 20
0.1769435864
 30
0.0
 11
0.12272796
 21
0.1769435864
 31
0.0
  0
LINE
  5
DF
330
1F
100
AcDbEntity
  8
0
  6
Continuous
 62
     7
370
    25
100
AcDbLine
 10
0.12272796
 20
0.1774515864
 30
0.0
 11
0.1227279205
 21
0.1774515864
 31
0.0
  0
LINE
  5
E0
330
1F
100
AcDbEntity
  8
0
  6
Continuous
 62
     7
370
    25
100
AcDbLine
 10
0.0997041799
 20
0.1782102531
 30
0.0
 11
0.0997042194
 21
0.1782102531
 31
0.0
  0
LINE
  5
E1
330
1F
100
AcDbEntity
  8
0
  6
Continuous
 62
     7
370
    25
100
AcDbLine
 10
0.0997042194
 20
0.1787182531
 30
0.0
 11
0.0997041799
 21
0.1787182531
 31
0.0
  0
LINE
  5
E2
330
1F
100
AcDbEntity
  8
0
  6
Continuous
 62
     7
370
    25
100
AcDbLine
 10
0.1227279205
 20
0.1782102531
 30
0.0
 11
0.12272796
 21
0.1782102531
 31
0.0
  0
LINE
  5
E3
330
1F
100
AcDbEntity
  8
0
  6
Continuous
 62
     7
370
    25
100
AcDbLine
 10
0.12272796
 20
0.1787182531
 30
0.0
 11
0.1227279205
 21
0.1787182531
 31
0.0
  0
LINE
  5
E4
330
1F
100
AcDbEntity
  8
0
  6
Continuous
 62
     7
370
    25
100
AcDbLine
 10
0.1223452513
 20
0.1736896892
 30
0.0
 11
0.1223472258
 21
0.1736896892
 31
0.0
  0
LINE
  5
E5
330
1F
100
AcDbEntity
  8
0
  6
Continuous
 62
     7
370
    25
100
AcDbLine
 10
0.0964196888
 20
0.1819288598
 30
0.0
 11
0.0964177143
 21
0.1819288598
 31
0.0
  0
LINE
  5
E6
330
1F
100
AcDbEntity
  8
0
  6
Continuous
 62
     7
370
    25
100
AcDbLine
 10
0.0964222855
 20
0.173689689
 30
0.0
 11
0.09642426
 21
0.173689689
 31
0.0
  0
LINE
  5
E7
330
1F
100
AcDbEntity
  8
0
  6
Continuous
 62
     7
370
    25
100
AcDbLine
 10
0.1132798761
 20
0.1780459198
 30
0.0
 11
0.1132798761
 21
0.1781459198
 31
0.0
  0
LINE
  5
E8
330
1F
100
AcDbEntity
  8
0
  6
Continuous
 62
     7
370
    25
100
AcDbLine
 10
0.1053304935
 20
0.1781459198
 30
0.0
 11
0.1053304935
 21
0.1780459198
 31
0.0
  0
LINE
  5
E9
330
1F
100
AcDbEntity
  8
0
  6
Continuous
 62
     7
370
    25
100
AcDbLine
 10
0.1132798761
 20
0.1775125864
 30
0.0
 11
0.1132798761
 21
0.1776125864
 31
0.0
  0
LINE
  5
EA
330
1F
100
AcDbEntity
  8
0
  6
Continuous
 62
     7
370
    25
100
AcDbLine
 10
0.1053304935
 20
0.1776125864
 30
0.0
 11
0.1053304935
 21
0.1775125864
 31
0.0
  0
LINE
  5
EB
330
1F
100
AcDbEntity
  8
0
  6
Continuous
 62
     7
370
    25
100
AcDbLine
 10
0.1023740919
 20
0.1780459198
 30
0.0
 11
0.1023740919
 21
0.1776125864
 31
0.0
  0
LINE
  5
EC
330
1F
100
AcDbEntity
  8
0
  6
Continuous
 62
     7
370
    25
100
AcDbLine
 10
0.1163547741
 20
0.1776125864
 30
0.0
 11
0.1163547741
 21
0.1780459198
 31
0.0
  0
LINE
  5
ED
330
1F
100
AcDbEntity
  8
0
  6
Continuous
 62
     7
370
    25
100
AcDbLine
 10
0.1025740919
 20
0.1781459198
 30
0.0
 11
0.1025740919
 21
0.1780459198
 31
0.0
  0
LINE
  5
EE
330
1F
100
AcDbEntity
  8
0
  6
Continuous
 62
     7
370
    25
100
AcDbLine
 10
0.1025740919
 20
0.1776125864
 30
0.0
 11
0.1025740919
 21
0.1775125864
 31
0.0
  0
LINE
  5
EF
330
1F
100
AcDbEntity
  8
0
  6
Continuous
 62
     7
370
    25
100
AcDbLine
 10
0.1161547741
 20
0.1780459198
 30
0.0
 11
0.1161547741
 21
0.1781459198
 31
0.0
  0
LINE
  5
F0
330
1F
100
AcDbEntity
  8
0
  6
Continuous
 62
     7
370
    25
100
AcDbLine
 10
0.1161547741
 20
0.1775125864
 30
0.0
 11
0.1161547741
 21
0.1776125864
 31
0.0
  0
ARC
  5
F1
330
1F
100
AcDbEntity
  8
0
  6
Continuous
 62
     7
370
    25
100
AcDbCircle
 10
0.1069451825
 20
0.1798792531
 30
0.0
 40
0.00025
100
AcDbArc
 50
0.0
 51
180.0
  0
ARC
  5
F2
330
1F
100
AcDbEntity
  8
0
  6
Continuous
 62
     7
370
    25
100
AcDbCircle
 10
0.1115118492
 20
0.1798792531
 30
0.0
 40
0.00025
100
AcDbArc
 50
0.0
 51
180.0
  0
ARC
  5
F3
330
1F
100
AcDbEntity
  8
0
  6
Continuous
 62
     7
370
    25
100
AcDbCircle
 10
0.1072035159
 20
0.1757209198
 30
0.0
 40
0.0000083333333333
100
AcDbArc
 50
90.0
 51
180.0
  0
ARC
  5
F4
330
1F
100
AcDbEntity
  8
0
  6
Continuous
 62
     7
370
    25
100
AcDbCircle
 10
0.1066868492
 20
0.1757209198
 30
0.0
 40
0.0000083333333333
100
AcDbArc
 50
0.0
 51
90.0
  0
LINE
  5
F5
330
1F
100
AcDbEntity
  8
0
  6
Continuous
 62
     7
370
    25
100
AcDbLine
 10
0.1066951825
 20
0.1757209198
 30
0.0
 11
0.1066951825
 21
0.1756459198
 31
0.0
  0
LINE
  5
F6
330
1F
100
AcDbEntity
  8
0
  6
Continuous
 62
     7
370
    25
100
AcDbLine
 10
0.1071951825
 20
0.1756459198
 30
0.0
 11
0.1071951825
 21
0.1757209198
 31
0.0
  0
ARC
  5
F7
330
1F
100
AcDbEntity
  8
0
  6
Continuous
 62
     7
370
    25
100
AcDbCircle
 10
0.1069451825
 20
0.1756459198
 30
0.0
 40
0.00025
100
AcDbArc
 50
180.0
 51
0.0
  0
ARC
  5
F8
330
1F
100
AcDbEntity
  8
0
  6
Continuous
 62
     7
370
    25
100
AcDbCircle
 10
0.1117701825
 20
0.1757209198
 30
0.0
 40
0.0000083333333333
100
AcDbArc
 50
90.0
 51
180.0
  0
ARC
  5
F9
330
1F
100
AcDbEntity
  8
0
  6
Continuous
 62
     7
370
    25
100
AcDbCircle
 10
0.1112535159
 20
0.1757209198
 30
0.0
 40
0.0000083333333333
100
AcDbArc
 50
0.0
 51
90.0
  0
LINE
  5
FA
330
1F
100
AcDbEntity
  8
0
  6
Continuous
 62
     7
370
    25
100
AcDbLine
 10
0.1112618492
 20
0.1757209198
 30
0.0
 11
0.1112618492
 21
0.1756459198
 31
0.0
  0
LINE
  5
FB
330
1F
100
AcDbEntity
  8
0
  6
Continuous
 62
     7
370
    25
100
AcDbLine
 10
0.1117618492
 20
0.1756459198
 30
0.0
 11
0.1117618492
 21
0.1757209198
 31
0.0
  0
ARC
  5
FC
330
1F
100
AcDbEntity
  8
0
  6
Continuous
 62
     7
370
    25
100
AcDbCircle
 10
0.1115118492
 20
0.1756459198
 30
0.0
 40
0.00025
100
AcDbArc
 50
180.0
 51
0.0
  0
LINE
  5
FD
330
1F
100
AcDbEntity
  8
0
  6
Continuous
 62
     7
370
    25
100
AcDbLine
 10
0.1183067504
 20
0.1746459198
 30
0.0
 11
0.1183067504
 21
0.1746625864
 31
0.0
  0
LINE
  5
FE
330
1F
100
AcDbEntity
  8
0
  6
Continuous
 62
     7
370
    25
100
AcDbLine
 10
0.1167067504
 20
0.1746625864
 30
0.0
 11
0.1167067504
 21
0.1746459198
 31
0.0
  0
ARC
  5
FF
330
1F
100
AcDbEntity
  8
0
  6
Continuous
 62
     7
370
    25
100
AcDbCircle
 10
0.1181400837
 20
0.1746459198
 30
0.0
 40
0.0001666666666667
100
AcDbArc
 50
270.0
 51
0.0
  0
ARC
  5
100
330
1F
100
AcDbEntity
  8
0
  6
Continuous
 62
     7
370
    25
100
AcDbCircle
 10
0.1168734171
 20
0.1746459198
 30
0.0
 40
0.0001666666666667
100
AcDbArc
 50
180.0
 51
270.0
  0
ARC
  5
101
330
1F
100
AcDbEntity
  8
0
  6
Continuous
 62
     7
370
    25
100
AcDbCircle
 10
0.1181400837
 20
0.1746625864
 30
0.0
 40
0.0001666666666667
100
AcDbArc
 50
0.0
 51
90.0
  0
ARC
  5
102
330
1F
100
AcDbEntity
  8
0
  6
Continuous
 62
     7
370
    25
100
AcDbCircle
 10
0.1168734171
 20
0.1746625864
 30
0.0
 40
0.0001666666666667
100
AcDbArc
 50
90.0
 51
180.0
  0
ARC
  5
103
330
1F
100
AcDbEntity
  8
0
  6
Continuous
 62
     7
370
    25
100
AcDbCircle
 10
0.1181755662
 20
0.1749428213
 30
0.0
 40
0.0001189821585248
100
AcDbArc
 50
183.0299790088
 51
252.6494628881
  0
ARC
  5
104
330
1F
100
AcDbEntity
  8
0
  6
Continuous
 62
     7
370
    25
100
AcDbCircle
 10
0.1168379346
 20
0.1749428213
 30
0.0
 40
0.0001189821585248
100
AcDbArc
 50
287.3505371119
 51
356.9700209912
  0
LINE
  5
105
330
1F
100
AcDbEntity
  8
0
  6
Continuous
 62
     7
370
    25
100
AcDbLine
 10
0.1180567504
 20
0.1749365321
 30
0.0
 11
0.1180567504
 21
0.1749914252
 31
0.0
  0
LINE
  5
106
330
1F
100
AcDbEntity
  8
0
  6
Continuous
 62
     7
370
    25
100
AcDbLine
 10
0.1169567504
 20
0.1749914252
 30
0.0
 11
0.1169567504
 21
0.1749365321
 31
0.0
  0
LINE
  5
107
330
1F
100
AcDbEntity
  8
0
  6
Continuous
 62
     7
370
    25
100
AcDbLine
 10
0.1180567504
 20
0.1756914252
 30
0.0
 11
0.1180567504
 21
0.1757594754
 31
0.0
  0
LINE
  5
108
330
1F
100
AcDbEntity
  8
0
  6
Continuous
 62
     7
370
    25
100
AcDbLine
 10
0.1169567504
 20
0.1757792531
 30
0.0
 11
0.1169567504
 21
0.1756914252
 31
0.0
  0
LINE
  5
109
330
1F
100
AcDbEntity
  8
0
  6
Continuous
 62
     7
370
    25
100
AcDbLine
 10
0.1180567504
 20
0.1755247585
 30
0.0
 11
0.1180567504
 21
0.1756580918
 31
0.0
  0
LINE
  5
10A
330
1F
100
AcDbEntity
  8
0
  6
Continuous
 62
     7
370
    25
100
AcDbLine
 10
0.1169567504
 20
0.1756580918
 30
0.0
 11
0.1169567504
 21
0.1755247585
 31
0.0
  0
LINE
  5
10B
330
1F
100
AcDbEntity
  8
0
  6
Continuous
 62
     7
370
    25
100
AcDbLine
 10
0.1180567504
 20
0.1753580918
 30
0.0
 11
0.1180567504
 21
0.1754914252
 31
0.0
  0
LINE
  5
10C
330
1F
100
AcDbEntity
  8
0
  6
Continuous
 62
     7
370
    25
100
AcDbLine
 10
0.1169567504
 20
0.1754914252
 30
0.0
 11
0.1169567504
 21
0.1753580918
 31
0.0
  0
LINE
  5
10D
330
1F
100
AcDbEntity
  8
0
  6
Continuous
 62
     7
370
    25
100
AcDbLine
 10
0.1180567504
 20
0.1751914252
 30
0.0
 11
0.1180567504
 21
0.1753247585
 31
0.0
  0
LINE
  5
10E
330
1F
100
AcDbEntity
  8
0
  6
Continuous
 62
     7
370
    25
100
AcDbLine
 10
0.1169567504
 20
0.1753247585
 30
0.0
 11
0.1169567504
 21
0.1751914252
 31
0.0
  0
LINE
  5
10F
330
1F
100
AcDbEntity
  8
0
  6
Continuous
 62
     7
370
    25
100
AcDbLine
 10
0.1180567504
 20
0.1750247585
 30
0.0
 11
0.1180567504
 21
0.1751580918
 31
0.0
  0
LINE
  5
110
330
1F
100
AcDbEntity
  8
0
  6
Continuous
 62
     7
370
    25
100
AcDbLine
 10
0.1169567504
 20
0.1751580918
 30
0.0
 11
0.1169567504
 21
0.1750247585
 31
0.0
  0
LINE
  5
111
330
1F
100
AcDbEntity
  8
0
  6
Continuous
 62
     7
370
    25
100
AcDbLine
 10
0.1179567504
 20
0.1756580918
 30
0.0
 11
0.1179567504
 21
0.1756914252
 31
0.0
  0
LINE
  5
112
330
1F
100
AcDbEntity
  8
0
  6
Continuous
 62
     7
370
    25
100
AcDbLine
 10
0.1170567504
 20
0.1756914252
 30
0.0
 11
0.1170567504
 21
0.1756580918
 31
0.0
  0
LINE
  5
113
330
1F
100
AcDbEntity
  8
0
  6
Continuous
 62
     7
370
    25
100
AcDbLine
 10
0.1179567504
 20
0.1754914252
 30
0.0
 11
0.1179567504
 21
0.1755247585
 31
0.0
  0
LINE
  5
114
330
1F
100
AcDbEntity
  8
0
  6
Continuous
 62
     7
370
    25
100
AcDbLine
 10
0.1170567504
 20
0.1755247585
 30
0.0
 11
0.1170567504
 21
0.1754914252
 31
0.0
  0
LINE
  5
115
330
1F
100
AcDbEntity
  8
0
  6
Continuous
 62
     7
370
    25
100
AcDbLine
 10
0.1179567504
 20
0.1753247585
 30
0.0
 11
0.1179567504
 21
0.1753580918
 31
0.0
  0
LINE
  5
116
330
1F
100
AcDbEntity
  8
0
  6
Continuous
 62
     7
370
    25
100
AcDbLine
 10
0.1170567504
 20
0.1753580918
 30
0.0
 11
0.1170567504
 21
0.1753247585
 31
0.0
  0
LINE
  5
117
330
1F
100
AcDbEntity
  8
0
  6
Continuous
 62
     7
370
    25
100
AcDbLine
 10
0.1179567504
 20
0.1751580918
 30
0.0
 11
0.1179567504
 21
0.1751914252
 31
0.0
  0
LINE
  5
118
330
1F
100
AcDbEntity
  8
0
  6
Continuous
 62
     7
370
    25
100
AcDbLine
 10
0.1170567504
 20
0.1751914252
 30
0.0
 11
0.1170567504
 21
0.1751580918
 31
0.0
  0
LINE
  5
119
330
1F
100
AcDbEntity
  8
0
  6
Continuous
 62
     7
370
    25
100
AcDbLine
 10
0.1179567504
 20
0.1749914252
 30
0.0
 11
0.1179567504
 21
0.1750247585
 31
0.0
  0
LINE
  5
11A
330
1F
100
AcDbEntity
  8
0
  6
Continuous
 62
     7
370
    25
100
AcDbLine
 10
0.1170567504
 20
0.1750247585
 30
0.0
 11
0.1170567504
 21
0.1749914252
 31
0.0
  0
ELLIPSE
  5
11B
330
1F
100
AcDbEntity
  8
0
  6
Continuous
 62
     7
370
    25
100
AcDbEllipse
 10
0.1175067504
 20
0.1744792531
 30
0.0
 11
-0.0004333333333333272
 21
0.0
 31
0.0
210
0.0
220
-1.189524669241229E-13
230
1.0
 40
0.5384615385
 41
1.570796326794897
 42
3.141592653589793
  0
ELLIPSE
  5
11C
330
1F
100
AcDbEntity
  8
0
  6
Continuous
 62
     7
370
    25
100
AcDbEllipse
 10
0.1175067504
 20
0.1744792531
 30
0.0
 11
0.0004333333333333411
 21
0.0
 31
0.0
210
0.0
220
-1.189524669241229E-13
230
1.0
 40
0.5384615385
 41
3.141592653589793
 42
4.712388980384697
  0
LINE
  5
11D
330
1F
100
AcDbEntity
  8
0
  6
Continuous
 62
     7
370
    25
100
AcDbLine
 10
0.1026850702
 20
0.1781800256
 30
0.0
 11
0.1026850702
 21
0.1781459198
 31
0.0
  0
LINE
  5
11E
330
1F
100
AcDbEntity
  8
0
  6
Continuous
 62
     7
370
    25
100
AcDbLine
 10
0.1045184035
 20
0.1781459198
 30
0.0
 11
0.1045184035
 21
0.1781800256
 31
0.0
  0
ARC
  5
11F
330
1F
100
AcDbEntity
  8
0
  6
Continuous
 62
     7
370
    25
100
AcDbCircle
 10
0.1027517369
 20
0.1781800256
 30
0.0
 40
0.0000666666666667
100
AcDbArc
 50
102.6597649198
 51
180.0
  0
ARC
  5
120
330
1F
100
AcDbEntity
  8
0
  6
Continuous
 62
     7
370
    25
100
AcDbCircle
 10
0.1044517369
 20
0.1781800256
 30
0.0
 40
0.0000666666666667
100
AcDbArc
 50
0.0
 51
77.3402350802
  0
ARC
  5
121
330
1F
100
AcDbEntity
  8
0
  6
Continuous
 62
     7
370
    25
100
AcDbCircle
 10
0.1028772479
 20
0.1776212597
 30
0.0
 40
0.0006393553335636
100
AcDbArc
 50
90.0
 51
102.6597649198
  0
ARC
  5
122
330
1F
100
AcDbEntity
  8
0
  6
Continuous
 62
     7
370
    25
100
AcDbCircle
 10
0.1043262258
 20
0.1776212597
 30
0.0
 40
0.0006393553335636
100
AcDbArc
 50
77.3402350802
 51
90.0
  0
LINE
  5
123
330
1F
100
AcDbEntity
  8
0
  6
Continuous
 62
     7
370
    25
100
AcDbLine
 10
0.1043262258
 20
0.1782606151
 30
0.0
 11
0.1028772479
 21
0.1782606151
 31
0.0
  0
LINE
  5
124
330
1F
100
AcDbEntity
  8
0
  6
Continuous
 62
     7
370
    25
100
AcDbLine
 10
0.1028017369
 20
0.1811125864
 30
0.0
 11
0.1028017369
 21
0.1810959198
 31
0.0
  0
LINE
  5
125
330
1F
100
AcDbEntity
  8
0
  6
Continuous
 62
     7
370
    25
100
AcDbLine
 10
0.1044017369
 20
0.1810959198
 30
0.0
 11
0.1044017369
 21
0.1811125864
 31
0.0
  0
ARC
  5
126
330
1F
100
AcDbEntity
  8
0
  6
Continuous
 62
     7
370
    25
100
AcDbCircle
 10
0.1029684035
 20
0.1810959198
 30
0.0
 40
0.0001666666666667
100
AcDbArc
 50
180.0
 51
270.0
  0
ARC
  5
127
330
1F
100
AcDbEntity
  8
0
  6
Continuous
 62
     7
370
    25
100
AcDbCircle
 10
0.1042350702
 20
0.1810959198
 30
0.0
 40
0.0001666666666667
100
AcDbArc
 50
270.0
 51
0.0
  0
ARC
  5
128
330
1F
100
AcDbEntity
  8
0
  6
Continuous
 62
     7
370
    25
100
AcDbCircle
 10
0.1029684035
 20
0.1811125864
 30
0.0
 40
0.0001666666666667
100
AcDbArc
 50
90.0
 51
180.0
  0
ARC
  5
129
330
1F
100
AcDbEntity
  8
0
  6
Continuous
 62
     7
370
    25
100
AcDbCircle
 10
0.1042350702
 20
0.1811125864
 30
0.0
 40
0.0001666666666667
100
AcDbArc
 50
0.0
 51
90.0
  0
ARC
  5
12A
330
1F
100
AcDbEntity
  8
0
  6
Continuous
 62
     7
370
    25
100
AcDbCircle
 10
0.1028794416
 20
0.1784357875
 30
0.0
 40
0.0001758889371413
100
AcDbArc
 50
274.4180716274
 51
348.3980864005
  0
ARC
  5
12B
330
1F
100
AcDbEntity
  8
0
  6
Continuous
 62
     7
370
    25
100
AcDbCircle
 10
0.1043240321
 20
0.1784357875
 30
0.0
 40
0.0001758889371413
100
AcDbArc
 50
191.6019135995
 51
265.5819283726
  0
ARC
  5
12C
330
1F
100
AcDbEntity
  8
0
  6
Continuous
 62
     7
370
    25
100
AcDbCircle
 10
0.1029329211
 20
0.1808156848
 30
0.0
 40
0.0001189821585248
100
AcDbArc
 50
3.0299790088
 51
72.6494628881
  0
ARC
  5
12D
330
1F
100
AcDbEntity
  8
0
  6
Continuous
 62
     7
370
    25
100
AcDbCircle
 10
0.1042705527
 20
0.1808156848
 30
0.0
 40
0.0001189821585248
100
AcDbArc
 50
107.3505371119
 51
176.9700209912
  0
LINE
  5
12E
330
1F
100
AcDbEntity
  8
0
  6
Continuous
 62
     7
370
    25
100
AcDbLine
 10
0.1030517369
 20
0.1808219741
 30
0.0
 11
0.1030517369
 21
0.180767081
 31
0.0
  0
LINE
  5
12F
330
1F
100
AcDbEntity
  8
0
  6
Continuous
 62
     7
370
    25
100
AcDbLine
 10
0.1041517369
 20
0.180767081
 30
0.0
 11
0.1041517369
 21
0.1808219741
 31
0.0
  0
LINE
  5
130
330
1F
100
AcDbEntity
  8
0
  6
Continuous
 62
     7
370
    25
100
AcDbLine
 10
0.1030517369
 20
0.1787337477
 30
0.0
 11
0.1030517369
 21
0.1786004144
 31
0.0
  0
LINE
  5
131
330
1F
100
AcDbEntity
  8
0
  6
Continuous
 62
     7
370
    25
100
AcDbLine
 10
0.1041517369
 20
0.1786004144
 30
0.0
 11
0.1041517369
 21
0.1787337477
 31
0.0
  0
LINE
  5
132
330
1F
100
AcDbEntity
  8
0
  6
Continuous
 62
     7
370
    25
100
AcDbLine
 10
0.1030517369
 20
0.1794004144
 30
0.0
 11
0.1030517369
 21
0.179267081
 31
0.0
  0
LINE
  5
133
330
1F
100
AcDbEntity
  8
0
  6
Continuous
 62
     7
370
    25
100
AcDbLine
 10
0.1041517369
 20
0.179267081
 30
0.0
 11
0.1041517369
 21
0.1794004144
 31
0.0
  0
LINE
  5
134
330
1F
100
AcDbEntity
  8
0
  6
Continuous
 62
     7
370
    25
100
AcDbLine
 10
0.1030517369
 20
0.179067081
 30
0.0
 11
0.1030517369
 21
0.1789337477
 31
0.0
  0
LINE
  5
135
330
1F
100
AcDbEntity
  8
0
  6
Continuous
 62
     7
370
    25
100
AcDbLine
 10
0.1041517369
 20
0.1789337477
 30
0.0
 11
0.1041517369
 21
0.179067081
 31
0.0
  0
LINE
  5
136
330
1F
100
AcDbEntity
  8
0
  6
Continuous
 62
     7
370
    25
100
AcDbLine
 10
0.1030517369
 20
0.178567081
 30
0.0
 11
0.1030517369
 21
0.1784337477
 31
0.0
  0
LINE
  5
137
330
1F
100
AcDbEntity
  8
0
  6
Continuous
 62
     7
370
    25
100
AcDbLine
 10
0.1041517369
 20
0.1784337477
 30
0.0
 11
0.1041517369
 21
0.178567081
 31
0.0
  0
LINE
  5
138
330
1F
100
AcDbEntity
  8
0
  6
Continuous
 62
     7
370
    25
100
AcDbLine
 10
0.1030517369
 20
0.1789004144
 30
0.0
 11
0.1030517369
 21
0.178767081
 31
0.0
  0
LINE
  5
139
330
1F
100
AcDbEntity
  8
0
  6
Continuous
 62
     7
370
    25
100
AcDbLine
 10
0.1041517369
 20
0.178767081
 30
0.0
 11
0.1041517369
 21
0.1789004144
 31
0.0
  0
LINE
  5
13A
330
1F
100
AcDbEntity
  8
0
  6
Continuous
 62
     7
370
    25
100
AcDbLine
 10
0.1030517369
 20
0.1792337477
 30
0.0
 11
0.1030517369
 21
0.1791004144
 31
0.0
  0
LINE
  5
13B
330
1F
100
AcDbEntity
  8
0
  6
Continuous
 62
     7
370
    25
100
AcDbLine
 10
0.1041517369
 20
0.1791004144
 30
0.0
 11
0.1041517369
 21
0.1792337477
 31
0.0
  0
LINE
  5
13C
330
1F
100
AcDbEntity
  8
0
  6
Continuous
 62
     7
370
    25
100
AcDbLine
 10
0.1030517369
 20
0.1799004144
 30
0.0
 11
0.1030517369
 21
0.179767081
 31
0.0
  0
LINE
  5
13D
330
1F
100
AcDbEntity
  8
0
  6
Continuous
 62
     7
370
    25
100
AcDbLine
 10
0.1041517369
 20
0.179767081
 30
0.0
 11
0.1041517369
 21
0.1799004144
 31
0.0
  0
LINE
  5
13E
330
1F
100
AcDbEntity
  8
0
  6
Continuous
 62
     7
370
    25
100
AcDbLine
 10
0.1030517369
 20
0.180067081
 30
0.0
 11
0.1030517369
 21
0.1799337477
 31
0.0
  0
LINE
  5
13F
330
1F
100
AcDbEntity
  8
0
  6
Continuous
 62
     7
370
    25
100
AcDbLine
 10
0.1041517369
 20
0.1799337477
 30
0.0
 11
0.1041517369
 21
0.180067081
 31
0.0
  0
LINE
  5
140
330
1F
100
AcDbEntity
  8
0
  6
Continuous
 62
     7
370
    25
100
AcDbLine
 10
0.1030517369
 20
0.179567081
 30
0.0
 11
0.1030517369
 21
0.1794337477
 31
0.0
  0
LINE
  5
141
330
1F
100
AcDbEntity
  8
0
  6
Continuous
 62
     7
370
    25
100
AcDbLine
 10
0.1041517369
 20
0.1794337477
 30
0.0
 11
0.1041517369
 21
0.179567081
 31
0.0
  0
LINE
  5
142
330
1F
100
AcDbEntity
  8
0
  6
Continuous
 62
     7
370
    25
100
AcDbLine
 10
0.1030517369
 20
0.1804004144
 30
0.0
 11
0.1030517369
 21
0.180267081
 31
0.0
  0
LINE
  5
143
330
1F
100
AcDbEntity
  8
0
  6
Continuous
 62
     7
370
    25
100
AcDbLine
 10
0.1041517369
 20
0.180267081
 30
0.0
 11
0.1041517369
 21
0.1804004144
 31
0.0
  0
LINE
  5
144
330
1F
100
AcDbEntity
  8
0
  6
Continuous
 62
     7
370
    25
100
AcDbLine
 10
0.1030517369
 20
0.1802337477
 30
0.0
 11
0.1030517369
 21
0.1801004144
 31
0.0
  0
LINE
  5
145
330
1F
100
AcDbEntity
  8
0
  6
Continuous
 62
     7
370
    25
100
AcDbLine
 10
0.1041517369
 20
0.1801004144
 30
0.0
 11
0.1041517369
 21
0.1802337477
 31
0.0
  0
LINE
  5
146
330
1F
100
AcDbEntity
  8
0
  6
Continuous
 62
     7
370
    25
100
AcDbLine
 10
0.1030517369
 20
0.1797337477
 30
0.0
 11
0.1030517369
 21
0.1796004144
 31
0.0
  0
LINE
  5
147
330
1F
100
AcDbEntity
  8
0
  6
Continuous
 62
     7
370
    25
100
AcDbLine
 10
0.1041517369
 20
0.1796004144
 30
0.0
 11
0.1041517369
 21
0.1797337477
 31
0.0
  0
LINE
  5
148
330
1F
100
AcDbEntity
  8
0
  6
Continuous
 62
     7
370
    25
100
AcDbLine
 10
0.1030517369
 20
0.1807337477
 30
0.0
 11
0.1030517369
 21
0.1806004144
 31
0.0
  0
LINE
  5
149
330
1F
100
AcDbEntity
  8
0
  6
Continuous
 62
     7
370
    25
100
AcDbLine
 10
0.1041517369
 20
0.1806004144
 30
0.0
 11
0.1041517369
 21
0.1807337477
 31
0.0
  0
LINE
  5
14A
330
1F
100
AcDbEntity
  8
0
  6
Continuous
 62
     7
370
    25
100
AcDbLine
 10
0.1030517369
 20
0.180567081
 30
0.0
 11
0.1030517369
 21
0.1804337477
 31
0.0
  0
LINE
  5
14B
330
1F
100
AcDbEntity
  8
0
  6
Continuous
 62
     7
370
    25
100
AcDbLine
 10
0.1041517369
 20
0.1804337477
 30
0.0
 11
0.1041517369
 21
0.180567081
 31
0.0
  0
LINE
  5
14C
330
1F
100
AcDbEntity
  8
0
  6
Continuous
 62
     7
370
    25
100
AcDbLine
 10
0.1031517369
 20
0.1791004144
 30
0.0
 11
0.1031517369
 21
0.179067081
 31
0.0
  0
LINE
  5
14D
330
1F
100
AcDbEntity
  8
0
  6
Continuous
 62
     7
370
    25
100
AcDbLine
 10
0.1040517369
 20
0.179067081
 30
0.0
 11
0.1040517369
 21
0.1791004144
 31
0.0
  0
LINE
  5
14E
330
1F
100
AcDbEntity
  8
0
  6
Continuous
 62
     7
370
    25
100
AcDbLine
 10
0.1031517369
 20
0.1784337477
 30
0.0
 11
0.1031517369
 21
0.1784004144
 31
0.0
  0
LINE
  5
14F
330
1F
100
AcDbEntity
  8
0
  6
Continuous
 62
     7
370
    25
100
AcDbLine
 10
0.1040517369
 20
0.1784004144
 30
0.0
 11
0.1040517369
 21
0.1784337477
 31
0.0
  0
LINE
  5
150
330
1F
100
AcDbEntity
  8
0
  6
Continuous
 62
     7
370
    25
100
AcDbLine
 10
0.1031517369
 20
0.1786004144
 30
0.0
 11
0.1031517369
 21
0.178567081
 31
0.0
  0
LINE
  5
151
330
1F
100
AcDbEntity
  8
0
  6
Continuous
 62
     7
370
    25
100
AcDbLine
 10
0.1040517369
 20
0.178567081
 30
0.0
 11
0.1040517369
 21
0.1786004144
 31
0.0
  0
LINE
  5
152
330
1F
100
AcDbEntity
  8
0
  6
Continuous
 62
     7
370
    25
100
AcDbLine
 10
0.1031517369
 20
0.1789337477
 30
0.0
 11
0.1031517369
 21
0.1789004144
 31
0.0
  0
LINE
  5
153
330
1F
100
AcDbEntity
  8
0
  6
Continuous
 62
     7
370
    25
100
AcDbLine
 10
0.1040517369
 20
0.1789004144
 30
0.0
 11
0.1040517369
 21
0.1789337477
 31
0.0
  0
LINE
  5
154
330
1F
100
AcDbEntity
  8
0
  6
Continuous
 62
     7
370
    25
100
AcDbLine
 10
0.1031517369
 20
0.178767081
 30
0.0
 11
0.1031517369
 21
0.1787337477
 31
0.0
  0
LINE
  5
155
330
1F
100
AcDbEntity
  8
0
  6
Continuous
 62
     7
370
    25
100
AcDbLine
 10
0.1040517369
 20
0.1787337477
 30
0.0
 11
0.1040517369
 21
0.178767081
 31
0.0
  0
LINE
  5
156
330
1F
100
AcDbEntity
  8
0
  6
Continuous
 62
     7
370
    25
100
AcDbLine
 10
0.1031517369
 20
0.179767081
 30
0.0
 11
0.1031517369
 21
0.1797337477
 31
0.0
  0
LINE
  5
157
330
1F
100
AcDbEntity
  8
0
  6
Continuous
 62
     7
370
    25
100
AcDbLine
 10
0.1040517369
 20
0.1797337477
 30
0.0
 11
0.1040517369
 21
0.179767081
 31
0.0
  0
LINE
  5
158
330
1F
100
AcDbEntity
  8
0
  6
Continuous
 62
     7
370
    25
100
AcDbLine
 10
0.1031517369
 20
0.1796004144
 30
0.0
 11
0.1031517369
 21
0.179567081
 31
0.0
  0
LINE
  5
159
330
1F
100
AcDbEntity
  8
0
  6
Continuous
 62
     7
370
    25
100
AcDbLine
 10
0.1040517369
 20
0.179567081
 30
0.0
 11
0.1040517369
 21
0.1796004144
 31
0.0
  0
LINE
  5
15A
330
1F
100
AcDbEntity
  8
0
  6
Continuous
 62
     7
370
    25
100
AcDbLine
 10
0.1031517369
 20
0.1799337477
 30
0.0
 11
0.1031517369
 21
0.1799004144
 31
0.0
  0
LINE
  5
15B
330
1F
100
AcDbEntity
  8
0
  6
Continuous
 62
     7
370
    25
100
AcDbLine
 10
0.1040517369
 20
0.1799004144
 30
0.0
 11
0.1040517369
 21
0.1799337477
 31
0.0
  0
LINE
  5
15C
330
1F
100
AcDbEntity
  8
0
  6
Continuous
 62
     7
370
    25
100
AcDbLine
 10
0.1031517369
 20
0.1794337477
 30
0.0
 11
0.1031517369
 21
0.1794004144
 31
0.0
  0
LINE
  5
15D
330
1F
100
AcDbEntity
  8
0
  6
Continuous
 62
     7
370
    25
100
AcDbLine
 10
0.1040517369
 20
0.1794004144
 30
0.0
 11
0.1040517369
 21
0.1794337477
 31
0.0
  0
LINE
  5
15E
330
1F
100
AcDbEntity
  8
0
  6
Continuous
 62
     7
370
    25
100
AcDbLine
 10
0.1031517369
 20
0.1801004144
 30
0.0
 11
0.1031517369
 21
0.180067081
 31
0.0
  0
LINE
  5
15F
330
1F
100
AcDbEntity
  8
0
  6
Continuous
 62
     7
370
    25
100
AcDbLine
 10
0.1040517369
 20
0.180067081
 30
0.0
 11
0.1040517369
 21
0.1801004144
 31
0.0
  0
LINE
  5
160
330
1F
100
AcDbEntity
  8
0
  6
Continuous
 62
     7
370
    25
100
AcDbLine
 10
0.1031517369
 20
0.179267081
 30
0.0
 11
0.1031517369
 21
0.1792337477
 31
0.0
  0
LINE
  5
161
330
1F
100
AcDbEntity
  8
0
  6
Continuous
 62
     7
370
    25
100
AcDbLine
 10
0.1040517369
 20
0.1792337477
 30
0.0
 11
0.1040517369
 21
0.179267081
 31
0.0
  0
LINE
  5
162
330
1F
100
AcDbEntity
  8
0
  6
Continuous
 62
     7
370
    25
100
AcDbLine
 10
0.1031517369
 20
0.180267081
 30
0.0
 11
0.1031517369
 21
0.1802337477
 31
0.0
  0
LINE
  5
163
330
1F
100
AcDbEntity
  8
0
  6
Continuous
 62
     7
370
    25
100
AcDbLine
 10
0.1040517369
 20
0.1802337477
 30
0.0
 11
0.1040517369
 21
0.180267081
 31
0.0
  0
LINE
  5
164
330
1F
100
AcDbEntity
  8
0
  6
Continuous
 62
     7
370
    25
100
AcDbLine
 10
0.1031517369
 20
0.1806004144
 30
0.0
 11
0.1031517369
 21
0.180567081
 31
0.0
  0
LINE
  5
165
330
1F
100
AcDbEntity
  8
0
  6
Continuous
 62
     7
370
    25
100
AcDbLine
 10
0.1040517369
 20
0.180567081
 30
0.0
 11
0.1040517369
 21
0.1806004144
 31
0.0
  0
LINE
  5
166
330
1F
100
AcDbEntity
  8
0
  6
Continuous
 62
     7
370
    25
100
AcDbLine
 10
0.1031517369
 20
0.1804337477
 30
0.0
 11
0.1031517369
 21
0.1804004144
 31
0.0
  0
LINE
  5
167
330
1F
100
AcDbEntity
  8
0
  6
Continuous
 62
     7
370
    25
100
AcDbLine
 10
0.1040517369
 20
0.1804004144
 30
0.0
 11
0.1040517369
 21
0.1804337477
 31
0.0
  0
LINE
  5
168
330
1F
100
AcDbEntity
  8
0
  6
Continuous
 62
     7
370
    25
100
AcDbLine
 10
0.1031517369
 20
0.180767081
 30
0.0
 11
0.1031517369
 21
0.1807337477
 31
0.0
  0
LINE
  5
169
330
1F
100
AcDbEntity
  8
0
  6
Continuous
 62
     7
370
    25
100
AcDbLine
 10
0.1040517369
 20
0.1807337477
 30
0.0
 11
0.1040517369
 21
0.180767081
 31
0.0
  0
ELLIPSE
  5
16A
330
1F
100
AcDbEntity
  8
0
  6
Continuous
 62
     7
370
    25
100
AcDbEllipse
 10
0.1036017369
 20
0.1812792531
 30
0.0
 11
0.0004333333333333411
 21
0.0
 31
0.0
210
0.0
220
0.0
230
1.0
 40
0.5384615385
 41
1.570796326794897
 42
3.141592653589793
  0
ELLIPSE
  5
16B
330
1F
100
AcDbEntity
  8
0
  6
Continuous
 62
     7
370
    25
100
AcDbEllipse
 10
0.1036017369
 20
0.1812792531
 30
0.0
 11
-0.0004333333333333272
 21
0.0
 31
0.0
210
0.0
220
0.0
230
1.0
 40
0.5384615385
 41
3.141592653589793
 42
4.712388980384697
  0
LINE
  5
16C
330
1F
100
AcDbEntity
  8
0
  6
Continuous
 62
     7
370
    25
100
AcDbLine
 10
0.100514172
 20
0.1810125864
 30
0.0
 11
0.100514172
 21
0.1809959198
 31
0.0
  0
LINE
  5
16D
330
1F
100
AcDbEntity
  8
0
  6
Continuous
 62
     7
370
    25
100
AcDbLine
 10
0.102114172
 20
0.1809959198
 30
0.0
 11
0.102114172
 21
0.1810125864
 31
0.0
  0
ARC
  5
16E
330
1F
100
AcDbEntity
  8
0
  6
Continuous
 62
     7
370
    25
100
AcDbCircle
 10
0.1006808386
 20
0.1810125864
 30
0.0
 40
0.0001666666666667
100
AcDbArc
 50
90.0
 51
180.0
  0
ARC
  5
16F
330
1F
100
AcDbEntity
  8
0
  6
Continuous
 62
     7
370
    25
100
AcDbCircle
 10
0.1019475053
 20
0.1810125864
 30
0.0
 40
0.0001666666666667
100
AcDbArc
 50
0.0
 51
90.0
  0
ARC
  5
170
330
1F
100
AcDbEntity
  8
0
  6
Continuous
 62
     7
370
    25
100
AcDbCircle
 10
0.1006808386
 20
0.1809959198
 30
0.0
 40
0.0001666666666667
100
AcDbArc
 50
180.0
 51
270.0
  0
ARC
  5
171
330
1F
100
AcDbEntity
  8
0
  6
Continuous
 62
     7
370
    25
100
AcDbCircle
 10
0.1019475053
 20
0.1809959198
 30
0.0
 40
0.0001666666666667
100
AcDbArc
 50
270.0
 51
0.0
  0
ARC
  5
172
330
1F
100
AcDbEntity
  8
0
  6
Continuous
 62
     7
370
    25
100
AcDbCircle
 10
0.1006453561
 20
0.1807156848
 30
0.0
 40
0.0001189821585248
100
AcDbArc
 50
3.0299790089
 51
72.6494628881
  0
ARC
  5
173
330
1F
100
AcDbEntity
  8
0
  6
Continuous
 62
     7
370
    25
100
AcDbCircle
 10
0.1019829878
 20
0.1807156848
 30
0.0
 40
0.0001189821585248
100
AcDbArc
 50
107.3505371119
 51
176.9700209911
  0
LINE
  5
174
330
1F
100
AcDbEntity
  8
0
  6
Continuous
 62
     7
370
    25
100
AcDbLine
 10
0.100764172
 20
0.1807219741
 30
0.0
 11
0.100764172
 21
0.180667081
 31
0.0
  0
LINE
  5
175
330
1F
100
AcDbEntity
  8
0
  6
Continuous
 62
     7
370
    25
100
AcDbLine
 10
0.101864172
 20
0.180667081
 30
0.0
 11
0.101864172
 21
0.1807219741
 31
0.0
  0
LINE
  5
176
330
1F
100
AcDbEntity
  8
0
  6
Continuous
 62
     7
370
    25
100
AcDbLine
 10
0.100764172
 20
0.179967081
 30
0.0
 11
0.100764172
 21
0.1798916055
 31
0.0
  0
LINE
  5
177
330
1F
100
AcDbEntity
  8
0
  6
Continuous
 62
     7
370
    25
100
AcDbLine
 10
0.101864172
 20
0.1798792531
 30
0.0
 11
0.101864172
 21
0.179967081
 31
0.0
  0
LINE
  5
178
330
1F
100
AcDbEntity
  8
0
  6
Continuous
 62
     7
370
    25
100
AcDbLine
 10
0.100764172
 20
0.1803004144
 30
0.0
 11
0.100764172
 21
0.180167081
 31
0.0
  0
LINE
  5
179
330
1F
100
AcDbEntity
  8
0
  6
Continuous
 62
     7
370
    25
100
AcDbLine
 10
0.101864172
 20
0.180167081
 30
0.0
 11
0.101864172
 21
0.1803004144
 31
0.0
  0
LINE
  5
17A
330
1F
100
AcDbEntity
  8
0
  6
Continuous
 62
     7
370
    25
100
AcDbLine
 10
0.100764172
 20
0.1801337477
 30
0.0
 11
0.100764172
 21
0.1800004144
 31
0.0
  0
LINE
  5
17B
330
1F
100
AcDbEntity
  8
0
  6
Continuous
 62
     7
370
    25
100
AcDbLine
 10
0.101864172
 20
0.1800004144
 30
0.0
 11
0.101864172
 21
0.1801337477
 31
0.0
  0
LINE
  5
17C
330
1F
100
AcDbEntity
  8
0
  6
Continuous
 62
     7
370
    25
100
AcDbLine
 10
0.100764172
 20
0.1806337477
 30
0.0
 11
0.100764172
 21
0.1805004144
 31
0.0
  0
LINE
  5
17D
330
1F
100
AcDbEntity
  8
0
  6
Continuous
 62
     7
370
    25
100
AcDbLine
 10
0.101864172
 20
0.1805004144
 30
0.0
 11
0.101864172
 21
0.1806337477
 31
0.0
  0
LINE
  5
17E
330
1F
100
AcDbEntity
  8
0
  6
Continuous
 62
     7
370
    25
100
AcDbLine
 10
0.100764172
 20
0.180467081
 30
0.0
 11
0.100764172
 21
0.1803337477
 31
0.0
  0
LINE
  5
17F
330
1F
100
AcDbEntity
  8
0
  6
Continuous
 62
     7
370
    25
100
AcDbLine
 10
0.101864172
 20
0.1803337477
 30
0.0
 11
0.101864172
 21
0.180467081
 31
0.0
  0
LINE
  5
180
330
1F
100
AcDbEntity
  8
0
  6
Continuous
 62
     7
370
    25
100
AcDbLine
 10
0.100864172
 20
0.1800004144
 30
0.0
 11
0.100864172
 21
0.179967081
 31
0.0
  0
LINE
  5
181
330
1F
100
AcDbEntity
  8
0
  6
Continuous
 62
     7
370
    25
100
AcDbLine
 10
0.101764172
 20
0.179967081
 30
0.0
 11
0.101764172
 21
0.1800004144
 31
0.0
  0
LINE
  5
182
330
1F
100
AcDbEntity
  8
0
  6
Continuous
 62
     7
370
    25
100
AcDbLine
 10
0.100864172
 20
0.180167081
 30
0.0
 11
0.100864172
 21
0.1801337477
 31
0.0
  0
LINE
  5
183
330
1F
100
AcDbEntity
  8
0
  6
Continuous
 62
     7
370
    25
100
AcDbLine
 10
0.101764172
 20
0.1801337477
 30
0.0
 11
0.101764172
 21
0.180167081
 31
0.0
  0
LINE
  5
184
330
1F
100
AcDbEntity
  8
0
  6
Continuous
 62
     7
370
    25
100
AcDbLine
 10
0.100864172
 20
0.1803337477
 30
0.0
 11
0.100864172
 21
0.1803004144
 31
0.0
  0
LINE
  5
185
330
1F
100
AcDbEntity
  8
0
  6
Continuous
 62
     7
370
    25
100
AcDbLine
 10
0.101764172
 20
0.1803004144
 30
0.0
 11
0.101764172
 21
0.1803337477
 31
0.0
  0
LINE
  5
186
330
1F
100
AcDbEntity
  8
0
  6
Continuous
 62
     7
370
    25
100
AcDbLine
 10
0.100864172
 20
0.1805004144
 30
0.0
 11
0.100864172
 21
0.180467081
 31
0.0
  0
LINE
  5
187
330
1F
100
AcDbEntity
  8
0
  6
Continuous
 62
     7
370
    25
100
AcDbLine
 10
0.101764172
 20
0.180467081
 30
0.0
 11
0.101764172
 21
0.1805004144
 31
0.0
  0
LINE
  5
188
330
1F
100
AcDbEntity
  8
0
  6
Continuous
 62
     7
370
    25
100
AcDbLine
 10
0.100864172
 20
0.180667081
 30
0.0
 11
0.100864172
 21
0.1806337477
 31
0.0
  0
LINE
  5
189
330
1F
100
AcDbEntity
  8
0
  6
Continuous
 62
     7
370
    25
100
AcDbLine
 10
0.101764172
 20
0.1806337477
 30
0.0
 11
0.101764172
 21
0.180667081
 31
0.0
  0
ELLIPSE
  5
18A
330
1F
100
AcDbEntity
  8
0
  6
Continuous
 62
     7
370
    25
100
AcDbEllipse
 10
0.101314172
 20
0.1811792531
 30
0.0
 11
0.0004333333333333272
 21
0.0
 31
0.0
210
0.0
220
-1.189524669241229E-13
230
1.0
 40
0.5384615385
 41
1.570796326794897
 42
3.141592653589793
  0
ELLIPSE
  5
18B
330
1F
100
AcDbEntity
  8
0
  6
Continuous
 62
     7
370
    25
100
AcDbEllipse
 10
0.101314172
 20
0.1811792531
 30
0.0
 11
-0.0004333333333333411
 21
0.0
 31
0.0
210
0.0
220
-1.189524669241229E-13
230
1.0
 40
0.5384615385
 41
3.141592653589793
 42
4.712388980384697
  0
ARC
  5
18C
330
1F
100
AcDbEntity
  8
0
  6
Continuous
 62
     7
370
    25
100
AcDbCircle
 10
0.115956496
 20
0.1774784806
 30
0.0
 40
0.0000666666666667
100
AcDbArc
 50
282.6597649198
 51
0.0
  0
ARC
  5
18D
330
1F
100
AcDbEntity
  8
0
  6
Continuous
 62
     7
370
    25
100
AcDbCircle
 10
0.114256496
 20
0.1774784806
 30
0.0
 40
0.0000666666666667
100
AcDbArc
 50
180.0
 51
257.3402350802
  0
LINE
  5
18E
330
1F
100
AcDbEntity
  8
0
  6
Continuous
 62
     7
370
    25
100
AcDbLine
 10
0.1160231626
 20
0.1774784806
 30
0.0
 11
0.1160231626
 21
0.1775125864
 31
0.0
  0
LINE
  5
18F
330
1F
100
AcDbEntity
  8
0
  6
Continuous
 62
     7
370
    25
100
AcDbLine
 10
0.1141898293
 20
0.1775125864
 30
0.0
 11
0.1141898293
 21
0.1774784806
 31
0.0
  0
ARC
  5
190
330
1F
100
AcDbEntity
  8
0
  6
Continuous
 62
     7
370
    25
100
AcDbCircle
 10
0.1158309849
 20
0.1780372464
 30
0.0
 40
0.0006393553335636
100
AcDbArc
 50
270.0
 51
282.6597649198
  0
ARC
  5
191
330
1F
100
AcDbEntity
  8
0
  6
Continuous
 62
     7
370
    25
100
AcDbCircle
 10
0.114382007
 20
0.1780372464
 30
0.0
 40
0.0006393553335636
100
AcDbArc
 50
257.3402350802
 51
270.0
  0
LINE
  5
192
330
1F
100
AcDbEntity
  8
0
  6
Continuous
 62
     7
370
    25
100
AcDbLine
 10
0.114382007
 20
0.1773978911
 30
0.0
 11
0.1158309849
 21
0.1773978911
 31
0.0
  0
ARC
  5
193
330
1F
100
AcDbEntity
  8
0
  6
Continuous
 62
     7
370
    25
100
AcDbCircle
 10
0.1157398293
 20
0.1745625864
 30
0.0
 40
0.0001666666666667
100
AcDbArc
 50
0.0
 51
90.0
  0
ARC
  5
194
330
1F
100
AcDbEntity
  8
0
  6
Continuous
 62
     7
370
    25
100
AcDbCircle
 10
0.1144731626
 20
0.1745625864
 30
0.0
 40
0.0001666666666667
100
AcDbArc
 50
90.0
 51
180.0
  0
ARC
  5
195
330
1F
100
AcDbEntity
  8
0
  6
Continuous
 62
     7
370
    25
100
AcDbCircle
 10
0.1157398293
 20
0.1745459198
 30
0.0
 40
0.0001666666666667
100
AcDbArc
 50
270.0
 51
0.0
  0
ARC
  5
196
330
1F
100
AcDbEntity
  8
0
  6
Continuous
 62
     7
370
    25
100
AcDbCircle
 10
0.1144731626
 20
0.1745459198
 30
0.0
 40
0.0001666666666667
100
AcDbArc
 50
180.0
 51
270.0
  0
LINE
  5
197
330
1F
100
AcDbEntity
  8
0
  6
Continuous
 62
     7
370
    25
100
AcDbLine
 10
0.115906496
 20
0.1745459198
 30
0.0
 11
0.115906496
 21
0.1745625864
 31
0.0
  0
LINE
  5
198
330
1F
100
AcDbEntity
  8
0
  6
Continuous
 62
     7
370
    25
100
AcDbLine
 10
0.114306496
 20
0.1745625864
 30
0.0
 11
0.114306496
 21
0.1745459198
 31
0.0
  0
ARC
  5
199
330
1F
100
AcDbEntity
  8
0
  6
Continuous
 62
     7
370
    25
100
AcDbCircle
 10
0.1158287912
 20
0.1772227187
 30
0.0
 40
0.0001758889371413
100
AcDbArc
 50
94.4180716274
 51
168.3980864005
  0
ARC
  5
19A
330
1F
100
AcDbEntity
  8
0
  6
Continuous
 62
     7
370
    25
100
AcDbCircle
 10
0.1143842007
 20
0.1772227187
 30
0.0
 40
0.0001758889371413
100
AcDbArc
 50
11.6019135995
 51
85.5819283726
  0
ARC
  5
19B
330
1F
100
AcDbEntity
  8
0
  6
Continuous
 62
     7
370
    25
100
AcDbCircle
 10
0.1157753118
 20
0.1748428213
 30
0.0
 40
0.0001189821585248
100
AcDbArc
 50
183.0299790088
 51
252.6494628881
  0
ARC
  5
19C
330
1F
100
AcDbEntity
  8
0
  6
Continuous
 62
     7
370
    25
100
AcDbCircle
 10
0.1144376801
 20
0.1748428213
 30
0.0
 40
0.0001189821585248
100
AcDbArc
 50
287.3505371119
 51
356.9700209912
  0
LINE
  5
19D
330
1F
100
AcDbEntity
  8
0
  6
Continuous
 62
     7
370
    25
100
AcDbLine
 10
0.115656496
 20
0.1770914252
 30
0.0
 11
0.115656496
 21
0.1772247585
 31
0.0
  0
LINE
  5
19E
330
1F
100
AcDbEntity
  8
0
  6
Continuous
 62
     7
370
    25
100
AcDbLine
 10
0.114556496
 20
0.1772247585
 30
0.0
 11
0.114556496
 21
0.1770914252
 31
0.0
  0
LINE
  5
19F
330
1F
100
AcDbEntity
  8
0
  6
Continuous
 62
     7
370
    25
100
AcDbLine
 10
0.115656496
 20
0.1769247585
 30
0.0
 11
0.115656496
 21
0.1770580918
 31
0.0
  0
LINE
  5
1A0
330
1F
100
AcDbEntity
  8
0
  6
Continuous
 62
     7
370
    25
100
AcDbLine
 10
0.114556496
 20
0.1770580918
 30
0.0
 11
0.114556496
 21
0.1769247585
 31
0.0
  0
LINE
  5
1A1
330
1F
100
AcDbEntity
  8
0
  6
Continuous
 62
     7
370
    25
100
AcDbLine
 10
0.115656496
 20
0.1765914252
 30
0.0
 11
0.115656496
 21
0.1767247585
 31
0.0
  0
LINE
  5
1A2
330
1F
100
AcDbEntity
  8
0
  6
Continuous
 62
     7
370
    25
100
AcDbLine
 10
0.114556496
 20
0.1767247585
 30
0.0
 11
0.114556496
 21
0.1765914252
 31
0.0
  0
LINE
  5
1A3
330
1F
100
AcDbEntity
  8
0
  6
Continuous
 62
     7
370
    25
100
AcDbLine
 10
0.115656496
 20
0.1767580918
 30
0.0
 11
0.115656496
 21
0.1768914252
 31
0.0
  0
LINE
  5
1A4
330
1F
100
AcDbEntity
  8
0
  6
Continuous
 62
     7
370
    25
100
AcDbLine
 10
0.114556496
 20
0.1768914252
 30
0.0
 11
0.114556496
 21
0.1767580918
 31
0.0
  0
LINE
  5
1A5
330
1F
100
AcDbEntity
  8
0
  6
Continuous
 62
     7
370
    25
100
AcDbLine
 10
0.115656496
 20
0.1764247585
 30
0.0
 11
0.115656496
 21
0.1765580918
 31
0.0
  0
LINE
  5
1A6
330
1F
100
AcDbEntity
  8
0
  6
Continuous
 62
     7
370
    25
100
AcDbLine
 10
0.114556496
 20
0.1765580918
 30
0.0
 11
0.114556496
 21
0.1764247585
 31
0.0
  0
LINE
  5
1A7
330
1F
100
AcDbEntity
  8
0
  6
Continuous
 62
     7
370
    25
100
AcDbLine
 10
0.115656496
 20
0.1748365321
 30
0.0
 11
0.115656496
 21
0.1748914252
 31
0.0
  0
LINE
  5
1A8
330
1F
100
AcDbEntity
  8
0
  6
Continuous
 62
     7
370
    25
100
AcDbLine
 10
0.114556496
 20
0.1748914252
 30
0.0
 11
0.114556496
 21
0.1748365321
 31
0.0
  0
LINE
  5
1A9
330
1F
100
AcDbEntity
  8
0
  6
Continuous
 62
     7
370
    25
100
AcDbLine
 10
0.115656496
 20
0.1762580918
 30
0.0
 11
0.115656496
 21
0.1763914252
 31
0.0
  0
LINE
  5
1AA
330
1F
100
AcDbEntity
  8
0
  6
Continuous
 62
     7
370
    25
100
AcDbLine
 10
0.114556496
 20
0.1763914252
 30
0.0
 11
0.114556496
 21
0.1762580918
 31
0.0
  0
LINE
  5
1AB
330
1F
100
AcDbEntity
  8
0
  6
Continuous
 62
     7
370
    25
100
AcDbLine
 10
0.115656496
 20
0.1760914252
 30
0.0
 11
0.115656496
 21
0.1762247585
 31
0.0
  0
LINE
  5
1AC
330
1F
100
AcDbEntity
  8
0
  6
Continuous
 62
     7
370
    25
100
AcDbLine
 10
0.114556496
 20
0.1762247585
 30
0.0
 11
0.114556496
 21
0.1760914252
 31
0.0
  0
LINE
  5
1AD
330
1F
100
AcDbEntity
  8
0
  6
Continuous
 62
     7
370
    25
100
AcDbLine
 10
0.115656496
 20
0.1759247585
 30
0.0
 11
0.115656496
 21
0.1760580918
 31
0.0
  0
LINE
  5
1AE
330
1F
100
AcDbEntity
  8
0
  6
Continuous
 62
     7
370
    25
100
AcDbLine
 10
0.114556496
 20
0.1760580918
 30
0.0
 11
0.114556496
 21
0.1759247585
 31
0.0
  0
LINE
  5
1AF
330
1F
100
AcDbEntity
  8
0
  6
Continuous
 62
     7
370
    25
100
AcDbLine
 10
0.115656496
 20
0.1757580918
 30
0.0
 11
0.115656496
 21
0.1758914252
 31
0.0
  0
LINE
  5
1B0
330
1F
100
AcDbEntity
  8
0
  6
Continuous
 62
     7
370
    25
100
AcDbLine
 10
0.114556496
 20
0.1758914252
 30
0.0
 11
0.114556496
 21
0.1757580918
 31
0.0
  0
LINE
  5
1B1
330
1F
100
AcDbEntity
  8
0
  6
Continuous
 62
     7
370
    25
100
AcDbLine
 10
0.115656496
 20
0.1755914252
 30
0.0
 11
0.115656496
 21
0.1757247585
 31
0.0
  0
LINE
  5
1B2
330
1F
100
AcDbEntity
  8
0
  6
Continuous
 62
     7
370
    25
100
AcDbLine
 10
0.114556496
 20
0.1757247585
 30
0.0
 11
0.114556496
 21
0.1755914252
 31
0.0
  0
LINE
  5
1B3
330
1F
100
AcDbEntity
  8
0
  6
Continuous
 62
     7
370
    25
100
AcDbLine
 10
0.115656496
 20
0.1752580918
 30
0.0
 11
0.115656496
 21
0.1753914252
 31
0.0
  0
LINE
  5
1B4
330
1F
100
AcDbEntity
  8
0
  6
Continuous
 62
     7
370
    25
100
AcDbLine
 10
0.114556496
 20
0.1753914252
 30
0.0
 11
0.114556496
 21
0.1752580918
 31
0.0
  0
LINE
  5
1B5
330
1F
100
AcDbEntity
  8
0
  6
Continuous
 62
     7
370
    25
100
AcDbLine
 10
0.115656496
 20
0.1754247585
 30
0.0
 11
0.115656496
 21
0.1755580918
 31
0.0
  0
LINE
  5
1B6
330
1F
100
AcDbEntity
  8
0
  6
Continuous
 62
     7
370
    25
100
AcDbLine
 10
0.114556496
 20
0.1755580918
 30
0.0
 11
0.114556496
 21
0.1754247585
 31
0.0
  0
LINE
  5
1B7
330
1F
100
AcDbEntity
  8
0
  6
Continuous
 62
     7
370
    25
100
AcDbLine
 10
0.115656496
 20
0.1750914252
 30
0.0
 11
0.115656496
 21
0.1752247585
 31
0.0
  0
LINE
  5
1B8
330
1F
100
AcDbEntity
  8
0
  6
Continuous
 62
     7
370
    25
100
AcDbLine
 10
0.114556496
 20
0.1752247585
 30
0.0
 11
0.114556496
 21
0.1750914252
 31
0.0
  0
LINE
  5
1B9
330
1F
100
AcDbEntity
  8
0
  6
Continuous
 62
     7
370
    25
100
AcDbLine
 10
0.115656496
 20
0.1749247585
 30
0.0
 11
0.115656496
 21
0.1750580918
 31
0.0
  0
LINE
  5
1BA
330
1F
100
AcDbEntity
  8
0
  6
Continuous
 62
     7
370
    25
100
AcDbLine
 10
0.114556496
 20
0.1750580918
 30
0.0
 11
0.114556496
 21
0.1749247585
 31
0.0
  0
LINE
  5
1BB
330
1F
100
AcDbEntity
  8
0
  6
Continuous
 62
     7
370
    25
100
AcDbLine
 10
0.115556496
 20
0.1768914252
 30
0.0
 11
0.115556496
 21
0.1769247585
 31
0.0
  0
LINE
  5
1BC
330
1F
100
AcDbEntity
  8
0
  6
Continuous
 62
     7
370
    25
100
AcDbLine
 10
0.114656496
 20
0.1769247585
 30
0.0
 11
0.114656496
 21
0.1768914252
 31
0.0
  0
LINE
  5
1BD
330
1F
100
AcDbEntity
  8
0
  6
Continuous
 62
     7
370
    25
100
AcDbLine
 10
0.115556496
 20
0.1772247585
 30
0.0
 11
0.115556496
 21
0.1772580918
 31
0.0
  0
LINE
  5
1BE
330
1F
100
AcDbEntity
  8
0
  6
Continuous
 62
     7
370
    25
100
AcDbLine
 10
0.114656496
 20
0.1772580918
 30
0.0
 11
0.114656496
 21
0.1772247585
 31
0.0
  0
LINE
  5
1BF
330
1F
100
AcDbEntity
  8
0
  6
Continuous
 62
     7
370
    25
100
AcDbLine
 10
0.115556496
 20
0.1770580918
 30
0.0
 11
0.115556496
 21
0.1770914252
 31
0.0
  0
LINE
  5
1C0
330
1F
100
AcDbEntity
  8
0
  6
Continuous
 62
     7
370
    25
100
AcDbLine
 10
0.114656496
 20
0.1770914252
 30
0.0
 11
0.114656496
 21
0.1770580918
 31
0.0
  0
LINE
  5
1C1
330
1F
100
AcDbEntity
  8
0
  6
Continuous
 62
     7
370
    25
100
AcDbLine
 10
0.115556496
 20
0.1767247585
 30
0.0
 11
0.115556496
 21
0.1767580918
 31
0.0
  0
LINE
  5
1C2
330
1F
100
AcDbEntity
  8
0
  6
Continuous
 62
     7
370
    25
100
AcDbLine
 10
0.114656496
 20
0.1767580918
 30
0.0
 11
0.114656496
 21
0.1767247585
 31
0.0
  0
LINE
  5
1C3
330
1F
100
AcDbEntity
  8
0
  6
Continuous
 62
     7
370
    25
100
AcDbLine
 10
0.115556496
 20
0.1765580918
 30
0.0
 11
0.115556496
 21
0.1765914252
 31
0.0
  0
LINE
  5
1C4
330
1F
100
AcDbEntity
  8
0
  6
Continuous
 62
     7
370
    25
100
AcDbLine
 10
0.114656496
 20
0.1765914252
 30
0.0
 11
0.114656496
 21
0.1765580918
 31
0.0
  0
LINE
  5
1C5
330
1F
100
AcDbEntity
  8
0
  6
Continuous
 62
     7
370
    25
100
AcDbLine
 10
0.115556496
 20
0.1760580918
 30
0.0
 11
0.115556496
 21
0.1760914252
 31
0.0
  0
LINE
  5
1C6
330
1F
100
AcDbEntity
  8
0
  6
Continuous
 62
     7
370
    25
100
AcDbLine
 10
0.114656496
 20
0.1760914252
 30
0.0
 11
0.114656496
 21
0.1760580918
 31
0.0
  0
LINE
  5
1C7
330
1F
100
AcDbEntity
  8
0
  6
Continuous
 62
     7
370
    25
100
AcDbLine
 10
0.115556496
 20
0.1762247585
 30
0.0
 11
0.115556496
 21
0.1762580918
 31
0.0
  0
LINE
  5
1C8
330
1F
100
AcDbEntity
  8
0
  6
Continuous
 62
     7
370
    25
100
AcDbLine
 10
0.114656496
 20
0.1762580918
 30
0.0
 11
0.114656496
 21
0.1762247585
 31
0.0
  0
LINE
  5
1C9
330
1F
100
AcDbEntity
  8
0
  6
Continuous
 62
     7
370
    25
100
AcDbLine
 10
0.115556496
 20
0.1763914252
 30
0.0
 11
0.115556496
 21
0.1764247585
 31
0.0
  0
LINE
  5
1CA
330
1F
100
AcDbEntity
  8
0
  6
Continuous
 62
     7
370
    25
100
AcDbLine
 10
0.114656496
 20
0.1764247585
 30
0.0
 11
0.114656496
 21
0.1763914252
 31
0.0
  0
LINE
  5
1CB
330
1F
100
AcDbEntity
  8
0
  6
Continuous
 62
     7
370
    25
100
AcDbLine
 10
0.115556496
 20
0.1758914252
 30
0.0
 11
0.115556496
 21
0.1759247585
 31
0.0
  0
LINE
  5
1CC
330
1F
100
AcDbEntity
  8
0
  6
Continuous
 62
     7
370
    25
100
AcDbLine
 10
0.114656496
 20
0.1759247585
 30
0.0
 11
0.114656496
 21
0.1758914252
 31
0.0
  0
LINE
  5
1CD
330
1F
100
AcDbEntity
  8
0
  6
Continuous
 62
     7
370
    25
100
AcDbLine
 10
0.115556496
 20
0.1755580918
 30
0.0
 11
0.115556496
 21
0.1755914252
 31
0.0
  0
LINE
  5
1CE
330
1F
100
AcDbEntity
  8
0
  6
Continuous
 62
     7
370
    25
100
AcDbLine
 10
0.114656496
 20
0.1755914252
 30
0.0
 11
0.114656496
 21
0.1755580918
 31
0.0
  0
LINE
  5
1CF
330
1F
100
AcDbEntity
  8
0
  6
Continuous
 62
     7
370
    25
100
AcDbLine
 10
0.115556496
 20
0.1753914252
 30
0.0
 11
0.115556496
 21
0.1754247585
 31
0.0
  0
LINE
  5
1D0
330
1F
100
AcDbEntity
  8
0
  6
Continuous
 62
     7
370
    25
100
AcDbLine
 10
0.114656496
 20
0.1754247585
 30
0.0
 11
0.114656496
 21
0.1753914252
 31
0.0
  0
LINE
  5
1D1
330
1F
100
AcDbEntity
  8
0
  6
Continuous
 62
     7
370
    25
100
AcDbLine
 10
0.115556496
 20
0.1757247585
 30
0.0
 11
0.115556496
 21
0.1757580918
 31
0.0
  0
LINE
  5
1D2
330
1F
100
AcDbEntity
  8
0
  6
Continuous
 62
     7
370
    25
100
AcDbLine
 10
0.114656496
 20
0.1757580918
 30
0.0
 11
0.114656496
 21
0.1757247585
 31
0.0
  0
LINE
  5
1D3
330
1F
100
AcDbEntity
  8
0
  6
Continuous
 62
     7
370
    25
100
AcDbLine
 10
0.115556496
 20
0.1750580918
 30
0.0
 11
0.115556496
 21
0.1750914252
 31
0.0
  0
LINE
  5
1D4
330
1F
100
AcDbEntity
  8
0
  6
Continuous
 62
     7
370
    25
100
AcDbLine
 10
0.114656496
 20
0.1750914252
 30
0.0
 11
0.114656496
 21
0.1750580918
 31
0.0
  0
LINE
  5
1D5
330
1F
100
AcDbEntity
  8
0
  6
Continuous
 62
     7
370
    25
100
AcDbLine
 10
0.115556496
 20
0.1752247585
 30
0.0
 11
0.115556496
 21
0.1752580918
 31
0.0
  0
LINE
  5
1D6
330
1F
100
AcDbEntity
  8
0
  6
Continuous
 62
     7
370
    25
100
AcDbLine
 10
0.114656496
 20
0.1752580918
 30
0.0
 11
0.114656496
 21
0.1752247585
 31
0.0
  0
LINE
  5
1D7
330
1F
100
AcDbEntity
  8
0
  6
Continuous
 62
     7
370
    25
100
AcDbLine
 10
0.115556496
 20
0.1748914252
 30
0.0
 11
0.115556496
 21
0.1749247585
 31
0.0
  0
LINE
  5
1D8
330
1F
100
AcDbEntity
  8
0
  6
Continuous
 62
     7
370
    25
100
AcDbLine
 10
0.114656496
 20
0.1749247585
 30
0.0
 11
0.114656496
 21
0.1748914252
 31
0.0
  0
ELLIPSE
  5
1D9
330
1F
100
AcDbEntity
  8
0
  6
Continuous
 62
     7
370
    25
100
AcDbEllipse
 10
0.115106496
 20
0.1743792531
 30
0.0
 11
-0.0004333333333333272
 21
0.0
 31
0.0
210
0.0
220
0.0
230
1.0
 40
0.5384615385
 41
1.570796326794897
 42
3.141592653589793
  0
ELLIPSE
  5
1DA
330
1F
100
AcDbEntity
  8
0
  6
Continuous
 62
     7
370
    25
100
AcDbEllipse
 10
0.115106496
 20
0.1743792531
 30
0.0
 11
0.0004333333333333272
 21
0.0
 31
0.0
210
0.0
220
0.0
230
1.0
 40
0.5384615385
 41
3.141592653589793
 42
4.712388980384697
  0
LINE
  5
1DB
330
1F
100
AcDbEntity
  8
0
  6
Continuous
 62
     7
370
    25
100
AcDbLine
 10
0.1141898293
 20
0.1781800256
 30
0.0
 11
0.1141898293
 21
0.1781459198
 31
0.0
  0
LINE
  5
1DC
330
1F
100
AcDbEntity
  8
0
  6
Continuous
 62
     7
370
    25
100
AcDbLine
 10
0.1160231626
 20
0.1781459198
 30
0.0
 11
0.1160231626
 21
0.1781800256
 31
0.0
  0
ARC
  5
1DD
330
1F
100
AcDbEntity
  8
0
  6
Continuous
 62
     7
370
    25
100
AcDbCircle
 10
0.114256496
 20
0.1781800256
 30
0.0
 40
0.0000666666666667
100
AcDbArc
 50
102.6597649198
 51
180.0
  0
ARC
  5
1DE
330
1F
100
AcDbEntity
  8
0
  6
Continuous
 62
     7
370
    25
100
AcDbCircle
 10
0.115956496
 20
0.1781800256
 30
0.0
 40
0.0000666666666667
100
AcDbArc
 50
0.0
 51
77.3402350802
  0
ARC
  5
1DF
330
1F
100
AcDbEntity
  8
0
  6
Continuous
 62
     7
370
    25
100
AcDbCircle
 10
0.114382007
 20
0.1776212597
 30
0.0
 40
0.0006393553335636
100
AcDbArc
 50
90.0
 51
102.6597649198
  0
ARC
  5
1E0
330
1F
100
AcDbEntity
  8
0
  6
Continuous
 62
     7
370
    25
100
AcDbCircle
 10
0.1158309849
 20
0.1776212597
 30
0.0
 40
0.0006393553335636
100
AcDbArc
 50
77.3402350802
 51
90.0
  0
LINE
  5
1E1
330
1F
100
AcDbEntity
  8
0
  6
Continuous
 62
     7
370
    25
100
AcDbLine
 10
0.1158309849
 20
0.1782606151
 30
0.0
 11
0.114382007
 21
0.1782606151
 31
0.0
  0
ARC
  5
1E2
330
1F
100
AcDbEntity
  8
0
  6
Continuous
 62
     7
370
    25
100
AcDbCircle
 10
0.1144731626
 20
0.1811125864
 30
0.0
 40
0.0001666666666667
100
AcDbArc
 50
90.0
 51
180.0
  0
ARC
  5
1E3
330
1F
100
AcDbEntity
  8
0
  6
Continuous
 62
     7
370
    25
100
AcDbCircle
 10
0.1157398293
 20
0.1811125864
 30
0.0
 40
0.0001666666666667
100
AcDbArc
 50
0.0
 51
90.0
  0
ARC
  5
1E4
330
1F
100
AcDbEntity
  8
0
  6
Continuous
 62
     7
370
    25
100
AcDbCircle
 10
0.1144731626
 20
0.1810959198
 30
0.0
 40
0.0001666666666667
100
AcDbArc
 50
180.0
 51
270.0
  0
ARC
  5
1E5
330
1F
100
AcDbEntity
  8
0
  6
Continuous
 62
     7
370
    25
100
AcDbCircle
 10
0.1157398293
 20
0.1810959198
 30
0.0
 40
0.0001666666666667
100
AcDbArc
 50
270.0
 51
0.0
  0
LINE
  5
1E6
330
1F
100
AcDbEntity
  8
0
  6
Continuous
 62
     7
370
    25
100
AcDbLine
 10
0.114306496
 20
0.1811125864
 30
0.0
 11
0.114306496
 21
0.1810959198
 31
0.0
  0
LINE
  5
1E7
330
1F
100
AcDbEntity
  8
0
  6
Continuous
 62
     7
370
    25
100
AcDbLine
 10
0.115906496
 20
0.1810959198
 30
0.0
 11
0.115906496
 21
0.1811125864
 31
0.0
  0
ARC
  5
1E8
330
1F
100
AcDbEntity
  8
0
  6
Continuous
 62
     7
370
    25
100
AcDbCircle
 10
0.1143842007
 20
0.1784357875
 30
0.0
 40
0.0001758889371413
100
AcDbArc
 50
274.4180716274
 51
348.3980864005
  0
ARC
  5
1E9
330
1F
100
AcDbEntity
  8
0
  6
Continuous
 62
     7
370
    25
100
AcDbCircle
 10
0.1158287912
 20
0.1784357875
 30
0.0
 40
0.0001758889371413
100
AcDbArc
 50
191.6019135995
 51
265.5819283726
  0
ARC
  5
1EA
330
1F
100
AcDbEntity
  8
0
  6
Continuous
 62
     7
370
    25
100
AcDbCircle
 10
0.1144376801
 20
0.1808156848
 30
0.0
 40
0.0001189821585248
100
AcDbArc
 50
3.0299790088
 51
72.6494628881
  0
ARC
  5
1EB
330
1F
100
AcDbEntity
  8
0
  6
Continuous
 62
     7
370
    25
100
AcDbCircle
 10
0.1157753118
 20
0.1808156848
 30
0.0
 40
0.0001189821585248
100
AcDbArc
 50
107.3505371119
 51
176.9700209912
  0
LINE
  5
1EC
330
1F
100
AcDbEntity
  8
0
  6
Continuous
 62
     7
370
    25
100
AcDbLine
 10
0.114556496
 20
0.1808219741
 30
0.0
 11
0.114556496
 21
0.180767081
 31
0.0
  0
LINE
  5
1ED
330
1F
100
AcDbEntity
  8
0
  6
Continuous
 62
     7
370
    25
100
AcDbLine
 10
0.115656496
 20
0.180767081
 30
0.0
 11
0.115656496
 21
0.1808219741
 31
0.0
  0
LINE
  5
1EE
330
1F
100
AcDbEntity
  8
0
  6
Continuous
 62
     7
370
    25
100
AcDbLine
 10
0.114556496
 20
0.1794004144
 30
0.0
 11
0.114556496
 21
0.179267081
 31
0.0
  0
LINE
  5
1EF
330
1F
100
AcDbEntity
  8
0
  6
Continuous
 62
     7
370
    25
100
AcDbLine
 10
0.115656496
 20
0.179267081
 30
0.0
 11
0.115656496
 21
0.1794004144
 31
0.0
  0
LINE
  5
1F0
330
1F
100
AcDbEntity
  8
0
  6
Continuous
 62
     7
370
    25
100
AcDbLine
 10
0.114556496
 20
0.178567081
 30
0.0
 11
0.114556496
 21
0.1784337477
 31
0.0
  0
LINE
  5
1F1
330
1F
100
AcDbEntity
  8
0
  6
Continuous
 62
     7
370
    25
100
AcDbLine
 10
0.115656496
 20
0.1784337477
 30
0.0
 11
0.115656496
 21
0.178567081
 31
0.0
  0
LINE
  5
1F2
330
1F
100
AcDbEntity
  8
0
  6
Continuous
 62
     7
370
    25
100
AcDbLine
 10
0.114556496
 20
0.179067081
 30
0.0
 11
0.114556496
 21
0.1789337477
 31
0.0
  0
LINE
  5
1F3
330
1F
100
AcDbEntity
  8
0
  6
Continuous
 62
     7
370
    25
100
AcDbLine
 10
0.115656496
 20
0.1789337477
 30
0.0
 11
0.115656496
 21
0.179067081
 31
0.0
  0
LINE
  5
1F4
330
1F
100
AcDbEntity
  8
0
  6
Continuous
 62
     7
370
    25
100
AcDbLine
 10
0.114556496
 20
0.1792337477
 30
0.0
 11
0.114556496
 21
0.1791004144
 31
0.0
  0
LINE
  5
1F5
330
1F
100
AcDbEntity
  8
0
  6
Continuous
 62
     7
370
    25
100
AcDbLine
 10
0.115656496
 20
0.1791004144
 30
0.0
 11
0.115656496
 21
0.1792337477
 31
0.0
  0
LINE
  5
1F6
330
1F
100
AcDbEntity
  8
0
  6
Continuous
 62
     7
370
    25
100
AcDbLine
 10
0.114556496
 20
0.1787337477
 30
0.0
 11
0.114556496
 21
0.1786004144
 31
0.0
  0
LINE
  5
1F7
330
1F
100
AcDbEntity
  8
0
  6
Continuous
 62
     7
370
    25
100
AcDbLine
 10
0.115656496
 20
0.1786004144
 30
0.0
 11
0.115656496
 21
0.1787337477
 31
0.0
  0
LINE
  5
1F8
330
1F
100
AcDbEntity
  8
0
  6
Continuous
 62
     7
370
    25
100
AcDbLine
 10
0.114556496
 20
0.1789004144
 30
0.0
 11
0.114556496
 21
0.178767081
 31
0.0
  0
LINE
  5
1F9
330
1F
100
AcDbEntity
  8
0
  6
Continuous
 62
     7
370
    25
100
AcDbLine
 10
0.115656496
 20
0.178767081
 30
0.0
 11
0.115656496
 21
0.1789004144
 31
0.0
  0
LINE
  5
1FA
330
1F
100
AcDbEntity
  8
0
  6
Continuous
 62
     7
370
    25
100
AcDbLine
 10
0.114556496
 20
0.179567081
 30
0.0
 11
0.114556496
 21
0.1794337477
 31
0.0
  0
LINE
  5
1FB
330
1F
100
AcDbEntity
  8
0
  6
Continuous
 62
     7
370
    25
100
AcDbLine
 10
0.115656496
 20
0.1794337477
 30
0.0
 11
0.115656496
 21
0.179567081
 31
0.0
  0
LINE
  5
1FC
330
1F
100
AcDbEntity
  8
0
  6
Continuous
 62
     7
370
    25
100
AcDbLine
 10
0.114556496
 20
0.1804004144
 30
0.0
 11
0.114556496
 21
0.180267081
 31
0.0
  0
LINE
  5
1FD
330
1F
100
AcDbEntity
  8
0
  6
Continuous
 62
     7
370
    25
100
AcDbLine
 10
0.115656496
 20
0.180267081
 30
0.0
 11
0.115656496
 21
0.1804004144
 31
0.0
  0
LINE
  5
1FE
330
1F
100
AcDbEntity
  8
0
  6
Continuous
 62
     7
370
    25
100
AcDbLine
 10
0.114556496
 20
0.1799004144
 30
0.0
 11
0.114556496
 21
0.179767081
 31
0.0
  0
LINE
  5
1FF
330
1F
100
AcDbEntity
  8
0
  6
Continuous
 62
     7
370
    25
100
AcDbLine
 10
0.115656496
 20
0.179767081
 30
0.0
 11
0.115656496
 21
0.1799004144
 31
0.0
  0
LINE
  5
200
330
1F
100
AcDbEntity
  8
0
  6
Continuous
 62
     7
370
    25
100
AcDbLine
 10
0.114556496
 20
0.1797337477
 30
0.0
 11
0.114556496
 21
0.1796004144
 31
0.0
  0
LINE
  5
201
330
1F
100
AcDbEntity
  8
0
  6
Continuous
 62
     7
370
    25
100
AcDbLine
 10
0.115656496
 20
0.1796004144
 30
0.0
 11
0.115656496
 21
0.1797337477
 31
0.0
  0
LINE
  5
202
330
1F
100
AcDbEntity
  8
0
  6
Continuous
 62
     7
370
    25
100
AcDbLine
 10
0.114556496
 20
0.1802337477
 30
0.0
 11
0.114556496
 21
0.1801004144
 31
0.0
  0
LINE
  5
203
330
1F
100
AcDbEntity
  8
0
  6
Continuous
 62
     7
370
    25
100
AcDbLine
 10
0.115656496
 20
0.1801004144
 30
0.0
 11
0.115656496
 21
0.1802337477
 31
0.0
  0
LINE
  5
204
330
1F
100
AcDbEntity
  8
0
  6
Continuous
 62
     7
370
    25
100
AcDbLine
 10
0.114556496
 20
0.180567081
 30
0.0
 11
0.114556496
 21
0.1804337477
 31
0.0
  0
LINE
  5
205
330
1F
100
AcDbEntity
  8
0
  6
Continuous
 62
     7
370
    25
100
AcDbLine
 10
0.115656496
 20
0.1804337477
 30
0.0
 11
0.115656496
 21
0.180567081
 31
0.0
  0
LINE
  5
206
330
1F
100
AcDbEntity
  8
0
  6
Continuous
 62
     7
370
    25
100
AcDbLine
 10
0.114556496
 20
0.180067081
 30
0.0
 11
0.114556496
 21
0.1799337477
 31
0.0
  0
LINE
  5
207
330
1F
100
AcDbEntity
  8
0
  6
Continuous
 62
     7
370
    25
100
AcDbLine
 10
0.115656496
 20
0.1799337477
 30
0.0
 11
0.115656496
 21
0.180067081
 31
0.0
  0
LINE
  5
208
330
1F
100
AcDbEntity
  8
0
  6
Continuous
 62
     7
370
    25
100
AcDbLine
 10
0.114556496
 20
0.1807337477
 30
0.0
 11
0.114556496
 21
0.1806004144
 31
0.0
  0
LINE
  5
209
330
1F
100
AcDbEntity
  8
0
  6
Continuous
 62
     7
370
    25
100
AcDbLine
 10
0.115656496
 20
0.1806004144
 30
0.0
 11
0.115656496
 21
0.1807337477
 31
0.0
  0
LINE
  5
20A
330
1F
100
AcDbEntity
  8
0
  6
Continuous
 62
     7
370
    25
100
AcDbLine
 10
0.114656496
 20
0.1786004144
 30
0.0
 11
0.114656496
 21
0.178567081
 31
0.0
  0
LINE
  5
20B
330
1F
100
AcDbEntity
  8
0
  6
Continuous
 62
     7
370
    25
100
AcDbLine
 10
0.115556496
 20
0.178567081
 30
0.0
 11
0.115556496
 21
0.1786004144
 31
0.0
  0
LINE
  5
20C
330
1F
100
AcDbEntity
  8
0
  6
Continuous
 62
     7
370
    25
100
AcDbLine
 10
0.114656496
 20
0.1784337477
 30
0.0
 11
0.114656496
 21
0.1784004144
 31
0.0
  0
LINE
  5
20D
330
1F
100
AcDbEntity
  8
0
  6
Continuous
 62
     7
370
    25
100
AcDbLine
 10
0.115556496
 20
0.1784004144
 30
0.0
 11
0.115556496
 21
0.1784337477
 31
0.0
  0
LINE
  5
20E
330
1F
100
AcDbEntity
  8
0
  6
Continuous
 62
     7
370
    25
100
AcDbLine
 10
0.114656496
 20
0.178767081
 30
0.0
 11
0.114656496
 21
0.1787337477
 31
0.0
  0
LINE
  5
20F
330
1F
100
AcDbEntity
  8
0
  6
Continuous
 62
     7
370
    25
100
AcDbLine
 10
0.115556496
 20
0.1787337477
 30
0.0
 11
0.115556496
 21
0.178767081
 31
0.0
  0
LINE
  5
210
330
1F
100
AcDbEntity
  8
0
  6
Continuous
 62
     7
370
    25
100
AcDbLine
 10
0.114656496
 20
0.179267081
 30
0.0
 11
0.114656496
 21
0.1792337477
 31
0.0
  0
LINE
  5
211
330
1F
100
AcDbEntity
  8
0
  6
Continuous
 62
     7
370
    25
100
AcDbLine
 10
0.115556496
 20
0.1792337477
 30
0.0
 11
0.115556496
 21
0.179267081
 31
0.0
  0
LINE
  5
212
330
1F
100
AcDbEntity
  8
0
  6
Continuous
 62
     7
370
    25
100
AcDbLine
 10
0.114656496
 20
0.1789337477
 30
0.0
 11
0.114656496
 21
0.1789004144
 31
0.0
  0
LINE
  5
213
330
1F
100
AcDbEntity
  8
0
  6
Continuous
 62
     7
370
    25
100
AcDbLine
 10
0.115556496
 20
0.1789004144
 30
0.0
 11
0.115556496
 21
0.1789337477
 31
0.0
  0
LINE
  5
214
330
1F
100
AcDbEntity
  8
0
  6
Continuous
 62
     7
370
    25
100
AcDbLine
 10
0.114656496
 20
0.1791004144
 30
0.0
 11
0.114656496
 21
0.179067081
 31
0.0
  0
LINE
  5
215
330
1F
100
AcDbEntity
  8
0
  6
Continuous
 62
     7
370
    25
100
AcDbLine
 10
0.115556496
 20
0.179067081
 30
0.0
 11
0.115556496
 21
0.1791004144
 31
0.0
  0
LINE
  5
216
330
1F
100
AcDbEntity
  8
0
  6
Continuous
 62
     7
370
    25
100
AcDbLine
 10
0.114656496
 20
0.1799337477
 30
0.0
 11
0.114656496
 21
0.1799004144
 31
0.0
  0
LINE
  5
217
330
1F
100
AcDbEntity
  8
0
  6
Continuous
 62
     7
370
    25
100
AcDbLine
 10
0.115556496
 20
0.1799004144
 30
0.0
 11
0.115556496
 21
0.1799337477
 31
0.0
  0
LINE
  5
218
330
1F
100
AcDbEntity
  8
0
  6
Continuous
 62
     7
370
    25
100
AcDbLine
 10
0.114656496
 20
0.1794337477
 30
0.0
 11
0.114656496
 21
0.1794004144
 31
0.0
  0
LINE
  5
219
330
1F
100
AcDbEntity
  8
0
  6
Continuous
 62
     7
370
    25
100
AcDbLine
 10
0.115556496
 20
0.1794004144
 30
0.0
 11
0.115556496
 21
0.1794337477
 31
0.0
  0
LINE
  5
21A
330
1F
100
AcDbEntity
  8
0
  6
Continuous
 62
     7
370
    25
100
AcDbLine
 10
0.114656496
 20
0.179767081
 30
0.0
 11
0.114656496
 21
0.1797337477
 31
0.0
  0
LINE
  5
21B
330
1F
100
AcDbEntity
  8
0
  6
Continuous
 62
     7
370
    25
100
AcDbLine
 10
0.115556496
 20
0.1797337477
 30
0.0
 11
0.115556496
 21
0.179767081
 31
0.0
  0
LINE
  5
21C
330
1F
100
AcDbEntity
  8
0
  6
Continuous
 62
     7
370
    25
100
AcDbLine
 10
0.114656496
 20
0.1796004144
 30
0.0
 11
0.114656496
 21
0.179567081
 31
0.0
  0
LINE
  5
21D
330
1F
100
AcDbEntity
  8
0
  6
Continuous
 62
     7
370
    25
100
AcDbLine
 10
0.115556496
 20
0.179567081
 30
0.0
 11
0.115556496
 21
0.1796004144
 31
0.0
  0
LINE
  5
21E
330
1F
100
AcDbEntity
  8
0
  6
Continuous
 62
     7
370
    25
100
AcDbLine
 10
0.114656496
 20
0.180767081
 30
0.0
 11
0.114656496
 21
0.1807337477
 31
0.0
  0
LINE
  5
21F
330
1F
100
AcDbEntity
  8
0
  6
Continuous
 62
     7
370
    25
100
AcDbLine
 10
0.115556496
 20
0.1807337477
 30
0.0
 11
0.115556496
 21
0.180767081
 31
0.0
  0
LINE
  5
220
330
1F
100
AcDbEntity
  8
0
  6
Continuous
 62
     7
370
    25
100
AcDbLine
 10
0.114656496
 20
0.1806004144
 30
0.0
 11
0.114656496
 21
0.180567081
 31
0.0
  0
LINE
  5
221
330
1F
100
AcDbEntity
  8
0
  6
Continuous
 62
     7
370
    25
100
AcDbLine
 10
0.115556496
 20
0.180567081
 30
0.0
 11
0.115556496
 21
0.1806004144
 31
0.0
  0
LINE
  5
222
330
1F
100
AcDbEntity
  8
0
  6
Continuous
 62
     7
370
    25
100
AcDbLine
 10
0.114656496
 20
0.1801004144
 30
0.0
 11
0.114656496
 21
0.180067081
 31
0.0
  0
LINE
  5
223
330
1F
100
AcDbEntity
  8
0
  6
Continuous
 62
     7
370
    25
100
AcDbLine
 10
0.115556496
 20
0.180067081
 30
0.0
 11
0.115556496
 21
0.1801004144
 31
0.0
  0
LINE
  5
224
330
1F
100
AcDbEntity
  8
0
  6
Continuous
 62
     7
370
    25
100
AcDbLine
 10
0.114656496
 20
0.180267081
 30
0.0
 11
0.114656496
 21
0.1802337477
 31
0.0
  0
LINE
  5
225
330
1F
100
AcDbEntity
  8
0
  6
Continuous
 62
     7
370
    25
100
AcDbLine
 10
0.115556496
 20
0.1802337477
 30
0.0
 11
0.115556496
 21
0.180267081
 31
0.0
  0
LINE
  5
226
330
1F
100
AcDbEntity
  8
0
  6
Continuous
 62
     7
370
    25
100
AcDbLine
 10
0.114656496
 20
0.1804337477
 30
0.0
 11
0.114656496
 21
0.1804004144
 31
0.0
  0
LINE
  5
227
330
1F
100
AcDbEntity
  8
0
  6
Continuous
 62
     7
370
    25
100
AcDbLine
 10
0.115556496
 20
0.1804004144
 30
0.0
 11
0.115556496
 21
0.1804337477
 31
0.0
  0
ELLIPSE
  5
228
330
1F
100
AcDbEntity
  8
0
  6
Continuous
 62
     7
370
    25
100
AcDbEllipse
 10
0.115106496
 20
0.1812792531
 30
0.0
 11
0.0004333333333333272
 21
0.0
 31
0.0
210
0.0
220
0.0
230
1.0
 40
0.5384615385
 41
1.570796326794897
 42
3.141592653589793
  0
ELLIPSE
  5
229
330
1F
100
AcDbEntity
  8
0
  6
Continuous
 62
     7
370
    25
100
AcDbEllipse
 10
0.115106496
 20
0.1812792531
 30
0.0
 11
-0.0004333333333333272
 21
0.0
 31
0.0
210
0.0
220
0.0
230
1.0
 40
0.5384615385
 41
3.141592653589793
 42
4.712388980384697
  0
ARC
  5
22A
330
1F
100
AcDbEntity
  8
0
  6
Continuous
 62
     7
370
    25
100
AcDbCircle
 10
0.1044517369
 20
0.1774784806
 30
0.0
 40
0.0000666666666667
100
AcDbArc
 50
282.6597649198
 51
0.0
  0
ARC
  5
22B
330
1F
100
AcDbEntity
  8
0
  6
Continuous
 62
     7
370
    25
100
AcDbCircle
 10
0.1027517369
 20
0.1774784806
 30
0.0
 40
0.0000666666666667
100
AcDbArc
 50
180.0
 51
257.3402350802
  0
LINE
  5
22C
330
1F
100
AcDbEntity
  8
0
  6
Continuous
 62
     7
370
    25
100
AcDbLine
 10
0.1045184035
 20
0.1774784806
 30
0.0
 11
0.1045184035
 21
0.1775125864
 31
0.0
  0
LINE
  5
22D
330
1F
100
AcDbEntity
  8
0
  6
Continuous
 62
     7
370
    25
100
AcDbLine
 10
0.1026850702
 20
0.1775125864
 30
0.0
 11
0.1026850702
 21
0.1774784806
 31
0.0
  0
ARC
  5
22E
330
1F
100
AcDbEntity
  8
0
  6
Continuous
 62
     7
370
    25
100
AcDbCircle
 10
0.1043262258
 20
0.1780372464
 30
0.0
 40
0.0006393553335636
100
AcDbArc
 50
270.0
 51
282.6597649198
  0
ARC
  5
22F
330
1F
100
AcDbEntity
  8
0
  6
Continuous
 62
     7
370
    25
100
AcDbCircle
 10
0.1028772479
 20
0.1780372464
 30
0.0
 40
0.0006393553335636
100
AcDbArc
 50
257.3402350802
 51
270.0
  0
LINE
  5
230
330
1F
100
AcDbEntity
  8
0
  6
Continuous
 62
     7
370
    25
100
AcDbLine
 10
0.1028772479
 20
0.1773978911
 30
0.0
 11
0.1043262258
 21
0.1773978911
 31
0.0
  0
ARC
  5
231
330
1F
100
AcDbEntity
  8
0
  6
Continuous
 62
     7
370
    25
100
AcDbCircle
 10
0.1042350702
 20
0.1745459198
 30
0.0
 40
0.0001666666666667
100
AcDbArc
 50
270.0
 51
0.0
  0
ARC
  5
232
330
1F
100
AcDbEntity
  8
0
  6
Continuous
 62
     7
370
    25
100
AcDbCircle
 10
0.1029684035
 20
0.1745459198
 30
0.0
 40
0.0001666666666667
100
AcDbArc
 50
180.0
 51
270.0
  0
LINE
  5
233
330
1F
100
AcDbEntity
  8
0
  6
Continuous
 62
     7
370
    25
100
AcDbLine
 10
0.1044017369
 20
0.1745459198
 30
0.0
 11
0.1044017369
 21
0.1745625864
 31
0.0
  0
LINE
  5
234
330
1F
100
AcDbEntity
  8
0
  6
Continuous
 62
     7
370
    25
100
AcDbLine
 10
0.1028017369
 20
0.1745625864
 30
0.0
 11
0.1028017369
 21
0.1745459198
 31
0.0
  0
ARC
  5
235
330
1F
100
AcDbEntity
  8
0
  6
Continuous
 62
     7
370
    25
100
AcDbCircle
 10
0.1042350702
 20
0.1745625864
 30
0.0
 40
0.0001666666666667
100
AcDbArc
 50
0.0
 51
90.0
  0
ARC
  5
236
330
1F
100
AcDbEntity
  8
0
  6
Continuous
 62
     7
370
    25
100
AcDbCircle
 10
0.1029684035
 20
0.1745625864
 30
0.0
 40
0.0001666666666667
100
AcDbArc
 50
90.0
 51
180.0
  0
ARC
  5
237
330
1F
100
AcDbEntity
  8
0
  6
Continuous
 62
     7
370
    25
100
AcDbCircle
 10
0.1043240321
 20
0.1772227187
 30
0.0
 40
0.0001758889371413
100
AcDbArc
 50
94.4180716274
 51
168.3980864005
  0
ARC
  5
238
330
1F
100
AcDbEntity
  8
0
  6
Continuous
 62
     7
370
    25
100
AcDbCircle
 10
0.1028794416
 20
0.1772227187
 30
0.0
 40
0.0001758889371413
100
AcDbArc
 50
11.6019135995
 51
85.5819283726
  0
ARC
  5
239
330
1F
100
AcDbEntity
  8
0
  6
Continuous
 62
     7
370
    25
100
AcDbCircle
 10
0.1042705527
 20
0.1748428213
 30
0.0
 40
0.0001189821585247
100
AcDbArc
 50
183.0299790088
 51
252.6494628881
  0
ARC
  5
23A
330
1F
100
AcDbEntity
  8
0
  6
Continuous
 62
     7
370
    25
100
AcDbCircle
 10
0.1029329211
 20
0.1748428213
 30
0.0
 40
0.0001189821585248
100
AcDbArc
 50
287.3505371119
 51
356.9700209912
  0
LINE
  5
23B
330
1F
100
AcDbEntity
  8
0
  6
Continuous
 62
     7
370
    25
100
AcDbLine
 10
0.1041517369
 20
0.1767580918
 30
0.0
 11
0.1041517369
 21
0.1768914252
 31
0.0
  0
LINE
  5
23C
330
1F
100
AcDbEntity
  8
0
  6
Continuous
 62
     7
370
    25
100
AcDbLine
 10
0.1030517369
 20
0.1768914252
 30
0.0
 11
0.1030517369
 21
0.1767580918
 31
0.0
  0
LINE
  5
23D
330
1F
100
AcDbEntity
  8
0
  6
Continuous
 62
     7
370
    25
100
AcDbLine
 10
0.1041517369
 20
0.1769247585
 30
0.0
 11
0.1041517369
 21
0.1770580918
 31
0.0
  0
LINE
  5
23E
330
1F
100
AcDbEntity
  8
0
  6
Continuous
 62
     7
370
    25
100
AcDbLine
 10
0.1030517369
 20
0.1770580918
 30
0.0
 11
0.1030517369
 21
0.1769247585
 31
0.0
  0
LINE
  5
23F
330
1F
100
AcDbEntity
  8
0
  6
Continuous
 62
     7
370
    25
100
AcDbLine
 10
0.1041517369
 20
0.1770914252
 30
0.0
 11
0.1041517369
 21
0.1772247585
 31
0.0
  0
LINE
  5
240
330
1F
100
AcDbEntity
  8
0
  6
Continuous
 62
     7
370
    25
100
AcDbLine
 10
0.1030517369
 20
0.1772247585
 30
0.0
 11
0.1030517369
 21
0.1770914252
 31
0.0
  0
LINE
  5
241
330
1F
100
AcDbEntity
  8
0
  6
Continuous
 62
     7
370
    25
100
AcDbLine
 10
0.1041517369
 20
0.1764247585
 30
0.0
 11
0.1041517369
 21
0.1765580918
 31
0.0
  0
LINE
  5
242
330
1F
100
AcDbEntity
  8
0
  6
Continuous
 62
     7
370
    25
100
AcDbLine
 10
0.1030517369
 20
0.1765580918
 30
0.0
 11
0.1030517369
 21
0.1764247585
 31
0.0
  0
LINE
  5
243
330
1F
100
AcDbEntity
  8
0
  6
Continuous
 62
     7
370
    25
100
AcDbLine
 10
0.1041517369
 20
0.1765914252
 30
0.0
 11
0.1041517369
 21
0.1767247585
 31
0.0
  0
LINE
  5
244
330
1F
100
AcDbEntity
  8
0
  6
Continuous
 62
     7
370
    25
100
AcDbLine
 10
0.1030517369
 20
0.1767247585
 30
0.0
 11
0.1030517369
 21
0.1765914252
 31
0.0
  0
LINE
  5
245
330
1F
100
AcDbEntity
  8
0
  6
Continuous
 62
     7
370
    25
100
AcDbLine
 10
0.1041517369
 20
0.1762580918
 30
0.0
 11
0.1041517369
 21
0.1763914252
 31
0.0
  0
LINE
  5
246
330
1F
100
AcDbEntity
  8
0
  6
Continuous
 62
     7
370
    25
100
AcDbLine
 10
0.1030517369
 20
0.1763914252
 30
0.0
 11
0.1030517369
 21
0.1762580918
 31
0.0
  0
LINE
  5
247
330
1F
100
AcDbEntity
  8
0
  6
Continuous
 62
     7
370
    25
100
AcDbLine
 10
0.1041517369
 20
0.1748365321
 30
0.0
 11
0.1041517369
 21
0.1748914252
 31
0.0
  0
LINE
  5
248
330
1F
100
AcDbEntity
  8
0
  6
Continuous
 62
     7
370
    25
100
AcDbLine
 10
0.1030517369
 20
0.1748914252
 30
0.0
 11
0.1030517369
 21
0.1748365321
 31
0.0
  0
LINE
  5
249
330
1F
100
AcDbEntity
  8
0
  6
Continuous
 62
     7
370
    25
100
AcDbLine
 10
0.1041517369
 20
0.1760914252
 30
0.0
 11
0.1041517369
 21
0.1762247585
 31
0.0
  0
LINE
  5
24A
330
1F
100
AcDbEntity
  8
0
  6
Continuous
 62
     7
370
    25
100
AcDbLine
 10
0.1030517369
 20
0.1762247585
 30
0.0
 11
0.1030517369
 21
0.1760914252
 31
0.0
  0
LINE
  5
24B
330
1F
100
AcDbEntity
  8
0
  6
Continuous
 62
     7
370
    25
100
AcDbLine
 10
0.1041517369
 20
0.1759247585
 30
0.0
 11
0.1041517369
 21
0.1760580918
 31
0.0
  0
LINE
  5
24C
330
1F
100
AcDbEntity
  8
0
  6
Continuous
 62
     7
370
    25
100
AcDbLine
 10
0.1030517369
 20
0.1760580918
 30
0.0
 11
0.1030517369
 21
0.1759247585
 31
0.0
  0
LINE
  5
24D
330
1F
100
AcDbEntity
  8
0
  6
Continuous
 62
     7
370
    25
100
AcDbLine
 10
0.1041517369
 20
0.1757580918
 30
0.0
 11
0.1041517369
 21
0.1758914252
 31
0.0
  0
LINE
  5
24E
330
1F
100
AcDbEntity
  8
0
  6
Continuous
 62
     7
370
    25
100
AcDbLine
 10
0.1030517369
 20
0.1758914252
 30
0.0
 11
0.1030517369
 21
0.1757580918
 31
0.0
  0
LINE
  5
24F
330
1F
100
AcDbEntity
  8
0
  6
Continuous
 62
     7
370
    25
100
AcDbLine
 10
0.1041517369
 20
0.1754247585
 30
0.0
 11
0.1041517369
 21
0.1755580918
 31
0.0
  0
LINE
  5
250
330
1F
100
AcDbEntity
  8
0
  6
Continuous
 62
     7
370
    25
100
AcDbLine
 10
0.1030517369
 20
0.1755580918
 30
0.0
 11
0.1030517369
 21
0.1754247585
 31
0.0
  0
LINE
  5
251
330
1F
100
AcDbEntity
  8
0
  6
Continuous
 62
     7
370
    25
100
AcDbLine
 10
0.1041517369
 20
0.1755914252
 30
0.0
 11
0.1041517369
 21
0.1757247585
 31
0.0
  0
LINE
  5
252
330
1F
100
AcDbEntity
  8
0
  6
Continuous
 62
     7
370
    25
100
AcDbLine
 10
0.1030517369
 20
0.1757247585
 30
0.0
 11
0.1030517369
 21
0.1755914252
 31
0.0
  0
LINE
  5
253
330
1F
100
AcDbEntity
  8
0
  6
Continuous
 62
     7
370
    25
100
AcDbLine
 10
0.1041517369
 20
0.1750914252
 30
0.0
 11
0.1041517369
 21
0.1752247585
 31
0.0
  0
LINE
  5
254
330
1F
100
AcDbEntity
  8
0
  6
Continuous
 62
     7
370
    25
100
AcDbLine
 10
0.1030517369
 20
0.1752247585
 30
0.0
 11
0.1030517369
 21
0.1750914252
 31
0.0
  0
LINE
  5
255
330
1F
100
AcDbEntity
  8
0
  6
Continuous
 62
     7
370
    25
100
AcDbLine
 10
0.1041517369
 20
0.1752580918
 30
0.0
 11
0.1041517369
 21
0.1753914252
 31
0.0
  0
LINE
  5
256
330
1F
100
AcDbEntity
  8
0
  6
Continuous
 62
     7
370
    25
100
AcDbLine
 10
0.1030517369
 20
0.1753914252
 30
0.0
 11
0.1030517369
 21
0.1752580918
 31
0.0
  0
LINE
  5
257
330
1F
100
AcDbEntity
  8
0
  6
Continuous
 62
     7
370
    25
100
AcDbLine
 10
0.1041517369
 20
0.1749247585
 30
0.0
 11
0.1041517369
 21
0.1750580918
 31
0.0
  0
LINE
  5
258
330
1F
100
AcDbEntity
  8
0
  6
Continuous
 62
     7
370
    25
100
AcDbLine
 10
0.1030517369
 20
0.1750580918
 30
0.0
 11
0.1030517369
 21
0.1749247585
 31
0.0
  0
LINE
  5
259
330
1F
100
AcDbEntity
  8
0
  6
Continuous
 62
     7
370
    25
100
AcDbLine
 10
0.1040517369
 20
0.1772247585
 30
0.0
 11
0.1040517369
 21
0.1772580918
 31
0.0
  0
LINE
  5
25A
330
1F
100
AcDbEntity
  8
0
  6
Continuous
 62
     7
370
    25
100
AcDbLine
 10
0.1031517369
 20
0.1772580918
 30
0.0
 11
0.1031517369
 21
0.1772247585
 31
0.0
  0
LINE
  5
25B
330
1F
100
AcDbEntity
  8
0
  6
Continuous
 62
     7
370
    25
100
AcDbLine
 10
0.1040517369
 20
0.1770580918
 30
0.0
 11
0.1040517369
 21
0.1770914252
 31
0.0
  0
LINE
  5
25C
330
1F
100
AcDbEntity
  8
0
  6
Continuous
 62
     7
370
    25
100
AcDbLine
 10
0.1031517369
 20
0.1770914252
 30
0.0
 11
0.1031517369
 21
0.1770580918
 31
0.0
  0
LINE
  5
25D
330
1F
100
AcDbEntity
  8
0
  6
Continuous
 62
     7
370
    25
100
AcDbLine
 10
0.1040517369
 20
0.1768914252
 30
0.0
 11
0.1040517369
 21
0.1769247585
 31
0.0
  0
LINE
  5
25E
330
1F
100
AcDbEntity
  8
0
  6
Continuous
 62
     7
370
    25
100
AcDbLine
 10
0.1031517369
 20
0.1769247585
 30
0.0
 11
0.1031517369
 21
0.1768914252
 31
0.0
  0
LINE
  5
25F
330
1F
100
AcDbEntity
  8
0
  6
Continuous
 62
     7
370
    25
100
AcDbLine
 10
0.1040517369
 20
0.1767247585
 30
0.0
 11
0.1040517369
 21
0.1767580918
 31
0.0
  0
LINE
  5
260
330
1F
100
AcDbEntity
  8
0
  6
Continuous
 62
     7
370
    25
100
AcDbLine
 10
0.1031517369
 20
0.1767580918
 30
0.0
 11
0.1031517369
 21
0.1767247585
 31
0.0
  0
LINE
  5
261
330
1F
100
AcDbEntity
  8
0
  6
Continuous
 62
     7
370
    25
100
AcDbLine
 10
0.1040517369
 20
0.1765580918
 30
0.0
 11
0.1040517369
 21
0.1765914252
 31
0.0
  0
LINE
  5
262
330
1F
100
AcDbEntity
  8
0
  6
Continuous
 62
     7
370
    25
100
AcDbLine
 10
0.1031517369
 20
0.1765914252
 30
0.0
 11
0.1031517369
 21
0.1765580918
 31
0.0
  0
LINE
  5
263
330
1F
100
AcDbEntity
  8
0
  6
Continuous
 62
     7
370
    25
100
AcDbLine
 10
0.1040517369
 20
0.1762247585
 30
0.0
 11
0.1040517369
 21
0.1762580918
 31
0.0
  0
LINE
  5
264
330
1F
100
AcDbEntity
  8
0
  6
Continuous
 62
     7
370
    25
100
AcDbLine
 10
0.1031517369
 20
0.1762580918
 30
0.0
 11
0.1031517369
 21
0.1762247585
 31
0.0
  0
LINE
  5
265
330
1F
100
AcDbEntity
  8
0
  6
Continuous
 62
     7
370
    25
100
AcDbLine
 10
0.1040517369
 20
0.1763914252
 30
0.0
 11
0.1040517369
 21
0.1764247585
 31
0.0
  0
LINE
  5
266
330
1F
100
AcDbEntity
  8
0
  6
Continuous
 62
     7
370
    25
100
AcDbLine
 10
0.1031517369
 20
0.1764247585
 30
0.0
 11
0.1031517369
 21
0.1763914252
 31
0.0
  0
LINE
  5
267
330
1F
100
AcDbEntity
  8
0
  6
Continuous
 62
     7
370
    25
100
AcDbLine
 10
0.1040517369
 20
0.1760580918
 30
0.0
 11
0.1040517369
 21
0.1760914252
 31
0.0
  0
LINE
  5
268
330
1F
100
AcDbEntity
  8
0
  6
Continuous
 62
     7
370
    25
100
AcDbLine
 10
0.1031517369
 20
0.1760914252
 30
0.0
 11
0.1031517369
 21
0.1760580918
 31
0.0
  0
LINE
  5
269
330
1F
100
AcDbEntity
  8
0
  6
Continuous
 62
     7
370
    25
100
AcDbLine
 10
0.1040517369
 20
0.1758914252
 30
0.0
 11
0.1040517369
 21
0.1759247585
 31
0.0
  0
LINE
  5
26A
330
1F
100
AcDbEntity
  8
0
  6
Continuous
 62
     7
370
    25
100
AcDbLine
 10
0.1031517369
 20
0.1759247585
 30
0.0
 11
0.1031517369
 21
0.1758914252
 31
0.0
  0
LINE
  5
26B
330
1F
100
AcDbEntity
  8
0
  6
Continuous
 62
     7
370
    25
100
AcDbLine
 10
0.1040517369
 20
0.1755580918
 30
0.0
 11
0.1040517369
 21
0.1755914252
 31
0.0
  0
LINE
  5
26C
330
1F
100
AcDbEntity
  8
0
  6
Continuous
 62
     7
370
    25
100
AcDbLine
 10
0.1031517369
 20
0.1755914252
 30
0.0
 11
0.1031517369
 21
0.1755580918
 31
0.0
  0
LINE
  5
26D
330
1F
100
AcDbEntity
  8
0
  6
Continuous
 62
     7
370
    25
100
AcDbLine
 10
0.1040517369
 20
0.1757247585
 30
0.0
 11
0.1040517369
 21
0.1757580918
 31
0.0
  0
LINE
  5
26E
330
1F
100
AcDbEntity
  8
0
  6
Continuous
 62
     7
370
    25
100
AcDbLine
 10
0.1031517369
 20
0.1757580918
 30
0.0
 11
0.1031517369
 21
0.1757247585
 31
0.0
  0
LINE
  5
26F
330
1F
100
AcDbEntity
  8
0
  6
Continuous
 62
     7
370
    25
100
AcDbLine
 10
0.1040517369
 20
0.1752247585
 30
0.0
 11
0.1040517369
 21
0.1752580918
 31
0.0
  0
LINE
  5
270
330
1F
100
AcDbEntity
  8
0
  6
Continuous
 62
     7
370
    25
100
AcDbLine
 10
0.1031517369
 20
0.1752580918
 30
0.0
 11
0.1031517369
 21
0.1752247585
 31
0.0
  0
LINE
  5
271
330
1F
100
AcDbEntity
  8
0
  6
Continuous
 62
     7
370
    25
100
AcDbLine
 10
0.1040517369
 20
0.1753914252
 30
0.0
 11
0.1040517369
 21
0.1754247585
 31
0.0
  0
LINE
  5
272
330
1F
100
AcDbEntity
  8
0
  6
Continuous
 62
     7
370
    25
100
AcDbLine
 10
0.1031517369
 20
0.1754247585
 30
0.0
 11
0.1031517369
 21
0.1753914252
 31
0.0
  0
LINE
  5
273
330
1F
100
AcDbEntity
  8
0
  6
Continuous
 62
     7
370
    25
100
AcDbLine
 10
0.1040517369
 20
0.1748914252
 30
0.0
 11
0.1040517369
 21
0.1749247585
 31
0.0
  0
LINE
  5
274
330
1F
100
AcDbEntity
  8
0
  6
Continuous
 62
     7
370
    25
100
AcDbLine
 10
0.1031517369
 20
0.1749247585
 30
0.0
 11
0.1031517369
 21
0.1748914252
 31
0.0
  0
LINE
  5
275
330
1F
100
AcDbEntity
  8
0
  6
Continuous
 62
     7
370
    25
100
AcDbLine
 10
0.1040517369
 20
0.1750580918
 30
0.0
 11
0.1040517369
 21
0.1750914252
 31
0.0
  0
LINE
  5
276
330
1F
100
AcDbEntity
  8
0
  6
Continuous
 62
     7
370
    25
100
AcDbLine
 10
0.1031517369
 20
0.1750914252
 30
0.0
 11
0.1031517369
 21
0.1750580918
 31
0.0
  0
ELLIPSE
  5
277
330
1F
100
AcDbEntity
  8
0
  6
Continuous
 62
     7
370
    25
100
AcDbEllipse
 10
0.1036017369
 20
0.1743792531
 30
0.0
 11
-0.0004333333333333272
 21
0.0
 31
0.0
210
0.0
220
0.0
230
1.0
 40
0.5384615385
 41
1.570796326794897
 42
3.141592653589793
  0
ELLIPSE
  5
278
330
1F
100
AcDbEntity
  8
0
  6
Continuous
 62
     7
370
    25
100
AcDbEllipse
 10
0.1036017369
 20
0.1743792531
 30
0.0
 11
0.0004333333333333411
 21
0.0
 31
0.0
210
0.0
220
0.0
230
1.0
 40
0.5384615385
 41
3.141592653589793
 42
4.712388980384697
  0
LINE
  5
279
330
1F
100
AcDbEntity
  8
0
  6
Continuous
 62
     7
370
    25
100
AcDbLine
 10
0.1167067504
 20
0.1810125864
 30
0.0
 11
0.1167067504
 21
0.1809959198
 31
0.0
  0
LINE
  5
27A
330
1F
100
AcDbEntity
  8
0
  6
Continuous
 62
     7
370
    25
100
AcDbLine
 10
0.1183067504
 20
0.1809959198
 30
0.0
 11
0.1183067504
 21
0.1810125864
 31
0.0
  0
ARC
  5
27B
330
1F
100
AcDbEntity
  8
0
  6
Continuous
 62
     7
370
    25
100
AcDbCircle
 10
0.1168734171
 20
0.1809959198
 30
0.0
 40
0.0001666666666667
100
AcDbArc
 50
180.0
 51
270.0
  0
ARC
  5
27C
330
1F
100
AcDbEntity
  8
0
  6
Continuous
 62
     7
370
    25
100
AcDbCircle
 10
0.1181400837
 20
0.1809959198
 30
0.0
 40
0.0001666666666667
100
AcDbArc
 50
270.0
 51
0.0
  0
ARC
  5
27D
330
1F
100
AcDbEntity
  8
0
  6
Continuous
 62
     7
370
    25
100
AcDbCircle
 10
0.1168734171
 20
0.1810125864
 30
0.0
 40
0.0001666666666667
100
AcDbArc
 50
90.0
 51
180.0
  0
ARC
  5
27E
330
1F
100
AcDbEntity
  8
0
  6
Continuous
 62
     7
370
    25
100
AcDbCircle
 10
0.1181400837
 20
0.1810125864
 30
0.0
 40
0.0001666666666667
100
AcDbArc
 50
0.0
 51
90.0
  0
ARC
  5
27F
330
1F
100
AcDbEntity
  8
0
  6
Continuous
 62
     7
370
    25
100
AcDbCircle
 10
0.1168379346
 20
0.1807156848
 30
0.0
 40
0.0001189821585248
100
AcDbArc
 50
3.0299790089
 51
72.6494628881
  0
ARC
  5
280
330
1F
100
AcDbEntity
  8
0
  6
Continuous
 62
     7
370
    25
100
AcDbCircle
 10
0.1181755662
 20
0.1807156848
 30
0.0
 40
0.0001189821585248
100
AcDbArc
 50
107.3505371119
 51
176.9700209911
  0
LINE
  5
281
330
1F
100
AcDbEntity
  8
0
  6
Continuous
 62
     7
370
    25
100
AcDbLine
 10
0.1169567504
 20
0.1807219741
 30
0.0
 11
0.1169567504
 21
0.180667081
 31
0.0
  0
LINE
  5
282
330
1F
100
AcDbEntity
  8
0
  6
Continuous
 62
     7
370
    25
100
AcDbLine
 10
0.1180567504
 20
0.180667081
 30
0.0
 11
0.1180567504
 21
0.1807219741
 31
0.0
  0
LINE
  5
283
330
1F
100
AcDbEntity
  8
0
  6
Continuous
 62
     7
370
    25
100
AcDbLine
 10
0.1169567504
 20
0.179967081
 30
0.0
 11
0.1169567504
 21
0.1798792531
 31
0.0
  0
LINE
  5
284
330
1F
100
AcDbEntity
  8
0
  6
Continuous
 62
     7
370
    25
100
AcDbLine
 10
0.1180567504
 20
0.1798939818
 30
0.0
 11
0.1180567504
 21
0.179967081
 31
0.0
  0
LINE
  5
285
330
1F
100
AcDbEntity
  8
0
  6
Continuous
 62
     7
370
    25
100
AcDbLine
 10
0.1169567504
 20
0.1801337477
 30
0.0
 11
0.1169567504
 21
0.1800004144
 31
0.0
  0
LINE
  5
286
330
1F
100
AcDbEntity
  8
0
  6
Continuous
 62
     7
370
    25
100
AcDbLine
 10
0.1180567504
 20
0.1800004144
 30
0.0
 11
0.1180567504
 21
0.1801337477
 31
0.0
  0
LINE
  5
287
330
1F
100
AcDbEntity
  8
0
  6
Continuous
 62
     7
370
    25
100
AcDbLine
 10
0.1169567504
 20
0.1803004144
 30
0.0
 11
0.1169567504
 21
0.180167081
 31
0.0
  0
LINE
  5
288
330
1F
100
AcDbEntity
  8
0
  6
Continuous
 62
     7
370
    25
100
AcDbLine
 10
0.1180567504
 20
0.180167081
 30
0.0
 11
0.1180567504
 21
0.1803004144
 31
0.0
  0
LINE
  5
289
330
1F
100
AcDbEntity
  8
0
  6
Continuous
 62
     7
370
    25
100
AcDbLine
 10
0.1169567504
 20
0.180467081
 30
0.0
 11
0.1169567504
 21
0.1803337477
 31
0.0
  0
LINE
  5
28A
330
1F
100
AcDbEntity
  8
0
  6
Continuous
 62
     7
370
    25
100
AcDbLine
 10
0.1180567504
 20
0.1803337477
 30
0.0
 11
0.1180567504
 21
0.180467081
 31
0.0
  0
LINE
  5
28B
330
1F
100
AcDbEntity
  8
0
  6
Continuous
 62
     7
370
    25
100
AcDbLine
 10
0.1169567504
 20
0.1806337477
 30
0.0
 11
0.1169567504
 21
0.1805004144
 31
0.0
  0
LINE
  5
28C
330
1F
100
AcDbEntity
  8
0
  6
Continuous
 62
     7
370
    25
100
AcDbLine
 10
0.1180567504
 20
0.1805004144
 30
0.0
 11
0.1180567504
 21
0.1806337477
 31
0.0
  0
LINE
  5
28D
330
1F
100
AcDbEntity
  8
0
  6
Continuous
 62
     7
370
    25
100
AcDbLine
 10
0.1170567504
 20
0.180167081
 30
0.0
 11
0.1170567504
 21
0.1801337477
 31
0.0
  0
LINE
  5
28E
330
1F
100
AcDbEntity
  8
0
  6
Continuous
 62
     7
370
    25
100
AcDbLine
 10
0.1179567504
 20
0.1801337477
 30
0.0
 11
0.1179567504
 21
0.180167081
 31
0.0
  0
LINE
  5
28F
330
1F
100
AcDbEntity
  8
0
  6
Continuous
 62
     7
370
    25
100
AcDbLine
 10
0.1170567504
 20
0.1800004144
 30
0.0
 11
0.1170567504
 21
0.179967081
 31
0.0
  0
LINE
  5
290
330
1F
100
AcDbEntity
  8
0
  6
Continuous
 62
     7
370
    25
100
AcDbLine
 10
0.1179567504
 20
0.179967081
 30
0.0
 11
0.1179567504
 21
0.1800004144
 31
0.0
  0
LINE
  5
291
330
1F
100
AcDbEntity
  8
0
  6
Continuous
 62
     7
370
    25
100
AcDbLine
 10
0.1170567504
 20
0.1803337477
 30
0.0
 11
0.1170567504
 21
0.1803004144
 31
0.0
  0
LINE
  5
292
330
1F
100
AcDbEntity
  8
0
  6
Continuous
 62
     7
370
    25
100
AcDbLine
 10
0.1179567504
 20
0.1803004144
 30
0.0
 11
0.1179567504
 21
0.1803337477
 31
0.0
  0
LINE
  5
293
330
1F
100
AcDbEntity
  8
0
  6
Continuous
 62
     7
370
    25
100
AcDbLine
 10
0.1170567504
 20
0.1805004144
 30
0.0
 11
0.1170567504
 21
0.180467081
 31
0.0
  0
LINE
  5
294
330
1F
100
AcDbEntity
  8
0
  6
Continuous
 62
     7
370
    25
100
AcDbLine
 10
0.1179567504
 20
0.180467081
 30
0.0
 11
0.1179567504
 21
0.1805004144
 31
0.0
  0
LINE
  5
295
330
1F
100
AcDbEntity
  8
0
  6
Continuous
 62
     7
370
    25
100
AcDbLine
 10
0.1170567504
 20
0.180667081
 30
0.0
 11
0.1170567504
 21
0.1806337477
 31
0.0
  0
LINE
  5
296
330
1F
100
AcDbEntity
  8
0
  6
Continuous
 62
     7
370
    25
100
AcDbLine
 10
0.1179567504
 20
0.1806337477
 30
0.0
 11
0.1179567504
 21
0.180667081
 31
0.0
  0
ELLIPSE
  5
297
330
1F
100
AcDbEntity
  8
0
  6
Continuous
 62
     7
370
    25
100
AcDbEllipse
 10
0.1175067504
 20
0.1811792531
 30
0.0
 11
0.0004333333333333411
 21
0.0
 31
0.0
210
0.0
220
-1.189524669241229E-13
230
1.0
 40
0.5384615385
 41
1.570796326794897
 42
3.141592653589793
  0
ELLIPSE
  5
298
330
1F
100
AcDbEntity
  8
0
  6
Continuous
 62
     7
370
    25
100
AcDbEllipse
 10
0.1175067504
 20
0.1811792531
 30
0.0
 11
-0.0004333333333333272
 21
0.0
 31
0.0
210
0.0
220
-1.189524669241370E-13
230
1.0
 40
0.5384615385
 41
3.141592653589793
 42
4.712388980384697
  0
ARC
  5
299
330
1F
100
AcDbEntity
  8
0
  6
Continuous
 62
     7
370
    25
100
AcDbCircle
 10
0.1019475053
 20
0.1746459198
 30
0.0
 40
0.0001666666666667
100
AcDbArc
 50
270.0
 51
0.0
  0
ARC
  5
29A
330
1F
100
AcDbEntity
  8
0
  6
Continuous
 62
     7
370
    25
100
AcDbCircle
 10
0.1006808386
 20
0.1746459198
 30
0.0
 40
0.0001666666666667
100
AcDbArc
 50
180.0
 51
270.0
  0
LINE
  5
29B
330
1F
100
AcDbEntity
  8
0
  6
Continuous
 62
     7
370
    25
100
AcDbLine
 10
0.102114172
 20
0.1746459198
 30
0.0
 11
0.102114172
 21
0.1746625864
 31
0.0
  0
LINE
  5
29C
330
1F
100
AcDbEntity
  8
0
  6
Continuous
 62
     7
370
    25
100
AcDbLine
 10
0.100514172
 20
0.1746625864
 30
0.0
 11
0.100514172
 21
0.1746459198
 31
0.0
  0
ARC
  5
29D
330
1F
100
AcDbEntity
  8
0
  6
Continuous
 62
     7
370
    25
100
AcDbCircle
 10
0.1019475053
 20
0.1746625864
 30
0.0
 40
0.0001666666666667
100
AcDbArc
 50
0.0
 51
90.0
  0
ARC
  5
29E
330
1F
100
AcDbEntity
  8
0
  6
Continuous
 62
     7
370
    25
100
AcDbCircle
 10
0.1006808386
 20
0.1746625864
 30
0.0
 40
0.0001666666666667
100
AcDbArc
 50
90.0
 51
180.0
  0
ARC
  5
29F
330
1F
100
AcDbEntity
  8
0
  6
Continuous
 62
     7
370
    25
100
AcDbCircle
 10
0.1019829878
 20
0.1749428213
 30
0.0
 40
0.0001189821585248
100
AcDbArc
 50
183.0299790088
 51
252.6494628881
  0
ARC
  5
2A0
330
1F
100
AcDbEntity
  8
0
  6
Continuous
 62
     7
370
    25
100
AcDbCircle
 10
0.1006453561
 20
0.1749428213
 30
0.0
 40
0.0001189821585248
100
AcDbArc
 50
287.3505371119
 51
356.9700209912
  0
LINE
  5
2A1
330
1F
100
AcDbEntity
  8
0
  6
Continuous
 62
     7
370
    25
100
AcDbLine
 10
0.101864172
 20
0.1749365321
 30
0.0
 11
0.101864172
 21
0.1749914252
 31
0.0
  0
LINE
  5
2A2
330
1F
100
AcDbEntity
  8
0
  6
Continuous
 62
     7
370
    25
100
AcDbLine
 10
0.100764172
 20
0.1749914252
 30
0.0
 11
0.100764172
 21
0.1749365321
 31
0.0
  0
LINE
  5
2A3
330
1F
100
AcDbEntity
  8
0
  6
Continuous
 62
     7
370
    25
100
AcDbLine
 10
0.101864172
 20
0.1756914252
 30
0.0
 11
0.101864172
 21
0.1757792531
 31
0.0
  0
LINE
  5
2A4
330
1F
100
AcDbEntity
  8
0
  6
Continuous
 62
     7
370
    25
100
AcDbLine
 10
0.100764172
 20
0.1757654966
 30
0.0
 11
0.100764172
 21
0.1756914252
 31
0.0
  0
LINE
  5
2A5
330
1F
100
AcDbEntity
  8
0
  6
Continuous
 62
     7
370
    25
100
AcDbLine
 10
0.101864172
 20
0.1755247585
 30
0.0
 11
0.101864172
 21
0.1756580918
 31
0.0
  0
LINE
  5
2A6
330
1F
100
AcDbEntity
  8
0
  6
Continuous
 62
     7
370
    25
100
AcDbLine
 10
0.100764172
 20
0.1756580918
 30
0.0
 11
0.100764172
 21
0.1755247585
 31
0.0
  0
LINE
  5
2A7
330
1F
100
AcDbEntity
  8
0
  6
Continuous
 62
     7
370
    25
100
AcDbLine
 10
0.101864172
 20
0.1753580918
 30
0.0
 11
0.101864172
 21
0.1754914252
 31
0.0
  0
LINE
  5
2A8
330
1F
100
AcDbEntity
  8
0
  6
Continuous
 62
     7
370
    25
100
AcDbLine
 10
0.100764172
 20
0.1754914252
 30
0.0
 11
0.100764172
 21
0.1753580918
 31
0.0
  0
LINE
  5
2A9
330
1F
100
AcDbEntity
  8
0
  6
Continuous
 62
     7
370
    25
100
AcDbLine
 10
0.101864172
 20
0.1751914252
 30
0.0
 11
0.101864172
 21
0.1753247585
 31
0.0
  0
LINE
  5
2AA
330
1F
100
AcDbEntity
  8
0
  6
Continuous
 62
     7
370
    25
100
AcDbLine
 10
0.100764172
 20
0.1753247585
 30
0.0
 11
0.100764172
 21
0.1751914252
 31
0.0
  0
LINE
  5
2AB
330
1F
100
AcDbEntity
  8
0
  6
Continuous
 62
     7
370
    25
100
AcDbLine
 10
0.101864172
 20
0.1750247585
 30
0.0
 11
0.101864172
 21
0.1751580918
 31
0.0
  0
LINE
  5
2AC
330
1F
100
AcDbEntity
  8
0
  6
Continuous
 62
     7
370
    25
100
AcDbLine
 10
0.100764172
 20
0.1751580918
 30
0.0
 11
0.100764172
 21
0.1750247585
 31
0.0
  0
LINE
  5
2AD
330
1F
100
AcDbEntity
  8
0
  6
Continuous
 62
     7
370
    25
100
AcDbLine
 10
0.101764172
 20
0.1756580918
 30
0.0
 11
0.101764172
 21
0.1756914252
 31
0.0
  0
LINE
  5
2AE
330
1F
100
AcDbEntity
  8
0
  6
Continuous
 62
     7
370
    25
100
AcDbLine
 10
0.100864172
 20
0.1756914252
 30
0.0
 11
0.100864172
 21
0.1756580918
 31
0.0
  0
LINE
  5
2AF
330
1F
100
AcDbEntity
  8
0
  6
Continuous
 62
     7
370
    25
100
AcDbLine
 10
0.101764172
 20
0.1754914252
 30
0.0
 11
0.101764172
 21
0.1755247585
 31
0.0
  0
LINE
  5
2B0
330
1F
100
AcDbEntity
  8
0
  6
Continuous
 62
     7
370
    25
100
AcDbLine
 10
0.100864172
 20
0.1755247585
 30
0.0
 11
0.100864172
 21
0.1754914252
 31
0.0
  0
LINE
  5
2B1
330
1F
100
AcDbEntity
  8
0
  6
Continuous
 62
     7
370
    25
100
AcDbLine
 10
0.101764172
 20
0.1753247585
 30
0.0
 11
0.101764172
 21
0.1753580918
 31
0.0
  0
LINE
  5
2B2
330
1F
100
AcDbEntity
  8
0
  6
Continuous
 62
     7
370
    25
100
AcDbLine
 10
0.100864172
 20
0.1753580918
 30
0.0
 11
0.100864172
 21
0.1753247585
 31
0.0
  0
LINE
  5
2B3
330
1F
100
AcDbEntity
  8
0
  6
Continuous
 62
     7
370
    25
100
AcDbLine
 10
0.101764172
 20
0.1751580918
 30
0.0
 11
0.101764172
 21
0.1751914252
 31
0.0
  0
LINE
  5
2B4
330
1F
100
AcDbEntity
  8
0
  6
Continuous
 62
     7
370
    25
100
AcDbLine
 10
0.100864172
 20
0.1751914252
 30
0.0
 11
0.100864172
 21
0.1751580918
 31
0.0
  0
LINE
  5
2B5
330
1F
100
AcDbEntity
  8
0
  6
Continuous
 62
     7
370
    25
100
AcDbLine
 10
0.101764172
 20
0.1749914252
 30
0.0
 11
0.101764172
 21
0.1750247585
 31
0.0
  0
LINE
  5
2B6
330
1F
100
AcDbEntity
  8
0
  6
Continuous
 62
     7
370
    25
100
AcDbLine
 10
0.100864172
 20
0.1750247585
 30
0.0
 11
0.100864172
 21
0.1749914252
 31
0.0
  0
ELLIPSE
  5
2B7
330
1F
100
AcDbEntity
  8
0
  6
Continuous
 62
     7
370
    25
100
AcDbEllipse
 10
0.101314172
 20
0.1744792531
 30
0.0
 11
-0.0004333333333333411
 21
0.0
 31
0.0
210
0.0
220
-1.189524669241229E-13
230
1.0
 40
0.5384615385
 41
1.570796326794897
 42
3.141592653589793
  0
ELLIPSE
  5
2B8
330
1F
100
AcDbEntity
  8
0
  6
Continuous
 62
     7
370
    25
100
AcDbEllipse
 10
0.101314172
 20
0.1744792531
 30
0.0
 11
0.0004333333333333272
 21
0.0
 31
0.0
210
0.0
220
-1.189524669241229E-13
230
1.0
 40
0.5384615385
 41
3.141592653589793
 42
4.712388980384697
  0
LINE
  5
2B9
330
1F
100
AcDbEntity
  8
0
  6
Continuous
 62
     7
370
    25
100
AcDbLine
 10
0.1065505279
 20
0.1757792531
 30
0.0
 11
0.1067082631
 21
0.175583175
 31
0.0
  0
LINE
  5
2BA
330
1F
100
AcDbEntity
  8
0
  6
Continuous
 62
     7
370
    25
100
AcDbLine
 10
0.1068723231
 20
0.1754086298
 30
0.0
 11
0.1068931294
 21
0.175387055
 31
0.0
  0
ARC
  5
2BB
330
1F
100
AcDbEntity
  8
0
  6
Continuous
 62
     7
370
    25
100
AcDbCircle
 10
0.1092270948
 20
0.1777708753
 30
0.0
 40
0.0033254543375954
100
AcDbArc
 50
46.3891287116
 51
135.2468096602
  0
LWPOLYLINE
  5
2BC
330
1F
100
AcDbEntity
  8
0
  6
Continuous
 62
     7
370
    25
100
AcDbPolyline
 90
        3
 70
   128
 43
0.0
 10
0.1067059034
 20
0.1799376375
 10
0.1066654947
 20
0.1798934558
 10
0.1066547702
 20
0.1798792531
  0
ARC
  5
2BD
330
1F
100
AcDbEntity
  8
0
  6
Continuous
 62
     7
370
    25
100
AcDbCircle
 10
0.1261501518
 20
0.18221926
 30
0.0
 40
0.05
100
AcDbArc
 50
359.6308280861
 51
90.0028962026
  0
LINE
  5
2BE
330
1F
100
AcDbEntity
  8
0
  6
Continuous
 62
     7
370
    25
100
AcDbLine
 10
0.1760954193
 20
0.1735637656
 30
0.0
 11
0.1761491139
 21
0.1818970989
 31
0.0
  0
ARC
  5
2BF
330
1F
100
AcDbEntity
  8
0
  6
Continuous
 62
     7
370
    25
100
AcDbCircle
 10
0.092249437
 20
0.1822175464
 30
0.0
 40
0.05
100
AcDbArc
 50
90.0028962026
 51
179.6308280861
  0
LINE
  5
2C0
330
1F
100
AcDbEntity
  8
0
  6
Continuous
 62
     7
370
    25
100
AcDbLine
 10
0.0921982698
 20
0.1238842131
 30
0.0
 11
0.1260989846
 21
0.1238859267
 31
0.0
  0
ARC
  5
2C1
330
1F
100
AcDbEntity
  8
0
  6
Continuous
 62
     7
370
    25
100
AcDbCircle
 10
0.0921957424
 20
0.173884213
 30
0.0
 40
0.05
100
AcDbArc
 50
179.6308280861
 51
270.0028962026
  0
ARC
  5
2C2
330
1F
100
AcDbEntity
  8
0
  6
Continuous
 62
     7
370
    25
100
AcDbCircle
 10
0.1260964572
 20
0.1738859267
 30
0.0
 40
0.05
100
AcDbArc
 50
270.0028962026
 51
359.6308280861
  0
LINE
  5
2C3
330
1F
100
AcDbEntity
  8
0
  6
Continuous
 62
     7
370
    25
100
AcDbLine
 10
0.1261476244
 20
0.2322192599
 30
0.0
 11
0.0922469096
 21
0.2322175463
 31
0.0
  0
LINE
  5
2C4
330
1F
100
AcDbEntity
  8
0
  6
Continuous
 62
     7
370
    25
100
AcDbLine
 10
0.0422504749
 20
0.1825397074
 30
0.0
 11
0.0421967803
 21
0.1742063741
 31
0.0
  0
CIRCLE
  5
2C5
330
1F
100
AcDbEntity
  8
0
  6
Continuous
 62
     7
370
    25
100
AcDbCircle
 10
0.0960375302
 20
0.1771975862
 30
0.0
 40
0.0002539996042007
  0
LINE
  5
2C6
330
1F
100
AcDbEntity
  8
0
  6
Continuous
 62
     7
370
    25
100
AcDbLine
 10
0.0961233597
 20
0.1772410909
 30
0.0
 11
0.0961181212
 21
0.1771450086
 31
0.0
  0
LINE
  5
2C7
330
1F
100
AcDbEntity
  8
0
  6
Continuous
 62
     7
370
    25
100
AcDbLine
 10
0.0960427695
 20
0.1772936688
 30
0.0
 11
0.0961233597
 21
0.1772410909
 31
0.0
  0
LINE
  5
2C8
330
1F
100
AcDbEntity
  8
0
  6
Continuous
 62
     7
370
    25
100
AcDbLine
 10
0.095956941
 20
0.1772501643
 30
0.0
 11
0.0960427695
 21
0.1772936688
 31
0.0
  0
LINE
  5
2C9
330
1F
100
AcDbEntity
  8
0
  6
Continuous
 62
     7
370
    25
100
AcDbLine
 10
0.0959517025
 20
0.1771540819
 30
0.0
 11
0.095956941
 21
0.1772501643
 31
0.0
  0
LINE
  5
2CA
330
1F
100
AcDbEntity
  8
0
  6
Continuous
 62
     7
370
    25
100
AcDbLine
 10
0.0960322926
 20
0.1771015041
 30
0.0
 11
0.0959517025
 21
0.1771540819
 31
0.0
  0
LINE
  5
2CB
330
1F
100
AcDbEntity
  8
0
  6
Continuous
 62
     7
370
    25
100
AcDbLine
 10
0.0961181212
 20
0.1771450086
 30
0.0
 11
0.0960322926
 21
0.1771015041
 31
0.0
  0
LINE
  5
2CC
330
1F
100
AcDbEntity
  8
0
  6
Continuous
 62
     7
370
    25
100
AcDbLine
 10
0.096000167
 20
0.1772719165
 30
0.0
 11
0.0960429059
 21
0.1772935798
 31
0.0
  0
LINE
  5
2CD
330
1F
100
AcDbEntity
  8
0
  6
Continuous
 62
     7
370
    25
100
AcDbLine
 10
0.0959572527
 20
0.1772501643
 30
0.0
 11
0.096000167
 21
0.1772719165
 31
0.0
  0
LINE
  5
2CE
330
1F
100
AcDbEntity
  8
0
  6
Continuous
 62
     7
370
    25
100
AcDbLine
 10
0.0959572527
 20
0.1772501643
 30
0.0
 11
0.095956941
 21
0.1772501643
 31
0.0
  0
LINE
  5
2CF
330
1F
100
AcDbEntity
  8
0
  6
Continuous
 62
     7
370
    25
100
AcDbLine
 10
0.0959520142
 20
0.1771540819
 30
0.0
 11
0.0959517025
 21
0.1771540819
 31
0.0
  0
LINE
  5
2D0
330
1F
100
AcDbEntity
  8
0
  6
Continuous
 62
     7
370
    25
100
AcDbLine
 10
0.0959923093
 20
0.177127793
 30
0.0
 11
0.0959520142
 21
0.1771540819
 31
0.0
  0
LINE
  5
2D1
330
1F
100
AcDbEntity
  8
0
  6
Continuous
 62
     7
370
    25
100
AcDbLine
 10
0.096032468
 20
0.177101593
 30
0.0
 11
0.0959923093
 21
0.177127793
 31
0.0
  0
LINE
  5
2D2
330
1F
100
AcDbEntity
  8
0
  6
Continuous
 62
     7
370
    25
100
AcDbLine
 10
0.0959546335
 20
0.1772021231
 30
0.0
 11
0.0959572527
 21
0.1772501643
 31
0.0
  0
LINE
  5
2D3
330
1F
100
AcDbEntity
  8
0
  6
Continuous
 62
     7
370
    25
100
AcDbLine
 10
0.0959520142
 20
0.1771540819
 30
0.0
 11
0.0959546335
 21
0.1772021231
 31
0.0
  0
ARC
  5
2D4
330
1F
100
AcDbEntity
  8
0
  6
Continuous
 62
     7
370
    25
100
AcDbCircle
 10
0.0960378424
 20
0.1771975863
 30
0.0
 40
0.0000833333460135
100
AcDbArc
 50
300.2123601882
 51
351.9253763842
  0
ARC
  5
2D5
330
1F
100
AcDbEntity
  8
0
  6
Continuous
 62
     7
370
    25
100
AcDbCircle
 10
0.0960378428
 20
0.1771975857
 30
0.0
 40
0.0000833325861208
100
AcDbArc
 50
236.8791148173
 51
293.5464515977
  0
ARC
  5
2D6
330
1F
100
AcDbEntity
  8
0
  6
Continuous
 62
     7
370
    25
100
AcDbCircle
 10
0.0960378433
 20
0.1771975864
 30
0.0
 40
0.0000833334531886
100
AcDbArc
 50
176.8792340451
 51
236.8790731704
  0
ARC
  5
2D7
330
1F
100
AcDbEntity
  8
0
  6
Continuous
 62
     7
370
    25
100
AcDbCircle
 10
0.0960378433
 20
0.1771975865
 30
0.0
 40
0.0000833333505149
100
AcDbArc
 50
116.8794481352
 51
176.8793385023
  0
ARC
  5
2D8
330
1F
100
AcDbEntity
  8
0
  6
Continuous
 62
     7
370
    25
100
AcDbCircle
 10
0.0960378428
 20
0.1771975872
 30
0.0
 40
0.0000833325806834
100
AcDbArc
 50
60.5432702976
 51
116.8793877109
  0
ARC
  5
2D9
330
1F
100
AcDbEntity
  8
0
  6
Continuous
 62
     7
370
    25
100
AcDbCircle
 10
0.0960378423
 20
0.1771975865
 30
0.0
 40
0.0000833334544486
100
AcDbArc
 50
1.8331926485
 51
53.2149443777
  0
CIRCLE
  5
2DA
330
1F
100
AcDbEntity
  8
0
  6
Continuous
 62
     7
370
    25
100
AcDbCircle
 10
0.099704179
 20
0.1771975868
 30
0.0
 40
0.0002539996529728
  0
LINE
  5
2DB
330
1F
100
AcDbEntity
  8
0
  6
Continuous
 62
     7
370
    25
100
AcDbLine
 10
0.0997657858
 20
0.1772715049
 30
0.0
 11
0.0997989978
 21
0.1771811932
 31
0.0
  0
LINE
  5
2DC
330
1F
100
AcDbEntity
  8
0
  6
Continuous
 62
     7
370
    25
100
AcDbLine
 10
0.0996709679
 20
0.1772878982
 30
0.0
 11
0.0997657858
 21
0.1772715049
 31
0.0
  0
LINE
  5
2DD
330
1F
100
AcDbEntity
  8
0
  6
Continuous
 62
     7
370
    25
100
AcDbLine
 10
0.099609362
 20
0.1772139797
 30
0.0
 11
0.0996709679
 21
0.1772878982
 31
0.0
  0
LINE
  5
2DE
330
1F
100
AcDbEntity
  8
0
  6
Continuous
 62
     7
370
    25
100
AcDbLine
 10
0.0996425741
 20
0.1771236679
 30
0.0
 11
0.099609362
 21
0.1772139797
 31
0.0
  0
LINE
  5
2DF
330
1F
100
AcDbEntity
  8
0
  6
Continuous
 62
     7
370
    25
100
AcDbLine
 10
0.099737392
 20
0.1771072747
 30
0.0
 11
0.0996425741
 21
0.1771236679
 31
0.0
  0
LINE
  5
2E0
330
1F
100
AcDbEntity
  8
0
  6
Continuous
 62
     7
370
    25
100
AcDbLine
 10
0.0997989978
 20
0.1771811932
 30
0.0
 11
0.099737392
 21
0.1771072747
 31
0.0
  0
LINE
  5
2E1
330
1F
100
AcDbEntity
  8
0
  6
Continuous
 62
     7
370
    25
100
AcDbLine
 10
0.0996428858
 20
0.1771236679
 30
0.0
 11
0.0996425741
 21
0.1771236679
 31
0.0
  0
LINE
  5
2E2
330
1F
100
AcDbEntity
  8
0
  6
Continuous
 62
     7
370
    25
100
AcDbLine
 10
0.0996902948
 20
0.1771154713
 30
0.0
 11
0.0996428858
 21
0.1771236679
 31
0.0
  0
LINE
  5
2E3
330
1F
100
AcDbEntity
  8
0
  6
Continuous
 62
     7
370
    25
100
AcDbLine
 10
0.0997374312
 20
0.1771073218
 30
0.0
 11
0.0996902948
 21
0.1771154713
 31
0.0
  0
LINE
  5
2E4
330
1F
100
AcDbEntity
  8
0
  6
Continuous
 62
     7
370
    25
100
AcDbLine
 10
0.0996404767
 20
0.1772509389
 30
0.0
 11
0.0996712404
 21
0.177287851
 31
0.0
  0
LINE
  5
2E5
330
1F
100
AcDbEntity
  8
0
  6
Continuous
 62
     7
370
    25
100
AcDbLine
 10
0.0996096738
 20
0.1772139797
 30
0.0
 11
0.0996404767
 21
0.1772509389
 31
0.0
  0
LINE
  5
2E6
330
1F
100
AcDbEntity
  8
0
  6
Continuous
 62
     7
370
    25
100
AcDbLine
 10
0.0996096738
 20
0.1772139797
 30
0.0
 11
0.099609362
 21
0.1772139797
 31
0.0
  0
LINE
  5
2E7
330
1F
100
AcDbEntity
  8
0
  6
Continuous
 62
     7
370
    25
100
AcDbLine
 10
0.0996262798
 20
0.1771688238
 30
0.0
 11
0.0996096738
 21
0.1772139797
 31
0.0
  0
LINE
  5
2E8
330
1F
100
AcDbEntity
  8
0
  6
Continuous
 62
     7
370
    25
100
AcDbLine
 10
0.0996428858
 20
0.1771236679
 30
0.0
 11
0.0996262798
 21
0.1771688238
 31
0.0
  0
ARC
  5
2E9
330
1F
100
AcDbEntity
  8
0
  6
Continuous
 62
     7
370
    25
100
AcDbCircle
 10
0.0997044909
 20
0.1771975864
 30
0.0
 40
0.0000833336572463
100
AcDbArc
 50
324.5360745139
 51
15.388168523
  0
ARC
  5
2EA
330
1F
100
AcDbEntity
  8
0
  6
Continuous
 62
     7
370
    25
100
AcDbCircle
 10
0.0997044917
 20
0.1771975858
 30
0.0
 40
0.0000833326920805
100
AcDbArc
 50
260.191026023
 51
315.8463527501
  0
ARC
  5
2EB
330
1F
100
AcDbEntity
  8
0
  6
Continuous
 62
     7
370
    25
100
AcDbCircle
 10
0.0997044919
 20
0.1771975861
 30
0.0
 40
0.000083333032584
100
AcDbArc
 50
200.1908824675
 51
260.190931506
  0
ARC
  5
2EC
330
1F
100
AcDbEntity
  8
0
  6
Continuous
 62
     7
370
    25
100
AcDbCircle
 10
0.0997044924
 20
0.1771975864
 30
0.0
 40
0.0000833336444417
100
AcDbArc
 50
140.1912188352
 51
200.1909625115
  0
ARC
  5
2ED
330
1F
100
AcDbEntity
  8
0
  6
Continuous
 62
     7
370
    25
100
AcDbCircle
 10
0.0997044917
 20
0.177197587
 30
0.0
 40
0.0000833327216857
100
AcDbArc
 50
82.2367859648
 51
140.1912367389
  0
ARC
  5
2EE
330
1F
100
AcDbEntity
  8
0
  6
Continuous
 62
     7
370
    25
100
AcDbCircle
 10
0.0997044915
 20
0.1771975868
 30
0.0
 40
0.000083333012668
100
AcDbArc
 50
24.9936968414
 51
78.1451861784
  0
LINE
  5
2EF
330
1F
100
AcDbEntity
  8
0
  6
Continuous
 62
     7
370
    25
100
AcDbLine
 10
0.1190418938
 20
0.1772918401
 30
0.0
 11
0.1191332084
 21
0.1772614951
 31
0.0
  0
LINE
  5
2F0
330
1F
100
AcDbEntity
  8
0
  6
Continuous
 62
     7
370
    25
100
AcDbLine
 10
0.1189699571
 20
0.1772279314
 30
0.0
 11
0.1190418938
 21
0.1772918401
 31
0.0
  0
LINE
  5
2F1
330
1F
100
AcDbEntity
  8
0
  6
Continuous
 62
     7
370
    25
100
AcDbLine
 10
0.118989335
 20
0.1771336778
 30
0.0
 11
0.1189699571
 21
0.1772279314
 31
0.0
  0
LINE
  5
2F2
330
1F
100
AcDbEntity
  8
0
  6
Continuous
 62
     7
370
    25
100
AcDbLine
 10
0.1190806496
 20
0.1771033328
 30
0.0
 11
0.118989335
 21
0.1771336778
 31
0.0
  0
LINE
  5
2F3
330
1F
100
AcDbEntity
  8
0
  6
Continuous
 62
     7
370
    25
100
AcDbLine
 10
0.1191525863
 20
0.1771672414
 30
0.0
 11
0.1190806496
 21
0.1771033328
 31
0.0
  0
LINE
  5
2F4
330
1F
100
AcDbEntity
  8
0
  6
Continuous
 62
     7
370
    25
100
AcDbLine
 10
0.1191332084
 20
0.1772614951
 30
0.0
 11
0.1191525863
 21
0.1771672414
 31
0.0
  0
CIRCLE
  5
2F5
330
1F
100
AcDbEntity
  8
0
  6
Continuous
 62
     7
370
    25
100
AcDbCircle
 10
0.1190612711
 20
0.1771975873
 30
0.0
 40
0.0002539992746317
  0
LINE
  5
2F6
330
1F
100
AcDbEntity
  8
0
  6
Continuous
 62
     7
370
    25
100
AcDbLine
 10
0.1189896467
 20
0.1771336778
 30
0.0
 11
0.118989335
 21
0.1771336778
 31
0.0
  0
LINE
  5
2F7
330
1F
100
AcDbEntity
  8
0
  6
Continuous
 62
     7
370
    25
100
AcDbLine
 10
0.119035304
 20
0.1771185053
 30
0.0
 11
0.1189896467
 21
0.1771336778
 31
0.0
  0
LINE
  5
2F8
330
1F
100
AcDbEntity
  8
0
  6
Continuous
 62
     7
370
    25
100
AcDbLine
 10
0.1190807345
 20
0.1771034082
 30
0.0
 11
0.119035304
 21
0.1771185053
 31
0.0
  0
LINE
  5
2F9
330
1F
100
AcDbEntity
  8
0
  6
Continuous
 62
     7
370
    25
100
AcDbLine
 10
0.1190062372
 20
0.1772598858
 30
0.0
 11
0.1190421207
 21
0.1772917647
 31
0.0
  0
LINE
  5
2FA
330
1F
100
AcDbEntity
  8
0
  6
Continuous
 62
     7
370
    25
100
AcDbLine
 10
0.1189702688
 20
0.1772279314
 30
0.0
 11
0.1190062372
 21
0.1772598858
 31
0.0
  0
LINE
  5
2FB
330
1F
100
AcDbEntity
  8
0
  6
Continuous
 62
     7
370
    25
100
AcDbLine
 10
0.1189702688
 20
0.1772279314
 30
0.0
 11
0.1189699571
 21
0.1772279314
 31
0.0
  0
LINE
  5
2FC
330
1F
100
AcDbEntity
  8
0
  6
Continuous
 62
     7
370
    25
100
AcDbLine
 10
0.1189799578
 20
0.1771808046
 30
0.0
 11
0.1189702688
 21
0.1772279314
 31
0.0
  0
LINE
  5
2FD
330
1F
100
AcDbEntity
  8
0
  6
Continuous
 62
     7
370
    25
100
AcDbLine
 10
0.1189896467
 20
0.1771336778
 30
0.0
 11
0.1189799578
 21
0.1771808046
 31
0.0
  0
ARC
  5
2FE
330
1F
100
AcDbEntity
  8
0
  6
Continuous
 62
     7
370
    25
100
AcDbCircle
 10
0.1190615832
 20
0.1771975867
 30
0.0
 40
0.0000833331825305
100
AcDbArc
 50
16.5242320639
 51
68.8341891434
  0
ARC
  5
2FF
330
1F
100
AcDbEntity
  8
0
  6
Continuous
 62
     7
370
    25
100
AcDbCircle
 10
0.1190615828
 20
0.1771975864
 30
0.0
 40
0.0000833335756947
100
AcDbArc
 50
315.6578238176
 51
6.7112036281
  0
ARC
  5
300
330
1F
100
AcDbEntity
  8
0
  6
Continuous
 62
     7
370
    25
100
AcDbCircle
 10
0.1190615835
 20
0.1771975857
 30
0.0
 40
0.000083332613782
100
AcDbArc
 50
251.6177122298
 51
307.5780903292
  0
ARC
  5
301
330
1F
100
AcDbEntity
  8
0
  6
Continuous
 62
     7
370
    25
100
AcDbCircle
 10
0.1190615837
 20
0.1771975862
 30
0.0
 40
0.000083333195067
100
AcDbArc
 50
191.6176632434
 51
251.6176311905
  0
ARC
  5
302
330
1F
100
AcDbEntity
  8
0
  6
Continuous
 62
     7
370
    25
100
AcDbCircle
 10
0.1190615841
 20
0.1771975864
 30
0.0
 40
0.0000833335676437
100
AcDbArc
 50
131.6179777965
 51
191.6177598005
  0
ARC
  5
303
330
1F
100
AcDbEntity
  8
0
  6
Continuous
 62
     7
370
    25
100
AcDbCircle
 10
0.1190615835
 20
0.1771975871
 30
0.0
 40
0.0000833326330206
100
AcDbArc
 50
74.4011737401
 51
131.6179649874
  0
LINE
  5
304
330
1F
100
AcDbEntity
  8
0
  6
Continuous
 62
     7
370
    25
100
AcDbLine
 10
0.0961136232
 20
0.178523153
 30
0.0
 11
0.0961265856
 21
0.178427805
 31
0.0
  0
LINE
  5
305
330
1F
100
AcDbEntity
  8
0
  6
Continuous
 62
     7
370
    25
100
AcDbLine
 10
0.0960245686
 20
0.178559601
 30
0.0
 11
0.0961136232
 21
0.178523153
 31
0.0
  0
LINE
  5
306
330
1F
100
AcDbEntity
  8
0
  6
Continuous
 62
     7
370
    25
100
AcDbLine
 10
0.0959484765
 20
0.1785007012
 30
0.0
 11
0.0960245686
 21
0.178559601
 31
0.0
  0
LINE
  5
307
330
1F
100
AcDbEntity
  8
0
  6
Continuous
 62
     7
370
    25
100
AcDbLine
 10
0.095961439
 20
0.1784053532
 30
0.0
 11
0.0959484765
 21
0.1785007012
 31
0.0
  0
LINE
  5
308
330
1F
100
AcDbEntity
  8
0
  6
Continuous
 62
     7
370
    25
100
AcDbLine
 10
0.0960504935
 20
0.1783689051
 30
0.0
 11
0.095961439
 21
0.1784053532
 31
0.0
  0
LINE
  5
309
330
1F
100
AcDbEntity
  8
0
  6
Continuous
 62
     7
370
    25
100
AcDbLine
 10
0.0961265856
 20
0.178427805
 30
0.0
 11
0.0960504935
 21
0.1783689051
 31
0.0
  0
CIRCLE
  5
30A
330
1F
100
AcDbEntity
  8
0
  6
Continuous
 62
     7
370
    25
100
AcDbCircle
 10
0.0960375302
 20
0.1784642531
 30
0.0
 40
0.0002539996486252
  0
LINE
  5
30B
330
1F
100
AcDbEntity
  8
0
  6
Continuous
 62
     7
370
    25
100
AcDbLine
 10
0.0959617507
 20
0.1784053532
 30
0.0
 11
0.095961439
 21
0.1784053532
 31
0.0
  0
LINE
  5
30C
330
1F
100
AcDbEntity
  8
0
  6
Continuous
 62
     7
370
    25
100
AcDbLine
 10
0.096006278
 20
0.1783871292
 30
0.0
 11
0.0959617507
 21
0.1784053532
 31
0.0
  0
LINE
  5
30D
330
1F
100
AcDbEntity
  8
0
  6
Continuous
 62
     7
370
    25
100
AcDbLine
 10
0.0960506014
 20
0.1783689886
 30
0.0
 11
0.096006278
 21
0.1783871292
 31
0.0
  0
LINE
  5
30E
330
1F
100
AcDbEntity
  8
0
  6
Continuous
 62
     7
370
    25
100
AcDbLine
 10
0.0959868343
 20
0.1785301511
 30
0.0
 11
0.0960247725
 21
0.1785595176
 31
0.0
  0
LINE
  5
30F
330
1F
100
AcDbEntity
  8
0
  6
Continuous
 62
     7
370
    25
100
AcDbLine
 10
0.0959487882
 20
0.1785007012
 30
0.0
 11
0.0959868343
 21
0.1785301511
 31
0.0
  0
LINE
  5
310
330
1F
100
AcDbEntity
  8
0
  6
Continuous
 62
     7
370
    25
100
AcDbLine
 10
0.0959487882
 20
0.1785007012
 30
0.0
 11
0.0959484765
 21
0.1785007012
 31
0.0
  0
LINE
  5
311
330
1F
100
AcDbEntity
  8
0
  6
Continuous
 62
     7
370
    25
100
AcDbLine
 10
0.0959552695
 20
0.1784530272
 30
0.0
 11
0.0959487882
 21
0.1785007012
 31
0.0
  0
LINE
  5
312
330
1F
100
AcDbEntity
  8
0
  6
Continuous
 62
     7
370
    25
100
AcDbLine
 10
0.0959617507
 20
0.1784053532
 30
0.0
 11
0.0959552695
 21
0.1784530272
 31
0.0
  0
ARC
  5
313
330
1F
100
AcDbEntity
  8
0
  6
Continuous
 62
     7
370
    25
100
AcDbCircle
 10
0.0960378422
 20
0.1784642531
 30
0.0
 40
0.000083333524792
100
AcDbArc
 50
311.6203311356
 51
2.8069168235
  0
ARC
  5
314
330
1F
100
AcDbEntity
  8
0
  6
Continuous
 62
     7
370
    25
100
AcDbCircle
 10
0.0960378428
 20
0.1784642524
 30
0.0
 40
0.0000833325929507
100
AcDbArc
 50
247.7417955449
 51
303.8637877707
  0
ARC
  5
315
330
1F
100
AcDbEntity
  8
0
  6
Continuous
 62
     7
370
    25
100
AcDbCircle
 10
0.0960378432
 20
0.1784642529
 30
0.0
 40
0.0000833332675123
100
AcDbArc
 50
187.7417913111
 51
247.7417231026
  0
ARC
  5
316
330
1F
100
AcDbEntity
  8
0
  6
Continuous
 62
     7
370
    25
100
AcDbCircle
 10
0.0960378434
 20
0.1784642531
 30
0.0
 40
0.000083333519634
100
AcDbArc
 50
127.742086613
 51
187.7418925773
  0
ARC
  5
317
330
1F
100
AcDbEntity
  8
0
  6
Continuous
 62
     7
370
    25
100
AcDbCircle
 10
0.0960378428
 20
0.1784642538
 30
0.0
 40
0.0000833326061715
100
AcDbArc
 50
70.7924111487
 51
127.7420603042
  0
ARC
  5
318
330
1F
100
AcDbEntity
  8
0
  6
Continuous
 62
     7
370
    25
100
AcDbCircle
 10
0.0960378425
 20
0.1784642533
 30
0.0
 40
0.0000833332586099
100
AcDbArc
 50
12.6767756667
 51
64.6911291547
  0
LINE
  5
319
330
1F
100
AcDbEntity
  8
0
  6
Continuous
 62
     7
370
    25
100
AcDbLine
 10
0.1190283974
 20
0.1785546883
 30
0.0
 11
0.1191231534
 21
0.1785379408
 31
0.0
  0
LINE
  5
31A
330
1F
100
AcDbEntity
  8
0
  6
Continuous
 62
     7
370
    25
100
AcDbLine
 10
0.1189665157
 20
0.1784810006
 30
0.0
 11
0.1190283974
 21
0.1785546883
 31
0.0
  0
LINE
  5
31B
330
1F
100
AcDbEntity
  8
0
  6
Continuous
 62
     7
370
    25
100
AcDbLine
 10
0.11899939
 20
0.1783905654
 30
0.0
 11
0.1189665157
 21
0.1784810006
 31
0.0
  0
LINE
  5
31C
330
1F
100
AcDbEntity
  8
0
  6
Continuous
 62
     7
370
    25
100
AcDbLine
 10
0.119094146
 20
0.1783738179
 30
0.0
 11
0.11899939
 21
0.1783905654
 31
0.0
  0
LINE
  5
31D
330
1F
100
AcDbEntity
  8
0
  6
Continuous
 62
     7
370
    25
100
AcDbLine
 10
0.1191560277
 20
0.1784475056
 30
0.0
 11
0.119094146
 21
0.1783738179
 31
0.0
  0
LINE
  5
31E
330
1F
100
AcDbEntity
  8
0
  6
Continuous
 62
     7
370
    25
100
AcDbLine
 10
0.1191231534
 20
0.1785379408
 30
0.0
 11
0.1191560277
 21
0.1784475056
 31
0.0
  0
CIRCLE
  5
31F
330
1F
100
AcDbEntity
  8
0
  6
Continuous
 62
     7
370
    25
100
AcDbCircle
 10
0.1190612713
 20
0.1784642539
 30
0.0
 40
0.000253999206591
  0
LINE
  5
320
330
1F
100
AcDbEntity
  8
0
  6
Continuous
 62
     7
370
    25
100
AcDbLine
 10
0.1189997018
 20
0.1783905654
 30
0.0
 11
0.11899939
 21
0.1783905654
 31
0.0
  0
LINE
  5
321
330
1F
100
AcDbEntity
  8
0
  6
Continuous
 62
     7
370
    25
100
AcDbLine
 10
0.1190470798
 20
0.1783821916
 30
0.0
 11
0.1189997018
 21
0.1783905654
 31
0.0
  0
LINE
  5
322
330
1F
100
AcDbEntity
  8
0
  6
Continuous
 62
     7
370
    25
100
AcDbLine
 10
0.1190941863
 20
0.1783738659
 30
0.0
 11
0.1190470798
 21
0.1783821916
 31
0.0
  0
LINE
  5
323
330
1F
100
AcDbEntity
  8
0
  6
Continuous
 62
     7
370
    25
100
AcDbLine
 10
0.1189977683
 20
0.1785178445
 30
0.0
 11
0.1190286689
 21
0.1785546403
 31
0.0
  0
LINE
  5
324
330
1F
100
AcDbEntity
  8
0
  6
Continuous
 62
     7
370
    25
100
AcDbLine
 10
0.1189668275
 20
0.1784810006
 30
0.0
 11
0.1189977683
 21
0.1785178445
 31
0.0
  0
LINE
  5
325
330
1F
100
AcDbEntity
  8
0
  6
Continuous
 62
     7
370
    25
100
AcDbLine
 10
0.1189668275
 20
0.1784810006
 30
0.0
 11
0.1189665157
 21
0.1784810006
 31
0.0
  0
LINE
  5
326
330
1F
100
AcDbEntity
  8
0
  6
Continuous
 62
     7
370
    25
100
AcDbLine
 10
0.1189832646
 20
0.178435783
 30
0.0
 11
0.1189668275
 21
0.1784810006
 31
0.0
  0
LINE
  5
327
330
1F
100
AcDbEntity
  8
0
  6
Continuous
 62
     7
370
    25
100
AcDbLine
 10
0.1189997018
 20
0.1783905654
 30
0.0
 11
0.1189832646
 21
0.178435783
 31
0.0
  0
ARC
  5
328
330
1F
100
AcDbEntity
  8
0
  6
Continuous
 62
     7
370
    25
100
AcDbCircle
 10
0.1190615827
 20
0.1784642531
 30
0.0
 40
0.0000833336557767
100
AcDbArc
 50
324.3151498937
 51
15.170750431
  0
ARC
  5
329
330
1F
100
AcDbEntity
  8
0
  6
Continuous
 62
     7
370
    25
100
AcDbCircle
 10
0.1190615833
 20
0.1784642534
 30
0.0
 40
0.0000833330168489
100
AcDbArc
 50
24.7828472495
 51
77.9090618494
  0
ARC
  5
32A
330
1F
100
AcDbEntity
  8
0
  6
Continuous
 62
     7
370
    25
100
AcDbCircle
 10
0.1190615834
 20
0.1784642525
 30
0.0
 40
0.0000833326896196
100
AcDbArc
 50
259.9768897725
 51
315.6390081761
  0
ARC
  5
32B
330
1F
100
AcDbEntity
  8
0
  6
Continuous
 62
     7
370
    25
100
AcDbCircle
 10
0.1190615836
 20
0.1784642528
 30
0.0
 40
0.0000833330365954
100
AcDbArc
 50
199.9767484559
 51
259.9767954924
  0
ARC
  5
32C
330
1F
100
AcDbEntity
  8
0
  6
Continuous
 62
     7
370
    25
100
AcDbCircle
 10
0.1190615842
 20
0.1784642531
 30
0.0
 40
0.000083333643059
100
AcDbArc
 50
139.9770846402
 51
199.9768290066
  0
ARC
  5
32D
330
1F
100
AcDbEntity
  8
0
  6
Continuous
 62
     7
370
    25
100
AcDbCircle
 10
0.1190615835
 20
0.1784642537
 30
0.0
 40
0.0000833327190322
100
AcDbArc
 50
82.0446381427
 51
139.9771017768
  0
LINE
  5
32E
330
1F
100
AcDbEntity
  8
0
  6
Continuous
 62
     7
370
    25
100
AcDbLine
 10
0.1227486415
 20
0.177291554
 30
0.0
 11
0.1228196589
 21
0.1772266252
 31
0.0
  0
LINE
  5
32F
330
1F
100
AcDbEntity
  8
0
  6
Continuous
 62
     7
370
    25
100
AcDbLine
 10
0.1226569031
 20
0.1772625152
 30
0.0
 11
0.1227486415
 21
0.177291554
 31
0.0
  0
LINE
  5
330
330
1F
100
AcDbEntity
  8
0
  6
Continuous
 62
     7
370
    25
100
AcDbLine
 10
0.1226361822
 20
0.1771685476
 30
0.0
 11
0.1226569031
 21
0.1772625152
 31
0.0
  0
LINE
  5
331
330
1F
100
AcDbEntity
  8
0
  6
Continuous
 62
     7
370
    25
100
AcDbLine
 10
0.1227071996
 20
0.1771036189
 30
0.0
 11
0.1226361822
 21
0.1771685476
 31
0.0
  0
LINE
  5
332
330
1F
100
AcDbEntity
  8
0
  6
Continuous
 62
     7
370
    25
100
AcDbLine
 10
0.1227989379
 20
0.1771326577
 30
0.0
 11
0.1227071996
 21
0.1771036189
 31
0.0
  0
LINE
  5
333
330
1F
100
AcDbEntity
  8
0
  6
Continuous
 62
     7
370
    25
100
AcDbLine
 10
0.1228196589
 20
0.1772266252
 30
0.0
 11
0.1227989379
 21
0.1771326577
 31
0.0
  0
CIRCLE
  5
334
330
1F
100
AcDbEntity
  8
0
  6
Continuous
 62
     7
370
    25
100
AcDbCircle
 10
0.1227279196
 20
0.1771975872
 30
0.0
 40
0.0002539994984743
  0
LINE
  5
335
330
1F
100
AcDbEntity
  8
0
  6
Continuous
 62
     7
370
    25
100
AcDbLine
 10
0.1227030841
 20
0.1772770346
 30
0.0
 11
0.1227487217
 21
0.1772914807
 31
0.0
  0
LINE
  5
336
330
1F
100
AcDbEntity
  8
0
  6
Continuous
 62
     7
370
    25
100
AcDbLine
 10
0.1226572149
 20
0.1772625152
 30
0.0
 11
0.1227030841
 21
0.1772770346
 31
0.0
  0
LINE
  5
337
330
1F
100
AcDbEntity
  8
0
  6
Continuous
 62
     7
370
    25
100
AcDbLine
 10
0.1226572149
 20
0.1772625152
 30
0.0
 11
0.1226569031
 21
0.1772625152
 31
0.0
  0
LINE
  5
338
330
1F
100
AcDbEntity
  8
0
  6
Continuous
 62
     7
370
    25
100
AcDbLine
 10
0.1226364939
 20
0.1771685476
 30
0.0
 11
0.1226361822
 21
0.1771685476
 31
0.0
  0
LINE
  5
339
330
1F
100
AcDbEntity
  8
0
  6
Continuous
 62
     7
370
    25
100
AcDbLine
 10
0.1226720026
 20
0.1771360833
 30
0.0
 11
0.1226364939
 21
0.1771685476
 31
0.0
  0
LINE
  5
33A
330
1F
100
AcDbEntity
  8
0
  6
Continuous
 62
     7
370
    25
100
AcDbLine
 10
0.1227074312
 20
0.1771036922
 30
0.0
 11
0.1226720026
 21
0.1771360833
 31
0.0
  0
LINE
  5
33B
330
1F
100
AcDbEntity
  8
0
  6
Continuous
 62
     7
370
    25
100
AcDbLine
 10
0.1226468544
 20
0.1772155314
 30
0.0
 11
0.1226572149
 21
0.1772625152
 31
0.0
  0
LINE
  5
33C
330
1F
100
AcDbEntity
  8
0
  6
Continuous
 62
     7
370
    25
100
AcDbLine
 10
0.1226364939
 20
0.1771685476
 30
0.0
 11
0.1226468544
 21
0.1772155314
 31
0.0
  0
ARC
  5
33D
330
1F
100
AcDbEntity
  8
0
  6
Continuous
 62
     7
370
    25
100
AcDbCircle
 10
0.1227282316
 20
0.1771975864
 30
0.0
 40
0.0000833335853877
100
AcDbArc
 50
352.4636806783
 51
43.4923877733
  0
ARC
  5
33E
330
1F
100
AcDbEntity
  8
0
  6
Continuous
 62
     7
370
    25
100
AcDbCircle
 10
0.122728232
 20
0.1771975862
 30
0.0
 40
0.0000833331663025
100
AcDbArc
 50
290.2875675922
 51
342.6655662592
  0
ARC
  5
33F
330
1F
100
AcDbEntity
  8
0
  6
Continuous
 62
     7
370
    25
100
AcDbCircle
 10
0.1227282323
 20
0.1771975857
 30
0.0
 40
0.0000833326397997
100
AcDbArc
 50
227.5643698899
 51
284.8417351472
  0
ARC
  5
340
330
1F
100
AcDbEntity
  8
0
  6
Continuous
 62
     7
370
    25
100
AcDbCircle
 10
0.1227282329
 20
0.1771975864
 30
0.0
 40
0.000083333576779
100
AcDbArc
 50
167.5645825343
 51
227.5643599791
  0
ARC
  5
341
330
1F
100
AcDbEntity
  8
0
  6
Continuous
 62
     7
370
    25
100
AcDbCircle
 10
0.1227282326
 20
0.1771975866
 30
0.0
 40
0.0000833331795891
100
AcDbArc
 50
107.5647021972
 51
167.564677869
  0
ARC
  5
342
330
1F
100
AcDbEntity
  8
0
  6
Continuous
 62
     7
370
    25
100
AcDbCircle
 10
0.1227282323
 20
0.1771975871
 30
0.0
 40
0.0000833326193758
100
AcDbArc
 50
51.6363708045
 51
107.5646195328
  0
CIRCLE
  5
343
330
1F
100
AcDbEntity
  8
0
  6
Continuous
 62
     7
370
    25
100
AcDbCircle
 10
0.0997041789
 20
0.1784642537
 30
0.0
 40
0.0002539996008002
  0
LINE
  5
344
330
1F
100
AcDbEntity
  8
0
  6
Continuous
 62
     7
370
    25
100
AcDbLine
 10
0.0997467402
 20
0.1785505541
 30
0.0
 11
0.0998001986
 21
0.1784705451
 31
0.0
  0
LINE
  5
345
330
1F
100
AcDbEntity
  8
0
  6
Continuous
 62
     7
370
    25
100
AcDbLine
 10
0.0996507216
 20
0.1785442621
 30
0.0
 11
0.0997467402
 21
0.1785505541
 31
0.0
  0
LINE
  5
346
330
1F
100
AcDbEntity
  8
0
  6
Continuous
 62
     7
370
    25
100
AcDbLine
 10
0.0996081613
 20
0.1784579611
 30
0.0
 11
0.0996507216
 21
0.1785442621
 31
0.0
  0
LINE
  5
347
330
1F
100
AcDbEntity
  8
0
  6
Continuous
 62
     7
370
    25
100
AcDbLine
 10
0.0996616196
 20
0.1783779521
 30
0.0
 11
0.0996081613
 21
0.1784579611
 31
0.0
  0
LINE
  5
348
330
1F
100
AcDbEntity
  8
0
  6
Continuous
 62
     7
370
    25
100
AcDbLine
 10
0.0997576383
 20
0.1783842441
 30
0.0
 11
0.0996616196
 21
0.1783779521
 31
0.0
  0
LINE
  5
349
330
1F
100
AcDbEntity
  8
0
  6
Continuous
 62
     7
370
    25
100
AcDbLine
 10
0.0998001986
 20
0.1784705451
 30
0.0
 11
0.0997576383
 21
0.1783842441
 31
0.0
  0
LINE
  5
34A
330
1F
100
AcDbEntity
  8
0
  6
Continuous
 62
     7
370
    25
100
AcDbLine
 10
0.0996990427
 20
0.1785474081
 30
0.0
 11
0.0997467533
 21
0.1785505345
 31
0.0
  0
LINE
  5
34B
330
1F
100
AcDbEntity
  8
0
  6
Continuous
 62
     7
370
    25
100
AcDbLine
 10
0.0996510333
 20
0.1785442621
 30
0.0
 11
0.0996990427
 21
0.1785474081
 31
0.0
  0
LINE
  5
34C
330
1F
100
AcDbEntity
  8
0
  6
Continuous
 62
     7
370
    25
100
AcDbLine
 10
0.0996510333
 20
0.1785442621
 30
0.0
 11
0.0996507216
 21
0.1785442621
 31
0.0
  0
LINE
  5
34D
330
1F
100
AcDbEntity
  8
0
  6
Continuous
 62
     7
370
    25
100
AcDbLine
 10
0.0996297532
 20
0.1785011116
 30
0.0
 11
0.0996510333
 21
0.1785442621
 31
0.0
  0
LINE
  5
34E
330
1F
100
AcDbEntity
  8
0
  6
Continuous
 62
     7
370
    25
100
AcDbLine
 10
0.099608473
 20
0.1784579611
 30
0.0
 11
0.0996297532
 21
0.1785011116
 31
0.0
  0
LINE
  5
34F
330
1F
100
AcDbEntity
  8
0
  6
Continuous
 62
     7
370
    25
100
AcDbLine
 10
0.099608473
 20
0.1784579611
 30
0.0
 11
0.0996081613
 21
0.1784579611
 31
0.0
  0
LINE
  5
350
330
1F
100
AcDbEntity
  8
0
  6
Continuous
 62
     7
370
    25
100
AcDbLine
 10
0.0996352022
 20
0.1784179566
 30
0.0
 11
0.099608473
 21
0.1784579611
 31
0.0
  0
LINE
  5
351
330
1F
100
AcDbEntity
  8
0
  6
Continuous
 62
     7
370
    25
100
AcDbLine
 10
0.0996619183
 20
0.1783779717
 30
0.0
 11
0.0996352022
 21
0.1784179566
 31
0.0
  0
ARC
  5
352
330
1F
100
AcDbEntity
  8
0
  6
Continuous
 62
     7
370
    25
100
AcDbCircle
 10
0.0997044909
 20
0.1784642531
 30
0.0
 40
0.0000833336859393
100
AcDbArc
 50
338.4441557267
 51
29.2286123866
  0
ARC
  5
353
330
1F
100
AcDbEntity
  8
0
  6
Continuous
 62
     7
370
    25
100
AcDbCircle
 10
0.0997044916
 20
0.1784642527
 30
0.0
 40
0.0000833328976837
100
AcDbArc
 50
275.0165988802
 51
329.0544443471
  0
ARC
  5
354
330
1F
100
AcDbEntity
  8
0
  6
Continuous
 62
     7
370
    25
100
AcDbCircle
 10
0.0997044917
 20
0.1784642526
 30
0.0
 40
0.0000833328042343
100
AcDbArc
 50
213.7489711809
 51
272.4817704595
  0
ARC
  5
355
330
1F
100
AcDbEntity
  8
0
  6
Continuous
 62
     7
370
    25
100
AcDbCircle
 10
0.0997044924
 20
0.1784642531
 30
0.0
 40
0.0000833336714293
100
AcDbArc
 50
153.7492802691
 51
213.7490104767
  0
ARC
  5
356
330
1F
100
AcDbEntity
  8
0
  6
Continuous
 62
     7
370
    25
100
AcDbCircle
 10
0.0997044918
 20
0.1784642535
 30
0.0
 40
0.000083332922172
100
AcDbArc
 50
93.7492400931
 51
153.7493442359
  0
ARC
  5
357
330
1F
100
AcDbEntity
  8
0
  6
Continuous
 62
     7
370
    25
100
AcDbCircle
 10
0.0997044916
 20
0.1784642537
 30
0.0
 40
0.0000833327712702
100
AcDbArc
 50
38.2693960015
 51
93.7491411147
  0
LINE
  5
358
330
1F
100
AcDbEntity
  8
0
  6
Continuous
 62
     7
370
    25
100
AcDbLine
 10
0.1227270076
 20
0.1785604738
 30
0.0
 11
0.1228107932
 21
0.1785131541
 31
0.0
  0
LINE
  5
359
330
1F
100
AcDbEntity
  8
0
  6
Continuous
 62
     7
370
    25
100
AcDbLine
 10
0.1226441349
 20
0.1785115728
 30
0.0
 11
0.1227270076
 21
0.1785604738
 31
0.0
  0
LINE
  5
35A
330
1F
100
AcDbEntity
  8
0
  6
Continuous
 62
     7
370
    25
100
AcDbLine
 10
0.1226450478
 20
0.1784153521
 30
0.0
 11
0.1226441349
 21
0.1785115728
 31
0.0
  0
LINE
  5
35B
330
1F
100
AcDbEntity
  8
0
  6
Continuous
 62
     7
370
    25
100
AcDbLine
 10
0.1227288335
 20
0.1783680324
 30
0.0
 11
0.1226450478
 21
0.1784153521
 31
0.0
  0
LINE
  5
35C
330
1F
100
AcDbEntity
  8
0
  6
Continuous
 62
     7
370
    25
100
AcDbLine
 10
0.1228117062
 20
0.1784169334
 30
0.0
 11
0.1227288335
 21
0.1783680324
 31
0.0
  0
LINE
  5
35D
330
1F
100
AcDbEntity
  8
0
  6
Continuous
 62
     7
370
    25
100
AcDbLine
 10
0.1228107932
 20
0.1785131541
 30
0.0
 11
0.1228117062
 21
0.1784169334
 31
0.0
  0
CIRCLE
  5
35E
330
1F
100
AcDbEntity
  8
0
  6
Continuous
 62
     7
370
    25
100
AcDbCircle
 10
0.1227279197
 20
0.1784642539
 30
0.0
 40
0.0002539993777789
  0
LINE
  5
35F
330
1F
100
AcDbEntity
  8
0
  6
Continuous
 62
     7
370
    25
100
AcDbLine
 10
0.1226453596
 20
0.1784153521
 30
0.0
 11
0.1226450478
 21
0.1784153521
 31
0.0
  0
LINE
  5
360
330
1F
100
AcDbEntity
  8
0
  6
Continuous
 62
     7
370
    25
100
AcDbLine
 10
0.1226872524
 20
0.1783916922
 30
0.0
 11
0.1226453596
 21
0.1784153521
 31
0.0
  0
LINE
  5
361
330
1F
100
AcDbEntity
  8
0
  6
Continuous
 62
     7
370
    25
100
AcDbLine
 10
0.1227289859
 20
0.1783681223
 30
0.0
 11
0.1226872524
 21
0.1783916922
 31
0.0
  0
LINE
  5
362
330
1F
100
AcDbEntity
  8
0
  6
Continuous
 62
     7
370
    25
100
AcDbLine
 10
0.122685883
 20
0.1785360233
 30
0.0
 11
0.1227271669
 21
0.1785603838
 31
0.0
  0
LINE
  5
363
330
1F
100
AcDbEntity
  8
0
  6
Continuous
 62
     7
370
    25
100
AcDbLine
 10
0.1226444466
 20
0.1785115728
 30
0.0
 11
0.122685883
 21
0.1785360233
 31
0.0
  0
LINE
  5
364
330
1F
100
AcDbEntity
  8
0
  6
Continuous
 62
     7
370
    25
100
AcDbLine
 10
0.1226444466
 20
0.1785115728
 30
0.0
 11
0.1226441349
 21
0.1785115728
 31
0.0
  0
LINE
  5
365
330
1F
100
AcDbEntity
  8
0
  6
Continuous
 62
     7
370
    25
100
AcDbLine
 10
0.1226449031
 20
0.1784634625
 30
0.0
 11
0.1226444466
 21
0.1785115728
 31
0.0
  0
LINE
  5
366
330
1F
100
AcDbEntity
  8
0
  6
Continuous
 62
     7
370
    25
100
AcDbLine
 10
0.1226453596
 20
0.1784153521
 30
0.0
 11
0.1226449031
 21
0.1784634625
 31
0.0
  0
ARC
  5
367
330
1F
100
AcDbEntity
  8
0
  6
Continuous
 62
     7
370
    25
100
AcDbCircle
 10
0.1227282318
 20
0.1784642532
 30
0.0
 40
0.0000833333923825
100
AcDbArc
 50
5.5010831093
 51
57.0673959548
  0
ARC
  5
368
330
1F
100
AcDbEntity
  8
0
  6
Continuous
 62
     7
370
    25
100
AcDbCircle
 10
0.1227282318
 20
0.178464253
 30
0.0
 40
0.0000833334113085
100
AcDbArc
 50
304.0774463999
 51
355.5861315275
  0
ARC
  5
369
330
1F
100
AcDbEntity
  8
0
  6
Continuous
 62
     7
370
    25
100
AcDbCircle
 10
0.1227282323
 20
0.1784642523
 30
0.0
 40
0.0000833325798678
100
AcDbArc
 50
240.5434759048
 51
297.0100782809
  0
ARC
  5
36A
330
1F
100
AcDbEntity
  8
0
  6
Continuous
 62
     7
370
    25
100
AcDbCircle
 10
0.1227282328
 20
0.178464253
 30
0.0
 40
0.0000833333944589
100
AcDbArc
 50
180.543554481
 51
240.5434229167
  0
ARC
  5
36B
330
1F
100
AcDbEntity
  8
0
  6
Continuous
 62
     7
370
    25
100
AcDbCircle
 10
0.1227282328
 20
0.1784642532
 30
0.0
 40
0.0000833334123783
100
AcDbArc
 50
120.5438000494
 51
180.5436595421
  0
ARC
  5
36C
330
1F
100
AcDbEntity
  8
0
  6
Continuous
 62
     7
370
    25
100
AcDbCircle
 10
0.1227282323
 20
0.1784642538
 30
0.0
 40
0.0000833325808186
100
AcDbArc
 50
64.0195281139
 51
120.5437503382
  0
ARC
  5
36D
330
1F
100
AcDbEntity
  8
0
  6
Continuous
 62
     7
370
    25
100
AcDbCircle
 10
0.1223452354
 20
0.1778092804
 30
0.0
 40
0.0041195911088931
100
AcDbArc
 50
269.8112735462
 51
89.8108291586
  0
LINE
  5
36E
330
1F
100
AcDbEntity
  8
0
  6
Continuous
 62
     7
370
    25
100
AcDbLine
 10
0.1223588368
 20
0.181928849
 30
0.0
 11
0.1223608113
 21
0.181928849
 31
0.0
  0
ARC
  5
36F
330
1F
100
AcDbEntity
  8
0
  6
Continuous
 62
     7
370
    25
100
AcDbCircle
 10
0.1223472098
 20
0.1778092803
 30
0.0
 40
0.0041195911354003
100
AcDbArc
 50
270.0002226645
 51
89.8108286879
  0
LINE
  5
370
330
1F
100
AcDbEntity
  8
0
  6
Continuous
 62
     7
370
    25
100
AcDbLine
 10
0.1163837349
 20
0.1781459198
 30
0.0
 11
0.1163837349
 21
0.1775125864
 31
0.0
  0
LINE
  5
371
330
1F
100
AcDbEntity
  8
0
  6
Continuous
 62
     7
370
    25
100
AcDbLine
 10
0.102383803
 20
0.1781459198
 30
0.0
 11
0.1024039278
 21
0.1781459198
 31
0.0
  0
LINE
  5
372
330
1F
100
AcDbEntity
  8
0
  6
Continuous
 62
     7
370
    25
100
AcDbLine
 10
0.1163758092
 20
0.1781459198
 30
0.0
 11
0.1163837349
 21
0.1781459198
 31
0.0
  0
LINE
  5
373
330
1F
100
AcDbEntity
  8
0
  6
Continuous
 62
     7
370
    25
100
AcDbLine
 10
0.102383803
 20
0.1781459198
 30
0.0
 11
0.102383803
 21
0.1780459198
 31
0.0
  0
LINE
  5
374
330
1F
100
AcDbEntity
  8
0
  6
Continuous
 62
     7
370
    25
100
AcDbLine
 10
0.102383803
 20
0.1776125864
 30
0.0
 11
0.102383803
 21
0.1775125864
 31
0.0
  0
LINE
  5
375
330
1F
100
AcDbEntity
  8
0
  6
Continuous
 62
     7
370
    25
100
AcDbLine
 10
0.102383803
 20
0.1775125864
 30
0.0
 11
0.1024039278
 21
0.1775125864
 31
0.0
  0
LINE
  5
376
330
1F
100
AcDbEntity
  8
0
  6
Continuous
 62
     7
370
    25
100
AcDbLine
 10
0.1163758092
 20
0.1775125864
 30
0.0
 11
0.1163837349
 21
0.1775125864
 31
0.0
  0
LWPOLYLINE
  5
377
330
1F
100
AcDbEntity
  8
0
  6
Continuous
 62
     7
370
    25
100
AcDbPolyline
 90
       21
 70
   128
 43
0.0
 10
0.1223316659
 20
0.1736897116
 10
0.1219706193
 20
0.1737094813
 10
0.1216249533
 20
0.1737630306
 10
0.1212957432
 20
0.1738482603
 10
0.1209840645
 20
0.1739630711
 10
0.1206909925
 20
0.1741053636
 10
0.1204176027
 20
0.1742730387
 10
0.1201649706
 20
0.1744639971
 10
0.1199341715
 20
0.1746761395
 10
0.1198267015
 20
0.1747901597
 10
0.1197251609
 20
0.1749087388
 10
0.1196294688
 20
0.1750315457
 10
0.1195323272
 20
0.1751561214
 10
0.1194177294
 20
0.1752774392
 10
0.1192699394
 20
0.1753904436
 10
0.1190856797
 20
0.175492037
 10
0.1188488096
 20
0.175588776
 10
0.1185850554
 20
0.1756678568
 10
0.1183036239
 20
0.1757272898
 10
0.1180137221
 20
0.1757650851
 10
0.1177245569
 20
0.1757792531
  0
LINE
  5
378
330
1F
100
AcDbEntity
  8
0
  6
Continuous
 62
     7
370
    25
100
AcDbLine
 10
0.1010429654
 20
0.1757792531
 30
0.0
 11
0.1030517369
 21
0.1757792531
 31
0.0
  0
LINE
  5
379
330
1F
100
AcDbEntity
  8
0
  6
Continuous
 62
     7
370
    25
100
AcDbLine
 10
0.1041517369
 20
0.1757792531
 30
0.0
 11
0.114556496
 21
0.1757792531
 31
0.0
  0
LINE
  5
37A
330
1F
100
AcDbEntity
  8
0
  6
Continuous
 62
     7
370
    25
100
AcDbLine
 10
0.115656496
 20
0.1757792531
 30
0.0
 11
0.1177245569
 21
0.1757792531
 31
0.0
  0
LWPOLYLINE
  5
37B
330
1F
100
AcDbEntity
  8
0
  6
Continuous
 62
     7
370
    25
100
AcDbPolyline
 90
       21
 70
   128
 43
0.0
 10
0.0964358559
 20
0.1736897113
 10
0.0967969025
 20
0.173709481
 10
0.0971425686
 20
0.1737630304
 10
0.0974717787
 20
0.1738482601
 10
0.0977834575
 20
0.1739630708
 10
0.0980765295
 20
0.1741053634
 10
0.0983499193
 20
0.1742730386
 10
0.0986025515
 20
0.174463997
 10
0.0988333506
 20
0.1746761394
 10
0.0989408207
 20
0.1747901596
 10
0.0990423612
 20
0.1749087387
 10
0.0991380534
 20
0.1750315456
 10
0.0992351949
 20
0.1751561213
 10
0.0993497928
 20
0.1752774392
 10
0.0994975828
 20
0.1753904435
 10
0.0996818426
 20
0.1754920369
 10
0.0999187126
 20
0.1755887759
 10
0.1001824669
 20
0.1756678568
 10
0.1004638984
 20
0.1757272898
 10
0.1007538002
 20
0.1757650851
 10
0.1010429654
 20
0.1757792531
  0
ARC
  5
37C
330
1F
100
AcDbEntity
  8
0
  6
Continuous
 62
     7
370
    25
100
AcDbCircle
 10
0.0964223015
 20
0.1778092802
 30
0.0
 40
0.004119591205503
100
AcDbArc
 50
90.1889614149
 51
270.1885170272
  0
LWPOLYLINE
  5
37D
330
1F
100
AcDbEntity
  8
0
  6
Continuous
 62
     7
370
    25
100
AcDbPolyline
 90
       19
 70
   128
 43
0.0
 10
0.1010294028
 20
0.1798792531
 10
0.1007013847
 20
0.1798944168
 10
0.1003737547
 20
0.1799395964
 10
0.1000599478
 20
0.1800120048
 10
0.0997733994
 20
0.1801088552
 10
0.0995761288
 20
0.1802002833
 10
0.0994104973
 20
0.1803037281
 10
0.0992806945
 20
0.1804174524
 10
0.0991766375
 20
0.1805373534
 10
0.0990073102
 20
0.1807514639
 10
0.0988225255
 20
0.1809530472
 10
0.098620099
 20
0.1811397901
 10
0.0984007748
 20
0.1813102692
 10
0.0981186744
 20
0.1814900412
 10
0.0978149361
 20
0.181642345
 10
0.0974908155
 20
0.1817647791
 10
0.0971475682
 20
0.1818549421
 10
0.0967864495
 20
0.1819104326
 10
0.0964087151
 20
0.1819288491
  0
LINE
  5
37E
330
1F
100
AcDbEntity
  8
0
  6
Continuous
 62
     7
370
    25
100
AcDbLine
 10
0.1177381351
 20
0.1798792531
 30
0.0
 11
0.115656496
 21
0.1798792531
 31
0.0
  0
LINE
  5
37F
330
1F
100
AcDbEntity
  8
0
  6
Continuous
 62
     7
370
    25
100
AcDbLine
 10
0.114556496
 20
0.1798792531
 30
0.0
 11
0.1041517369
 21
0.1798792531
 31
0.0
  0
LINE
  5
380
330
1F
100
AcDbEntity
  8
0
  6
Continuous
 62
     7
370
    25
100
AcDbLine
 10
0.1030517369
 20
0.1798792531
 30
0.0
 11
0.1010294028
 21
0.1798792531
 31
0.0
  0
LWPOLYLINE
  5
381
330
1F
100
AcDbEntity
  8
0
  6
Continuous
 62
     7
370
    25
100
AcDbPolyline
 90
       19
 70
   128
 43
0.0
 10
0.1177381351
 20
0.1798792531
 10
0.118066154
 20
0.1798944165
 10
0.1183937849
 20
0.1799395958
 10
0.1187075927
 20
0.1800120041
 10
0.118994142
 20
0.1801088544
 10
0.1191914131
 20
0.1802002824
 10
0.1193570452
 20
0.1803037274
 10
0.1194868484
 20
0.1804174518
 10
0.1195909059
 20
0.180537353
 10
0.1197602338
 20
0.1807514638
 10
0.1199450192
 20
0.1809530475
 10
0.1201474464
 20
0.1811397906
 10
0.1203667713
 20
0.1813102699
 10
0.1206488727
 20
0.181490042
 10
0.1209526119
 20
0.1816423458
 10
0.1212767334
 20
0.1817647799
 10
0.1216199818
 20
0.1818549427
 10
0.1219811014
 20
0.1819104329
 10
0.1223588368
 20
0.181928849
  0
CIRCLE
  5
382
330
1F
100
AcDbEntity
  8
0
  6
Continuous
 62
     7
370
    25
100
AcDbCircle
 10
0.0997041801
 20
0.1771975855
 30
0.0
 40
0.0002666657690991
  0
CIRCLE
  5
383
330
1F
100
AcDbEntity
  8
0
  6
Continuous
 62
     7
370
    25
100
AcDbCircle
 10
0.0960375312
 20
0.1771975855
 30
0.0
 40
0.0002666657690991
  0
CIRCLE
  5
384
330
1F
100
AcDbEntity
  8
0
  6
Continuous
 62
     7
370
    25
100
AcDbCircle
 10
0.0960375312
 20
0.1784642522
 30
0.0
 40
0.000266665769099
  0
CIRCLE
  5
385
330
1F
100
AcDbEntity
  8
0
  6
Continuous
 62
     7
370
    25
100
AcDbCircle
 10
0.0997041801
 20
0.1784642522
 30
0.0
 40
0.0002666657690991
  0
CIRCLE
  5
386
330
1F
100
AcDbEntity
  8
0
  6
Continuous
 62
     7
370
    25
100
AcDbCircle
 10
0.1190612719
 20
0.1784642522
 30
0.0
 40
0.0002666657690991
  0
CIRCLE
  5
387
330
1F
100
AcDbEntity
  8
0
  6
Continuous
 62
     7
370
    25
100
AcDbCircle
 10
0.1227279207
 20
0.1784642522
 30
0.0
 40
0.0002666657690992
  0
CIRCLE
  5
388
330
1F
100
AcDbEntity
  8
0
  6
Continuous
 62
     7
370
    25
100
AcDbCircle
 10
0.1227279207
 20
0.1771975855
 30
0.0
 40
0.0002666657690992
  0
CIRCLE
  5
389
330
1F
100
AcDbEntity
  8
0
  6
Continuous
 62
     7
370
    25
100
AcDbCircle
 10
0.1190612719
 20
0.1771975855
 30
0.0
 40
0.0002666657690991
  0
LINE
  5
38A
330
1F
100
AcDbEntity
  8
0
  6
Continuous
 62
     7
370
    25
100
AcDbLine
 10
0.1177381351
 20
0.1798792531
 30
0.0
 11
0.1177401096
 21
0.1798792531
 31
0.0
  0
LINE
  5
38B
330
1F
100
AcDbEntity
  8
0
  6
Continuous
 62
     7
370
    25
100
AcDbLine
 10
0.1023857775
 20
0.1781459198
 30
0.0
 11
0.1023857775
 21
0.1780459198
 31
0.0
  0
LINE
  5
38C
330
1F
100
AcDbEntity
  8
0
  6
Continuous
 62
     7
370
    25
100
AcDbLine
 10
0.1023857775
 20
0.1776125864
 30
0.0
 11
0.1023857775
 21
0.1775125864
 31
0.0
  0
LWPOLYLINE
  5
38D
330
1F
100
AcDbEntity
  8
0
  6
Continuous
 62
     7
370
    25
100
AcDbPolyline
 90
       21
 70
   128
 43
0.0
 10
0.0964378304
 20
0.1736897113
 10
0.096798877
 20
0.173709481
 10
0.0971445431
 20
0.1737630304
 10
0.0974737532
 20
0.1738482601
 10
0.097785432
 20
0.1739630708
 10
0.098078504
 20
0.1741053634
 10
0.0983518938
 20
0.1742730386
 10
0.098604526
 20
0.174463997
 10
0.0988353251
 20
0.1746761394
 10
0.0989427952
 20
0.1747901596
 10
0.0990443357
 20
0.1749087387
 10
0.0991400279
 20
0.1750315456
 10
0.0992371694
 20
0.1751561213
 10
0.0993517673
 20
0.1752774392
 10
0.0994995573
 20
0.1753904435
 10
0.099683817
 20
0.1754920369
 10
0.0999206871
 20
0.1755887759
 10
0.1001844413
 20
0.1756678568
 10
0.1004658729
 20
0.1757272898
 10
0.1007557747
 20
0.1757650851
 10
0.1010449399
 20
0.1757792531
  0
LINE
  5
38E
330
1F
100
AcDbEntity
  8
0
  6
Continuous
 62
     7
370
    25
100
AcDbLine
 10
0.09642426
 20
0.173689689
 30
0.0
 11
0.0964378304
 21
0.1736897113
 31
0.0
  0
LINE
  5
38F
330
1F
100
AcDbEntity
  8
0
  6
Continuous
 62
     7
370
    25
100
AcDbLine
 10
0.1051750008
 20
0.1780459198
 30
0.0
 11
0.1051750008
 21
0.1776125864
 31
0.0
  0
LINE
  5
390
330
1F
100
AcDbEntity
  8
0
  6
Continuous
 62
     7
370
    25
100
AcDbLine
 10
0.1134039678
 20
0.1780459198
 30
0.0
 11
0.1134039678
 21
0.1776125864
 31
0.0
  0
LINE
  5
391
330
1F
100
AcDbEntity
  8
0
  6
Continuous
 62
     7
370
    25
100
AcDbLine
 10
0.1051750008
 20
0.1780459198
 30
0.0
 11
0.1134039678
 21
0.1780459198
 31
0.0
  0
LINE
  5
392
330
1F
100
AcDbEntity
  8
0
  6
Continuous
 62
     7
370
    25
100
AcDbLine
 10
0.1051750008
 20
0.1776125864
 30
0.0
 11
0.1134039678
 21
0.1776125864
 31
0.0
  0
LINE
  5
393
330
1F
100
AcDbEntity
  8
0
  6
Continuous
 62
     7
370
    25
100
AcDbLine
 10
0.1132788192
 20
0.1781459198
 30
0.0
 11
0.1053323801
 21
0.1781459198
 31
0.0
  0
LINE
  5
394
330
1F
100
AcDbEntity
  8
0
  6
Continuous
 62
     7
370
    25
100
AcDbLine
 10
0.1132788192
 20
0.1775125864
 30
0.0
 11
0.1053323801
 21
0.1775125864
 31
0.0
  0
LINE
  5
395
330
1F
100
AcDbEntity
  8
0
  6
Continuous
 62
     7
370
    25
100
AcDbLine
 10
0.1023740919
 20
0.1780459198
 30
0.0
 11
0.1051750008
 21
0.1780459198
 31
0.0
  0
LINE
  5
396
330
1F
100
AcDbEntity
  8
0
  6
Continuous
 62
     7
370
    25
100
AcDbLine
 10
0.1023740919
 20
0.1776125864
 30
0.0
 11
0.1051750008
 21
0.1776125864
 31
0.0
  0
LINE
  5
397
330
1F
100
AcDbEntity
  8
0
  6
Continuous
 62
     7
370
    25
100
AcDbLine
 10
0.1134039678
 20
0.1780459198
 30
0.0
 11
0.1163547741
 21
0.1780459198
 31
0.0
  0
LINE
  5
398
330
1F
100
AcDbEntity
  8
0
  6
Continuous
 62
     7
370
    25
100
AcDbLine
 10
0.1134039678
 20
0.1776125864
 30
0.0
 11
0.1163547741
 21
0.1776125864
 31
0.0
  0
LINE
  5
399
330
1F
100
AcDbEntity
  8
0
  6
Continuous
 62
     7
370
    25
100
AcDbLine
 10
0.1051532315
 20
0.1780459198
 30
0.0
 11
0.1051532315
 21
0.1781459198
 31
0.0
  0
LINE
  5
39A
330
1F
100
AcDbEntity
  8
0
  6
Continuous
 62
     7
370
    25
100
AcDbLine
 10
0.1025740919
 20
0.1781459198
 30
0.0
 11
0.1051532315
 21
0.1781459198
 31
0.0
  0
LINE
  5
39B
330
1F
100
AcDbEntity
  8
0
  6
Continuous
 62
     7
370
    25
100
AcDbLine
 10
0.1051532315
 20
0.1776125864
 30
0.0
 11
0.1051532315
 21
0.1775125864
 31
0.0
  0
LINE
  5
39C
330
1F
100
AcDbEntity
  8
0
  6
Continuous
 62
     7
370
    25
100
AcDbLine
 10
0.1025740919
 20
0.1775125864
 30
0.0
 11
0.1051532315
 21
0.1775125864
 31
0.0
  0
LINE
  5
39D
330
1F
100
AcDbEntity
  8
0
  6
Continuous
 62
     7
370
    25
100
AcDbLine
 10
0.1134395353
 20
0.1780459198
 30
0.0
 11
0.1134395353
 21
0.1781459198
 31
0.0
  0
LINE
  5
39E
330
1F
100
AcDbEntity
  8
0
  6
Continuous
 62
     7
370
    25
100
AcDbLine
 10
0.1134395353
 20
0.1781459198
 30
0.0
 11
0.1161547741
 21
0.1781459198
 31
0.0
  0
LINE
  5
39F
330
1F
100
AcDbEntity
  8
0
  6
Continuous
 62
     7
370
    25
100
AcDbLine
 10
0.1134395353
 20
0.1776125864
 30
0.0
 11
0.1134395353
 21
0.1775125864
 31
0.0
  0
LINE
  5
3A0
330
1F
100
AcDbEntity
  8
0
  6
Continuous
 62
     7
370
    25
100
AcDbLine
 10
0.1134395353
 20
0.1775125864
 30
0.0
 11
0.1161547741
 21
0.1775125864
 31
0.0
  0
LINE
  5
3A1
330
1F
100
AcDbEntity
  8
0
  6
Continuous
 62
     7
370
    25
100
AcDbLine
 10
0.1051940935
 20
0.1776125864
 30
0.0
 11
0.1051940935
 21
0.1775125864
 31
0.0
  0
LINE
  5
3A2
330
1F
100
AcDbEntity
  8
0
  6
Continuous
 62
     7
370
    25
100
AcDbLine
 10
0.1051940935
 20
0.1775125864
 30
0.0
 11
0.1051532315
 21
0.1775125864
 31
0.0
  0
LINE
  5
3A3
330
1F
100
AcDbEntity
  8
0
  6
Continuous
 62
     7
370
    25
100
AcDbLine
 10
0.1051940935
 20
0.1780459198
 30
0.0
 11
0.1051940935
 21
0.1781459198
 31
0.0
  0
LINE
  5
3A4
330
1F
100
AcDbEntity
  8
0
  6
Continuous
 62
     7
370
    25
100
AcDbLine
 10
0.1051940935
 20
0.1781459198
 30
0.0
 11
0.1051532315
 21
0.1781459198
 31
0.0
  0
LINE
  5
3A5
330
1F
100
AcDbEntity
  8
0
  6
Continuous
 62
     7
370
    25
100
AcDbLine
 10
0.1132904862
 20
0.1781459198
 30
0.0
 11
0.1134278683
 21
0.1781459198
 31
0.0
  0
LINE
  5
3A6
330
1F
100
AcDbEntity
  8
0
  6
Continuous
 62
     7
370
    25
100
AcDbLine
 10
0.1052057605
 20
0.1781459198
 30
0.0
 11
0.1053207131
 21
0.1781459198
 31
0.0
  0
LINE
  5
3A7
330
1F
100
AcDbEntity
  8
0
  6
Continuous
 62
     7
370
    25
100
AcDbLine
 10
0.1132904862
 20
0.1775125864
 30
0.0
 11
0.1134278683
 21
0.1775125864
 31
0.0
  0
LINE
  5
3A8
330
1F
100
AcDbEntity
  8
0
  6
Continuous
 62
     7
370
    25
100
AcDbLine
 10
0.1052057605
 20
0.1775125864
 30
0.0
 11
0.1053207131
 21
0.1775125864
 31
0.0
  0
LINE
  5
3A9
330
1F
100
AcDbEntity
  8
0
  6
Continuous
 62
     7
370
    25
100
AcDbLine
 10
0.116375778
 20
0.1781459198
 30
0.0
 11
0.116375778
 21
0.1775125864
 31
0.0
  0
LINE
  5
3AA
330
1F
100
AcDbEntity
  8
0
  6
Continuous
 62
     7
370
    25
100
AcDbLine
 10
0.1161547741
 20
0.1775125864
 30
0.0
 11
0.116375778
 21
0.1775125864
 31
0.0
  0
LINE
  5
3AB
330
1F
100
AcDbEntity
  8
0
  6
Continuous
 62
     7
370
    25
100
AcDbLine
 10
0.1161547741
 20
0.1781459198
 30
0.0
 11
0.116375778
 21
0.1781459198
 31
0.0
  0
LINE
  5
3AC
330
1F
100
AcDbEntity
  8
0
  6
Continuous
 62
     7
370
    25
100
AcDbLine
 10
0.1163777836
 20
0.1781459198
 30
0.0
 11
0.1163777836
 21
0.1775125864
 31
0.0
  0
LINE
  5
3AD
330
1F
100
AcDbEntity
  8
0
  6
Continuous
 62
     7
370
    25
100
AcDbLine
 10
0.116375778
 20
0.1775125864
 30
0.0
 11
0.1163758092
 21
0.1775125864
 31
0.0
  0
LINE
  5
3AE
330
1F
100
AcDbEntity
  8
0
  6
Continuous
 62
     7
370
    25
100
AcDbLine
 10
0.116375778
 20
0.1781459198
 30
0.0
 11
0.1163758092
 21
0.1781459198
 31
0.0
  0
LINE
  5
3AF
330
1F
100
AcDbEntity
  8
0
  6
Continuous
 62
     7
370
    25
100
AcDbLine
 10
0.1024039278
 20
0.1781459198
 30
0.0
 11
0.1024039278
 21
0.1780459198
 31
0.0
  0
LINE
  5
3B0
330
1F
100
AcDbEntity
  8
0
  6
Continuous
 62
     7
370
    25
100
AcDbLine
 10
0.1024039278
 20
0.1776125864
 30
0.0
 11
0.1024039278
 21
0.1775125864
 31
0.0
  0
LINE
  5
3B1
330
1F
100
AcDbEntity
  8
0
  6
Continuous
 62
     7
370
    25
100
AcDbLine
 10
0.1025740919
 20
0.1775125864
 30
0.0
 11
0.1024039278
 21
0.1775125864
 31
0.0
  0
LINE
  5
3B2
330
1F
100
AcDbEntity
  8
0
  6
Continuous
 62
     7
370
    25
100
AcDbLine
 10
0.1025740919
 20
0.1781459198
 30
0.0
 11
0.1024039278
 21
0.1781459198
 31
0.0
  0
ARC
  5
3B3
330
1F
100
AcDbEntity
  8
0
  6
Continuous
 62
     7
370
    25
100
AcDbCircle
 10
0.1068152591
 20
0.1761334561
 30
0.0
 40
0.000404217411432
100
AcDbArc
 50
250.2271892893
 51
269.5166527103
  0
LINE
  5
3B4
330
1F
100
AcDbEntity
  8
0
  6
Continuous
 62
     7
370
    25
100
AcDbLine
 10
0.1066785159
 20
0.1757530708
 30
0.0
 11
0.1066785159
 21
0.1757792531
 31
0.0
  0
LINE
  5
3B5
330
1F
100
AcDbEntity
  8
0
  6
Continuous
 62
     7
370
    25
100
AcDbLine
 10
0.1069451825
 20
0.1757530708
 30
0.0
 11
0.1069451825
 21
0.1757792531
 31
0.0
  0
LWPOLYLINE
  5
3B6
330
1F
100
AcDbEntity
  8
0
  6
Continuous
 62
     7
370
    25
100
AcDbPolyline
 90
        3
 70
   128
 43
0.0
 10
0.1069451825
 20
0.1757530708
 10
0.1068798588
 20
0.1757357904
 10
0.1068118492
 20
0.1757292531
  0
ARC
  5
3B7
330
1F
100
AcDbEntity
  8
0
  6
Continuous
 62
     7
370
    25
100
AcDbCircle
 10
0.1070819258
 20
0.1761334561
 30
0.0
 40
0.0004042174114321
100
AcDbArc
 50
250.2271892893
 51
269.5166527103
  0
LINE
  5
3B8
330
1F
100
AcDbEntity
  8
0
  6
Continuous
 62
     7
370
    25
100
AcDbLine
 10
0.1070785159
 20
0.1757292531
 30
0.0
 11
0.1068118492
 21
0.1757292531
 31
0.0
  0
LINE
  5
3B9
330
1F
100
AcDbEntity
  8
0
  6
Continuous
 62
     7
370
    25
100
AcDbLine
 10
0.1072118492
 20
0.1757530708
 30
0.0
 11
0.1072118492
 21
0.1757792531
 31
0.0
  0
LWPOLYLINE
  5
3BA
330
1F
100
AcDbEntity
  8
0
  6
Continuous
 62
     7
370
    25
100
AcDbPolyline
 90
        3
 70
   128
 43
0.0
 10
0.1072118492
 20
0.1757530708
 10
0.1071465254
 20
0.1757357904
 10
0.1070785159
 20
0.1757292531
  0
LINE
  5
3BB
330
1F
100
AcDbEntity
  8
0
  6
Continuous
 62
     7
370
    25
100
AcDbLine
 10
0.1066785159
 20
0.1757530708
 30
0.0
 11
0.1066785159
 21
0.1757292531
 31
0.0
  0
LINE
  5
3BC
330
1F
100
AcDbEntity
  8
0
  6
Continuous
 62
     7
370
    25
100
AcDbLine
 10
0.1066785159
 20
0.1757292531
 30
0.0
 11
0.1068118492
 21
0.1757292531
 31
0.0
  0
LINE
  5
3BD
330
1F
100
AcDbEntity
  8
0
  6
Continuous
 62
     7
370
    25
100
AcDbLine
 10
0.1072118492
 20
0.1757530708
 30
0.0
 11
0.1072118492
 21
0.1757292531
 31
0.0
  0
LINE
  5
3BE
330
1F
100
AcDbEntity
  8
0
  6
Continuous
 62
     7
370
    25
100
AcDbLine
 10
0.1072118492
 20
0.1757292531
 30
0.0
 11
0.1070785159
 21
0.1757292531
 31
0.0
  0
ARC
  5
3BF
330
1F
100
AcDbEntity
  8
0
  6
Continuous
 62
     7
370
    25
100
AcDbCircle
 10
0.1113819258
 20
0.1761334561
 30
0.0
 40
0.000404217411432
100
AcDbArc
 50
250.2271892893
 51
269.5166527103
  0
LINE
  5
3C0
330
1F
100
AcDbEntity
  8
0
  6
Continuous
 62
     7
370
    25
100
AcDbLine
 10
0.1112451825
 20
0.1757530708
 30
0.0
 11
0.1112451825
 21
0.1757792531
 31
0.0
  0
LINE
  5
3C1
330
1F
100
AcDbEntity
  8
0
  6
Continuous
 62
     7
370
    25
100
AcDbLine
 10
0.1115118492
 20
0.1757530708
 30
0.0
 11
0.1115118492
 21
0.1757792531
 31
0.0
  0
LWPOLYLINE
  5
3C2
330
1F
100
AcDbEntity
  8
0
  6
Continuous
 62
     7
370
    25
100
AcDbPolyline
 90
        3
 70
   128
 43
0.0
 10
0.1115118492
 20
0.1757530708
 10
0.1114465254
 20
0.1757357904
 10
0.1113785159
 20
0.1757292531
  0
ARC
  5
3C3
330
1F
100
AcDbEntity
  8
0
  6
Continuous
 62
     7
370
    25
100
AcDbCircle
 10
0.1116485925
 20
0.1761334561
 30
0.0
 40
0.0004042174114321
100
AcDbArc
 50
250.2271892893
 51
269.5166527103
  0
LINE
  5
3C4
330
1F
100
AcDbEntity
  8
0
  6
Continuous
 62
     7
370
    25
100
AcDbLine
 10
0.1116451825
 20
0.1757292531
 30
0.0
 11
0.1113785159
 21
0.1757292531
 31
0.0
  0
LINE
  5
3C5
330
1F
100
AcDbEntity
  8
0
  6
Continuous
 62
     7
370
    25
100
AcDbLine
 10
0.1117785159
 20
0.1757530708
 30
0.0
 11
0.1117785159
 21
0.1757792531
 31
0.0
  0
LWPOLYLINE
  5
3C6
330
1F
100
AcDbEntity
  8
0
  6
Continuous
 62
     7
370
    25
100
AcDbPolyline
 90
        3
 70
   128
 43
0.0
 10
0.1117785159
 20
0.1757530708
 10
0.1117131921
 20
0.1757357904
 10
0.1116451825
 20
0.1757292531
  0
LINE
  5
3C7
330
1F
100
AcDbEntity
  8
0
  6
Continuous
 62
     7
370
    25
100
AcDbLine
 10
0.1112451825
 20
0.1757530708
 30
0.0
 11
0.1112451825
 21
0.1757292531
 31
0.0
  0
LINE
  5
3C8
330
1F
100
AcDbEntity
  8
0
  6
Continuous
 62
     7
370
    25
100
AcDbLine
 10
0.1112451825
 20
0.1757292531
 30
0.0
 11
0.1113785159
 21
0.1757292531
 31
0.0
  0
LINE
  5
3C9
330
1F
100
AcDbEntity
  8
0
  6
Continuous
 62
     7
370
    25
100
AcDbLine
 10
0.1117785159
 20
0.1757530708
 30
0.0
 11
0.1117785159
 21
0.1757292531
 31
0.0
  0
LINE
  5
3CA
330
1F
100
AcDbEntity
  8
0
  6
Continuous
 62
     7
370
    25
100
AcDbLine
 10
0.1117785159
 20
0.1757292531
 30
0.0
 11
0.1116451825
 21
0.1757292531
 31
0.0
  0
LINE
  5
3CB
330
1F
100
AcDbEntity
  8
0
  6
Continuous
 62
     7
370
    25
100
AcDbLine
 10
0.1181400837
 20
0.1744792531
 30
0.0
 11
0.1168734171
 21
0.1744792531
 31
0.0
  0
LINE
  5
3CC
330
1F
100
AcDbEntity
  8
0
  6
Continuous
 62
     7
370
    25
100
AcDbLine
 10
0.1181400837
 20
0.1748292531
 30
0.0
 11
0.1168734171
 21
0.1748292531
 31
0.0
  0
LINE
  5
3CD
330
1F
100
AcDbEntity
  8
0
  6
Continuous
 62
     7
370
    25
100
AcDbLine
 10
0.1180567504
 20
0.1749365321
 30
0.0
 11
0.1169567504
 21
0.1749365321
 31
0.0
  0
LINE
  5
3CE
330
1F
100
AcDbEntity
  8
0
  6
Continuous
 62
     7
370
    25
100
AcDbLine
 10
0.1180567504
 20
0.1749914252
 30
0.0
 11
0.1169567504
 21
0.1749914252
 31
0.0
  0
LINE
  5
3CF
330
1F
100
AcDbEntity
  8
0
  6
Continuous
 62
     7
370
    25
100
AcDbLine
 10
0.1180567504
 20
0.1756914252
 30
0.0
 11
0.1169567504
 21
0.1756914252
 31
0.0
  0
LINE
  5
3D0
330
1F
100
AcDbEntity
  8
0
  6
Continuous
 62
     7
370
    25
100
AcDbLine
 10
0.1180567504
 20
0.1756580918
 30
0.0
 11
0.1169567504
 21
0.1756580918
 31
0.0
  0
LINE
  5
3D1
330
1F
100
AcDbEntity
  8
0
  6
Continuous
 62
     7
370
    25
100
AcDbLine
 10
0.1180567504
 20
0.1755247585
 30
0.0
 11
0.1169567504
 21
0.1755247585
 31
0.0
  0
LINE
  5
3D2
330
1F
100
AcDbEntity
  8
0
  6
Continuous
 62
     7
370
    25
100
AcDbLine
 10
0.1180567504
 20
0.1753580918
 30
0.0
 11
0.1169567504
 21
0.1753580918
 31
0.0
  0
LINE
  5
3D3
330
1F
100
AcDbEntity
  8
0
  6
Continuous
 62
     7
370
    25
100
AcDbLine
 10
0.1180567504
 20
0.1754914252
 30
0.0
 11
0.1169567504
 21
0.1754914252
 31
0.0
  0
LINE
  5
3D4
330
1F
100
AcDbEntity
  8
0
  6
Continuous
 62
     7
370
    25
100
AcDbLine
 10
0.1180567504
 20
0.1753247585
 30
0.0
 11
0.1169567504
 21
0.1753247585
 31
0.0
  0
LINE
  5
3D5
330
1F
100
AcDbEntity
  8
0
  6
Continuous
 62
     7
370
    25
100
AcDbLine
 10
0.1180567504
 20
0.1751914252
 30
0.0
 11
0.1169567504
 21
0.1751914252
 31
0.0
  0
LINE
  5
3D6
330
1F
100
AcDbEntity
  8
0
  6
Continuous
 62
     7
370
    25
100
AcDbLine
 10
0.1180567504
 20
0.1751580918
 30
0.0
 11
0.1169567504
 21
0.1751580918
 31
0.0
  0
LINE
  5
3D7
330
1F
100
AcDbEntity
  8
0
  6
Continuous
 62
     7
370
    25
100
AcDbLine
 10
0.1180567504
 20
0.1750247585
 30
0.0
 11
0.1169567504
 21
0.1750247585
 31
0.0
  0
LINE
  5
3D8
330
1F
100
AcDbEntity
  8
0
  6
Continuous
 62
     7
370
    25
100
AcDbLine
 10
0.1029684035
 20
0.1809292531
 30
0.0
 11
0.1042350702
 21
0.1809292531
 31
0.0
  0
LINE
  5
3D9
330
1F
100
AcDbEntity
  8
0
  6
Continuous
 62
     7
370
    25
100
AcDbLine
 10
0.1029684035
 20
0.1812792531
 30
0.0
 11
0.1042350702
 21
0.1812792531
 31
0.0
  0
LINE
  5
3DA
330
1F
100
AcDbEntity
  8
0
  6
Continuous
 62
     7
370
    25
100
AcDbLine
 10
0.1030517369
 20
0.1784004144
 30
0.0
 11
0.1041517369
 21
0.1784004144
 31
0.0
  0
LINE
  5
3DB
330
1F
100
AcDbEntity
  8
0
  6
Continuous
 62
     7
370
    25
100
AcDbLine
 10
0.1030517369
 20
0.1808219741
 30
0.0
 11
0.1041517369
 21
0.1808219741
 31
0.0
  0
LINE
  5
3DC
330
1F
100
AcDbEntity
  8
0
  6
Continuous
 62
     7
370
    25
100
AcDbLine
 10
0.1030517369
 20
0.180767081
 30
0.0
 11
0.1041517369
 21
0.180767081
 31
0.0
  0
LINE
  5
3DD
330
1F
100
AcDbEntity
  8
0
  6
Continuous
 62
     7
370
    25
100
AcDbLine
 10
0.1030517369
 20
0.1786004144
 30
0.0
 11
0.1041517369
 21
0.1786004144
 31
0.0
  0
LINE
  5
3DE
330
1F
100
AcDbEntity
  8
0
  6
Continuous
 62
     7
370
    25
100
AcDbLine
 10
0.1030517369
 20
0.1787337477
 30
0.0
 11
0.1041517369
 21
0.1787337477
 31
0.0
  0
LINE
  5
3DF
330
1F
100
AcDbEntity
  8
0
  6
Continuous
 62
     7
370
    25
100
AcDbLine
 10
0.1030517369
 20
0.179267081
 30
0.0
 11
0.1041517369
 21
0.179267081
 31
0.0
  0
LINE
  5
3E0
330
1F
100
AcDbEntity
  8
0
  6
Continuous
 62
     7
370
    25
100
AcDbLine
 10
0.1030517369
 20
0.1794004144
 30
0.0
 11
0.1041517369
 21
0.1794004144
 31
0.0
  0
LINE
  5
3E1
330
1F
100
AcDbEntity
  8
0
  6
Continuous
 62
     7
370
    25
100
AcDbLine
 10
0.1030517369
 20
0.1789337477
 30
0.0
 11
0.1041517369
 21
0.1789337477
 31
0.0
  0
LINE
  5
3E2
330
1F
100
AcDbEntity
  8
0
  6
Continuous
 62
     7
370
    25
100
AcDbLine
 10
0.1030517369
 20
0.179067081
 30
0.0
 11
0.1041517369
 21
0.179067081
 31
0.0
  0
LINE
  5
3E3
330
1F
100
AcDbEntity
  8
0
  6
Continuous
 62
     7
370
    25
100
AcDbLine
 10
0.1030517369
 20
0.178567081
 30
0.0
 11
0.1041517369
 21
0.178567081
 31
0.0
  0
LINE
  5
3E4
330
1F
100
AcDbEntity
  8
0
  6
Continuous
 62
     7
370
    25
100
AcDbLine
 10
0.1030517369
 20
0.1784337477
 30
0.0
 11
0.1041517369
 21
0.1784337477
 31
0.0
  0
LINE
  5
3E5
330
1F
100
AcDbEntity
  8
0
  6
Continuous
 62
     7
370
    25
100
AcDbLine
 10
0.1030517369
 20
0.178767081
 30
0.0
 11
0.1041517369
 21
0.178767081
 31
0.0
  0
LINE
  5
3E6
330
1F
100
AcDbEntity
  8
0
  6
Continuous
 62
     7
370
    25
100
AcDbLine
 10
0.1030517369
 20
0.1789004144
 30
0.0
 11
0.1041517369
 21
0.1789004144
 31
0.0
  0
LINE
  5
3E7
330
1F
100
AcDbEntity
  8
0
  6
Continuous
 62
     7
370
    25
100
AcDbLine
 10
0.1030517369
 20
0.1792337477
 30
0.0
 11
0.1041517369
 21
0.1792337477
 31
0.0
  0
LINE
  5
3E8
330
1F
100
AcDbEntity
  8
0
  6
Continuous
 62
     7
370
    25
100
AcDbLine
 10
0.1030517369
 20
0.1791004144
 30
0.0
 11
0.1041517369
 21
0.1791004144
 31
0.0
  0
LINE
  5
3E9
330
1F
100
AcDbEntity
  8
0
  6
Continuous
 62
     7
370
    25
100
AcDbLine
 10
0.1030517369
 20
0.179767081
 30
0.0
 11
0.1041517369
 21
0.179767081
 31
0.0
  0
LINE
  5
3EA
330
1F
100
AcDbEntity
  8
0
  6
Continuous
 62
     7
370
    25
100
AcDbLine
 10
0.1030517369
 20
0.1799004144
 30
0.0
 11
0.1041517369
 21
0.1799004144
 31
0.0
  0
LINE
  5
3EB
330
1F
100
AcDbEntity
  8
0
  6
Continuous
 62
     7
370
    25
100
AcDbLine
 10
0.1030517369
 20
0.180067081
 30
0.0
 11
0.1041517369
 21
0.180067081
 31
0.0
  0
LINE
  5
3EC
330
1F
100
AcDbEntity
  8
0
  6
Continuous
 62
     7
370
    25
100
AcDbLine
 10
0.1030517369
 20
0.1799337477
 30
0.0
 11
0.1041517369
 21
0.1799337477
 31
0.0
  0
LINE
  5
3ED
330
1F
100
AcDbEntity
  8
0
  6
Continuous
 62
     7
370
    25
100
AcDbLine
 10
0.1030517369
 20
0.1794337477
 30
0.0
 11
0.1041517369
 21
0.1794337477
 31
0.0
  0
LINE
  5
3EE
330
1F
100
AcDbEntity
  8
0
  6
Continuous
 62
     7
370
    25
100
AcDbLine
 10
0.1030517369
 20
0.179567081
 30
0.0
 11
0.1041517369
 21
0.179567081
 31
0.0
  0
LINE
  5
3EF
330
1F
100
AcDbEntity
  8
0
  6
Continuous
 62
     7
370
    25
100
AcDbLine
 10
0.1030517369
 20
0.180267081
 30
0.0
 11
0.1041517369
 21
0.180267081
 31
0.0
  0
LINE
  5
3F0
330
1F
100
AcDbEntity
  8
0
  6
Continuous
 62
     7
370
    25
100
AcDbLine
 10
0.1030517369
 20
0.1804004144
 30
0.0
 11
0.1041517369
 21
0.1804004144
 31
0.0
  0
LINE
  5
3F1
330
1F
100
AcDbEntity
  8
0
  6
Continuous
 62
     7
370
    25
100
AcDbLine
 10
0.1030517369
 20
0.1802337477
 30
0.0
 11
0.1041517369
 21
0.1802337477
 31
0.0
  0
LINE
  5
3F2
330
1F
100
AcDbEntity
  8
0
  6
Continuous
 62
     7
370
    25
100
AcDbLine
 10
0.1030517369
 20
0.1801004144
 30
0.0
 11
0.1041517369
 21
0.1801004144
 31
0.0
  0
LINE
  5
3F3
330
1F
100
AcDbEntity
  8
0
  6
Continuous
 62
     7
370
    25
100
AcDbLine
 10
0.1030517369
 20
0.1797337477
 30
0.0
 11
0.1041517369
 21
0.1797337477
 31
0.0
  0
LINE
  5
3F4
330
1F
100
AcDbEntity
  8
0
  6
Continuous
 62
     7
370
    25
100
AcDbLine
 10
0.1030517369
 20
0.1796004144
 30
0.0
 11
0.1041517369
 21
0.1796004144
 31
0.0
  0
LINE
  5
3F5
330
1F
100
AcDbEntity
  8
0
  6
Continuous
 62
     7
370
    25
100
AcDbLine
 10
0.1030517369
 20
0.1806004144
 30
0.0
 11
0.1041517369
 21
0.1806004144
 31
0.0
  0
LINE
  5
3F6
330
1F
100
AcDbEntity
  8
0
  6
Continuous
 62
     7
370
    25
100
AcDbLine
 10
0.1030517369
 20
0.1807337477
 30
0.0
 11
0.1041517369
 21
0.1807337477
 31
0.0
  0
LINE
  5
3F7
330
1F
100
AcDbEntity
  8
0
  6
Continuous
 62
     7
370
    25
100
AcDbLine
 10
0.1030517369
 20
0.1804337477
 30
0.0
 11
0.1041517369
 21
0.1804337477
 31
0.0
  0
LINE
  5
3F8
330
1F
100
AcDbEntity
  8
0
  6
Continuous
 62
     7
370
    25
100
AcDbLine
 10
0.1030517369
 20
0.180567081
 30
0.0
 11
0.1041517369
 21
0.180567081
 31
0.0
  0
LINE
  5
3F9
330
1F
100
AcDbEntity
  8
0
  6
Continuous
 62
     7
370
    25
100
AcDbLine
 10
0.1006808386
 20
0.1811792531
 30
0.0
 11
0.1019475053
 21
0.1811792531
 31
0.0
  0
LINE
  5
3FA
330
1F
100
AcDbEntity
  8
0
  6
Continuous
 62
     7
370
    25
100
AcDbLine
 10
0.1006808386
 20
0.1808292531
 30
0.0
 11
0.1019475053
 21
0.1808292531
 31
0.0
  0
LINE
  5
3FB
330
1F
100
AcDbEntity
  8
0
  6
Continuous
 62
     7
370
    25
100
AcDbLine
 10
0.100764172
 20
0.1807219741
 30
0.0
 11
0.101864172
 21
0.1807219741
 31
0.0
  0
LINE
  5
3FC
330
1F
100
AcDbEntity
  8
0
  6
Continuous
 62
     7
370
    25
100
AcDbLine
 10
0.100764172
 20
0.180667081
 30
0.0
 11
0.101864172
 21
0.180667081
 31
0.0
  0
LINE
  5
3FD
330
1F
100
AcDbEntity
  8
0
  6
Continuous
 62
     7
370
    25
100
AcDbLine
 10
0.100764172
 20
0.179967081
 30
0.0
 11
0.101864172
 21
0.179967081
 31
0.0
  0
LINE
  5
3FE
330
1F
100
AcDbEntity
  8
0
  6
Continuous
 62
     7
370
    25
100
AcDbLine
 10
0.100764172
 20
0.180167081
 30
0.0
 11
0.101864172
 21
0.180167081
 31
0.0
  0
LINE
  5
3FF
330
1F
100
AcDbEntity
  8
0
  6
Continuous
 62
     7
370
    25
100
AcDbLine
 10
0.100764172
 20
0.1803004144
 30
0.0
 11
0.101864172
 21
0.1803004144
 31
0.0
  0
LINE
  5
400
330
1F
100
AcDbEntity
  8
0
  6
Continuous
 62
     7
370
    25
100
AcDbLine
 10
0.100764172
 20
0.1800004144
 30
0.0
 11
0.101864172
 21
0.1800004144
 31
0.0
  0
LINE
  5
401
330
1F
100
AcDbEntity
  8
0
  6
Continuous
 62
     7
370
    25
100
AcDbLine
 10
0.100764172
 20
0.1801337477
 30
0.0
 11
0.101864172
 21
0.1801337477
 31
0.0
  0
LINE
  5
402
330
1F
100
AcDbEntity
  8
0
  6
Continuous
 62
     7
370
    25
100
AcDbLine
 10
0.100764172
 20
0.1805004144
 30
0.0
 11
0.101864172
 21
0.1805004144
 31
0.0
  0
LINE
  5
403
330
1F
100
AcDbEntity
  8
0
  6
Continuous
 62
     7
370
    25
100
AcDbLine
 10
0.100764172
 20
0.1806337477
 30
0.0
 11
0.101864172
 21
0.1806337477
 31
0.0
  0
LINE
  5
404
330
1F
100
AcDbEntity
  8
0
  6
Continuous
 62
     7
370
    25
100
AcDbLine
 10
0.100764172
 20
0.180467081
 30
0.0
 11
0.101864172
 21
0.180467081
 31
0.0
  0
LINE
  5
405
330
1F
100
AcDbEntity
  8
0
  6
Continuous
 62
     7
370
    25
100
AcDbLine
 10
0.100764172
 20
0.1803337477
 30
0.0
 11
0.101864172
 21
0.1803337477
 31
0.0
  0
LINE
  5
406
330
1F
100
AcDbEntity
  8
0
  6
Continuous
 62
     7
370
    25
100
AcDbLine
 10
0.1157398293
 20
0.1747292531
 30
0.0
 11
0.1144731695
 21
0.1747292531
 31
0.0
  0
LINE
  5
407
330
1F
100
AcDbEntity
  8
0
  6
Continuous
 62
     7
370
    25
100
AcDbLine
 10
0.1157398293
 20
0.1743792531
 30
0.0
 11
0.1144731695
 21
0.1743792531
 31
0.0
  0
LINE
  5
408
330
1F
100
AcDbEntity
  8
0
  6
Continuous
 62
     7
370
    25
100
AcDbLine
 10
0.115656496
 20
0.1772580918
 30
0.0
 11
0.1145565019
 21
0.1772580918
 31
0.0
  0
LINE
  5
409
330
1F
100
AcDbEntity
  8
0
  6
Continuous
 62
     7
370
    25
100
AcDbLine
 10
0.115656496
 20
0.1748365321
 30
0.0
 11
0.1145565019
 21
0.1748365321
 31
0.0
  0
LINE
  5
40A
330
1F
100
AcDbEntity
  8
0
  6
Continuous
 62
     7
370
    25
100
AcDbLine
 10
0.115656496
 20
0.1772247585
 30
0.0
 11
0.1145565019
 21
0.1772247585
 31
0.0
  0
LINE
  5
40B
330
1F
100
AcDbEntity
  8
0
  6
Continuous
 62
     7
370
    25
100
AcDbLine
 10
0.115656496
 20
0.1770914252
 30
0.0
 11
0.1145565019
 21
0.1770914252
 31
0.0
  0
LINE
  5
40C
330
1F
100
AcDbEntity
  8
0
  6
Continuous
 62
     7
370
    25
100
AcDbLine
 10
0.115656496
 20
0.1769247585
 30
0.0
 11
0.1145565019
 21
0.1769247585
 31
0.0
  0
LINE
  5
40D
330
1F
100
AcDbEntity
  8
0
  6
Continuous
 62
     7
370
    25
100
AcDbLine
 10
0.115656496
 20
0.1770580918
 30
0.0
 11
0.1145565019
 21
0.1770580918
 31
0.0
  0
LINE
  5
40E
330
1F
100
AcDbEntity
  8
0
  6
Continuous
 62
     7
370
    25
100
AcDbLine
 10
0.115656496
 20
0.1767247585
 30
0.0
 11
0.1145565019
 21
0.1767247585
 31
0.0
  0
LINE
  5
40F
330
1F
100
AcDbEntity
  8
0
  6
Continuous
 62
     7
370
    25
100
AcDbLine
 10
0.115656496
 20
0.1765914252
 30
0.0
 11
0.1145565019
 21
0.1765914252
 31
0.0
  0
LINE
  5
410
330
1F
100
AcDbEntity
  8
0
  6
Continuous
 62
     7
370
    25
100
AcDbLine
 10
0.115656496
 20
0.1768914252
 30
0.0
 11
0.1145565019
 21
0.1768914252
 31
0.0
  0
LINE
  5
411
330
1F
100
AcDbEntity
  8
0
  6
Continuous
 62
     7
370
    25
100
AcDbLine
 10
0.115656496
 20
0.1767580918
 30
0.0
 11
0.1145565019
 21
0.1767580918
 31
0.0
  0
LINE
  5
412
330
1F
100
AcDbEntity
  8
0
  6
Continuous
 62
     7
370
    25
100
AcDbLine
 10
0.115656496
 20
0.1765580918
 30
0.0
 11
0.1145565019
 21
0.1765580918
 31
0.0
  0
LINE
  5
413
330
1F
100
AcDbEntity
  8
0
  6
Continuous
 62
     7
370
    25
100
AcDbLine
 10
0.115656496
 20
0.1764247585
 30
0.0
 11
0.1145565019
 21
0.1764247585
 31
0.0
  0
LINE
  5
414
330
1F
100
AcDbEntity
  8
0
  6
Continuous
 62
     7
370
    25
100
AcDbLine
 10
0.115656496
 20
0.1748914252
 30
0.0
 11
0.1145565019
 21
0.1748914252
 31
0.0
  0
LINE
  5
415
330
1F
100
AcDbEntity
  8
0
  6
Continuous
 62
     7
370
    25
100
AcDbLine
 10
0.115656496
 20
0.1762580918
 30
0.0
 11
0.1145565019
 21
0.1762580918
 31
0.0
  0
LINE
  5
416
330
1F
100
AcDbEntity
  8
0
  6
Continuous
 62
     7
370
    25
100
AcDbLine
 10
0.115656496
 20
0.1763914252
 30
0.0
 11
0.1145565019
 21
0.1763914252
 31
0.0
  0
LINE
  5
417
330
1F
100
AcDbEntity
  8
0
  6
Continuous
 62
     7
370
    25
100
AcDbLine
 10
0.115656496
 20
0.1762247585
 30
0.0
 11
0.1145565019
 21
0.1762247585
 31
0.0
  0
LINE
  5
418
330
1F
100
AcDbEntity
  8
0
  6
Continuous
 62
     7
370
    25
100
AcDbLine
 10
0.115656496
 20
0.1760914252
 30
0.0
 11
0.1145565019
 21
0.1760914252
 31
0.0
  0
LINE
  5
419
330
1F
100
AcDbEntity
  8
0
  6
Continuous
 62
     7
370
    25
100
AcDbLine
 10
0.115656496
 20
0.1760580918
 30
0.0
 11
0.1145565019
 21
0.1760580918
 31
0.0
  0
LINE
  5
41A
330
1F
100
AcDbEntity
  8
0
  6
Continuous
 62
     7
370
    25
100
AcDbLine
 10
0.115656496
 20
0.1759247585
 30
0.0
 11
0.1145565019
 21
0.1759247585
 31
0.0
  0
LINE
  5
41B
330
1F
100
AcDbEntity
  8
0
  6
Continuous
 62
     7
370
    25
100
AcDbLine
 10
0.115656496
 20
0.1758914252
 30
0.0
 11
0.1145565019
 21
0.1758914252
 31
0.0
  0
LINE
  5
41C
330
1F
100
AcDbEntity
  8
0
  6
Continuous
 62
     7
370
    25
100
AcDbLine
 10
0.115656496
 20
0.1757580918
 30
0.0
 11
0.1145565019
 21
0.1757580918
 31
0.0
  0
LINE
  5
41D
330
1F
100
AcDbEntity
  8
0
  6
Continuous
 62
     7
370
    25
100
AcDbLine
 10
0.115656496
 20
0.1757247585
 30
0.0
 11
0.1145565019
 21
0.1757247585
 31
0.0
  0
LINE
  5
41E
330
1F
100
AcDbEntity
  8
0
  6
Continuous
 62
     7
370
    25
100
AcDbLine
 10
0.115656496
 20
0.1755914252
 30
0.0
 11
0.1145565019
 21
0.1755914252
 31
0.0
  0
LINE
  5
41F
330
1F
100
AcDbEntity
  8
0
  6
Continuous
 62
     7
370
    25
100
AcDbLine
 10
0.115656496
 20
0.1753914252
 30
0.0
 11
0.1145565019
 21
0.1753914252
 31
0.0
  0
LINE
  5
420
330
1F
100
AcDbEntity
  8
0
  6
Continuous
 62
     7
370
    25
100
AcDbLine
 10
0.115656496
 20
0.1752580918
 30
0.0
 11
0.1145565019
 21
0.1752580918
 31
0.0
  0
LINE
  5
421
330
1F
100
AcDbEntity
  8
0
  6
Continuous
 62
     7
370
    25
100
AcDbLine
 10
0.115656496
 20
0.1754247585
 30
0.0
 11
0.1145565019
 21
0.1754247585
 31
0.0
  0
LINE
  5
422
330
1F
100
AcDbEntity
  8
0
  6
Continuous
 62
     7
370
    25
100
AcDbLine
 10
0.115656496
 20
0.1755580918
 30
0.0
 11
0.1145565019
 21
0.1755580918
 31
0.0
  0
LINE
  5
423
330
1F
100
AcDbEntity
  8
0
  6
Continuous
 62
     7
370
    25
100
AcDbLine
 10
0.115656496
 20
0.1752247585
 30
0.0
 11
0.1145565019
 21
0.1752247585
 31
0.0
  0
LINE
  5
424
330
1F
100
AcDbEntity
  8
0
  6
Continuous
 62
     7
370
    25
100
AcDbLine
 10
0.115656496
 20
0.1750914252
 30
0.0
 11
0.1145565019
 21
0.1750914252
 31
0.0
  0
LINE
  5
425
330
1F
100
AcDbEntity
  8
0
  6
Continuous
 62
     7
370
    25
100
AcDbLine
 10
0.115656496
 20
0.1749247585
 30
0.0
 11
0.1145565019
 21
0.1749247585
 31
0.0
  0
LINE
  5
426
330
1F
100
AcDbEntity
  8
0
  6
Continuous
 62
     7
370
    25
100
AcDbLine
 10
0.115656496
 20
0.1750580918
 30
0.0
 11
0.1145565019
 21
0.1750580918
 31
0.0
  0
LINE
  5
427
330
1F
100
AcDbEntity
  8
0
  6
Continuous
 62
     7
370
    25
100
AcDbLine
 10
0.1144731738
 20
0.1812792531
 30
0.0
 11
0.1157398293
 21
0.1812792531
 31
0.0
  0
LINE
  5
428
330
1F
100
AcDbEntity
  8
0
  6
Continuous
 62
     7
370
    25
100
AcDbLine
 10
0.1144731738
 20
0.1809292531
 30
0.0
 11
0.1157398293
 21
0.1809292531
 31
0.0
  0
LINE
  5
429
330
1F
100
AcDbEntity
  8
0
  6
Continuous
 62
     7
370
    25
100
AcDbLine
 10
0.1145565057
 20
0.1784004144
 30
0.0
 11
0.115656496
 21
0.1784004144
 31
0.0
  0
LINE
  5
42A
330
1F
100
AcDbEntity
  8
0
  6
Continuous
 62
     7
370
    25
100
AcDbLine
 10
0.1145565057
 20
0.1808219741
 30
0.0
 11
0.115656496
 21
0.1808219741
 31
0.0
  0
LINE
  5
42B
330
1F
100
AcDbEntity
  8
0
  6
Continuous
 62
     7
370
    25
100
AcDbLine
 10
0.1145565057
 20
0.180767081
 30
0.0
 11
0.115656496
 21
0.180767081
 31
0.0
  0
LINE
  5
42C
330
1F
100
AcDbEntity
  8
0
  6
Continuous
 62
     7
370
    25
100
AcDbLine
 10
0.1145565057
 20
0.179267081
 30
0.0
 11
0.115656496
 21
0.179267081
 31
0.0
  0
LINE
  5
42D
330
1F
100
AcDbEntity
  8
0
  6
Continuous
 62
     7
370
    25
100
AcDbLine
 10
0.1145565057
 20
0.1794004144
 30
0.0
 11
0.115656496
 21
0.1794004144
 31
0.0
  0
LINE
  5
42E
330
1F
100
AcDbEntity
  8
0
  6
Continuous
 62
     7
370
    25
100
AcDbLine
 10
0.1145565057
 20
0.1784337477
 30
0.0
 11
0.115656496
 21
0.1784337477
 31
0.0
  0
LINE
  5
42F
330
1F
100
AcDbEntity
  8
0
  6
Continuous
 62
     7
370
    25
100
AcDbLine
 10
0.1145565057
 20
0.178567081
 30
0.0
 11
0.115656496
 21
0.178567081
 31
0.0
  0
LINE
  5
430
330
1F
100
AcDbEntity
  8
0
  6
Continuous
 62
     7
370
    25
100
AcDbLine
 10
0.1145565057
 20
0.179067081
 30
0.0
 11
0.115656496
 21
0.179067081
 31
0.0
  0
LINE
  5
431
330
1F
100
AcDbEntity
  8
0
  6
Continuous
 62
     7
370
    25
100
AcDbLine
 10
0.1145565057
 20
0.1789337477
 30
0.0
 11
0.115656496
 21
0.1789337477
 31
0.0
  0
LINE
  5
432
330
1F
100
AcDbEntity
  8
0
  6
Continuous
 62
     7
370
    25
100
AcDbLine
 10
0.1145565057
 20
0.1791004144
 30
0.0
 11
0.115656496
 21
0.1791004144
 31
0.0
  0
LINE
  5
433
330
1F
100
AcDbEntity
  8
0
  6
Continuous
 62
     7
370
    25
100
AcDbLine
 10
0.1145565057
 20
0.1792337477
 30
0.0
 11
0.115656496
 21
0.1792337477
 31
0.0
  0
LINE
  5
434
330
1F
100
AcDbEntity
  8
0
  6
Continuous
 62
     7
370
    25
100
AcDbLine
 10
0.1145565057
 20
0.1787337477
 30
0.0
 11
0.115656496
 21
0.1787337477
 31
0.0
  0
LINE
  5
435
330
1F
100
AcDbEntity
  8
0
  6
Continuous
 62
     7
370
    25
100
AcDbLine
 10
0.1145565057
 20
0.1786004144
 30
0.0
 11
0.115656496
 21
0.1786004144
 31
0.0
  0
LINE
  5
436
330
1F
100
AcDbEntity
  8
0
  6
Continuous
 62
     7
370
    25
100
AcDbLine
 10
0.1145565057
 20
0.178767081
 30
0.0
 11
0.115656496
 21
0.178767081
 31
0.0
  0
LINE
  5
437
330
1F
100
AcDbEntity
  8
0
  6
Continuous
 62
     7
370
    25
100
AcDbLine
 10
0.1145565057
 20
0.1789004144
 30
0.0
 11
0.115656496
 21
0.1789004144
 31
0.0
  0
LINE
  5
438
330
1F
100
AcDbEntity
  8
0
  6
Continuous
 62
     7
370
    25
100
AcDbLine
 10
0.1145565057
 20
0.1794337477
 30
0.0
 11
0.115656496
 21
0.1794337477
 31
0.0
  0
LINE
  5
439
330
1F
100
AcDbEntity
  8
0
  6
Continuous
 62
     7
370
    25
100
AcDbLine
 10
0.1145565057
 20
0.179567081
 30
0.0
 11
0.115656496
 21
0.179567081
 31
0.0
  0
LINE
  5
43A
330
1F
100
AcDbEntity
  8
0
  6
Continuous
 62
     7
370
    25
100
AcDbLine
 10
0.1145565057
 20
0.1804004144
 30
0.0
 11
0.115656496
 21
0.1804004144
 31
0.0
  0
LINE
  5
43B
330
1F
100
AcDbEntity
  8
0
  6
Continuous
 62
     7
370
    25
100
AcDbLine
 10
0.1145565057
 20
0.180267081
 30
0.0
 11
0.115656496
 21
0.180267081
 31
0.0
  0
LINE
  5
43C
330
1F
100
AcDbEntity
  8
0
  6
Continuous
 62
     7
370
    25
100
AcDbLine
 10
0.1145565057
 20
0.179767081
 30
0.0
 11
0.115656496
 21
0.179767081
 31
0.0
  0
LINE
  5
43D
330
1F
100
AcDbEntity
  8
0
  6
Continuous
 62
     7
370
    25
100
AcDbLine
 10
0.1145565057
 20
0.1799004144
 30
0.0
 11
0.115656496
 21
0.1799004144
 31
0.0
  0
LINE
  5
43E
330
1F
100
AcDbEntity
  8
0
  6
Continuous
 62
     7
370
    25
100
AcDbLine
 10
0.1145565057
 20
0.1796004144
 30
0.0
 11
0.115656496
 21
0.1796004144
 31
0.0
  0
LINE
  5
43F
330
1F
100
AcDbEntity
  8
0
  6
Continuous
 62
     7
370
    25
100
AcDbLine
 10
0.1145565057
 20
0.1797337477
 30
0.0
 11
0.115656496
 21
0.1797337477
 31
0.0
  0
LINE
  5
440
330
1F
100
AcDbEntity
  8
0
  6
Continuous
 62
     7
370
    25
100
AcDbLine
 10
0.1145565057
 20
0.1801004144
 30
0.0
 11
0.115656496
 21
0.1801004144
 31
0.0
  0
LINE
  5
441
330
1F
100
AcDbEntity
  8
0
  6
Continuous
 62
     7
370
    25
100
AcDbLine
 10
0.1145565057
 20
0.1802337477
 30
0.0
 11
0.115656496
 21
0.1802337477
 31
0.0
  0
LINE
  5
442
330
1F
100
AcDbEntity
  8
0
  6
Continuous
 62
     7
370
    25
100
AcDbLine
 10
0.1145565057
 20
0.1804337477
 30
0.0
 11
0.115656496
 21
0.1804337477
 31
0.0
  0
LINE
  5
443
330
1F
100
AcDbEntity
  8
0
  6
Continuous
 62
     7
370
    25
100
AcDbLine
 10
0.1145565057
 20
0.180567081
 30
0.0
 11
0.115656496
 21
0.180567081
 31
0.0
  0
LINE
  5
444
330
1F
100
AcDbEntity
  8
0
  6
Continuous
 62
     7
370
    25
100
AcDbLine
 10
0.1145565057
 20
0.1799337477
 30
0.0
 11
0.115656496
 21
0.1799337477
 31
0.0
  0
LINE
  5
445
330
1F
100
AcDbEntity
  8
0
  6
Continuous
 62
     7
370
    25
100
AcDbLine
 10
0.1145565057
 20
0.180067081
 30
0.0
 11
0.115656496
 21
0.180067081
 31
0.0
  0
LINE
  5
446
330
1F
100
AcDbEntity
  8
0
  6
Continuous
 62
     7
370
    25
100
AcDbLine
 10
0.1145565057
 20
0.1806004144
 30
0.0
 11
0.115656496
 21
0.1806004144
 31
0.0
  0
LINE
  5
447
330
1F
100
AcDbEntity
  8
0
  6
Continuous
 62
     7
370
    25
100
AcDbLine
 10
0.1145565057
 20
0.1807337477
 30
0.0
 11
0.115656496
 21
0.1807337477
 31
0.0
  0
LINE
  5
448
330
1F
100
AcDbEntity
  8
0
  6
Continuous
 62
     7
370
    25
100
AcDbLine
 10
0.1029690563
 20
0.1743792531
 30
0.0
 11
0.1029684035
 21
0.1743792531
 31
0.0
  0
LINE
  5
449
330
1F
100
AcDbEntity
  8
0
  6
Continuous
 62
     7
370
    25
100
AcDbLine
 10
0.1042350702
 20
0.1743792531
 30
0.0
 11
0.1029690563
 21
0.1743792531
 31
0.0
  0
LINE
  5
44A
330
1F
100
AcDbEntity
  8
0
  6
Continuous
 62
     7
370
    25
100
AcDbLine
 10
0.1029690563
 20
0.1747292531
 30
0.0
 11
0.1029684035
 21
0.1747292531
 31
0.0
  0
LINE
  5
44B
330
1F
100
AcDbEntity
  8
0
  6
Continuous
 62
     7
370
    25
100
AcDbLine
 10
0.1042350702
 20
0.1747292531
 30
0.0
 11
0.1029690563
 21
0.1747292531
 31
0.0
  0
LINE
  5
44C
330
1F
100
AcDbEntity
  8
0
  6
Continuous
 62
     7
370
    25
100
AcDbLine
 10
0.1030523038
 20
0.1772580918
 30
0.0
 11
0.1030517369
 21
0.1772580918
 31
0.0
  0
LINE
  5
44D
330
1F
100
AcDbEntity
  8
0
  6
Continuous
 62
     7
370
    25
100
AcDbLine
 10
0.1041517369
 20
0.1772580918
 30
0.0
 11
0.1030523038
 21
0.1772580918
 31
0.0
  0
LINE
  5
44E
330
1F
100
AcDbEntity
  8
0
  6
Continuous
 62
     7
370
    25
100
AcDbLine
 10
0.1030523038
 20
0.1748365321
 30
0.0
 11
0.1030517369
 21
0.1748365321
 31
0.0
  0
LINE
  5
44F
330
1F
100
AcDbEntity
  8
0
  6
Continuous
 62
     7
370
    25
100
AcDbLine
 10
0.1041517369
 20
0.1748365321
 30
0.0
 11
0.1030523038
 21
0.1748365321
 31
0.0
  0
LINE
  5
450
330
1F
100
AcDbEntity
  8
0
  6
Continuous
 62
     7
370
    25
100
AcDbLine
 10
0.1030523038
 20
0.1768914252
 30
0.0
 11
0.1030517369
 21
0.1768914252
 31
0.0
  0
LINE
  5
451
330
1F
100
AcDbEntity
  8
0
  6
Continuous
 62
     7
370
    25
100
AcDbLine
 10
0.1041517369
 20
0.1768914252
 30
0.0
 11
0.1030523038
 21
0.1768914252
 31
0.0
  0
LINE
  5
452
330
1F
100
AcDbEntity
  8
0
  6
Continuous
 62
     7
370
    25
100
AcDbLine
 10
0.1030523038
 20
0.1767580918
 30
0.0
 11
0.1030517369
 21
0.1767580918
 31
0.0
  0
LINE
  5
453
330
1F
100
AcDbEntity
  8
0
  6
Continuous
 62
     7
370
    25
100
AcDbLine
 10
0.1041517369
 20
0.1767580918
 30
0.0
 11
0.1030523038
 21
0.1767580918
 31
0.0
  0
LINE
  5
454
330
1F
100
AcDbEntity
  8
0
  6
Continuous
 62
     7
370
    25
100
AcDbLine
 10
0.1030523038
 20
0.1770580918
 30
0.0
 11
0.1030517369
 21
0.1770580918
 31
0.0
  0
LINE
  5
455
330
1F
100
AcDbEntity
  8
0
  6
Continuous
 62
     7
370
    25
100
AcDbLine
 10
0.1041517369
 20
0.1770580918
 30
0.0
 11
0.1030523038
 21
0.1770580918
 31
0.0
  0
LINE
  5
456
330
1F
100
AcDbEntity
  8
0
  6
Continuous
 62
     7
370
    25
100
AcDbLine
 10
0.1030523038
 20
0.1769247585
 30
0.0
 11
0.1030517369
 21
0.1769247585
 31
0.0
  0
LINE
  5
457
330
1F
100
AcDbEntity
  8
0
  6
Continuous
 62
     7
370
    25
100
AcDbLine
 10
0.1041517369
 20
0.1769247585
 30
0.0
 11
0.1030523038
 21
0.1769247585
 31
0.0
  0
LINE
  5
458
330
1F
100
AcDbEntity
  8
0
  6
Continuous
 62
     7
370
    25
100
AcDbLine
 10
0.1030523038
 20
0.1770914252
 30
0.0
 11
0.1030517369
 21
0.1770914252
 31
0.0
  0
LINE
  5
459
330
1F
100
AcDbEntity
  8
0
  6
Continuous
 62
     7
370
    25
100
AcDbLine
 10
0.1041517369
 20
0.1770914252
 30
0.0
 11
0.1030523038
 21
0.1770914252
 31
0.0
  0
LINE
  5
45A
330
1F
100
AcDbEntity
  8
0
  6
Continuous
 62
     7
370
    25
100
AcDbLine
 10
0.1030523038
 20
0.1772247585
 30
0.0
 11
0.1030517369
 21
0.1772247585
 31
0.0
  0
LINE
  5
45B
330
1F
100
AcDbEntity
  8
0
  6
Continuous
 62
     7
370
    25
100
AcDbLine
 10
0.1041517369
 20
0.1772247585
 30
0.0
 11
0.1030523038
 21
0.1772247585
 31
0.0
  0
LINE
  5
45C
330
1F
100
AcDbEntity
  8
0
  6
Continuous
 62
     7
370
    25
100
AcDbLine
 10
0.1030523038
 20
0.1764247585
 30
0.0
 11
0.1030517369
 21
0.1764247585
 31
0.0
  0
LINE
  5
45D
330
1F
100
AcDbEntity
  8
0
  6
Continuous
 62
     7
370
    25
100
AcDbLine
 10
0.1041517369
 20
0.1764247585
 30
0.0
 11
0.1030523038
 21
0.1764247585
 31
0.0
  0
LINE
  5
45E
330
1F
100
AcDbEntity
  8
0
  6
Continuous
 62
     7
370
    25
100
AcDbLine
 10
0.1030523038
 20
0.1765580918
 30
0.0
 11
0.1030517369
 21
0.1765580918
 31
0.0
  0
LINE
  5
45F
330
1F
100
AcDbEntity
  8
0
  6
Continuous
 62
     7
370
    25
100
AcDbLine
 10
0.1041517369
 20
0.1765580918
 30
0.0
 11
0.1030523038
 21
0.1765580918
 31
0.0
  0
LINE
  5
460
330
1F
100
AcDbEntity
  8
0
  6
Continuous
 62
     7
370
    25
100
AcDbLine
 10
0.1030523038
 20
0.1765914252
 30
0.0
 11
0.1030517369
 21
0.1765914252
 31
0.0
  0
LINE
  5
461
330
1F
100
AcDbEntity
  8
0
  6
Continuous
 62
     7
370
    25
100
AcDbLine
 10
0.1041517369
 20
0.1765914252
 30
0.0
 11
0.1030523038
 21
0.1765914252
 31
0.0
  0
LINE
  5
462
330
1F
100
AcDbEntity
  8
0
  6
Continuous
 62
     7
370
    25
100
AcDbLine
 10
0.1030523038
 20
0.1767247585
 30
0.0
 11
0.1030517369
 21
0.1767247585
 31
0.0
  0
LINE
  5
463
330
1F
100
AcDbEntity
  8
0
  6
Continuous
 62
     7
370
    25
100
AcDbLine
 10
0.1041517369
 20
0.1767247585
 30
0.0
 11
0.1030523038
 21
0.1767247585
 31
0.0
  0
LINE
  5
464
330
1F
100
AcDbEntity
  8
0
  6
Continuous
 62
     7
370
    25
100
AcDbLine
 10
0.1030523038
 20
0.1762580918
 30
0.0
 11
0.1030517369
 21
0.1762580918
 31
0.0
  0
LINE
  5
465
330
1F
100
AcDbEntity
  8
0
  6
Continuous
 62
     7
370
    25
100
AcDbLine
 10
0.1041517369
 20
0.1762580918
 30
0.0
 11
0.1030523038
 21
0.1762580918
 31
0.0
  0
LINE
  5
466
330
1F
100
AcDbEntity
  8
0
  6
Continuous
 62
     7
370
    25
100
AcDbLine
 10
0.1030523038
 20
0.1763914252
 30
0.0
 11
0.1030517369
 21
0.1763914252
 31
0.0
  0
LINE
  5
467
330
1F
100
AcDbEntity
  8
0
  6
Continuous
 62
     7
370
    25
100
AcDbLine
 10
0.1041517369
 20
0.1763914252
 30
0.0
 11
0.1030523038
 21
0.1763914252
 31
0.0
  0
LINE
  5
468
330
1F
100
AcDbEntity
  8
0
  6
Continuous
 62
     7
370
    25
100
AcDbLine
 10
0.1030523038
 20
0.1748914252
 30
0.0
 11
0.1030517369
 21
0.1748914252
 31
0.0
  0
LINE
  5
469
330
1F
100
AcDbEntity
  8
0
  6
Continuous
 62
     7
370
    25
100
AcDbLine
 10
0.1041517369
 20
0.1748914252
 30
0.0
 11
0.1030523038
 21
0.1748914252
 31
0.0
  0
LINE
  5
46A
330
1F
100
AcDbEntity
  8
0
  6
Continuous
 62
     7
370
    25
100
AcDbLine
 10
0.1030523038
 20
0.1760914252
 30
0.0
 11
0.1030517369
 21
0.1760914252
 31
0.0
  0
LINE
  5
46B
330
1F
100
AcDbEntity
  8
0
  6
Continuous
 62
     7
370
    25
100
AcDbLine
 10
0.1041517369
 20
0.1760914252
 30
0.0
 11
0.1030523038
 21
0.1760914252
 31
0.0
  0
LINE
  5
46C
330
1F
100
AcDbEntity
  8
0
  6
Continuous
 62
     7
370
    25
100
AcDbLine
 10
0.1030523038
 20
0.1762247585
 30
0.0
 11
0.1030517369
 21
0.1762247585
 31
0.0
  0
LINE
  5
46D
330
1F
100
AcDbEntity
  8
0
  6
Continuous
 62
     7
370
    25
100
AcDbLine
 10
0.1041517369
 20
0.1762247585
 30
0.0
 11
0.1030523038
 21
0.1762247585
 31
0.0
  0
LINE
  5
46E
330
1F
100
AcDbEntity
  8
0
  6
Continuous
 62
     7
370
    25
100
AcDbLine
 10
0.1030523038
 20
0.1760580918
 30
0.0
 11
0.1030517369
 21
0.1760580918
 31
0.0
  0
LINE
  5
46F
330
1F
100
AcDbEntity
  8
0
  6
Continuous
 62
     7
370
    25
100
AcDbLine
 10
0.1041517369
 20
0.1760580918
 30
0.0
 11
0.1030523038
 21
0.1760580918
 31
0.0
  0
LINE
  5
470
330
1F
100
AcDbEntity
  8
0
  6
Continuous
 62
     7
370
    25
100
AcDbLine
 10
0.1030523038
 20
0.1759247585
 30
0.0
 11
0.1030517369
 21
0.1759247585
 31
0.0
  0
LINE
  5
471
330
1F
100
AcDbEntity
  8
0
  6
Continuous
 62
     7
370
    25
100
AcDbLine
 10
0.1041517369
 20
0.1759247585
 30
0.0
 11
0.1030523038
 21
0.1759247585
 31
0.0
  0
LINE
  5
472
330
1F
100
AcDbEntity
  8
0
  6
Continuous
 62
     7
370
    25
100
AcDbLine
 10
0.1030523038
 20
0.1758914252
 30
0.0
 11
0.1030517369
 21
0.1758914252
 31
0.0
  0
LINE
  5
473
330
1F
100
AcDbEntity
  8
0
  6
Continuous
 62
     7
370
    25
100
AcDbLine
 10
0.1041517369
 20
0.1758914252
 30
0.0
 11
0.1030523038
 21
0.1758914252
 31
0.0
  0
LINE
  5
474
330
1F
100
AcDbEntity
  8
0
  6
Continuous
 62
     7
370
    25
100
AcDbLine
 10
0.1030523038
 20
0.1757580918
 30
0.0
 11
0.1030517369
 21
0.1757580918
 31
0.0
  0
LINE
  5
475
330
1F
100
AcDbEntity
  8
0
  6
Continuous
 62
     7
370
    25
100
AcDbLine
 10
0.1041517369
 20
0.1757580918
 30
0.0
 11
0.1030523038
 21
0.1757580918
 31
0.0
  0
LINE
  5
476
330
1F
100
AcDbEntity
  8
0
  6
Continuous
 62
     7
370
    25
100
AcDbLine
 10
0.1030523038
 20
0.1755580918
 30
0.0
 11
0.1030517369
 21
0.1755580918
 31
0.0
  0
LINE
  5
477
330
1F
100
AcDbEntity
  8
0
  6
Continuous
 62
     7
370
    25
100
AcDbLine
 10
0.1041517369
 20
0.1755580918
 30
0.0
 11
0.1030523038
 21
0.1755580918
 31
0.0
  0
LINE
  5
478
330
1F
100
AcDbEntity
  8
0
  6
Continuous
 62
     7
370
    25
100
AcDbLine
 10
0.1030523038
 20
0.1754247585
 30
0.0
 11
0.1030517369
 21
0.1754247585
 31
0.0
  0
LINE
  5
479
330
1F
100
AcDbEntity
  8
0
  6
Continuous
 62
     7
370
    25
100
AcDbLine
 10
0.1041517369
 20
0.1754247585
 30
0.0
 11
0.1030523038
 21
0.1754247585
 31
0.0
  0
LINE
  5
47A
330
1F
100
AcDbEntity
  8
0
  6
Continuous
 62
     7
370
    25
100
AcDbLine
 10
0.1030523038
 20
0.1757247585
 30
0.0
 11
0.1030517369
 21
0.1757247585
 31
0.0
  0
LINE
  5
47B
330
1F
100
AcDbEntity
  8
0
  6
Continuous
 62
     7
370
    25
100
AcDbLine
 10
0.1041517369
 20
0.1757247585
 30
0.0
 11
0.1030523038
 21
0.1757247585
 31
0.0
  0
LINE
  5
47C
330
1F
100
AcDbEntity
  8
0
  6
Continuous
 62
     7
370
    25
100
AcDbLine
 10
0.1030523038
 20
0.1755914252
 30
0.0
 11
0.1030517369
 21
0.1755914252
 31
0.0
  0
LINE
  5
47D
330
1F
100
AcDbEntity
  8
0
  6
Continuous
 62
     7
370
    25
100
AcDbLine
 10
0.1041517369
 20
0.1755914252
 30
0.0
 11
0.1030523038
 21
0.1755914252
 31
0.0
  0
LINE
  5
47E
330
1F
100
AcDbEntity
  8
0
  6
Continuous
 62
     7
370
    25
100
AcDbLine
 10
0.1030523038
 20
0.1752247585
 30
0.0
 11
0.1030517369
 21
0.1752247585
 31
0.0
  0
LINE
  5
47F
330
1F
100
AcDbEntity
  8
0
  6
Continuous
 62
     7
370
    25
100
AcDbLine
 10
0.1041517369
 20
0.1752247585
 30
0.0
 11
0.1030523038
 21
0.1752247585
 31
0.0
  0
LINE
  5
480
330
1F
100
AcDbEntity
  8
0
  6
Continuous
 62
     7
370
    25
100
AcDbLine
 10
0.1030523038
 20
0.1750914252
 30
0.0
 11
0.1030517369
 21
0.1750914252
 31
0.0
  0
LINE
  5
481
330
1F
100
AcDbEntity
  8
0
  6
Continuous
 62
     7
370
    25
100
AcDbLine
 10
0.1041517369
 20
0.1750914252
 30
0.0
 11
0.1030523038
 21
0.1750914252
 31
0.0
  0
LINE
  5
482
330
1F
100
AcDbEntity
  8
0
  6
Continuous
 62
     7
370
    25
100
AcDbLine
 10
0.1030523038
 20
0.1753914252
 30
0.0
 11
0.1030517369
 21
0.1753914252
 31
0.0
  0
LINE
  5
483
330
1F
100
AcDbEntity
  8
0
  6
Continuous
 62
     7
370
    25
100
AcDbLine
 10
0.1041517369
 20
0.1753914252
 30
0.0
 11
0.1030523038
 21
0.1753914252
 31
0.0
  0
LINE
  5
484
330
1F
100
AcDbEntity
  8
0
  6
Continuous
 62
     7
370
    25
100
AcDbLine
 10
0.1030523038
 20
0.1752580918
 30
0.0
 11
0.1030517369
 21
0.1752580918
 31
0.0
  0
LINE
  5
485
330
1F
100
AcDbEntity
  8
0
  6
Continuous
 62
     7
370
    25
100
AcDbLine
 10
0.1041517369
 20
0.1752580918
 30
0.0
 11
0.1030523038
 21
0.1752580918
 31
0.0
  0
LINE
  5
486
330
1F
100
AcDbEntity
  8
0
  6
Continuous
 62
     7
370
    25
100
AcDbLine
 10
0.1030523038
 20
0.1750580918
 30
0.0
 11
0.1030517369
 21
0.1750580918
 31
0.0
  0
LINE
  5
487
330
1F
100
AcDbEntity
  8
0
  6
Continuous
 62
     7
370
    25
100
AcDbLine
 10
0.1041517369
 20
0.1750580918
 30
0.0
 11
0.1030523038
 21
0.1750580918
 31
0.0
  0
LINE
  5
488
330
1F
100
AcDbEntity
  8
0
  6
Continuous
 62
     7
370
    25
100
AcDbLine
 10
0.1030523038
 20
0.1749247585
 30
0.0
 11
0.1030517369
 21
0.1749247585
 31
0.0
  0
LINE
  5
489
330
1F
100
AcDbEntity
  8
0
  6
Continuous
 62
     7
370
    25
100
AcDbLine
 10
0.1041517369
 20
0.1749247585
 30
0.0
 11
0.1030523038
 21
0.1749247585
 31
0.0
  0
LINE
  5
48A
330
1F
100
AcDbEntity
  8
0
  6
Continuous
 62
     7
370
    25
100
AcDbLine
 10
0.1168734171
 20
0.1808292531
 30
0.0
 11
0.1181400837
 21
0.1808292531
 31
0.0
  0
LINE
  5
48B
330
1F
100
AcDbEntity
  8
0
  6
Continuous
 62
     7
370
    25
100
AcDbLine
 10
0.1168734171
 20
0.1811792531
 30
0.0
 11
0.1181400837
 21
0.1811792531
 31
0.0
  0
LINE
  5
48C
330
1F
100
AcDbEntity
  8
0
  6
Continuous
 62
     7
370
    25
100
AcDbLine
 10
0.1169567504
 20
0.1807219741
 30
0.0
 11
0.1180567504
 21
0.1807219741
 31
0.0
  0
LINE
  5
48D
330
1F
100
AcDbEntity
  8
0
  6
Continuous
 62
     7
370
    25
100
AcDbLine
 10
0.1169567504
 20
0.180667081
 30
0.0
 11
0.1180567504
 21
0.180667081
 31
0.0
  0
LINE
  5
48E
330
1F
100
AcDbEntity
  8
0
  6
Continuous
 62
     7
370
    25
100
AcDbLine
 10
0.1169567504
 20
0.179967081
 30
0.0
 11
0.1180567504
 21
0.179967081
 31
0.0
  0
LINE
  5
48F
330
1F
100
AcDbEntity
  8
0
  6
Continuous
 62
     7
370
    25
100
AcDbLine
 10
0.1169567504
 20
0.1800004144
 30
0.0
 11
0.1180567504
 21
0.1800004144
 31
0.0
  0
LINE
  5
490
330
1F
100
AcDbEntity
  8
0
  6
Continuous
 62
     7
370
    25
100
AcDbLine
 10
0.1169567504
 20
0.1801337477
 30
0.0
 11
0.1180567504
 21
0.1801337477
 31
0.0
  0
LINE
  5
491
330
1F
100
AcDbEntity
  8
0
  6
Continuous
 62
     7
370
    25
100
AcDbLine
 10
0.1169567504
 20
0.180167081
 30
0.0
 11
0.1180567504
 21
0.180167081
 31
0.0
  0
LINE
  5
492
330
1F
100
AcDbEntity
  8
0
  6
Continuous
 62
     7
370
    25
100
AcDbLine
 10
0.1169567504
 20
0.1803004144
 30
0.0
 11
0.1180567504
 21
0.1803004144
 31
0.0
  0
LINE
  5
493
330
1F
100
AcDbEntity
  8
0
  6
Continuous
 62
     7
370
    25
100
AcDbLine
 10
0.1169567504
 20
0.1803337477
 30
0.0
 11
0.1180567504
 21
0.1803337477
 31
0.0
  0
LINE
  5
494
330
1F
100
AcDbEntity
  8
0
  6
Continuous
 62
     7
370
    25
100
AcDbLine
 10
0.1169567504
 20
0.180467081
 30
0.0
 11
0.1180567504
 21
0.180467081
 31
0.0
  0
LINE
  5
495
330
1F
100
AcDbEntity
  8
0
  6
Continuous
 62
     7
370
    25
100
AcDbLine
 10
0.1169567504
 20
0.1805004144
 30
0.0
 11
0.1180567504
 21
0.1805004144
 31
0.0
  0
LINE
  5
496
330
1F
100
AcDbEntity
  8
0
  6
Continuous
 62
     7
370
    25
100
AcDbLine
 10
0.1169567504
 20
0.1806337477
 30
0.0
 11
0.1180567504
 21
0.1806337477
 31
0.0
  0
LINE
  5
497
330
1F
100
AcDbEntity
  8
0
  6
Continuous
 62
     7
370
    25
100
AcDbLine
 10
0.1006812417
 20
0.1744792531
 30
0.0
 11
0.1006808386
 21
0.1744792531
 31
0.0
  0
LINE
  5
498
330
1F
100
AcDbEntity
  8
0
  6
Continuous
 62
     7
370
    25
100
AcDbLine
 10
0.1019475053
 20
0.1744792531
 30
0.0
 11
0.1006812417
 21
0.1744792531
 31
0.0
  0
LINE
  5
499
330
1F
100
AcDbEntity
  8
0
  6
Continuous
 62
     7
370
    25
100
AcDbLine
 10
0.1006812417
 20
0.1748292531
 30
0.0
 11
0.1006808386
 21
0.1748292531
 31
0.0
  0
LINE
  5
49A
330
1F
100
AcDbEntity
  8
0
  6
Continuous
 62
     7
370
    25
100
AcDbLine
 10
0.1019475053
 20
0.1748292531
 30
0.0
 11
0.1006812417
 21
0.1748292531
 31
0.0
  0
LINE
  5
49B
330
1F
100
AcDbEntity
  8
0
  6
Continuous
 62
     7
370
    25
100
AcDbLine
 10
0.100764522
 20
0.1749365321
 30
0.0
 11
0.100764172
 21
0.1749365321
 31
0.0
  0
LINE
  5
49C
330
1F
100
AcDbEntity
  8
0
  6
Continuous
 62
     7
370
    25
100
AcDbLine
 10
0.101864172
 20
0.1749365321
 30
0.0
 11
0.100764522
 21
0.1749365321
 31
0.0
  0
LINE
  5
49D
330
1F
100
AcDbEntity
  8
0
  6
Continuous
 62
     7
370
    25
100
AcDbLine
 10
0.100764522
 20
0.1749914252
 30
0.0
 11
0.100764172
 21
0.1749914252
 31
0.0
  0
LINE
  5
49E
330
1F
100
AcDbEntity
  8
0
  6
Continuous
 62
     7
370
    25
100
AcDbLine
 10
0.101864172
 20
0.1749914252
 30
0.0
 11
0.100764522
 21
0.1749914252
 31
0.0
  0
LINE
  5
49F
330
1F
100
AcDbEntity
  8
0
  6
Continuous
 62
     7
370
    25
100
AcDbLine
 10
0.100764522
 20
0.1756914252
 30
0.0
 11
0.100764172
 21
0.1756914252
 31
0.0
  0
LINE
  5
4A0
330
1F
100
AcDbEntity
  8
0
  6
Continuous
 62
     7
370
    25
100
AcDbLine
 10
0.101864172
 20
0.1756914252
 30
0.0
 11
0.100764522
 21
0.1756914252
 31
0.0
  0
LINE
  5
4A1
330
1F
100
AcDbEntity
  8
0
  6
Continuous
 62
     7
370
    25
100
AcDbLine
 10
0.100764522
 20
0.1756580918
 30
0.0
 11
0.100764172
 21
0.1756580918
 31
0.0
  0
LINE
  5
4A2
330
1F
100
AcDbEntity
  8
0
  6
Continuous
 62
     7
370
    25
100
AcDbLine
 10
0.101864172
 20
0.1756580918
 30
0.0
 11
0.100764522
 21
0.1756580918
 31
0.0
  0
LINE
  5
4A3
330
1F
100
AcDbEntity
  8
0
  6
Continuous
 62
     7
370
    25
100
AcDbLine
 10
0.100764522
 20
0.1755247585
 30
0.0
 11
0.100764172
 21
0.1755247585
 31
0.0
  0
LINE
  5
4A4
330
1F
100
AcDbEntity
  8
0
  6
Continuous
 62
     7
370
    25
100
AcDbLine
 10
0.101864172
 20
0.1755247585
 30
0.0
 11
0.100764522
 21
0.1755247585
 31
0.0
  0
LINE
  5
4A5
330
1F
100
AcDbEntity
  8
0
  6
Continuous
 62
     7
370
    25
100
AcDbLine
 10
0.100764522
 20
0.1754914252
 30
0.0
 11
0.100764172
 21
0.1754914252
 31
0.0
  0
LINE
  5
4A6
330
1F
100
AcDbEntity
  8
0
  6
Continuous
 62
     7
370
    25
100
AcDbLine
 10
0.101864172
 20
0.1754914252
 30
0.0
 11
0.100764522
 21
0.1754914252
 31
0.0
  0
LINE
  5
4A7
330
1F
100
AcDbEntity
  8
0
  6
Continuous
 62
     7
370
    25
100
AcDbLine
 10
0.100764522
 20
0.1753580918
 30
0.0
 11
0.100764172
 21
0.1753580918
 31
0.0
  0
LINE
  5
4A8
330
1F
100
AcDbEntity
  8
0
  6
Continuous
 62
     7
370
    25
100
AcDbLine
 10
0.101864172
 20
0.1753580918
 30
0.0
 11
0.100764522
 21
0.1753580918
 31
0.0
  0
LINE
  5
4A9
330
1F
100
AcDbEntity
  8
0
  6
Continuous
 62
     7
370
    25
100
AcDbLine
 10
0.100764522
 20
0.1751914252
 30
0.0
 11
0.100764172
 21
0.1751914252
 31
0.0
  0
LINE
  5
4AA
330
1F
100
AcDbEntity
  8
0
  6
Continuous
 62
     7
370
    25
100
AcDbLine
 10
0.101864172
 20
0.1751914252
 30
0.0
 11
0.100764522
 21
0.1751914252
 31
0.0
  0
LINE
  5
4AB
330
1F
100
AcDbEntity
  8
0
  6
Continuous
 62
     7
370
    25
100
AcDbLine
 10
0.100764522
 20
0.1753247585
 30
0.0
 11
0.100764172
 21
0.1753247585
 31
0.0
  0
LINE
  5
4AC
330
1F
100
AcDbEntity
  8
0
  6
Continuous
 62
     7
370
    25
100
AcDbLine
 10
0.101864172
 20
0.1753247585
 30
0.0
 11
0.100764522
 21
0.1753247585
 31
0.0
  0
LINE
  5
4AD
330
1F
100
AcDbEntity
  8
0
  6
Continuous
 62
     7
370
    25
100
AcDbLine
 10
0.100764522
 20
0.1750247585
 30
0.0
 11
0.100764172
 21
0.1750247585
 31
0.0
  0
LINE
  5
4AE
330
1F
100
AcDbEntity
  8
0
  6
Continuous
 62
     7
370
    25
100
AcDbLine
 10
0.101864172
 20
0.1750247585
 30
0.0
 11
0.100764522
 21
0.1750247585
 31
0.0
  0
LINE
  5
4AF
330
1F
100
AcDbEntity
  8
0
  6
Continuous
 62
     7
370
    25
100
AcDbLine
 10
0.100764522
 20
0.1751580918
 30
0.0
 11
0.100764172
 21
0.1751580918
 31
0.0
  0
LINE
  5
4B0
330
1F
100
AcDbEntity
  8
0
  6
Continuous
 62
     7
370
    25
100
AcDbLine
 10
0.101864172
 20
0.1751580918
 30
0.0
 11
0.100764522
 21
0.1751580918
 31
0.0
  0
LWPOLYLINE
  5
4B1
330
1F
100
AcDbEntity
  8
0
  6
Continuous
 62
     7
370
    25
100
AcDbPolyline
 90
        3
 70
   128
 43
0.0
 10
0.1075845105
 20
0.1806595315
 10
0.1075718463
 20
0.1806836343
 10
0.1075622206
 20
0.1807028735
  0
ARC
  5
4B2
330
1F
100
AcDbEntity
  8
0
  6
Continuous
 62
     7
370
    25
100
AcDbCircle
 10
0.1092279333
 20
0.1777741477
 30
0.0
 40
0.0033692779283527
100
AcDbArc
 50
45.5892306793
 51
119.6290521297
  0
ARC
  5
4B3
330
1F
100
AcDbEntity
  8
0
  6
Continuous
 62
     7
370
    25
100
AcDbCircle
 10
0.1096368191
 20
0.1772780161
 30
0.0
 40
0.0040041987080807
100
AcDbArc
 50
121.2052754307
 51
139.4864879895
  0
ARC
  5
4B4
330
1F
100
AcDbEntity
  8
0
  6
Continuous
 62
     7
370
    25
100
AcDbCircle
 10
0.1092579873
 20
0.1777483941
 30
0.0
 40
0.0026122692176153
100
AcDbArc
 50
267.850820389
 51
311.0789581147
  0
ARC
  5
4B5
330
1F
100
AcDbEntity
  8
0
  6
Continuous
 62
     7
370
    25
100
AcDbCircle
 10
0.1092220141
 20
0.1777314813
 30
0.0
 40
0.0025942597107254
100
AcDbArc
 50
228.8090061282
 51
268.630767704
  0
ARC
  5
4B6
330
1F
100
AcDbEntity
  8
0
  6
Continuous
 62
     7
370
    25
100
AcDbCircle
 10
0.1092016643
 20
0.1776615329
 30
0.0
 40
0.0025840922002291
100
AcDbArc
 50
226.7533039332
 51
269.0408139412
  0
ARC
  5
4B7
330
1F
100
AcDbEntity
  8
0
  6
Continuous
 62
     7
370
    25
100
AcDbCircle
 10
0.1092520607
 20
0.1777737469
 30
0.0
 40
0.002697570360247
100
AcDbArc
 50
268.0103987397
 51
312.3224989781
  0
ARC
  5
4B8
330
1F
100
AcDbEntity
  8
0
  6
Continuous
 62
     7
370
    25
100
AcDbCircle
 10
0.1092541528
 20
0.1778170397
 30
0.0
 40
0.0034348390745509
100
AcDbArc
 50
221.5496674781
 51
268.0286147815
  0
LWPOLYLINE
  5
4B9
330
1F
100
AcDbEntity
  8
0
  6
Continuous
 62
     7
370
    25
100
AcDbPolyline
 90
        3
 70
   128
 43
0.0
 10
0.1115551083
 20
0.1802138931
 10
0.1117532454
 20
0.1800009215
 10
0.1118555017
 20
0.1798792531
  0
ARC
  5
4BA
330
1F
100
AcDbEntity
  8
0
  6
Continuous
 62
     7
370
    25
100
AcDbCircle
 10
0.1092258123
 20
0.1777587282
 30
0.0
 40
0.003375689716918
100
AcDbArc
 50
268.4753130786
 51
324.098659273
  0
LINE
  5
4BB
330
1F
100
AcDbEntity
  8
0
  6
Continuous
 62
     7
370
    25
100
AcDbLine
 10
0.1091377662
 20
0.1744407454
 30
0.0
 11
0.1091129595
 21
0.1744438084
 31
0.0
  0
LINE
  5
4BC
330
1F
100
AcDbEntity
  8
0
  6
Continuous
 62
     7
370
    25
100
AcDbLine
 10
0.1115157002
 20
0.1801733413
 30
0.0
 11
0.1115664462
 21
0.1801184858
 31
0.0
  0
LINE
  5
4BD
330
1F
100
AcDbEntity
  8
0
  6
Continuous
 62
     7
370
    25
100
AcDbLine
 10
0.1117551011
 20
0.1799124852
 30
0.0
 11
0.1117818575
 21
0.1798792531
 31
0.0
  0
LWPOLYLINE
  5
4BE
330
1F
100
AcDbEntity
  8
0
  6
Continuous
 62
     7
370
    25
100
AcDbPolyline
 90
        3
 70
   128
 43
0.0
 10
0.1118895974
 20
0.1757792531
 10
0.1117825364
 20
0.1756366426
 10
0.1117539626
 20
0.1756056117
  0
ARC
  5
4BF
330
1F
100
AcDbEntity
  8
0
  6
Continuous
 62
     7
370
    25
100
AcDbCircle
 10
0.1092786575
 20
0.1776722867
 30
0.0
 40
0.0032227711202436
100
AcDbArc
 50
277.3747200491
 51
315.3776544959
  0
LINE
  5
4C0
330
1F
100
AcDbEntity
  8
0
  6
Continuous
 62
     7
370
    25
100
AcDbLine
 10
0.1091921754
 20
0.1744430831
 30
0.0
 11
0.1091377662
 21
0.1744407454
 31
0.0
  0
LINE
  5
4C1
330
1F
100
AcDbEntity
  8
0
  6
Continuous
 62
     7
370
    25
100
AcDbLine
 10
0.1115157002
 20
0.1801733413
 30
0.0
 11
0.1115128025
 21
0.1801676634
 31
0.0
  0
LINE
  5
4C2
330
1F
100
AcDbEntity
  8
0
  6
Continuous
 62
     7
370
    25
100
AcDbLine
 10
0.1091359931
 20
0.1743842336
 30
0.0
 11
0.1091377662
 21
0.1744407454
 31
0.0
  0
LINE
  5
4C3
330
1F
100
AcDbEntity
  8
0
  6
Continuous
 62
     7
370
    25
100
AcDbLine
 10
0.1066835844
 20
0.1755388173
 30
0.0
 11
0.1067097899
 21
0.1755617158
 31
0.0
  0
LINE
  5
4C4
330
1F
100
AcDbEntity
  8
0
  6
Continuous
 62
     7
370
    25
100
AcDbLine
 10
0.1115157002
 20
0.1801733413
 30
0.0
 11
0.1115551083
 21
0.1802138931
 31
0.0
  0
ARC
  5
4C5
330
1F
100
AcDbEntity
  8
0
  6
Continuous
 62
     7
370
    25
100
AcDbCircle
 10
0.1092285159
 20
0.1777625864
 30
0.0
 40
0.0026666666666667
100
AcDbArc
 50
52.5373489275
 51
127.527792252
  0
ARC
  5
4C6
330
1F
100
AcDbEntity
  8
0
  6
Continuous
 62
     7
370
    25
100
AcDbCircle
 10
0.1092285159
 20
0.1777625864
 30
0.0
 40
0.0026666666666667
100
AcDbArc
 50
228.0518460882
 51
311.9481539118
  0
ARC
  5
4C7
330
1F
100
AcDbEntity
  8
0
  6
Continuous
 62
     7
370
    25
100
AcDbCircle
 10
0.1093192667
 20
0.1778628485
 30
0.0
 40
0.0028178753583539
100
AcDbArc
 50
239.8322855397
 51
312.3179069615
  0
ARC
  5
4C8
330
1F
100
AcDbEntity
  8
0
  6
Continuous
 62
     7
370
    25
100
AcDbCircle
 10
0.1091390355
 20
0.1776628426
 30
0.0
 40
0.0031851979909456
100
AcDbArc
 50
225.1158152777
 51
315.3501631024
  0
LWPOLYLINE
  5
4C9
330
1F
100
AcDbEntity
  8
0
  6
Continuous
 62
     7
370
    25
100
AcDbPolyline
 90
        3
 70
   128
 43
0.0
 10
0.1067029647
 20
0.1756055799
 10
0.1066374966
 20
0.1756790975
 10
0.1065623287
 20
0.1757792531
  0
ENDSEC
  0
SECTION
  2
OBJECTS
  0
DICTIONARY
  5
C
330
0
100
AcDbDictionary
281
     1
  3
ACAD_DETAILVIEWSTYLE
350
4D2
  3
ACAD_GROUP
350
D
  3
ACAD_LAYOUT
350
1A
  3
ACAD_MATERIAL
350
43
  3
ACAD_MLEADERSTYLE
350
6B
  3
ACAD_MLINESTYLE
350
17
  3
ACAD_PLOTSETTINGS
350
19
  3
ACAD_PLOTSTYLENAME
350
E
  3
ACAD_SCALELIST
350
47
  3
ACAD_SECTIONVIEWSTYLE
350
4D3
  3
ACAD_TABLESTYLE
350
69
  3
ACAD_VISUALSTYLE
350
2A
  3
ACDB_RECOMPOSE_DATA
350
4CF
  3
AcDbVariableDictionary
350
4CA
  0
SUN
  5
6D
330
29
100
AcDbSun
 90
        1
290
     0
 63
     7
421
 16777215
 40
1.0
291
     1
 91
  2455826
 92
 54000000
292
     0
 70
     2
 71
   256
280
     1
  0
DICTIONARY
  5
4D2
102
{ACAD_REACTORS
330
C
102
}
330
C
100
AcDbDictionary
281
     1
  0
DICTIONARY
  5
D
102
{ACAD_REACTORS
330
C
102
}
330
C
100
AcDbDictionary
281
     1
  0
DICTIONARY
  5
1A
102
{ACAD_REACTORS
330
C
102
}
330
C
100
AcDbDictionary
281
     1
  3
Layout1
350
1E
  3
Layout2
350
26
  3
Model
350
22
  0
DICTIONARY
  5
43
102
{ACAD_REACTORS
330
C
102
}
330
C
100
AcDbDictionary
281
     1
  3
ByBlock
350
45
  3
ByLayer
350
44
  3
Global
350
46
  0
DICTIONARY
  5
6B
102
{ACAD_REACTORS
330
C
102
}
330
C
100
AcDbDictionary
281
     1
  3
Standard
350
6C
  0
DICTIONARY
  5
17
102
{ACAD_REACTORS
330
C
102
}
330
C
100
AcDbDictionary
281
     1
  3
Standard
350
18
  0
DICTIONARY
  5
19
102
{ACAD_REACTORS
330
C
102
}
330
C
100
AcDbDictionary
281
     1
  0
ACDBDICTIONARYWDFLT
  5
E
102
{ACAD_REACTORS
330
C
102
}
330
C
100
AcDbDictionary
281
     1
  3
Normal
350
F
100
AcDbDictionaryWithDefault
340
F
  0
DICTIONARY
  5
47
102
{ACAD_REACTORS
330
C
102
}
330
C
100
AcDbDictionary
281
     1
  3
A0
350
48
  3
A1
350
49
  3
A2
350
4A
  3
A3
350
4B
  3
A4
350
4C
  3
A5
350
4D
  3
A6
350
4E
  3
A7
350
4F
  3
A8
350
50
  3
A9
350
51
  3
B0
350
52
  3
B1
350
53
  3
B2
350
54
  3
B3
350
55
  3
B4
350
56
  3
B5
350
57
  3
B6
350
58
  3
B7
350
59
  3
B8
350
5A
  3
B9
350
5B
  3
C0
350
5C
  3
C1
350
5D
  3
C2
350
5E
  3
C3
350
5F
  3
C4
350
60
  3
C5
350
61
  3
C6
350
62
  3
C7
350
63
  3
C8
350
64
  3
C9
350
65
  3
D0
350
66
  3
D1
350
67
  3
D2
350
68
  0
DICTIONARY
  5
4D3
102
{ACAD_REACTORS
330
C
102
}
330
C
100
AcDbDictionary
281
     1
  0
DICTIONARY
  5
69
102
{ACAD_REACTORS
330
C
102
}
330
C
100
AcDbDictionary
281
     1
  3
Standard
350
6A
  0
DICTIONARY
  5
2A
102
{ACAD_REACTORS
330
C
102
}
330
C
100
AcDbDictionary
281
     1
  3
2dWireframe
350
2F
  3
Basic
350
32
  3
Brighten
350
36
  3
ColorChange
350
3A
  3
Conceptual
350
34
  3
Dim
350
35
  3
EdgeColorOff
350
3D
  3
Facepattern
350
39
  3
Flat
350
2B
  3
FlatWithEdges
350
2C
  3
Gouraud
350
2D
  3
GouraudWithEdges
350
2E
  3
Hidden
350
31
  3
JitterOff
350
3B
  3
Linepattern
350
38
  3
OverhangOff
350
3C
  3
Realistic
350
33
  3
Shaded
350
42
  3
Shaded with edges
350
41
  3
Shades of Gray
350
3E
  3
Sketchy
350
3F
  3
Thicken
350
37
  3
Wireframe
350
30
  3
X-Ray
350
40
  0
XRECORD
  5
4CF
102
{ACAD_REACTORS
330
C
102
}
330
C
100
AcDbXrecord
280
     1
 90
        1
330
6A
  0
DICTIONARY
  5
4CA
102
{ACAD_REACTORS
330
C
102
}
330
C
100
AcDbDictionary
281
     1
  3
CANNOSCALE
350
4CB
  3
CMLEADERSTYLE
350
4D1
  3
CTABLESTYLE
350
4D0
  0
LAYOUT
  5
1E
102
{ACAD_REACTORS
330
1A
102
}
330
1A
100
AcDbPlotSettings
  1

  2
none_device
  4

  6

 40
0.0
 41
0.0
 42
0.0
 43
0.0
 44
0.0
 45
0.0
 46
0.0
 47
0.0
 48
0.0
 49
0.0
140
0.0
141
0.0
142
1.0
143
1.0
 70
   688
 72
     1
 73
     0
 74
     5
  7

 75
    16
 76
     0
 77
     2
 78
   300
147
1.0
148
0.0
149
0.0
100
AcDbLayout
  1
Layout1
 70
     1
 71
     1
 10
0.0
 20
0.0
 11
420.0
 21
297.0
 12
0.0
 22
0.0
 32
0.0
 14
1.0000000000E+20
 24
1.0000000000E+20
 34
1.0000000000E+20
 15
-1.0000000000E+20
 25
-1.0000000000E+20
 35
-1.0000000000E+20
146
0.0
 13
0.0
 23
0.0
 33
0.0
 16
1.0
 26
0.0
 36
0.0
 17
0.0
 27
1.0
 37
0.0
 76
     0
330
1B
  0
LAYOUT
  5
26
102
{ACAD_REACTORS
330
1A
102
}
330
1A
100
AcDbPlotSettings
  1

  2
none_device
  4

  6

 40
0.0
 41
0.0
 42
0.0
 43
0.0
 44
0.0
 45
0.0
 46
0.0
 47
0.0
 48
0.0
 49
0.0
140
0.0
141
0.0
142
1.0
143
1.0
 70
   688
 72
     1
 73
     0
 74
     5
  7

 75
    16
 76
     0
 77
     2
 78
   300
147
1.0
148
0.0
149
0.0
100
AcDbLayout
  1
Layout2
 70
     1
 71
     2
 10
0.0
 20
0.0
 11
0.0
 21
0.0
 12
0.0
 22
0.0
 32
0.0
 14
0.0
 24
0.0
 34
0.0
 15
0.0
 25
0.0
 35
0.0
146
0.0
 13
0.0
 23
0.0
 33
0.0
 16
1.0
 26
0.0
 36
0.0
 17
0.0
 27
1.0
 37
0.0
 76
     0
330
23
  0
LAYOUT
  5
22
102
{ACAD_REACTORS
330
1A
102
}
330
1A
100
AcDbPlotSettings
  1

  2
none_device
  4
Letter_(8.50_x_11.00_Inches)
  6

 40
6.35
 41
6.35
 42
6.35000508
 43
6.35000508
 44
215.9
 45
279.4
 46
0.0
 47
0.0
 48
0.0
 49
0.0
140
0.0
141
0.0
142
1.0
143
1.0
 70
  1712
 72
     1
 73
     0
 74
     0
  7

 75
     0
 76
     0
 77
     2
 78
   300
147
1.0
148
0.0
149
0.0
100
AcDbLayout
  1
Model
 70
     1
 71
     0
 10
0.0
 20
0.0
 11
0.21
 21
0.297
 12
0.0
 22
0.0
 32
0.0
 14
0.0
 24
0.0
 34
0.0
 15
0.21
 25
0.297
 35
0.0
146
0.0
 13
0.0
 23
0.0
 33
0.0
 16
1.0
 26
0.0
 36
0.0
 17
0.0
 27
1.0
 37
0.0
 76
     0
330
1F
331
29
  0
MATERIAL
  5
45
102
{ACAD_REACTORS
330
43
102
}
330
43
100
AcDbMaterial
  1
ByBlock
 72
     1
 94
      127
  0
MATERIAL
  5
44
102
{ACAD_REACTORS
330
43
102
}
330
43
100
AcDbMaterial
  1
ByLayer
 72
     1
 94
      127
  0
MATERIAL
  5
46
102
{ACAD_REACTORS
330
43
102
}
330
43
100
AcDbMaterial
  1
Global
 72
     1
 94
      127
  0
MLEADERSTYLE
  5
6C
102
{ACAD_REACTORS
330
6B
102
}
330
6B
100
AcDbMLeaderStyle
170
     2
171
     1
172
     0
 90
        2
 40
0.0
 41
0.0
173
     1
 91
-1056964608
340
14
 92
       -2
290
     1
 42
2.0
291
     1
 43
8.0
  3
Standard
341
0
 44
4.0
300

342
11
174
     1
178
     6
175
     1
176
     0
 93
-1056964608
 45
4.0
292
     0
297
     0
 46
4.0
343
0
 94
-1056964608
 47
1.0
 49
1.0
140
1.0
293
     1
141
0.0
294
     1
177
     0
142
1.0
295
     0
296
     0
143
3.75
1001
ACAD_MLEADERVER
1070
     2
  0
MLINESTYLE
  5
18
102
{ACAD_REACTORS
330
17
102
}
330
17
100
AcDbMlineStyle
  2
Standard
 70
     0
  3

 62
   256
 51
90.0
 52
90.0
 71
     2
 49
0.5
 62
   256
  6
BYLAYER
 49
-0.5
 62
   256
  6
BYLAYER
  0
ACDBPLACEHOLDER
  5
F
102
{ACAD_REACTORS
330
E
102
}
330
E
  0
SCALE
  5
48
102
{ACAD_REACTORS
330
47
102
}
330
47
100
AcDbScale
 70
     0
300
1:1
140
1.0
141
1.0
290
     1
  0
SCALE
  5
49
102
{ACAD_REACTORS
330
47
102
}
330
47
100
AcDbScale
 70
     0
300
1:2
140
1.0
141
2.0
290
     0
  0
SCALE
  5
4A
102
{ACAD_REACTORS
330
47
102
}
330
47
100
AcDbScale
 70
     0
300
1:4
140
1.0
141
4.0
290
     0
  0
SCALE
  5
4B
102
{ACAD_REACTORS
330
47
102
}
330
47
100
AcDbScale
 70
     0
300
1:5
140
1.0
141
5.0
290
     0
  0
SCALE
  5
4C
102
{ACAD_REACTORS
330
47
102
}
330
47
100
AcDbScale
 70
     0
300
1:8
140
1.0
141
8.0
290
     0
  0
SCALE
  5
4D
102
{ACAD_REACTORS
330
47
102
}
330
47
100
AcDbScale
 70
     0
300
1:10
140
1.0
141
10.0
290
     0
  0
SCALE
  5
4E
102
{ACAD_REACTORS
330
47
102
}
330
47
100
AcDbScale
 70
     0
300
1:16
140
1.0
141
16.0
290
     0
  0
SCALE
  5
4F
102
{ACAD_REACTORS
330
47
102
}
330
47
100
AcDbScale
 70
     0
300
1:20
140
1.0
141
20.0
290
     0
  0
SCALE
  5
50
102
{ACAD_REACTORS
330
47
102
}
330
47
100
AcDbScale
 70
     0
300
1:30
140
1.0
141
30.0
290
     0
  0
SCALE
  5
51
102
{ACAD_REACTORS
330
47
102
}
330
47
100
AcDbScale
 70
     0
300
1:40
140
1.0
141
40.0
290
     0
  0
SCALE
  5
52
102
{ACAD_REACTORS
330
47
102
}
330
47
100
AcDbScale
 70
     0
300
1:50
140
1.0
141
50.0
290
     0
  0
SCALE
  5
53
102
{ACAD_REACTORS
330
47
102
}
330
47
100
AcDbScale
 70
     0
300
1:100
140
1.0
141
100.0
290
     0
  0
SCALE
  5
54
102
{ACAD_REACTORS
330
47
102
}
330
47
100
AcDbScale
 70
     0
300
2:1
140
2.0
141
1.0
290
     0
  0
SCALE
  5
55
102
{ACAD_REACTORS
330
47
102
}
330
47
100
AcDbScale
 70
     0
300
4:1
140
4.0
141
1.0
290
     0
  0
SCALE
  5
56
102
{ACAD_REACTORS
330
47
102
}
330
47
100
AcDbScale
 70
     0
300
8:1
140
8.0
141
1.0
290
     0
  0
SCALE
  5
57
102
{ACAD_REACTORS
330
47
102
}
330
47
100
AcDbScale
 70
     0
300
10:1
140
10.0
141
1.0
290
     0
  0
SCALE
  5
58
102
{ACAD_REACTORS
330
47
102
}
330
47
100
AcDbScale
 70
     0
300
100:1
140
100.0
141
1.0
290
     0
  0
SCALE
  5
59
102
{ACAD_REACTORS
330
47
102
}
330
47
100
AcDbScale
 70
     0
300
1/128" = 1'-0"
140
0.0078125
141
12.0
290
     0
  0
SCALE
  5
5A
102
{ACAD_REACTORS
330
47
102
}
330
47
100
AcDbScale
 70
     0
300
1/64" = 1'-0"
140
0.015625
141
12.0
290
     0
  0
SCALE
  5
5B
102
{ACAD_REACTORS
330
47
102
}
330
47
100
AcDbScale
 70
     0
300
1/32" = 1'-0"
140
0.03125
141
12.0
290
     0
  0
SCALE
  5
5C
102
{ACAD_REACTORS
330
47
102
}
330
47
100
AcDbScale
 70
     0
300
1/16" = 1'-0"
140
0.0625
141
12.0
290
     0
  0
SCALE
  5
5D
102
{ACAD_REACTORS
330
47
102
}
330
47
100
AcDbScale
 70
     0
300
3/32" = 1'-0"
140
0.09375
141
12.0
290
     0
  0
SCALE
  5
5E
102
{ACAD_REACTORS
330
47
102
}
330
47
100
AcDbScale
 70
     0
300
1/8" = 1'-0"
140
0.125
141
12.0
290
     0
  0
SCALE
  5
5F
102
{ACAD_REACTORS
330
47
102
}
330
47
100
AcDbScale
 70
     0
300
3/16" = 1'-0"
140
0.1875
141
12.0
290
     0
  0
SCALE
  5
60
102
{ACAD_REACTORS
330
47
102
}
330
47
100
AcDbScale
 70
     0
300
1/4" = 1'-0"
140
0.25
141
12.0
290
     0
  0
SCALE
  5
61
102
{ACAD_REACTORS
330
47
102
}
330
47
100
AcDbScale
 70
     0
300
3/8" = 1'-0"
140
0.375
141
12.0
290
     0
  0
SCALE
  5
62
102
{ACAD_REACTORS
330
47
102
}
330
47
100
AcDbScale
 70
     0
300
1/2" = 1'-0"
140
0.5
141
12.0
290
     0
  0
SCALE
  5
63
102
{ACAD_REACTORS
330
47
102
}
330
47
100
AcDbScale
 70
     0
300
3/4" = 1'-0"
140
0.75
141
12.0
290
     0
  0
SCALE
  5
64
102
{ACAD_REACTORS
330
47
102
}
330
47
100
AcDbScale
 70
     0
300
1" = 1'-0"
140
1.0
141
12.0
290
     0
  0
SCALE
  5
65
102
{ACAD_REACTORS
330
47
102
}
330
47
100
AcDbScale
 70
     0
300
1-1/2" = 1'-0"
140
1.5
141
12.0
290
     0
  0
SCALE
  5
66
102
{ACAD_REACTORS
330
47
102
}
330
47
100
AcDbScale
 70
     0
300
3" = 1'-0"
140
3.0
141
12.0
290
     0
  0
SCALE
  5
67
102
{ACAD_REACTORS
330
47
102
}
330
47
100
AcDbScale
 70
     0
300
6" = 1'-0"
140
6.0
141
12.0
290
     0
  0
SCALE
  5
68
102
{ACAD_REACTORS
330
47
102
}
330
47
100
AcDbScale
 70
     0
300
1'-0" = 1'-0"
140
12.0
141
12.0
290
     0
  0
TABLESTYLE
  5
6A
102
{ACAD_REACTORS
330
69
102
}
102
{ACAD_XDICTIONARY
360
4CC
102
}
330
69
100
AcDbTableStyle
  3
Standard
 70
     0
 71
     0
 40
0.06
 41
0.06
280
     0
281
     0
  7
Standard
140
4.5
170
     2
 62
     0
 63
   257
283
     0
 90
        4
 91
        0
  1

274
    -2
284
     1
 64
     0
275
    -2
285
     1
 65
     0
276
    -2
286
     1
 66
     0
277
    -2
287
     1
 67
     0
278
    -2
288
     1
 68
     0
279
    -2
289
     1
 69
     0
  7
Standard
140
6.0
170
     5
 62
     0
 63
   257
283
     0
 90
        4
 91
        0
  1

274
    -2
284
     1
 64
     0
275
    -2
285
     1
 65
     0
276
    -2
286
     1
 66
     0
277
    -2
287
     1
 67
     0
278
    -2
288
     1
 68
     0
279
    -2
289
     1
 69
     0
  7
Standard
140
4.5
170
     5
 62
     0
 63
   257
283
     0
 90
        4
 91
        0
  1

274
    -2
284
     1
 64
     0
275
    -2
285
     1
 65
     0
276
    -2
286
     1
 66
     0
277
    -2
287
     1
 67
     0
278
    -2
288
     1
 68
     0
279
    -2
289
     1
 69
     0
  0
VISUALSTYLE
  5
2F
102
{ACAD_REACTORS
330
2A
102
}
330
2A
100
AcDbVisualStyle
  2
2dWireframe
 70
     4
 71
     0
 72
     2
 73
     0
 90
        0
 40
0.6
 41
30.0
 62
     5
 63
     7
421
 16777215
 74
     1
 91
        4
 64
     7
 65
   257
 75
     1
175
     1
 42
1.0
 92
        0
 66
   257
 43
1.0
 76
     1
 77
     6
 78
     2
 67
     7
 79
     5
170
     0
171
     0
290
     0
174
     0
 93
        1
 44
0.0
173
     0
291
     0
 45
0.0
  0
VISUALSTYLE
  5
32
102
{ACAD_REACTORS
330
2A
102
}
330
2A
100
AcDbVisualStyle
  2
Basic
 70
     7
 71
     1
 72
     0
 73
     1
 90
        0
 40
0.6
 41
30.0
 62
     5
 63
     7
421
 16777215
 74
     0
 91
        4
 64
     7
 65
   257
 75
     1
175
     1
 42
1.0
 92
        8
 66
     7
 43
1.0
 76
     1
 77
     6
 78
     2
 67
     7
 79
     5
170
     0
171
     0
290
     0
174
     0
 93
        1
 44
0.0
173
     0
291
     1
 45
0.0
  0
VISUALSTYLE
  5
36
102
{ACAD_REACTORS
330
2A
102
}
330
2A
100
AcDbVisualStyle
  2
Brighten
 70
    12
 71
     2
 72
     2
 73
     0
 90
        0
 40
0.6
 41
30.0
 62
     5
 63
     7
421
 16777215
 74
     1
 91
        4
 64
     7
 65
   257
 75
     1
175
     1
 42
1.0
 92
        8
 66
     7
 43
1.0
 76
     1
 77
     6
 78
     2
 67
     7
 79
     5
170
     0
171
     0
290
     0
174
     0
 93
        1
 44
50.0
173
     0
291
     1
 45
0.0
  0
VISUALSTYLE
  5
3A
102
{ACAD_REACTORS
330
2A
102
}
330
2A
100
AcDbVisualStyle
  2
ColorChange
 70
    16
 71
     2
 72
     2
 73
     3
 90
        0
 40
0.6
 41
30.0
 62
     5
 63
     8
421
  8421504
 74
     1
 91
        4
 64
     7
 65
   257
 75
     1
175
     1
 42
1.0
 92
        8
 66
     8
424
  8421504
 43
1.0
 76
     1
 77
     6
 78
     2
 67
     7
 79
     5
170
     0
171
     0
290
     0
174
     0
 93
        1
 44
0.0
173
     0
291
     1
 45
0.0
  0
VISUALSTYLE
  5
34
102
{ACAD_REACTORS
330
2A
102
}
330
2A
100
AcDbVisualStyle
  2
Conceptual
 70
     9
 71
     3
 72
     2
 73
     0
 90
        0
 40
0.6
 41
30.0
 62
     5
 63
     7
421
 16777215
 74
     2
 91
        2
 64
     7
 65
   257
 75
     1
175
     1
 42
179.0
 92
        8
 66
     7
 43
1.0
 76
     1
 77
     6
 78
     2
 67
     7
 79
     3
170
     0
171
     0
290
     0
174
     0
 93
        1
 44
0.0
173
     0
291
     0
 45
0.0
  0
VISUALSTYLE
  5
35
102
{ACAD_REACTORS
330
2A
102
}
330
2A
100
AcDbVisualStyle
  2
Dim
 70
    11
 71
     2
 72
     2
 73
     0
 90
        0
 40
0.6
 41
30.0
 62
     5
 63
     7
421
 16777215
 74
     1
 91
        4
 64
     7
 65
   257
 75
     1
175
     1
 42
1.0
 92
        8
 66
     7
 43
1.0
 76
     1
 77
     6
 78
     2
 67
     7
 79
     5
170
     0
171
     0
290
     0
174
     0
 93
        1
 44
-50.0
173
     0
291
     1
 45
0.0
  0
VISUALSTYLE
  5
3D
102
{ACAD_REACTORS
330
2A
102
}
330
2A
100
AcDbVisualStyle
  2
EdgeColorOff
 70
    22
 71
     2
 72
     2
 73
     0
 90
        0
 40
0.6
 41
30.0
 62
     5
 63
     7
421
 16777215
 74
     1
 91
        4
 64
     7
 65
   257
 75
     1
175
     1
 42
1.0
 92
        8
 66
     7
 43
1.0
 76
     1
 77
     6
 78
     2
 67
     7
 79
     5
170
     0
171
     0
290
     0
174
     0
 93
        1
 44
0.0
173
     0
291
     1
 45
0.0
  0
VISUALSTYLE
  5
39
102
{ACAD_REACTORS
330
2A
102
}
330
2A
100
AcDbVisualStyle
  2
Facepattern
 70
    15
 71
     2
 72
     2
 73
     0
 90
        0
 40
0.6
 41
30.0
 62
     5
 63
     7
421
 16777215
 74
     1
 91
        4
 64
     7
 65
   257
 75
     1
175
     1
 42
1.0
 92
        8
 66
     7
 43
1.0
 76
     1
 77
     6
 78
     2
 67
     7
 79
     5
170
     0
171
     0
290
     0
174
     0
 93
        1
 44
0.0
173
     0
291
     1
 45
0.0
  0
VISUALSTYLE
  5
2B
102
{ACAD_REACTORS
330
2A
102
}
330
2A
100
AcDbVisualStyle
  2
Flat
 70
     0
 71
     2
 72
     1
 73
     1
 90
        2
 40
0.6
 41
30.0
 62
     5
 63
     7
421
 16777215
 74
     0
 91
        0
 64
     7
 65
   257
 75
     1
175
     1
 42
1.0
 92
        8
 66
     7
 43
1.0
 76
     1
 77
     6
 78
     2
 67
     7
 79
     5
170
     0
171
     0
290
     0
174
     0
 93
       13
 44
0.0
173
     0
291
     1
 45
0.0
  0
VISUALSTYLE
  5
2C
102
{ACAD_REACTORS
330
2A
102
}
330
2A
100
AcDbVisualStyle
  2
FlatWithEdges
 70
     1
 71
     2
 72
     1
 73
     1
 90
        2
 40
0.6
 41
30.0
 62
     5
 63
     7
421
 16777215
 74
     1
 91
        0
 64
     7
 65
   257
 75
     1
175
     1
 42
1.0
 92
        0
 66
   257
 43
1.0
 76
     1
 77
     6
 78
     2
 67
     7
 79
     5
170
     0
171
     0
290
     0
174
     0
 93
       13
 44
0.0
173
     0
291
     1
 45
0.0
  0
VISUALSTYLE
  5
2D
102
{ACAD_REACTORS
330
2A
102
}
330
2A
100
AcDbVisualStyle
  2
Gouraud
 70
     2
 71
     2
 72
     2
 73
     1
 90
        2
 40
0.6
 41
30.0
 62
     5
 63
     7
421
 16777215
 74
     0
 91
        0
 64
     7
 65
   257
 75
     1
175
     1
 42
1.0
 92
        0
 66
     7
 43
1.0
 76
     1
 77
     6
 78
     2
 67
     7
 79
     5
170
     0
171
     0
290
     0
174
     0
 93
       13
 44
0.0
173
     0
291
     1
 45
0.0
  0
VISUALSTYLE
  5
2E
102
{ACAD_REACTORS
330
2A
102
}
330
2A
100
AcDbVisualStyle
  2
GouraudWithEdges
 70
     3
 71
     2
 72
     2
 73
     1
 90
        2
 40
0.6
 41
30.0
 62
     5
 63
     7
421
 16777215
 74
     1
 91
        0
 64
     7
 65
   257
 75
     1
175
     1
 42
1.0
 92
        0
 66
   257
 43
1.0
 76
     1
 77
     6
 78
     2
 67
     7
 79
     5
170
     0
171
     0
290
     0
174
     0
 93
       13
 44
0.0
173
     0
291
     1
 45
0.0
  0
VISUALSTYLE
  5
31
102
{ACAD_REACTORS
330
2A
102
}
330
2A
100
AcDbVisualStyle
  2
Hidden
 70
     6
 71
     1
 72
     2
 73
     2
 90
        0
 40
0.6
 41
30.0
 62
     5
 63
     7
421
 16777215
 74
     2
 91
        2
 64
     7
 65
   257
 75
     2
175
     1
 42
40.0
 92
        0
 66
   257
 43
1.0
 76
     1
 77
     6
 78
     2
 67
     7
 79
     3
170
     0
171
     0
290
     0
174
     0
 93
        1
 44
0.0
173
     0
291
     0
 45
0.0
  0
VISUALSTYLE
  5
3B
102
{ACAD_REACTORS
330
2A
102
}
330
2A
100
AcDbVisualStyle
  2
JitterOff
 70
    20
 71
     2
 72
     2
 73
     0
 90
        0
 40
0.6
 41
30.0
 62
     5
 63
     7
421
 16777215
 74
     1
 91
        4
 64
     7
 65
   257
 75
     1
175
     1
 42
1.0
 92
       10
 66
     7
 43
1.0
 76
     1
 77
     6
 78
     2
 67
     7
 79
     5
170
     0
171
     0
290
     0
174
     0
 93
        1
 44
0.0
173
     0
291
     1
 45
0.0
  0
VISUALSTYLE
  5
38
102
{ACAD_REACTORS
330
2A
102
}
330
2A
100
AcDbVisualStyle
  2
Linepattern
 70
    14
 71
     2
 72
     2
 73
     0
 90
        0
 40
0.6
 41
30.0
 62
     5
 63
     7
421
 16777215
 74
     1
 91
        4
 64
     7
 65
   257
 75
     7
175
     7
 42
1.0
 92
        8
 66
     7
 43
1.0
 76
     1
 77
     6
 78
     2
 67
     7
 79
     5
170
     0
171
     0
290
     0
174
     0
 93
        1
 44
0.0
173
     0
291
     1
 45
0.0
  0
VISUALSTYLE
  5
3C
102
{ACAD_REACTORS
330
2A
102
}
330
2A
100
AcDbVisualStyle
  2
OverhangOff
 70
    21
 71
     2
 72
     2
 73
     0
 90
        0
 40
0.6
 41
30.0
 62
     5
 63
     7
421
 16777215
 74
     1
 91
        4
 64
     7
 65
   257
 75
     1
175
     1
 42
1.0
 92
        9
 66
     7
 43
1.0
 76
     1
 77
     6
 78
     2
 67
     7
 79
     5
170
     0
171
     0
290
     0
174
     0
 93
        1
 44
0.0
173
     0
291
     1
 45
0.0
  0
VISUALSTYLE
  5
33
102
{ACAD_REACTORS
330
2A
102
}
330
2A
100
AcDbVisualStyle
  2
Realistic
 70
     8
 71
     2
 72
     3
 73
     0
 90
        2
 40
0.6
 41
30.0
 62
     5
 63
     7
421
 16777215
 74
     0
 91
        0
 64
     7
 65
   257
 75
     1
175
     1
 42
1.0
 92
        8
 66
   257
 43
1.0
 76
     1
 77
     6
 78
     2
 67
     7
 79
     3
170
     0
171
     0
290
     0
174
     0
 93
       13
 44
0.0
173
     0
291
     0
 45
0.0
  0
VISUALSTYLE
  5
42
102
{ACAD_REACTORS
330
2A
102
}
330
2A
100
AcDbVisualStyle
  2
Shaded
 70
    27
 71
     2
 72
     2
 73
     1
 90
        2
 40
0.6
 41
30.0
 62
     5
 63
     7
421
 16777215
 74
     0
 91
        4
 64
     7
 65
   257
 75
     1
175
     1
 42
1.0
 92
        8
 66
   257
 43
1.0
 76
     1
 77
     6
 78
     2
 67
     8
425
  7895160
 79
     3
170
     0
171
     0
290
     0
174
     0
 93
        5
 44
0.0
173
     0
291
     0
 45
0.0
  0
VISUALSTYLE
  5
41
102
{ACAD_REACTORS
330
2A
102
}
330
2A
100
AcDbVisualStyle
  2
Shaded with edges
 70
    26
 71
     2
 72
     2
 73
     1
 90
        2
 40
0.6
 41
30.0
 62
     5
 63
     7
421
 16777215
 74
     1
 91
       10
 64
     7
 65
   257
 75
     2
175
     1
 42
1.0
 92
        8
 66
   257
 43
1.0
 76
     1
 77
     6
 78
     2
 67
     7
 79
     3
170
     0
171
     0
290
     0
174
     0
 93
        5
 44
0.0
173
     0
291
     0
 45
0.0
  0
VISUALSTYLE
  5
3E
102
{ACAD_REACTORS
330
2A
102
}
330
2A
100
AcDbVisualStyle
  2
Shades of Gray
 70
    23
 71
     2
 72
     2
 73
     3
 90
        0
 40
0.6
 41
30.0
 62
     5
 63
     7
421
 16777215
 74
     2
 91
        2
 64
     7
 65
     7
 75
     1
175
     1
 42
40.0
 92
        8
 66
     7
 43
1.0
 76
     1
 77
     6
 78
     2
 67
     7
 79
     3
170
     0
171
     0
290
     0
174
     0
 93
        1
 44
0.0
173
     0
291
     0
 45
0.0
  0
VISUALSTYLE
  5
3F
102
{ACAD_REACTORS
330
2A
102
}
330
2A
100
AcDbVisualStyle
  2
Sketchy
 70
    24
 71
     1
 72
     2
 73
     2
 90
        0
 40
0.6
 41
30.0
 62
     5
 63
     7
421
 16777215
 74
     2
 91
        2
 64
     7
 65
     7
 75
     1
175
     1
 42
40.0
 92
       11
 66
     7
 43
1.0
 76
     1
 77
     6
 78
     2
 67
     7
 79
     6
170
     0
171
     0
290
     0
174
     0
 93
        1
 44
0.0
173
     0
291
     0
 45
0.0
  0
VISUALSTYLE
  5
37
102
{ACAD_REACTORS
330
2A
102
}
330
2A
100
AcDbVisualStyle
  2
Thicken
 70
    13
 71
     2
 72
     2
 73
     0
 90
        0
 40
0.6
 41
30.0
 62
     5
 63
     7
421
 16777215
 74
     1
 91
        4
 64
     7
 65
   257
 75
     1
175
     1
 42
1.0
 92
       12
 66
     7
 43
1.0
 76
     1
 77
     6
 78
     2
 67
     7
 79
     5
170
     0
171
     0
290
     0
174
     0
 93
        1
 44
0.0
173
     0
291
     1
 45
0.0
  0
VISUALSTYLE
  5
30
102
{ACAD_REACTORS
330
2A
102
}
330
2A
100
AcDbVisualStyle
  2
Wireframe
 70
     5
 71
     0
 72
     2
 73
     0
 90
        0
 40
0.6
 41
30.0
 62
     5
 63
     7
421
 16777215
 74
     1
 91
        4
 64
     7
 65
   257
 75
     1
175
     1
 42
1.0
 92
        0
 66
   257
 43
1.0
 76
     1
 77
     6
 78
     2
 67
     7
 79
     3
170
     0
171
     0
290
     0
174
     0
 93
        1
 44
0.0
173
     0
291
     0
 45
0.0
  0
VISUALSTYLE
  5
40
102
{ACAD_REACTORS
330
2A
102
}
330
2A
100
AcDbVisualStyle
  2
X-Ray
 70
    25
 71
     2
 72
     2
 73
     1
 90
        1
 40
0.5
 41
30.0
 62
     5
 63
     7
421
 16777215
 74
     1
 91
        0
 64
     7
 65
   257
 75
     1
175
     1
 42
1.0
 92
        8
 66
     7
 43
1.0
 76
     1
 77
     6
 78
     2
 67
     7
 79
     3
170
     0
171
     0
290
     0
174
     0
 93
       13
 44
0.0
173
     0
291
     0
 45
0.0
  0
DICTIONARYVAR
  5
4CB
102
{ACAD_REACTORS
330
4CA
102
}
330
4CA
100
DictionaryVariables
280
     0
  1
1:1
  0
DICTIONARYVAR
  5
4D1
102
{ACAD_REACTORS
330
4CA
102
}
330
4CA
100
DictionaryVariables
280
     0
  1
Standard
  0
DICTIONARYVAR
  5
4D0
102
{ACAD_REACTORS
330
4CA
102
}
330
4CA
100
DictionaryVariables
280
     0
  1
Standard
  0
DICTIONARY
  5
4CC
330
6A
100
AcDbDictionary
280
     1
281
     1
  3
ACAD_ROUNDTRIP_2008_TABLESTYLE_CELLSTYLEMAP
360
4CD
  0
CELLSTYLEMAP
  5
4CD
102
{ACAD_REACTORS
330
4CC
102
}
330
4CC
100
AcDbCellStyleMap
 90
        3
300
CELLSTYLE
  1
TABLEFORMAT_BEGIN
 90
        5
170
     1
 91
        0
 92
    32768
 62
   257
 93
        1
300
CONTENTFORMAT
  1
CONTENTFORMAT_BEGIN
 90
        0
 91
        0
 92
        4
 93
        0
300

 40
0.0
140
1.0
 94
        5
 62
     0
340
11
144
6.0
309
CONTENTFORMAT_END
171
     1
301
MARGIN
  1
CELLMARGIN_BEGIN
 40
1.5
 40
1.5
 40
1.5
 40
1.5
 40
1.5
 40
1.5
309
CELLMARGIN_END
 94
        6
 95
        1
302
GRIDFORMAT
  1
GRIDFORMAT_BEGIN
 90
        0
 91
        1
 62
     0
 92
       -2
340
14
 93
        0
 40
0.045
309
GRIDFORMAT_END
 95
        2
302
GRIDFORMAT
  1
GRIDFORMAT_BEGIN
 90
        0
 91
        1
 62
     0
 92
       -2
340
14
 93
        0
 40
0.045
309
GRIDFORMAT_END
 95
        4
302
GRIDFORMAT
  1
GRIDFORMAT_BEGIN
 90
        0
 91
        1
 62
     0
 92
       -2
340
14
 93
        0
 40
0.045
309
GRIDFORMAT_END
 95
        8
302
GRIDFORMAT
  1
GRIDFORMAT_BEGIN
 90
        0
 91
        1
 62
     0
 92
       -2
340
14
 93
        0
 40
0.045
309
GRIDFORMAT_END
 95
       16
302
GRIDFORMAT
  1
GRIDFORMAT_BEGIN
 90
        0
 91
        1
 62
     0
 92
       -2
340
14
 93
        0
 40
0.045
309
GRIDFORMAT_END
 95
       32
302
GRIDFORMAT
  1
GRIDFORMAT_BEGIN
 90
        0
 91
        1
 62
     0
 92
       -2
340
14
 93
        0
 40
0.045
309
GRIDFORMAT_END
309
TABLEFORMAT_END
  1
CELLSTYLE_BEGIN
 90
        1
 91
        1
300
_TITLE
309
CELLSTYLE_END
300
CELLSTYLE
  1
TABLEFORMAT_BEGIN
 90
        5
170
     1
 91
        0
 92
        0
 62
   257
 93
        1
300
CONTENTFORMAT
  1
CONTENTFORMAT_BEGIN
 90
        0
 91
        0
 92
        4
 93
        0
300

 40
0.0
140
1.0
 94
        5
 62
     0
340
11
144
4.5
309
CONTENTFORMAT_END
171
     1
301
MARGIN
  1
CELLMARGIN_BEGIN
 40
1.5
 40
1.5
 40
1.5
 40
1.5
 40
1.5
 40
1.5
309
CELLMARGIN_END
 94
        6
 95
        1
302
GRIDFORMAT
  1
GRIDFORMAT_BEGIN
 90
        0
 91
        1
 62
     0
 92
       -2
340
14
 93
        0
 40
0.045
309
GRIDFORMAT_END
 95
        2
302
GRIDFORMAT
  1
GRIDFORMAT_BEGIN
 90
        0
 91
        1
 62
     0
 92
       -2
340
14
 93
        0
 40
0.045
309
GRIDFORMAT_END
 95
        4
302
GRIDFORMAT
  1
GRIDFORMAT_BEGIN
 90
        0
 91
        1
 62
     0
 92
       -2
340
14
 93
        0
 40
0.045
309
GRIDFORMAT_END
 95
        8
302
GRIDFORMAT
  1
GRIDFORMAT_BEGIN
 90
        0
 91
        1
 62
     0
 92
       -2
340
14
 93
        0
 40
0.045
309
GRIDFORMAT_END
 95
       16
302
GRIDFORMAT
  1
GRIDFORMAT_BEGIN
 90
        0
 91
        1
 62
     0
 92
       -2
340
14
 93
        0
 40
0.045
309
GRIDFORMAT_END
 95
       32
302
GRIDFORMAT
  1
GRIDFORMAT_BEGIN
 90
        0
 91
        1
 62
     0
 92
       -2
340
14
 93
        0
 40
0.045
309
GRIDFORMAT_END
309
TABLEFORMAT_END
  1
CELLSTYLE_BEGIN
 90
        2
 91
        1
300
_HEADER
309
CELLSTYLE_END
300
CELLSTYLE
  1
TABLEFORMAT_BEGIN
 90
        5
170
     1
 91
        0
 92
        0
 62
   257
 93
        1
300
CONTENTFORMAT
  1
CONTENTFORMAT_BEGIN
 90
        0
 91
        0
 92
        4
 93
        0
300

 40
0.0
140
1.0
 94
        2
 62
     0
340
11
144
4.5
309
CONTENTFORMAT_END
171
     1
301
MARGIN
  1
CELLMARGIN_BEGIN
 40
1.5
 40
1.5
 40
1.5
 40
1.5
 40
1.5
 40
1.5
309
CELLMARGIN_END
 94
        6
 95
        1
302
GRIDFORMAT
  1
GRIDFORMAT_BEGIN
 90
        0
 91
        1
 62
     0
 92
       -2
340
14
 93
        0
 40
0.045
309
GRIDFORMAT_END
 95
        2
302
GRIDFORMAT
  1
GRIDFORMAT_BEGIN
 90
        0
 91
        1
 62
     0
 92
       -2
340
14
 93
        0
 40
0.045
309
GRIDFORMAT_END
 95
        4
302
GRIDFORMAT
  1
GRIDFORMAT_BEGIN
 90
        0
 91
        1
 62
     0
 92
       -2
340
14
 93
        0
 40
0.045
309
GRIDFORMAT_END
 95
        8
302
GRIDFORMAT
  1
GRIDFORMAT_BEGIN
 90
        0
 91
        1
 62
     0
 92
       -2
340
14
 93
        0
 40
0.045
309
GRIDFORMAT_END
 95
       16
302
GRIDFORMAT
  1
GRIDFORMAT_BEGIN
 90
        0
 91
        1
 62
     0
 92
       -2
340
14
 93
        0
 40
0.045
309
GRIDFORMAT_END
 95
       32
302
GRIDFORMAT
  1
GRIDFORMAT_BEGIN
 90
        0
 91
        1
 62
     0
 92
       -2
340
14
 93
        0
 40
0.045
309
GRIDFORMAT_END
309
TABLEFORMAT_END
  1
CELLSTYLE_BEGIN
 90
        3
 91
        2
300
_DATA
309
CELLSTYLE_END
  0
ENDSEC
  0
EOF
