  0
SECTION
  2
HEADER
  9
$ACADVER
  1
AC1021
  9
$ACADMAINTVER
 70
    25
  9
$DWGCODEPAGE
  3
ANSI_1250
  9
$INSBASE
 10
0.0
 20
0.0
 30
0.0
  9
$EXTMIN
 10
0.0
 20
0.0
 30
0.0
  9
$EXTMAX
 10
0.21
 20
0.297
 30
0.0
  9
$LIMMIN
 10
0.0
 20
0.0
  9
$LIMMAX
 10
0.21
 20
0.297
  9
$ORTHOMODE
 70
     0
  9
$REGENMODE
 70
     1
  9
$FILLMODE
 70
     1
  9
$QTEXTMODE
 70
     0
  9
$MIRRTEXT
 70
     1
  9
$LTSCALE
 40
1.0
  9
$ATTMODE
 70
     1
  9
$TEXTSIZE
 40
0.0035
  9
$TRACEWID
 40
1.0
  9
$TEXTSTYLE
  7
Standard
  9
$CLAYER
  8
0
  9
$CELTYPE
  6
ByLayer
  9
$CECOLOR
 62
   256
  9
$CELTSCALE
 40
1.0
  9
$DISPSILH
 70
     0
  9
$DIMSCALE
 40
1.0
  9
$DIMASZ
 40
0.003302
  9
$DIMEXO
 40
0.001
  9
$DIMDLI
 40
3.75
  9
$DIMRND
 40
0.0
  9
$DIMDLE
 40
0.0
  9
$DIMEXE
 40
0.001
  9
$DIMTP
 40
0.0
  9
$DIMTM
 40
0.0
  9
$DIMTXT
 40
0.0035
  9
$DIMCEN
 40
2.5
  9
$DIMTSZ
 40
0.0
  9
$DIMTOL
 70
     0
  9
$DIMLIM
 70
     0
  9
$DIMTIH
 70
     1
  9
$DIMTOH
 70
     1
  9
$DIMSE1
 70
     0
  9
$DIMSE2
 70
     0
  9
$DIMTAD
 70
     1
  9
$DIMZIN
 70
     0
  9
$DIMBLK
  1

  9
$DIMASO
 70
     1
  9
$DIMSHO
 70
     1
  9
$DIMPOST
  1

  9
$DIMAPOST
  1

  9
$DIMALT
 70
     0
  9
$DIMALTD
 70
     3
  9
$DIMALTF
 40
39.3700787402
  9
$DIMLFAC
 40
50.0
  9
$DIMTOFL
 70
     1
  9
$DIMTVP
 40
0.0
  9
$DIMTIX
 70
     0
  9
$DIMSOXD
 70
     0
  9
$DIMSAH
 70
     0
  9
$DIMBLK1
  1

  9
$DIMBLK2
  1

  9
$DIMSTYLE
  2
ISO-25
  9
$DIMCLRD
 70
     0
  9
$DIMCLRE
 70
     0
  9
$DIMCLRT
 70
     0
  9
$DIMTFAC
 40
1.0
  9
$DIMGAP
 40
0.001524
  9
$DIMJUST
 70
     0
  9
$DIMSD1
 70
     0
  9
$DIMSD2
 70
     0
  9
$DIMTOLJ
 70
     0
  9
$DIMTZIN
 70
     0
  9
$DIMALTZ
 70
     0
  9
$DIMALTTZ
 70
     0
  9
$DIMUPT
 70
     0
  9
$DIMDEC
 70
     2
  9
$DIMTDEC
 70
     2
  9
$DIMALTU
 70
     2
  9
$DIMALTTD
 70
     3
  9
$DIMTXSTY
  7
Standard
  9
$DIMAUNIT
 70
     0
  9
$DIMADEC
 70
     2
  9
$DIMALTRND
 40
0.0
  9
$DIMAZIN
 70
     0
  9
$DIMDSEP
 70
    44
  9
$DIMATFIT
 70
     3
  9
$DIMFRAC
 70
     0
  9
$DIMLDRBLK
  1

  9
$DIMLUNIT
 70
     2
  9
$DIMLWD
 70
    -2
  9
$DIMLWE
 70
    -2
  9
$DIMTMOVE
 70
     0
  9
$DIMFXL
 40
1.0
  9
$DIMFXLON
 70
     0
  9
$DIMJOGANG
 40
0.7853981634
  9
$DIMTFILL
 70
     0
  9
$DIMTFILLCLR
 70
     0
  9
$DIMARCSYM
 70
     0
  9
$DIMLTYPE
  6

  9
$DIMLTEX1
  6

  9
$DIMLTEX2
  6

  9
$LUNITS
 70
     2
  9
$LUPREC
 70
     2
  9
$SKETCHINC
 40
1.0
  9
$FILLETRAD
 40
10.0
  9
$AUNITS
 70
     0
  9
$AUPREC
 70
     2
  9
$MENU
  1
.
  9
$ELEVATION
 40
0.0
  9
$PELEVATION
 40
0.0
  9
$THICKNESS
 40
0.0
  9
$LIMCHECK
 70
     0
  9
$CHAMFERA
 40
0.0
  9
$CHAMFERB
 40
0.0
  9
$CHAMFERC
 40
0.0
  9
$CHAMFERD
 40
0.0
  9
$SKPOLY
 70
     0
  9
$TDCREATE
 40
2458074.499085636
  9
$TDUCREATE
 40
2458074.45741897
  9
$TDUPDATE
 40
2458074.499086215
  9
$TDUUPDATE
 40
2458074.457419549
  9
$TDINDWG
 40
0.0000000116
  9
$TDUSRTIMER
 40
0.0000000116
  9
$USRTIMER
 70
     1
  9
$ANGBASE
 50
0.0
  9
$ANGDIR
 70
     0
  9
$PDMODE
 70
     0
  9
$PDSIZE
 40
-1.0
  9
$PLINEWID
 40
0.0
  9
$SPLFRAME
 70
     0
  9
$SPLINETYPE
 70
     6
  9
$SPLINESEGS
 70
     8
  9
$HANDSEED
  5
4F6
  9
$SURFTAB1
 70
     6
  9
$SURFTAB2
 70
     6
  9
$SURFTYPE
 70
     6
  9
$SURFU
 70
     6
  9
$SURFV
 70
     6
  9
$UCSBASE
  2

  9
$UCSNAME
  2

  9
$UCSORG
 10
0.0
 20
0.0
 30
0.0
  9
$UCSXDIR
 10
1.0
 20
0.0
 30
0.0
  9
$UCSYDIR
 10
0.0
 20
1.0
 30
0.0
  9
$UCSORTHOREF
  2

  9
$UCSORTHOVIEW
 70
     0
  9
$UCSORGTOP
 10
0.0
 20
0.0
 30
0.0
  9
$UCSORGBOTTOM
 10
0.0
 20
0.0
 30
0.0
  9
$UCSORGLEFT
 10
0.0
 20
0.0
 30
0.0
  9
$UCSORGRIGHT
 10
0.0
 20
0.0
 30
0.0
  9
$UCSORGFRONT
 10
0.0
 20
0.0
 30
0.0
  9
$UCSORGBACK
 10
0.0
 20
0.0
 30
0.0
  9
$PUCSBASE
  2

  9
$PUCSNAME
  2

  9
$PUCSORG
 10
0.0
 20
0.0
 30
0.0
  9
$PUCSXDIR
 10
1.0
 20
0.0
 30
0.0
  9
$PUCSYDIR
 10
0.0
 20
1.0
 30
0.0
  9
$PUCSORTHOREF
  2

  9
$PUCSORTHOVIEW
 70
     0
  9
$PUCSORGTOP
 10
0.0
 20
0.0
 30
0.0
  9
$PUCSORGBOTTOM
 10
0.0
 20
0.0
 30
0.0
  9
$PUCSORGLEFT
 10
0.0
 20
0.0
 30
0.0
  9
$PUCSORGRIGHT
 10
0.0
 20
0.0
 30
0.0
  9
$PUCSORGFRONT
 10
0.0
 20
0.0
 30
0.0
  9
$PUCSORGBACK
 10
0.0
 20
0.0
 30
0.0
  9
$USERI1
 70
     0
  9
$USERI2
 70
     0
  9
$USERI3
 70
     0
  9
$USERI4
 70
     0
  9
$USERI5
 70
     0
  9
$USERR1
 40
0.0
  9
$USERR2
 40
0.0
  9
$USERR3
 40
0.0
  9
$USERR4
 40
0.0
  9
$USERR5
 40
0.0
  9
$WORLDVIEW
 70
     1
  9
$SHADEDGE
 70
     3
  9
$SHADEDIF
 70
    70
  9
$TILEMODE
 70
     1
  9
$MAXACTVP
 70
    64
  9
$PINSBASE
 10
0.0
 20
0.0
 30
0.0
  9
$PLIMCHECK
 70
     0
  9
$PEXTMIN
 10
1.0000000000E+20
 20
1.0000000000E+20
 30
1.0000000000E+20
  9
$PEXTMAX
 10
-1.0000000000E+20
 20
-1.0000000000E+20
 30
-1.0000000000E+20
  9
$PLIMMIN
 10
0.0
 20
0.0
  9
$PLIMMAX
 10
420.0
 20
297.0
  9
$UNITMODE
 70
     0
  9
$VISRETAIN
 70
     1
  9
$PLINEGEN
 70
     0
  9
$PSLTSCALE
 70
     1
  9
$TREEDEPTH
 70
  3020
  9
$CMLSTYLE
  2
Standard
  9
$CMLJUST
 70
     0
  9
$CMLSCALE
 40
20.0
  9
$PROXYGRAPHICS
 70
     1
  9
$MEASUREMENT
 70
     1
  9
$CELWEIGHT
370
    -1
  9
$ENDCAPS
280
     0
  9
$JOINSTYLE
280
     0
  9
$LWDISPLAY
290
     1
  9
$INSUNITS
 70
     4
  9
$HYPERLINKBASE
  1

  9
$STYLESHEET
  1

  9
$XEDIT
290
     1
  9
$CEPSNTYPE
380
     0
  9
$PSTYLEMODE
290
     1
  9
$FINGERPRINTGUID
  2
{25E747D9-E768-4814-8EE7-08509B04A498}
  9
$VERSIONGUID
  2
{FAEB1C32-E019-11D5-929B-00C0DF256EC4}
  9
$EXTNAMES
290
     1
  9
$PSVPSCALE
 40
0.0
  9
$OLESTARTUP
290
     0
  9
$SORTENTS
280
   127
  9
$INDEXCTL
280
     0
  9
$HIDETEXT
280
     1
  9
$XCLIPFRAME
290
     0
  9
$HALOGAP
280
     0
  9
$OBSCOLOR
 70
   257
  9
$OBSLTYPE
280
     0
  9
$INTERSECTIONDISPLAY
280
     0
  9
$INTERSECTIONCOLOR
 70
   257
  9
$DIMASSOC
280
     2
  9
$PROJECTNAME
  1

  9
$CAMERADISPLAY
290
     0
  9
$LENSLENGTH
 40
50.0
  9
$CAMERAHEIGHT
 40
0.0
  9
$STEPSPERSEC
 40
2.0
  9
$STEPSIZE
 40
6.0
  9
$3DDWFPREC
 40
2.0
  9
$PSOLWIDTH
 40
5.0
  9
$PSOLHEIGHT
 40
80.0
  9
$LOFTANG1
 40
1.5707963268
  9
$LOFTANG2
 40
1.5707963268
  9
$LOFTMAG1
 40
0.0
  9
$LOFTMAG2
 40
0.0
  9
$LOFTPARAM
 70
     7
  9
$LOFTNORMALS
280
     1
  9
$LATITUDE
 40
37.795
  9
$LONGITUDE
 40
-122.394
  9
$NORTHDIRECTION
 40
0.0
  9
$TIMEZONE
 70
 -8000
  9
$LIGHTGLYPHDISPLAY
280
     1
  9
$TILEMODELIGHTSYNCH
280
     1
  9
$CMATERIAL
347
44
  9
$SOLIDHIST
280
     0
  9
$SHOWHIST
280
     1
  9
$DWFFRAME
280
     2
  9
$DGNFRAME
280
     2
  9
$REALWORLDSCALE
290
     1
  9
$INTERFERECOLOR
 62
   256
  9
$CSHADOW
280
     0
  9
$SHADOWPLANELOCATION
 40
0.0
  0
ENDSEC
  0
SECTION
  2
CLASSES
  0
CLASS
  1
ACDBDICTIONARYWDFLT
  2
AcDbDictionaryWithDefault
  3
ObjectDBX Classes
 90
        0
 91
        4
280
     0
281
     0
  0
CLASS
  1
VISUALSTYLE
  2
AcDbVisualStyle
  3
ObjectDBX Classes
 90
     4095
 91
        4
280
     0
281
     0
  0
CLASS
  1
MATERIAL
  2
AcDbMaterial
  3
ObjectDBX Classes
 90
     1153
 91
        4
280
     0
281
     0
  0
CLASS
  1
SCALE
  2
AcDbScale
  3
ObjectDBX Classes
 90
     1153
 91
        4
280
     0
281
     0
  0
CLASS
  1
TABLESTYLE
  2
AcDbTableStyle
  3
ObjectDBX Classes
 90
     4095
 91
        4
280
     0
281
     0
  0
CLASS
  1
MLEADERSTYLE
  2
AcDbMLeaderStyle
  3
ACDB_MLEADERSTYLE_CLASS
 90
     4095
 91
        4
280
     0
281
     0
  0
CLASS
  1
SUN
  2
AcDbSun
  3
SCENEOE
 90
     1153
 91
        4
280
     0
281
     0
  0
CLASS
  1
DICTIONARYVAR
  2
AcDbDictionaryVar
  3
ObjectDBX Classes
 90
        0
 91
        4
280
     0
281
     0
  0
CLASS
  1
CELLSTYLEMAP
  2
AcDbCellStyleMap
  3
ObjectDBX Classes
 90
     1152
 91
        4
280
     0
281
     0
  0
ENDSEC
  0
SECTION
  2
TABLES
  0
TABLE
  2
VPORT
  5
8
330
0
100
AcDbSymbolTable
 70
     1
  0
VPORT
  5
29
330
8
100
AcDbSymbolTableRecord
100
AcDbViewportTableRecord
  2
*Active
 70
     0
 10
0.0
 20
0.0
 11
1.0
 21
1.0
 12
0.105
 22
0.1485
 13
0.0
 23
0.0
 14
10.0
 24
10.0
 15
10.0
 25
10.0
 16
0.0
 26
0.0
 36
1.0
 17
0.0
 27
0.0
 37
0.0
 40
0.297
 41
0.7070707071
 42
50.0
 43
0.0
 44
0.0
 50
0.0
 51
0.0
 71
     0
 72
  2000
 73
     1
 74
     3
 75
     0
 76
     0
 77
     0
 78
     0
281
     0
 65
     1
110
0.0
120
0.0
130
0.0
111
1.0
121
0.0
131
0.0
112
0.0
122
1.0
132
0.0
 79
     0
146
0.0
 60
     3
 61
     5
292
     1
282
     1
141
0.0
142
0.0
 63
   250
361
6D
  0
ENDTAB
  0
TABLE
  2
LTYPE
  5
5
330
0
100
AcDbSymbolTable
 70
     6
  0
LTYPE
  5
14
330
5
100
AcDbSymbolTableRecord
100
AcDbLinetypeTableRecord
  2
ByBlock
 70
     0
  3

 72
    65
 73
     0
 40
0.0
  0
LTYPE
  5
15
330
5
100
AcDbSymbolTableRecord
100
AcDbLinetypeTableRecord
  2
ByLayer
 70
     0
  3

 72
    65
 73
     0
 40
0.0
  0
LTYPE
  5
16
330
5
100
AcDbSymbolTableRecord
100
AcDbLinetypeTableRecord
  2
Continuous
 70
     0
  3
Solid line
 72
    65
 73
     0
 40
0.0
  0
LTYPE
  5
6E
330
5
100
AcDbSymbolTableRecord
100
AcDbLinetypeTableRecord
  2
HIDDEN
 70
     0
  3
Hidden __ __ __ __ __ __ __ __ __ __ __ __ __ __
 72
    65
 73
     2
 40
0.001905
 49
0.00127
 74
     0
 49
-0.000635
 74
     0
  0
LTYPE
  5
6F
330
5
100
AcDbSymbolTableRecord
100
AcDbLinetypeTableRecord
  2
PHANTOM
 70
     0
  3
Phantom ______  __  __  ______  __  __  ______
 72
    65
 73
     6
 40
0.0127
 49
0.00635
 74
     0
 49
-0.00127
 74
     0
 49
0.00127
 74
     0
 49
-0.00127
 74
     0
 49
0.00127
 74
     0
 49
-0.00127
 74
     0
  0
LTYPE
  5
70
330
5
100
AcDbSymbolTableRecord
100
AcDbLinetypeTableRecord
  2
CENTER
 70
     0
  3
Center ____ _ ____ _ ____ _ ____ _ ____ _ ____
 72
    65
 73
     4
 40
0.01016
 49
0.00635
 74
     0
 49
-0.00127
 74
     0
 49
0.00127
 74
     0
 49
-0.00127
 74
     0
  0
LTYPE
  5
71
330
5
100
AcDbSymbolTableRecord
100
AcDbLinetypeTableRecord
  2
CENTERX2
 70
     0
  3
Center (2x) ________  __  ________  __  _____
 72
    65
 73
     4
 40
0.02032
 49
0.0127
 74
     0
 49
-0.00254
 74
     0
 49
0.00254
 74
     0
 49
-0.00254
 74
     0
  0
LTYPE
  5
72
330
5
100
AcDbSymbolTableRecord
100
AcDbLinetypeTableRecord
  2
DOT2
 70
     0
  3
Dot (.5x) ........................................
 72
    65
 73
     2
 40
0.000635
 49
0.0
 74
     0
 49
-0.000635
 74
     0
  0
ENDTAB
  0
TABLE
  2
LAYER
  5
2
330
0
100
AcDbSymbolTable
 70
     2
  0
LAYER
  5
10
330
2
100
AcDbSymbolTableRecord
100
AcDbLayerTableRecord
  2
0
 70
     0
 62
     7
  6
Continuous
370
    -3
390
F
347
46
  0
LAYER
  5
73
330
2
100
AcDbSymbolTableRecord
100
AcDbLayerTableRecord
  2
FORMAT
 70
     0
 62
     7
  6
Continuous
370
    -3
390
F
347
46
  0
ENDTAB
  0
TABLE
  2
STYLE
  5
3
330
0
100
AcDbSymbolTable
 70
     1
  0
STYLE
  5
11
330
3
100
AcDbSymbolTableRecord
100
AcDbTextStyleTableRecord
  2
Standard
 70
     0
 40
0.0
 41
1.0
 50
0.0
 71
     0
 42
0.0035
  3
txt
  4

  0
ENDTAB
  0
TABLE
  2
VIEW
  5
6
330
0
100
AcDbSymbolTable
 70
     0
  0
ENDTAB
  0
TABLE
  2
UCS
  5
7
330
0
100
AcDbSymbolTable
 70
     0
  0
ENDTAB
  0
TABLE
  2
APPID
  5
9
330
0
100
AcDbSymbolTable
 70
     2
  0
APPID
  5
12
330
9
100
AcDbSymbolTableRecord
100
AcDbRegAppTableRecord
  2
ACAD
 70
     0
  0
APPID
  5
4F0
330
9
100
AcDbSymbolTableRecord
100
AcDbRegAppTableRecord
  2
ACAD_MLEADERVER
 70
     0
  0
ENDTAB
  0
TABLE
  2
DIMSTYLE
  5
A
330
0
100
AcDbSymbolTable
 70
     1
100
AcDbDimStyleTable
  0
DIMSTYLE
105
27
330
A
100
AcDbSymbolTableRecord
100
AcDbDimStyleTableRecord
  2
ISO-25
 70
     0
 41
2.5
 42
0.625
 43
3.75
 44
1.25
 73
     0
 74
     0
 77
     1
 78
     8
140
2.5
141
2.5
143
0.0393700787
147
0.625
171
     3
172
     1
178
     0
271
     2
272
     2
274
     3
278
    44
283
     0
284
     8
340
11
  0
ENDTAB
  0
TABLE
  2
BLOCK_RECORD
  5
1
330
0
100
AcDbSymbolTable
 70
     1
  0
BLOCK_RECORD
  5
1F
330
1
100
AcDbSymbolTableRecord
100
AcDbBlockTableRecord
  2
*Model_Space
340
22
 70
     0
280
     1
281
     0
  0
BLOCK_RECORD
  5
1B
330
1
100
AcDbSymbolTableRecord
100
AcDbBlockTableRecord
  2
*Paper_Space
340
1E
 70
     0
280
     1
281
     0
  0
BLOCK_RECORD
  5
23
330
1
100
AcDbSymbolTableRecord
100
AcDbBlockTableRecord
  2
*Paper_Space0
340
26
 70
     0
280
     1
281
     0
  0
ENDTAB
  0
ENDSEC
  0
SECTION
  2
BLOCKS
  0
BLOCK
  5
20
330
1F
100
AcDbEntity
  8
0
100
AcDbBlockBegin
  2
*Model_Space
 70
     0
 10
0.0
 20
0.0
 30
0.0
  3
*Model_Space
  1

  0
ENDBLK
  5
21
330
1F
100
AcDbEntity
  8
0
100
AcDbBlockEnd
  0
BLOCK
  5
1C
330
1B
100
AcDbEntity
 67
     1
  8
0
100
AcDbBlockBegin
  2
*Paper_Space
 70
     0
 10
0.0
 20
0.0
 30
0.0
  3
*Paper_Space
  1

  0
ENDBLK
  5
1D
330
1B
100
AcDbEntity
 67
     1
  8
0
100
AcDbBlockEnd
  0
BLOCK
  5
24
330
23
100
AcDbEntity
  8
0
100
AcDbBlockBegin
  2
*Paper_Space0
 70
     0
 10
0.0
 20
0.0
 30
0.0
  3
*Paper_Space0
  1

  0
ENDBLK
  5
25
330
23
100
AcDbEntity
  8
0
100
AcDbBlockEnd
  0
ENDSEC
  0
SECTION
  2
ENTITIES
  0
ARC
  5
74
330
1F
100
AcDbEntity
  8
0
  6
Continuous
 62
     7
370
    25
100
AcDbCircle
 10
0.0802689554
 20
0.1626767798
 30
0.0
 40
0.0006408333333333
100
AcDbArc
 50
41.0288400338
 51
138.9711599662
  0
ARC
  5
75
330
1F
100
AcDbEntity
  8
0
  6
Continuous
 62
     7
370
    25
100
AcDbCircle
 10
0.0802689554
 20
0.1502984465
 30
0.0
 40
0.0006408333333333
100
AcDbArc
 50
221.0288400338
 51
318.9711599662
  0
ARC
  5
76
330
1F
100
AcDbEntity
  8
0
  6
Continuous
 62
     7
370
    25
100
AcDbCircle
 10
0.0745889554
 20
0.1626767798
 30
0.0
 40
0.0006408333333333
100
AcDbArc
 50
41.0288400338
 51
138.9711599662
  0
ARC
  5
77
330
1F
100
AcDbEntity
  8
0
  6
Continuous
 62
     7
370
    25
100
AcDbCircle
 10
0.0745889554
 20
0.1502984465
 30
0.0
 40
0.0006408333333333
100
AcDbArc
 50
221.0288400338
 51
318.9711599662
  0
ARC
  5
78
330
1F
100
AcDbEntity
  8
0
  6
Continuous
 62
     7
370
    25
100
AcDbCircle
 10
0.0731689554
 20
0.1626767798
 30
0.0
 40
0.0006408333333333
100
AcDbArc
 50
41.0288400338
 51
138.9711599662
  0
ARC
  5
79
330
1F
100
AcDbEntity
  8
0
  6
Continuous
 62
     7
370
    25
100
AcDbCircle
 10
0.0731689554
 20
0.1502984465
 30
0.0
 40
0.0006408333333333
100
AcDbArc
 50
221.0288400338
 51
318.9711599662
  0
ARC
  5
7A
330
1F
100
AcDbEntity
  8
0
  6
Continuous
 62
     7
370
    25
100
AcDbCircle
 10
0.0873689554
 20
0.1626767798
 30
0.0
 40
0.0006408333333333
100
AcDbArc
 50
41.0288400338
 51
138.9711599662
  0
ARC
  5
7B
330
1F
100
AcDbEntity
  8
0
  6
Continuous
 62
     7
370
    25
100
AcDbCircle
 10
0.0873689554
 20
0.1502984465
 30
0.0
 40
0.0006408333333333
100
AcDbArc
 50
221.0288400338
 51
318.9711599662
  0
ARC
  5
7C
330
1F
100
AcDbEntity
  8
0
  6
Continuous
 62
     7
370
    25
100
AcDbCircle
 10
0.0788489554
 20
0.1626767798
 30
0.0
 40
0.0006408333333333
100
AcDbArc
 50
41.0288400338
 51
138.9711599662
  0
ARC
  5
7D
330
1F
100
AcDbEntity
  8
0
  6
Continuous
 62
     7
370
    25
100
AcDbCircle
 10
0.0788489554
 20
0.1502984465
 30
0.0
 40
0.0006408333333333
100
AcDbArc
 50
221.0288400338
 51
318.9711599662
  0
ARC
  5
7E
330
1F
100
AcDbEntity
  8
0
  6
Continuous
 62
     7
370
    25
100
AcDbCircle
 10
0.0916289554
 20
0.1626767798
 30
0.0
 40
0.0006408333333333
100
AcDbArc
 50
41.0288400338
 51
138.9711599662
  0
ARC
  5
7F
330
1F
100
AcDbEntity
  8
0
  6
Continuous
 62
     7
370
    25
100
AcDbCircle
 10
0.0916289554
 20
0.1502984465
 30
0.0
 40
0.0006408333333333
100
AcDbArc
 50
221.0288400338
 51
318.9711599662
  0
ARC
  5
80
330
1F
100
AcDbEntity
  8
0
  6
Continuous
 62
     7
370
    25
100
AcDbCircle
 10
0.0816889554
 20
0.1626767798
 30
0.0
 40
0.0006408333333333
100
AcDbArc
 50
41.0288400338
 51
138.9711599662
  0
ARC
  5
81
330
1F
100
AcDbEntity
  8
0
  6
Continuous
 62
     7
370
    25
100
AcDbCircle
 10
0.0816889554
 20
0.1502984465
 30
0.0
 40
0.0006408333333333
100
AcDbArc
 50
221.0288400338
 51
318.9711599662
  0
ARC
  5
82
330
1F
100
AcDbEntity
  8
0
  6
Continuous
 62
     7
370
    25
100
AcDbCircle
 10
0.0831089554
 20
0.1626767798
 30
0.0
 40
0.0006408333333333
100
AcDbArc
 50
41.0288400338
 51
138.9711599662
  0
ARC
  5
83
330
1F
100
AcDbEntity
  8
0
  6
Continuous
 62
     7
370
    25
100
AcDbCircle
 10
0.0831089554
 20
0.1502984465
 30
0.0
 40
0.0006408333333333
100
AcDbArc
 50
221.0288400338
 51
318.9711599662
  0
ARC
  5
84
330
1F
100
AcDbEntity
  8
0
  6
Continuous
 62
     7
370
    25
100
AcDbCircle
 10
0.0859489554
 20
0.1626767798
 30
0.0
 40
0.0006408333333333
100
AcDbArc
 50
41.0288400338
 51
138.9711599662
  0
ARC
  5
85
330
1F
100
AcDbEntity
  8
0
  6
Continuous
 62
     7
370
    25
100
AcDbCircle
 10
0.0859489554
 20
0.1502984465
 30
0.0
 40
0.0006408333333333
100
AcDbArc
 50
221.0288400338
 51
318.9711599662
  0
ARC
  5
86
330
1F
100
AcDbEntity
  8
0
  6
Continuous
 62
     7
370
    25
100
AcDbCircle
 10
0.0760089554
 20
0.1626767798
 30
0.0
 40
0.0006408333333333
100
AcDbArc
 50
41.0288400338
 51
138.9711599662
  0
ARC
  5
87
330
1F
100
AcDbEntity
  8
0
  6
Continuous
 62
     7
370
    25
100
AcDbCircle
 10
0.0760089554
 20
0.1502984465
 30
0.0
 40
0.0006408333333333
100
AcDbArc
 50
221.0288400338
 51
318.9711599662
  0
ARC
  5
88
330
1F
100
AcDbEntity
  8
0
  6
Continuous
 62
     7
370
    25
100
AcDbCircle
 10
0.0902089554
 20
0.1626767798
 30
0.0
 40
0.0006408333333333
100
AcDbArc
 50
41.0288400338
 51
138.9711599662
  0
ARC
  5
89
330
1F
100
AcDbEntity
  8
0
  6
Continuous
 62
     7
370
    25
100
AcDbCircle
 10
0.0902089554
 20
0.1502984465
 30
0.0
 40
0.0006408333333333
100
AcDbArc
 50
221.0288400338
 51
318.9711599662
  0
ARC
  5
8A
330
1F
100
AcDbEntity
  8
0
  6
Continuous
 62
     7
370
    25
100
AcDbCircle
 10
0.0845289554
 20
0.1626767798
 30
0.0
 40
0.0006408333333333
100
AcDbArc
 50
41.0288400338
 51
138.9711599662
  0
ARC
  5
8B
330
1F
100
AcDbEntity
  8
0
  6
Continuous
 62
     7
370
    25
100
AcDbCircle
 10
0.0845289554
 20
0.1502984465
 30
0.0
 40
0.0006408333333333
100
AcDbArc
 50
221.0288400338
 51
318.9711599662
  0
ARC
  5
8C
330
1F
100
AcDbEntity
  8
0
  6
Continuous
 62
     7
370
    25
100
AcDbCircle
 10
0.0887889554
 20
0.1626767798
 30
0.0
 40
0.0006408333333333
100
AcDbArc
 50
41.0288400338
 51
138.9711599662
  0
ARC
  5
8D
330
1F
100
AcDbEntity
  8
0
  6
Continuous
 62
     7
370
    25
100
AcDbCircle
 10
0.0887889554
 20
0.1502984465
 30
0.0
 40
0.0006408333333333
100
AcDbArc
 50
221.0288400338
 51
318.9711599662
  0
ARC
  5
8E
330
1F
100
AcDbEntity
  8
0
  6
Continuous
 62
     7
370
    25
100
AcDbCircle
 10
0.0774289554
 20
0.1626767798
 30
0.0
 40
0.0006408333333333
100
AcDbArc
 50
41.0288400338
 51
138.9711599662
  0
ARC
  5
8F
330
1F
100
AcDbEntity
  8
0
  6
Continuous
 62
     7
370
    25
100
AcDbCircle
 10
0.0774289554
 20
0.1502984465
 30
0.0
 40
0.0006408333333333
100
AcDbArc
 50
221.0288400338
 51
318.9711599662
  0
ARC
  5
90
330
1F
100
AcDbEntity
  8
0
  6
Continuous
 62
     7
370
    25
100
AcDbCircle
 10
0.0764320364
 20
0.1630449326
 30
0.0
 40
0.00008
100
AcDbArc
 50
6.2034479017
 51
41.0288400338
  0
ARC
  5
91
330
1F
100
AcDbEntity
  8
0
  6
Continuous
 62
     7
370
    25
100
AcDbCircle
 10
0.0764320364
 20
0.1499302937
 30
0.0
 40
0.00008
100
AcDbArc
 50
318.9711599662
 51
353.7965520983
  0
ARC
  5
92
330
1F
100
AcDbEntity
  8
0
  6
Continuous
 62
     7
370
    25
100
AcDbCircle
 10
0.0806920364
 20
0.1630449326
 30
0.0
 40
0.00008
100
AcDbArc
 50
6.2034479017
 51
41.0288400338
  0
ARC
  5
93
330
1F
100
AcDbEntity
  8
0
  6
Continuous
 62
     7
370
    25
100
AcDbCircle
 10
0.0806920364
 20
0.1499302937
 30
0.0
 40
0.00008
100
AcDbArc
 50
318.9711599662
 51
353.7965520983
  0
ARC
  5
94
330
1F
100
AcDbEntity
  8
0
  6
Continuous
 62
     7
370
    25
100
AcDbCircle
 10
0.0892120364
 20
0.1630449326
 30
0.0
 40
0.00008
100
AcDbArc
 50
6.2034479017
 51
41.0288400338
  0
ARC
  5
95
330
1F
100
AcDbEntity
  8
0
  6
Continuous
 62
     7
370
    25
100
AcDbCircle
 10
0.0892120364
 20
0.1499302937
 30
0.0
 40
0.00008
100
AcDbArc
 50
318.9711599662
 51
353.7965520983
  0
ARC
  5
96
330
1F
100
AcDbEntity
  8
0
  6
Continuous
 62
     7
370
    25
100
AcDbCircle
 10
0.0792720364
 20
0.1630449326
 30
0.0
 40
0.00008
100
AcDbArc
 50
6.2034479017
 51
41.0288400338
  0
ARC
  5
97
330
1F
100
AcDbEntity
  8
0
  6
Continuous
 62
     7
370
    25
100
AcDbCircle
 10
0.0792720364
 20
0.1499302937
 30
0.0
 40
0.00008
100
AcDbArc
 50
318.9711599662
 51
353.7965520983
  0
ARC
  5
98
330
1F
100
AcDbEntity
  8
0
  6
Continuous
 62
     7
370
    25
100
AcDbCircle
 10
0.0849520364
 20
0.1630449326
 30
0.0
 40
0.00008
100
AcDbArc
 50
6.2034479017
 51
41.0288400338
  0
ARC
  5
99
330
1F
100
AcDbEntity
  8
0
  6
Continuous
 62
     7
370
    25
100
AcDbCircle
 10
0.0849520364
 20
0.1499302937
 30
0.0
 40
0.00008
100
AcDbArc
 50
318.9711599662
 51
353.7965520983
  0
ARC
  5
9A
330
1F
100
AcDbEntity
  8
0
  6
Continuous
 62
     7
370
    25
100
AcDbCircle
 10
0.0906320364
 20
0.1630449326
 30
0.0
 40
0.00008
100
AcDbArc
 50
6.2034479017
 51
41.0288400338
  0
ARC
  5
9B
330
1F
100
AcDbEntity
  8
0
  6
Continuous
 62
     7
370
    25
100
AcDbCircle
 10
0.0906320364
 20
0.1499302937
 30
0.0
 40
0.00008
100
AcDbArc
 50
318.9711599662
 51
353.7965520983
  0
ARC
  5
9C
330
1F
100
AcDbEntity
  8
0
  6
Continuous
 62
     7
370
    25
100
AcDbCircle
 10
0.0835320364
 20
0.1630449326
 30
0.0
 40
0.00008
100
AcDbArc
 50
6.2034479017
 51
41.0288400338
  0
ARC
  5
9D
330
1F
100
AcDbEntity
  8
0
  6
Continuous
 62
     7
370
    25
100
AcDbCircle
 10
0.0835320364
 20
0.1499302937
 30
0.0
 40
0.00008
100
AcDbArc
 50
318.9711599662
 51
353.7965520983
  0
ARC
  5
9E
330
1F
100
AcDbEntity
  8
0
  6
Continuous
 62
     7
370
    25
100
AcDbCircle
 10
0.0826858744
 20
0.1630449326
 30
0.0
 40
0.00008
100
AcDbArc
 50
138.9711599662
 51
173.7965520983
  0
ARC
  5
9F
330
1F
100
AcDbEntity
  8
0
  6
Continuous
 62
     7
370
    25
100
AcDbCircle
 10
0.0826858744
 20
0.1499302937
 30
0.0
 40
0.00008
100
AcDbArc
 50
186.2034479017
 51
221.0288400338
  0
ARC
  5
A0
330
1F
100
AcDbEntity
  8
0
  6
Continuous
 62
     7
370
    25
100
AcDbCircle
 10
0.0755858744
 20
0.1630449326
 30
0.0
 40
0.00008
100
AcDbArc
 50
138.9711599662
 51
173.7965520983
  0
ARC
  5
A1
330
1F
100
AcDbEntity
  8
0
  6
Continuous
 62
     7
370
    25
100
AcDbCircle
 10
0.0755858744
 20
0.1499302937
 30
0.0
 40
0.00008
100
AcDbArc
 50
186.2034479017
 51
221.0288400338
  0
ARC
  5
A2
330
1F
100
AcDbEntity
  8
0
  6
Continuous
 62
     7
370
    25
100
AcDbCircle
 10
0.0883658744
 20
0.1630449326
 30
0.0
 40
0.00008
100
AcDbArc
 50
138.9711599662
 51
173.7965520983
  0
ARC
  5
A3
330
1F
100
AcDbEntity
  8
0
  6
Continuous
 62
     7
370
    25
100
AcDbCircle
 10
0.0883658744
 20
0.1499302937
 30
0.0
 40
0.00008
100
AcDbArc
 50
186.2034479017
 51
221.0288400338
  0
ARC
  5
A4
330
1F
100
AcDbEntity
  8
0
  6
Continuous
 62
     7
370
    25
100
AcDbCircle
 10
0.0869458744
 20
0.1630449326
 30
0.0
 40
0.00008
100
AcDbArc
 50
138.9711599662
 51
173.7965520983
  0
ARC
  5
A5
330
1F
100
AcDbEntity
  8
0
  6
Continuous
 62
     7
370
    25
100
AcDbCircle
 10
0.0869458744
 20
0.1499302937
 30
0.0
 40
0.00008
100
AcDbArc
 50
186.2034479017
 51
221.0288400338
  0
ARC
  5
A6
330
1F
100
AcDbEntity
  8
0
  6
Continuous
 62
     7
370
    25
100
AcDbCircle
 10
0.0735920364
 20
0.1630449326
 30
0.0
 40
0.00008
100
AcDbArc
 50
6.2034479017
 51
41.0288400338
  0
ARC
  5
A7
330
1F
100
AcDbEntity
  8
0
  6
Continuous
 62
     7
370
    25
100
AcDbCircle
 10
0.0735920364
 20
0.1499302937
 30
0.0
 40
0.00008
100
AcDbArc
 50
318.9711599662
 51
353.7965520983
  0
ARC
  5
A8
330
1F
100
AcDbEntity
  8
0
  6
Continuous
 62
     7
370
    25
100
AcDbCircle
 10
0.0750120364
 20
0.1630449326
 30
0.0
 40
0.00008
100
AcDbArc
 50
6.2034479017
 51
41.0288400338
  0
ARC
  5
A9
330
1F
100
AcDbEntity
  8
0
  6
Continuous
 62
     7
370
    25
100
AcDbCircle
 10
0.0750120364
 20
0.1499302937
 30
0.0
 40
0.00008
100
AcDbArc
 50
318.9711599662
 51
353.7965520983
  0
ARC
  5
AA
330
1F
100
AcDbEntity
  8
0
  6
Continuous
 62
     7
370
    25
100
AcDbCircle
 10
0.0778520364
 20
0.1630449326
 30
0.0
 40
0.00008
100
AcDbArc
 50
6.2034479017
 51
41.0288400338
  0
ARC
  5
AB
330
1F
100
AcDbEntity
  8
0
  6
Continuous
 62
     7
370
    25
100
AcDbCircle
 10
0.0778520364
 20
0.1499302937
 30
0.0
 40
0.00008
100
AcDbArc
 50
318.9711599662
 51
353.7965520983
  0
ARC
  5
AC
330
1F
100
AcDbEntity
  8
0
  6
Continuous
 62
     7
370
    25
100
AcDbCircle
 10
0.0897858744
 20
0.1630449326
 30
0.0
 40
0.00008
100
AcDbArc
 50
138.9711599662
 51
173.7965520983
  0
ARC
  5
AD
330
1F
100
AcDbEntity
  8
0
  6
Continuous
 62
     7
370
    25
100
AcDbCircle
 10
0.0897858744
 20
0.1499302937
 30
0.0
 40
0.00008
100
AcDbArc
 50
186.2034479017
 51
221.0288400338
  0
ARC
  5
AE
330
1F
100
AcDbEntity
  8
0
  6
Continuous
 62
     7
370
    25
100
AcDbCircle
 10
0.0784258744
 20
0.1630449326
 30
0.0
 40
0.00008
100
AcDbArc
 50
138.9711599662
 51
173.7965520983
  0
ARC
  5
AF
330
1F
100
AcDbEntity
  8
0
  6
Continuous
 62
     7
370
    25
100
AcDbCircle
 10
0.0784258744
 20
0.1499302937
 30
0.0
 40
0.00008
100
AcDbArc
 50
186.2034479017
 51
221.0288400338
  0
ARC
  5
B0
330
1F
100
AcDbEntity
  8
0
  6
Continuous
 62
     7
370
    25
100
AcDbCircle
 10
0.0920520364
 20
0.1630449326
 30
0.0
 40
0.00008
100
AcDbArc
 50
6.2034479017
 51
41.0288400338
  0
ARC
  5
B1
330
1F
100
AcDbEntity
  8
0
  6
Continuous
 62
     7
370
    25
100
AcDbCircle
 10
0.0920520364
 20
0.1499302937
 30
0.0
 40
0.00008
100
AcDbArc
 50
318.9711599662
 51
353.7965520983
  0
ARC
  5
B2
330
1F
100
AcDbEntity
  8
0
  6
Continuous
 62
     7
370
    25
100
AcDbCircle
 10
0.0812658744
 20
0.1630449326
 30
0.0
 40
0.00008
100
AcDbArc
 50
138.9711599662
 51
173.7965520983
  0
ARC
  5
B3
330
1F
100
AcDbEntity
  8
0
  6
Continuous
 62
     7
370
    25
100
AcDbCircle
 10
0.0812658744
 20
0.1499302937
 30
0.0
 40
0.00008
100
AcDbArc
 50
186.2034479017
 51
221.0288400338
  0
ARC
  5
B4
330
1F
100
AcDbEntity
  8
0
  6
Continuous
 62
     7
370
    25
100
AcDbCircle
 10
0.0855258744
 20
0.1630449326
 30
0.0
 40
0.00008
100
AcDbArc
 50
138.9711599662
 51
173.7965520983
  0
ARC
  5
B5
330
1F
100
AcDbEntity
  8
0
  6
Continuous
 62
     7
370
    25
100
AcDbCircle
 10
0.0855258744
 20
0.1499302937
 30
0.0
 40
0.00008
100
AcDbArc
 50
186.2034479017
 51
221.0288400338
  0
ARC
  5
B6
330
1F
100
AcDbEntity
  8
0
  6
Continuous
 62
     7
370
    25
100
AcDbCircle
 10
0.0741658744
 20
0.1630449326
 30
0.0
 40
0.00008
100
AcDbArc
 50
138.9711599662
 51
173.7965520983
  0
ARC
  5
B7
330
1F
100
AcDbEntity
  8
0
  6
Continuous
 62
     7
370
    25
100
AcDbCircle
 10
0.0741658744
 20
0.1499302937
 30
0.0
 40
0.00008
100
AcDbArc
 50
186.2034479017
 51
221.0288400338
  0
ARC
  5
B8
330
1F
100
AcDbEntity
  8
0
  6
Continuous
 62
     7
370
    25
100
AcDbCircle
 10
0.0877920364
 20
0.1630449326
 30
0.0
 40
0.00008
100
AcDbArc
 50
6.2034479017
 51
41.0288400338
  0
ARC
  5
B9
330
1F
100
AcDbEntity
  8
0
  6
Continuous
 62
     7
370
    25
100
AcDbCircle
 10
0.0877920364
 20
0.1499302937
 30
0.0
 40
0.00008
100
AcDbArc
 50
318.9711599662
 51
353.7965520983
  0
ARC
  5
BA
330
1F
100
AcDbEntity
  8
0
  6
Continuous
 62
     7
370
    25
100
AcDbCircle
 10
0.0798458744
 20
0.1630449326
 30
0.0
 40
0.00008
100
AcDbArc
 50
138.9711599662
 51
173.7965520983
  0
ARC
  5
BB
330
1F
100
AcDbEntity
  8
0
  6
Continuous
 62
     7
370
    25
100
AcDbCircle
 10
0.0798458744
 20
0.1499302937
 30
0.0
 40
0.00008
100
AcDbArc
 50
186.2034479017
 51
221.0288400338
  0
ARC
  5
BC
330
1F
100
AcDbEntity
  8
0
  6
Continuous
 62
     7
370
    25
100
AcDbCircle
 10
0.0912058744
 20
0.1630449326
 30
0.0
 40
0.00008
100
AcDbArc
 50
138.9711599662
 51
173.7965520983
  0
ARC
  5
BD
330
1F
100
AcDbEntity
  8
0
  6
Continuous
 62
     7
370
    25
100
AcDbCircle
 10
0.0912058744
 20
0.1499302937
 30
0.0
 40
0.00008
100
AcDbArc
 50
186.2034479017
 51
221.0288400338
  0
ARC
  5
BE
330
1F
100
AcDbEntity
  8
0
  6
Continuous
 62
     7
370
    25
100
AcDbCircle
 10
0.0770058744
 20
0.1630449326
 30
0.0
 40
0.00008
100
AcDbArc
 50
138.9711599662
 51
173.7965520983
  0
ARC
  5
BF
330
1F
100
AcDbEntity
  8
0
  6
Continuous
 62
     7
370
    25
100
AcDbCircle
 10
0.0770058744
 20
0.1499302937
 30
0.0
 40
0.00008
100
AcDbArc
 50
186.2034479017
 51
221.0288400338
  0
ARC
  5
C0
330
1F
100
AcDbEntity
  8
0
  6
Continuous
 62
     7
370
    25
100
AcDbCircle
 10
0.0841058744
 20
0.1630449326
 30
0.0
 40
0.00008
100
AcDbArc
 50
138.9711599662
 51
173.7965520983
  0
ARC
  5
C1
330
1F
100
AcDbEntity
  8
0
  6
Continuous
 62
     7
370
    25
100
AcDbCircle
 10
0.0841058744
 20
0.1499302937
 30
0.0
 40
0.00008
100
AcDbArc
 50
186.2034479017
 51
221.0288400338
  0
ARC
  5
C2
330
1F
100
AcDbEntity
  8
0
  6
Continuous
 62
     7
370
    25
100
AcDbCircle
 10
0.0821120364
 20
0.1630449326
 30
0.0
 40
0.00008
100
AcDbArc
 50
6.2034479017
 51
41.0288400338
  0
ARC
  5
C3
330
1F
100
AcDbEntity
  8
0
  6
Continuous
 62
     7
370
    25
100
AcDbCircle
 10
0.0821120364
 20
0.1499302937
 30
0.0
 40
0.00008
100
AcDbArc
 50
318.9711599662
 51
353.7965520983
  0
ARC
  5
C4
330
1F
100
AcDbEntity
  8
0
  6
Continuous
 62
     7
370
    25
100
AcDbCircle
 10
0.0727458744
 20
0.1630449326
 30
0.0
 40
0.00008
100
AcDbArc
 50
138.9711599662
 51
173.7965520983
  0
ARC
  5
C5
330
1F
100
AcDbEntity
  8
0
  6
Continuous
 62
     7
370
    25
100
AcDbCircle
 10
0.0727458744
 20
0.1499302937
 30
0.0
 40
0.00008
100
AcDbArc
 50
186.2034479017
 51
221.0288400338
  0
ARC
  5
C6
330
1F
100
AcDbEntity
  8
0
  6
Continuous
 62
     7
370
    25
100
AcDbCircle
 10
0.0863720364
 20
0.1630449326
 30
0.0
 40
0.00008
100
AcDbArc
 50
6.2034479017
 51
41.0288400338
  0
ARC
  5
C7
330
1F
100
AcDbEntity
  8
0
  6
Continuous
 62
     7
370
    25
100
AcDbCircle
 10
0.0863720364
 20
0.1499302937
 30
0.0
 40
0.00008
100
AcDbArc
 50
318.9711599662
 51
353.7965520983
  0
LINE
  5
C8
330
1F
100
AcDbEntity
  8
0
  6
Continuous
 62
     7
370
    25
100
AcDbLine
 10
0.089291568
 20
0.149921649
 30
0.0
 11
0.0893311994
 21
0.1502862579
 31
0.0
  0
LINE
  5
C9
330
1F
100
AcDbEntity
  8
0
  6
Continuous
 62
     7
370
    25
100
AcDbLine
 10
0.0893311994
 20
0.1626889684
 30
0.0
 11
0.089291568
 21
0.1630535774
 31
0.0
  0
LINE
  5
CA
330
1F
100
AcDbEntity
  8
0
  6
Continuous
 62
     7
370
    25
100
AcDbLine
 10
0.0840263428
 20
0.1630535774
 30
0.0
 11
0.0839867114
 21
0.1626889684
 31
0.0
  0
LINE
  5
CB
330
1F
100
AcDbEntity
  8
0
  6
Continuous
 62
     7
370
    25
100
AcDbLine
 10
0.0839867114
 20
0.1502862579
 30
0.0
 11
0.0840263428
 21
0.149921649
 31
0.0
  0
LINE
  5
CC
330
1F
100
AcDbEntity
  8
0
  6
Continuous
 62
     7
370
    25
100
AcDbLine
 10
0.080771568
 20
0.149921649
 30
0.0
 11
0.0808111994
 21
0.1502862579
 31
0.0
  0
LINE
  5
CD
330
1F
100
AcDbEntity
  8
0
  6
Continuous
 62
     7
370
    25
100
AcDbLine
 10
0.0808111994
 20
0.1626889684
 30
0.0
 11
0.080771568
 21
0.1630535774
 31
0.0
  0
LINE
  5
CE
330
1F
100
AcDbEntity
  8
0
  6
Continuous
 62
     7
370
    25
100
AcDbLine
 10
0.0797663428
 20
0.1630535774
 30
0.0
 11
0.0797267114
 21
0.1626889684
 31
0.0
  0
LINE
  5
CF
330
1F
100
AcDbEntity
  8
0
  6
Continuous
 62
     7
370
    25
100
AcDbLine
 10
0.0797267114
 20
0.1502862579
 30
0.0
 11
0.0797663428
 21
0.149921649
 31
0.0
  0
LINE
  5
D0
330
1F
100
AcDbEntity
  8
0
  6
Continuous
 62
     7
370
    25
100
AcDbLine
 10
0.090711568
 20
0.149921649
 30
0.0
 11
0.0907511994
 21
0.1502862579
 31
0.0
  0
LINE
  5
D1
330
1F
100
AcDbEntity
  8
0
  6
Continuous
 62
     7
370
    25
100
AcDbLine
 10
0.0907511994
 20
0.1626889684
 30
0.0
 11
0.090711568
 21
0.1630535774
 31
0.0
  0
LINE
  5
D2
330
1F
100
AcDbEntity
  8
0
  6
Continuous
 62
     7
370
    25
100
AcDbLine
 10
0.076511568
 20
0.149921649
 30
0.0
 11
0.0765511994
 21
0.1502862579
 31
0.0
  0
LINE
  5
D3
330
1F
100
AcDbEntity
  8
0
  6
Continuous
 62
     7
370
    25
100
AcDbLine
 10
0.0765511994
 20
0.1626889684
 30
0.0
 11
0.076511568
 21
0.1630535774
 31
0.0
  0
LINE
  5
D4
330
1F
100
AcDbEntity
  8
0
  6
Continuous
 62
     7
370
    25
100
AcDbLine
 10
0.0726663428
 20
0.1630535774
 30
0.0
 11
0.0726267114
 21
0.1626889684
 31
0.0
  0
LINE
  5
D5
330
1F
100
AcDbEntity
  8
0
  6
Continuous
 62
     7
370
    25
100
AcDbLine
 10
0.0726267114
 20
0.1502862579
 30
0.0
 11
0.0726663428
 21
0.149921649
 31
0.0
  0
LINE
  5
D6
330
1F
100
AcDbEntity
  8
0
  6
Continuous
 62
     7
370
    25
100
AcDbLine
 10
0.075091568
 20
0.149921649
 30
0.0
 11
0.0751311994
 21
0.1502862579
 31
0.0
  0
LINE
  5
D7
330
1F
100
AcDbEntity
  8
0
  6
Continuous
 62
     7
370
    25
100
AcDbLine
 10
0.0751311994
 20
0.1626889684
 30
0.0
 11
0.075091568
 21
0.1630535774
 31
0.0
  0
LINE
  5
D8
330
1F
100
AcDbEntity
  8
0
  6
Continuous
 62
     7
370
    25
100
AcDbLine
 10
0.0868663428
 20
0.1630535774
 30
0.0
 11
0.0868267114
 21
0.1626889684
 31
0.0
  0
LINE
  5
D9
330
1F
100
AcDbEntity
  8
0
  6
Continuous
 62
     7
370
    25
100
AcDbLine
 10
0.0868267114
 20
0.1502862579
 30
0.0
 11
0.0868663428
 21
0.149921649
 31
0.0
  0
LINE
  5
DA
330
1F
100
AcDbEntity
  8
0
  6
Continuous
 62
     7
370
    25
100
AcDbLine
 10
0.0882863428
 20
0.1630535774
 30
0.0
 11
0.0882467114
 21
0.1626889684
 31
0.0
  0
LINE
  5
DB
330
1F
100
AcDbEntity
  8
0
  6
Continuous
 62
     7
370
    25
100
AcDbLine
 10
0.0882467114
 20
0.1502862579
 30
0.0
 11
0.0882863428
 21
0.149921649
 31
0.0
  0
LINE
  5
DC
330
1F
100
AcDbEntity
  8
0
  6
Continuous
 62
     7
370
    25
100
AcDbLine
 10
0.0783463428
 20
0.1630535774
 30
0.0
 11
0.0783067114
 21
0.1626889684
 31
0.0
  0
LINE
  5
DD
330
1F
100
AcDbEntity
  8
0
  6
Continuous
 62
     7
370
    25
100
AcDbLine
 10
0.0783067114
 20
0.1502862579
 30
0.0
 11
0.0783463428
 21
0.149921649
 31
0.0
  0
LINE
  5
DE
330
1F
100
AcDbEntity
  8
0
  6
Continuous
 62
     7
370
    25
100
AcDbLine
 10
0.0911263428
 20
0.1630535774
 30
0.0
 11
0.0910867114
 21
0.1626889684
 31
0.0
  0
LINE
  5
DF
330
1F
100
AcDbEntity
  8
0
  6
Continuous
 62
     7
370
    25
100
AcDbLine
 10
0.0910867114
 20
0.1502862579
 30
0.0
 11
0.0911263428
 21
0.149921649
 31
0.0
  0
LINE
  5
E0
330
1F
100
AcDbEntity
  8
0
  6
Continuous
 62
     7
370
    25
100
AcDbLine
 10
0.082191568
 20
0.149921649
 30
0.0
 11
0.0822311994
 21
0.1502862579
 31
0.0
  0
LINE
  5
E1
330
1F
100
AcDbEntity
  8
0
  6
Continuous
 62
     7
370
    25
100
AcDbLine
 10
0.0822311994
 20
0.1626889684
 30
0.0
 11
0.082191568
 21
0.1630535774
 31
0.0
  0
LINE
  5
E2
330
1F
100
AcDbEntity
  8
0
  6
Continuous
 62
     7
370
    25
100
AcDbLine
 10
0.092131568
 20
0.149921649
 30
0.0
 11
0.0921711994
 21
0.1502862579
 31
0.0
  0
LINE
  5
E3
330
1F
100
AcDbEntity
  8
0
  6
Continuous
 62
     7
370
    25
100
AcDbLine
 10
0.0921711994
 20
0.1626889684
 30
0.0
 11
0.092131568
 21
0.1630535774
 31
0.0
  0
LINE
  5
E4
330
1F
100
AcDbEntity
  8
0
  6
Continuous
 62
     7
370
    25
100
AcDbLine
 10
0.0854463428
 20
0.1630535774
 30
0.0
 11
0.0854067114
 21
0.1626889684
 31
0.0
  0
LINE
  5
E5
330
1F
100
AcDbEntity
  8
0
  6
Continuous
 62
     7
370
    25
100
AcDbLine
 10
0.0854067114
 20
0.1502862579
 30
0.0
 11
0.0854463428
 21
0.149921649
 31
0.0
  0
LINE
  5
E6
330
1F
100
AcDbEntity
  8
0
  6
Continuous
 62
     7
370
    25
100
AcDbLine
 10
0.083611568
 20
0.149921649
 30
0.0
 11
0.0836511994
 21
0.1502862579
 31
0.0
  0
LINE
  5
E7
330
1F
100
AcDbEntity
  8
0
  6
Continuous
 62
     7
370
    25
100
AcDbLine
 10
0.0836511994
 20
0.1626889684
 30
0.0
 11
0.083611568
 21
0.1630535774
 31
0.0
  0
LINE
  5
E8
330
1F
100
AcDbEntity
  8
0
  6
Continuous
 62
     7
370
    25
100
AcDbLine
 10
0.085031568
 20
0.149921649
 30
0.0
 11
0.0850711994
 21
0.1502862579
 31
0.0
  0
LINE
  5
E9
330
1F
100
AcDbEntity
  8
0
  6
Continuous
 62
     7
370
    25
100
AcDbLine
 10
0.0850711994
 20
0.1626889684
 30
0.0
 11
0.085031568
 21
0.1630535774
 31
0.0
  0
LINE
  5
EA
330
1F
100
AcDbEntity
  8
0
  6
Continuous
 62
     7
370
    25
100
AcDbLine
 10
0.077931568
 20
0.149921649
 30
0.0
 11
0.0779711994
 21
0.1502862579
 31
0.0
  0
LINE
  5
EB
330
1F
100
AcDbEntity
  8
0
  6
Continuous
 62
     7
370
    25
100
AcDbLine
 10
0.0779711994
 20
0.1626889684
 30
0.0
 11
0.077931568
 21
0.1630535774
 31
0.0
  0
LINE
  5
EC
330
1F
100
AcDbEntity
  8
0
  6
Continuous
 62
     7
370
    25
100
AcDbLine
 10
0.073671568
 20
0.149921649
 30
0.0
 11
0.0737111994
 21
0.1502862579
 31
0.0
  0
LINE
  5
ED
330
1F
100
AcDbEntity
  8
0
  6
Continuous
 62
     7
370
    25
100
AcDbLine
 10
0.0737111994
 20
0.1626889684
 30
0.0
 11
0.073671568
 21
0.1630535774
 31
0.0
  0
LINE
  5
EE
330
1F
100
AcDbEntity
  8
0
  6
Continuous
 62
     7
370
    25
100
AcDbLine
 10
0.0755063428
 20
0.1630535774
 30
0.0
 11
0.0754667114
 21
0.1626889684
 31
0.0
  0
LINE
  5
EF
330
1F
100
AcDbEntity
  8
0
  6
Continuous
 62
     7
370
    25
100
AcDbLine
 10
0.0754667114
 20
0.1502862579
 30
0.0
 11
0.0755063428
 21
0.149921649
 31
0.0
  0
LINE
  5
F0
330
1F
100
AcDbEntity
  8
0
  6
Continuous
 62
     7
370
    25
100
AcDbLine
 10
0.0897063428
 20
0.1630535774
 30
0.0
 11
0.0896667114
 21
0.1626889684
 31
0.0
  0
LINE
  5
F1
330
1F
100
AcDbEntity
  8
0
  6
Continuous
 62
     7
370
    25
100
AcDbLine
 10
0.0896667114
 20
0.1502862579
 30
0.0
 11
0.0897063428
 21
0.149921649
 31
0.0
  0
LINE
  5
F2
330
1F
100
AcDbEntity
  8
0
  6
Continuous
 62
     7
370
    25
100
AcDbLine
 10
0.079351568
 20
0.149921649
 30
0.0
 11
0.0793911994
 21
0.1502862579
 31
0.0
  0
LINE
  5
F3
330
1F
100
AcDbEntity
  8
0
  6
Continuous
 62
     7
370
    25
100
AcDbLine
 10
0.0793911994
 20
0.1626889684
 30
0.0
 11
0.079351568
 21
0.1630535774
 31
0.0
  0
LINE
  5
F4
330
1F
100
AcDbEntity
  8
0
  6
Continuous
 62
     7
370
    25
100
AcDbLine
 10
0.0769263428
 20
0.1630535774
 30
0.0
 11
0.0768867114
 21
0.1626889684
 31
0.0
  0
LINE
  5
F5
330
1F
100
AcDbEntity
  8
0
  6
Continuous
 62
     7
370
    25
100
AcDbLine
 10
0.0768867114
 20
0.1502862579
 30
0.0
 11
0.0769263428
 21
0.149921649
 31
0.0
  0
LINE
  5
F6
330
1F
100
AcDbEntity
  8
0
  6
Continuous
 62
     7
370
    25
100
AcDbLine
 10
0.086451568
 20
0.149921649
 30
0.0
 11
0.0864911994
 21
0.1502862579
 31
0.0
  0
LINE
  5
F7
330
1F
100
AcDbEntity
  8
0
  6
Continuous
 62
     7
370
    25
100
AcDbLine
 10
0.0864911994
 20
0.1626889684
 30
0.0
 11
0.086451568
 21
0.1630535774
 31
0.0
  0
LINE
  5
F8
330
1F
100
AcDbEntity
  8
0
  6
Continuous
 62
     7
370
    25
100
AcDbLine
 10
0.087871568
 20
0.149921649
 30
0.0
 11
0.0879111994
 21
0.1502862579
 31
0.0
  0
LINE
  5
F9
330
1F
100
AcDbEntity
  8
0
  6
Continuous
 62
     7
370
    25
100
AcDbLine
 10
0.0879111994
 20
0.1626889684
 30
0.0
 11
0.087871568
 21
0.1630535774
 31
0.0
  0
LINE
  5
FA
330
1F
100
AcDbEntity
  8
0
  6
Continuous
 62
     7
370
    25
100
AcDbLine
 10
0.0811863428
 20
0.1630535774
 30
0.0
 11
0.0811467114
 21
0.1626889684
 31
0.0
  0
LINE
  5
FB
330
1F
100
AcDbEntity
  8
0
  6
Continuous
 62
     7
370
    25
100
AcDbLine
 10
0.0811467114
 20
0.1502862579
 30
0.0
 11
0.0811863428
 21
0.149921649
 31
0.0
  0
LINE
  5
FC
330
1F
100
AcDbEntity
  8
0
  6
Continuous
 62
     7
370
    25
100
AcDbLine
 10
0.0740863428
 20
0.1630535774
 30
0.0
 11
0.0740467114
 21
0.1626889684
 31
0.0
  0
LINE
  5
FD
330
1F
100
AcDbEntity
  8
0
  6
Continuous
 62
     7
370
    25
100
AcDbLine
 10
0.0740467114
 20
0.1502862579
 30
0.0
 11
0.0740863428
 21
0.149921649
 31
0.0
  0
LINE
  5
FE
330
1F
100
AcDbEntity
  8
0
  6
Continuous
 62
     7
370
    25
100
AcDbLine
 10
0.0826063428
 20
0.1630535774
 30
0.0
 11
0.0825667114
 21
0.1626889684
 31
0.0
  0
LINE
  5
FF
330
1F
100
AcDbEntity
  8
0
  6
Continuous
 62
     7
370
    25
100
AcDbLine
 10
0.0825667114
 20
0.1502862579
 30
0.0
 11
0.0826063428
 21
0.149921649
 31
0.0
  0
ARC
  5
100
330
1F
100
AcDbEntity
  8
0
  6
Continuous
 62
     7
370
    25
100
AcDbCircle
 10
0.092250731
 20
0.1626976132
 30
0.0
 40
0.00008
100
AcDbArc
 50
186.2034479017
 51
270.0
  0
ARC
  5
101
330
1F
100
AcDbEntity
  8
0
  6
Continuous
 62
     7
370
    25
100
AcDbCircle
 10
0.092250731
 20
0.1502776132
 30
0.0
 40
0.00008
100
AcDbArc
 50
90.0
 51
173.7965520983
  0
ARC
  5
102
330
1F
100
AcDbEntity
  8
0
  6
Continuous
 62
     7
370
    25
100
AcDbCircle
 10
0.0853271799
 20
0.1626976132
 30
0.0
 40
0.00008
100
AcDbArc
 50
270.0
 51
353.7965520983
  0
ARC
  5
103
330
1F
100
AcDbEntity
  8
0
  6
Continuous
 62
     7
370
    25
100
AcDbCircle
 10
0.0853271799
 20
0.1502776132
 30
0.0
 40
0.00008
100
AcDbArc
 50
6.2034479017
 51
90.0
  0
ARC
  5
104
330
1F
100
AcDbEntity
  8
0
  6
Continuous
 62
     7
370
    25
100
AcDbCircle
 10
0.087990731
 20
0.1626976132
 30
0.0
 40
0.00008
100
AcDbArc
 50
186.2034479017
 51
270.0
  0
ARC
  5
105
330
1F
100
AcDbEntity
  8
0
  6
Continuous
 62
     7
370
    25
100
AcDbCircle
 10
0.087990731
 20
0.1502776132
 30
0.0
 40
0.00008
100
AcDbArc
 50
90.0
 51
173.7965520983
  0
ARC
  5
106
330
1F
100
AcDbEntity
  8
0
  6
Continuous
 62
     7
370
    25
100
AcDbCircle
 10
0.0768071799
 20
0.1626976132
 30
0.0
 40
0.00008
100
AcDbArc
 50
270.0
 51
353.7965520983
  0
ARC
  5
107
330
1F
100
AcDbEntity
  8
0
  6
Continuous
 62
     7
370
    25
100
AcDbCircle
 10
0.0768071799
 20
0.1502776132
 30
0.0
 40
0.00008
100
AcDbArc
 50
6.2034479017
 51
90.0
  0
ARC
  5
108
330
1F
100
AcDbEntity
  8
0
  6
Continuous
 62
     7
370
    25
100
AcDbCircle
 10
0.0839071799
 20
0.1626976132
 30
0.0
 40
0.00008
100
AcDbArc
 50
270.0
 51
353.7965520983
  0
ARC
  5
109
330
1F
100
AcDbEntity
  8
0
  6
Continuous
 62
     7
370
    25
100
AcDbCircle
 10
0.0839071799
 20
0.1502776132
 30
0.0
 40
0.00008
100
AcDbArc
 50
6.2034479017
 51
90.0
  0
ARC
  5
10A
330
1F
100
AcDbEntity
  8
0
  6
Continuous
 62
     7
370
    25
100
AcDbCircle
 10
0.079470731
 20
0.1626976132
 30
0.0
 40
0.00008
100
AcDbArc
 50
186.2034479017
 51
270.0
  0
ARC
  5
10B
330
1F
100
AcDbEntity
  8
0
  6
Continuous
 62
     7
370
    25
100
AcDbCircle
 10
0.079470731
 20
0.1502776132
 30
0.0
 40
0.00008
100
AcDbArc
 50
90.0
 51
173.7965520983
  0
ARC
  5
10C
330
1F
100
AcDbEntity
  8
0
  6
Continuous
 62
     7
370
    25
100
AcDbCircle
 10
0.0796471799
 20
0.1626976132
 30
0.0
 40
0.00008
100
AcDbArc
 50
270.0
 51
353.7965520983
  0
ARC
  5
10D
330
1F
100
AcDbEntity
  8
0
  6
Continuous
 62
     7
370
    25
100
AcDbCircle
 10
0.0796471799
 20
0.1502776132
 30
0.0
 40
0.00008
100
AcDbArc
 50
6.2034479017
 51
90.0
  0
ARC
  5
10E
330
1F
100
AcDbEntity
  8
0
  6
Continuous
 62
     7
370
    25
100
AcDbCircle
 10
0.0824871799
 20
0.1626976132
 30
0.0
 40
0.00008
100
AcDbArc
 50
270.0
 51
353.7965520983
  0
ARC
  5
10F
330
1F
100
AcDbEntity
  8
0
  6
Continuous
 62
     7
370
    25
100
AcDbCircle
 10
0.0824871799
 20
0.1502776132
 30
0.0
 40
0.00008
100
AcDbArc
 50
6.2034479017
 51
90.0
  0
ARC
  5
110
330
1F
100
AcDbEntity
  8
0
  6
Continuous
 62
     7
370
    25
100
AcDbCircle
 10
0.0753871799
 20
0.1626976132
 30
0.0
 40
0.00008
100
AcDbArc
 50
270.0
 51
353.7965520983
  0
ARC
  5
111
330
1F
100
AcDbEntity
  8
0
  6
Continuous
 62
     7
370
    25
100
AcDbCircle
 10
0.0753871799
 20
0.1502776132
 30
0.0
 40
0.00008
100
AcDbArc
 50
6.2034479017
 51
90.0
  0
ARC
  5
112
330
1F
100
AcDbEntity
  8
0
  6
Continuous
 62
     7
370
    25
100
AcDbCircle
 10
0.089410731
 20
0.1626976132
 30
0.0
 40
0.00008
100
AcDbArc
 50
186.2034479017
 51
270.0
  0
ARC
  5
113
330
1F
100
AcDbEntity
  8
0
  6
Continuous
 62
     7
370
    25
100
AcDbCircle
 10
0.089410731
 20
0.1502776132
 30
0.0
 40
0.00008
100
AcDbArc
 50
90.0
 51
173.7965520983
  0
ARC
  5
114
330
1F
100
AcDbEntity
  8
0
  6
Continuous
 62
     7
370
    25
100
AcDbCircle
 10
0.086570731
 20
0.1626976132
 30
0.0
 40
0.00008
100
AcDbArc
 50
186.2034479017
 51
270.0
  0
ARC
  5
115
330
1F
100
AcDbEntity
  8
0
  6
Continuous
 62
     7
370
    25
100
AcDbCircle
 10
0.086570731
 20
0.1502776132
 30
0.0
 40
0.00008
100
AcDbArc
 50
90.0
 51
173.7965520983
  0
ARC
  5
116
330
1F
100
AcDbEntity
  8
0
  6
Continuous
 62
     7
370
    25
100
AcDbCircle
 10
0.078050731
 20
0.1626976132
 30
0.0
 40
0.00008
100
AcDbArc
 50
186.2034479017
 51
270.0
  0
ARC
  5
117
330
1F
100
AcDbEntity
  8
0
  6
Continuous
 62
     7
370
    25
100
AcDbCircle
 10
0.078050731
 20
0.1502776132
 30
0.0
 40
0.00008
100
AcDbArc
 50
90.0
 51
173.7965520983
  0
ARC
  5
118
330
1F
100
AcDbEntity
  8
0
  6
Continuous
 62
     7
370
    25
100
AcDbCircle
 10
0.0782271799
 20
0.1626976132
 30
0.0
 40
0.00008
100
AcDbArc
 50
270.0
 51
353.7965520983
  0
ARC
  5
119
330
1F
100
AcDbEntity
  8
0
  6
Continuous
 62
     7
370
    25
100
AcDbCircle
 10
0.0782271799
 20
0.1502776132
 30
0.0
 40
0.00008
100
AcDbArc
 50
6.2034479017
 51
90.0
  0
ARC
  5
11A
330
1F
100
AcDbEntity
  8
0
  6
Continuous
 62
     7
370
    25
100
AcDbCircle
 10
0.0910071799
 20
0.1626976132
 30
0.0
 40
0.00008
100
AcDbArc
 50
270.0
 51
353.7965520983
  0
ARC
  5
11B
330
1F
100
AcDbEntity
  8
0
  6
Continuous
 62
     7
370
    25
100
AcDbCircle
 10
0.0910071799
 20
0.1502776132
 30
0.0
 40
0.00008
100
AcDbArc
 50
6.2034479017
 51
90.0
  0
ARC
  5
11C
330
1F
100
AcDbEntity
  8
0
  6
Continuous
 62
     7
370
    25
100
AcDbCircle
 10
0.0739671799
 20
0.1626976132
 30
0.0
 40
0.00008
100
AcDbArc
 50
270.0
 51
353.7965520983
  0
ARC
  5
11D
330
1F
100
AcDbEntity
  8
0
  6
Continuous
 62
     7
370
    25
100
AcDbCircle
 10
0.0739671799
 20
0.1502776132
 30
0.0
 40
0.00008
100
AcDbArc
 50
6.2034479017
 51
90.0
  0
ARC
  5
11E
330
1F
100
AcDbEntity
  8
0
  6
Continuous
 62
     7
370
    25
100
AcDbCircle
 10
0.0810671799
 20
0.1626976132
 30
0.0
 40
0.00008
100
AcDbArc
 50
270.0
 51
353.7965520983
  0
ARC
  5
11F
330
1F
100
AcDbEntity
  8
0
  6
Continuous
 62
     7
370
    25
100
AcDbCircle
 10
0.0810671799
 20
0.1502776132
 30
0.0
 40
0.00008
100
AcDbArc
 50
6.2034479017
 51
90.0
  0
ARC
  5
120
330
1F
100
AcDbEntity
  8
0
  6
Continuous
 62
     7
370
    25
100
AcDbCircle
 10
0.080890731
 20
0.1626976132
 30
0.0
 40
0.00008
100
AcDbArc
 50
186.2034479017
 51
270.0
  0
ARC
  5
121
330
1F
100
AcDbEntity
  8
0
  6
Continuous
 62
     7
370
    25
100
AcDbCircle
 10
0.080890731
 20
0.1502776132
 30
0.0
 40
0.00008
100
AcDbArc
 50
90.0
 51
173.7965520983
  0
ARC
  5
122
330
1F
100
AcDbEntity
  8
0
  6
Continuous
 62
     7
370
    25
100
AcDbCircle
 10
0.073790731
 20
0.1626976132
 30
0.0
 40
0.00008
100
AcDbArc
 50
186.2034479017
 51
270.0
  0
ARC
  5
123
330
1F
100
AcDbEntity
  8
0
  6
Continuous
 62
     7
370
    25
100
AcDbCircle
 10
0.073790731
 20
0.1502776132
 30
0.0
 40
0.00008
100
AcDbArc
 50
90.0
 51
173.7965520983
  0
ARC
  5
124
330
1F
100
AcDbEntity
  8
0
  6
Continuous
 62
     7
370
    25
100
AcDbCircle
 10
0.083730731
 20
0.1626976132
 30
0.0
 40
0.00008
100
AcDbArc
 50
186.2034479017
 51
270.0
  0
ARC
  5
125
330
1F
100
AcDbEntity
  8
0
  6
Continuous
 62
     7
370
    25
100
AcDbCircle
 10
0.083730731
 20
0.1502776132
 30
0.0
 40
0.00008
100
AcDbArc
 50
90.0
 51
173.7965520983
  0
ARC
  5
126
330
1F
100
AcDbEntity
  8
0
  6
Continuous
 62
     7
370
    25
100
AcDbCircle
 10
0.076630731
 20
0.1626976132
 30
0.0
 40
0.00008
100
AcDbArc
 50
186.2034479017
 51
270.0
  0
ARC
  5
127
330
1F
100
AcDbEntity
  8
0
  6
Continuous
 62
     7
370
    25
100
AcDbCircle
 10
0.076630731
 20
0.1502776132
 30
0.0
 40
0.00008
100
AcDbArc
 50
90.0
 51
173.7965520983
  0
ARC
  5
128
330
1F
100
AcDbEntity
  8
0
  6
Continuous
 62
     7
370
    25
100
AcDbCircle
 10
0.082310731
 20
0.1626976132
 30
0.0
 40
0.00008
100
AcDbArc
 50
186.2034479017
 51
270.0
  0
ARC
  5
129
330
1F
100
AcDbEntity
  8
0
  6
Continuous
 62
     7
370
    25
100
AcDbCircle
 10
0.082310731
 20
0.1502776132
 30
0.0
 40
0.00008
100
AcDbArc
 50
90.0
 51
173.7965520983
  0
ARC
  5
12A
330
1F
100
AcDbEntity
  8
0
  6
Continuous
 62
     7
370
    25
100
AcDbCircle
 10
0.075210731
 20
0.1626976132
 30
0.0
 40
0.00008
100
AcDbArc
 50
186.2034479017
 51
270.0
  0
ARC
  5
12B
330
1F
100
AcDbEntity
  8
0
  6
Continuous
 62
     7
370
    25
100
AcDbCircle
 10
0.075210731
 20
0.1502776132
 30
0.0
 40
0.00008
100
AcDbArc
 50
90.0
 51
173.7965520983
  0
ARC
  5
12C
330
1F
100
AcDbEntity
  8
0
  6
Continuous
 62
     7
370
    25
100
AcDbCircle
 10
0.0881671799
 20
0.1626976132
 30
0.0
 40
0.00008
100
AcDbArc
 50
270.0
 51
353.7965520983
  0
ARC
  5
12D
330
1F
100
AcDbEntity
  8
0
  6
Continuous
 62
     7
370
    25
100
AcDbCircle
 10
0.0881671799
 20
0.1502776132
 30
0.0
 40
0.00008
100
AcDbArc
 50
6.2034479017
 51
90.0
  0
ARC
  5
12E
330
1F
100
AcDbEntity
  8
0
  6
Continuous
 62
     7
370
    25
100
AcDbCircle
 10
0.090830731
 20
0.1626976132
 30
0.0
 40
0.00008
100
AcDbArc
 50
186.2034479017
 51
270.0
  0
ARC
  5
12F
330
1F
100
AcDbEntity
  8
0
  6
Continuous
 62
     7
370
    25
100
AcDbCircle
 10
0.090830731
 20
0.1502776132
 30
0.0
 40
0.00008
100
AcDbArc
 50
90.0
 51
173.7965520983
  0
ARC
  5
130
330
1F
100
AcDbEntity
  8
0
  6
Continuous
 62
     7
370
    25
100
AcDbCircle
 10
0.0895871799
 20
0.1626976132
 30
0.0
 40
0.00008
100
AcDbArc
 50
270.0
 51
353.7965520983
  0
ARC
  5
131
330
1F
100
AcDbEntity
  8
0
  6
Continuous
 62
     7
370
    25
100
AcDbCircle
 10
0.0895871799
 20
0.1502776132
 30
0.0
 40
0.00008
100
AcDbArc
 50
6.2034479017
 51
90.0
  0
ARC
  5
132
330
1F
100
AcDbEntity
  8
0
  6
Continuous
 62
     7
370
    25
100
AcDbCircle
 10
0.0867471799
 20
0.1626976132
 30
0.0
 40
0.00008
100
AcDbArc
 50
270.0
 51
353.7965520983
  0
ARC
  5
133
330
1F
100
AcDbEntity
  8
0
  6
Continuous
 62
     7
370
    25
100
AcDbCircle
 10
0.0867471799
 20
0.1502776132
 30
0.0
 40
0.00008
100
AcDbArc
 50
6.2034479017
 51
90.0
  0
ARC
  5
134
330
1F
100
AcDbEntity
  8
0
  6
Continuous
 62
     7
370
    25
100
AcDbCircle
 10
0.085150731
 20
0.1626976132
 30
0.0
 40
0.00008
100
AcDbArc
 50
186.2034479017
 51
270.0
  0
ARC
  5
135
330
1F
100
AcDbEntity
  8
0
  6
Continuous
 62
     7
370
    25
100
AcDbCircle
 10
0.085150731
 20
0.1502776132
 30
0.0
 40
0.00008
100
AcDbArc
 50
90.0
 51
173.7965520983
  0
LINE
  5
136
330
1F
100
AcDbEntity
  8
0
  6
Continuous
 62
     7
370
    25
100
AcDbLine
 10
0.0796471799
 20
0.1626176132
 30
0.0
 11
0.079470731
 21
0.1626176132
 31
0.0
  0
LINE
  5
137
330
1F
100
AcDbEntity
  8
0
  6
Continuous
 62
     7
370
    25
100
AcDbLine
 10
0.079470731
 20
0.1503576132
 30
0.0
 11
0.0796471799
 21
0.1503576132
 31
0.0
  0
LINE
  5
138
330
1F
100
AcDbEntity
  8
0
  6
Continuous
 62
     7
370
    25
100
AcDbLine
 10
0.0895871799
 20
0.1626176132
 30
0.0
 11
0.089410731
 21
0.1626176132
 31
0.0
  0
LINE
  5
139
330
1F
100
AcDbEntity
  8
0
  6
Continuous
 62
     7
370
    25
100
AcDbLine
 10
0.089410731
 20
0.1503576132
 30
0.0
 11
0.0895871799
 21
0.1503576132
 31
0.0
  0
LINE
  5
13A
330
1F
100
AcDbEntity
  8
0
  6
Continuous
 62
     7
370
    25
100
AcDbLine
 10
0.0923389554
 20
0.1626176132
 30
0.0
 11
0.092250731
 21
0.1626176132
 31
0.0
  0
LINE
  5
13B
330
1F
100
AcDbEntity
  8
0
  6
Continuous
 62
     7
370
    25
100
AcDbLine
 10
0.092250731
 20
0.1503576132
 30
0.0
 11
0.0923389554
 21
0.1503576132
 31
0.0
  0
LINE
  5
13C
330
1F
100
AcDbEntity
  8
0
  6
Continuous
 62
     7
370
    25
100
AcDbLine
 10
0.0753871799
 20
0.1626176132
 30
0.0
 11
0.075210731
 21
0.1626176132
 31
0.0
  0
LINE
  5
13D
330
1F
100
AcDbEntity
  8
0
  6
Continuous
 62
     7
370
    25
100
AcDbLine
 10
0.075210731
 20
0.1503576132
 30
0.0
 11
0.0753871799
 21
0.1503576132
 31
0.0
  0
LINE
  5
13E
330
1F
100
AcDbEntity
  8
0
  6
Continuous
 62
     7
370
    25
100
AcDbLine
 10
0.0810671799
 20
0.1626176132
 30
0.0
 11
0.080890731
 21
0.1626176132
 31
0.0
  0
LINE
  5
13F
330
1F
100
AcDbEntity
  8
0
  6
Continuous
 62
     7
370
    25
100
AcDbLine
 10
0.080890731
 20
0.1503576132
 30
0.0
 11
0.0810671799
 21
0.1503576132
 31
0.0
  0
LINE
  5
140
330
1F
100
AcDbEntity
  8
0
  6
Continuous
 62
     7
370
    25
100
AcDbLine
 10
0.0739671799
 20
0.1626176132
 30
0.0
 11
0.073790731
 21
0.1626176132
 31
0.0
  0
LINE
  5
141
330
1F
100
AcDbEntity
  8
0
  6
Continuous
 62
     7
370
    25
100
AcDbLine
 10
0.073790731
 20
0.1503576132
 30
0.0
 11
0.0739671799
 21
0.1503576132
 31
0.0
  0
LINE
  5
142
330
1F
100
AcDbEntity
  8
0
  6
Continuous
 62
     7
370
    25
100
AcDbLine
 10
0.0910071799
 20
0.1626176132
 30
0.0
 11
0.090830731
 21
0.1626176132
 31
0.0
  0
LINE
  5
143
330
1F
100
AcDbEntity
  8
0
  6
Continuous
 62
     7
370
    25
100
AcDbLine
 10
0.090830731
 20
0.1503576132
 30
0.0
 11
0.0910071799
 21
0.1503576132
 31
0.0
  0
LINE
  5
144
330
1F
100
AcDbEntity
  8
0
  6
Continuous
 62
     7
370
    25
100
AcDbLine
 10
0.0867471799
 20
0.1626176132
 30
0.0
 11
0.086570731
 21
0.1626176132
 31
0.0
  0
LINE
  5
145
330
1F
100
AcDbEntity
  8
0
  6
Continuous
 62
     7
370
    25
100
AcDbLine
 10
0.086570731
 20
0.1503576132
 30
0.0
 11
0.0867471799
 21
0.1503576132
 31
0.0
  0
LINE
  5
146
330
1F
100
AcDbEntity
  8
0
  6
Continuous
 62
     7
370
    25
100
AcDbLine
 10
0.0782271799
 20
0.1626176132
 30
0.0
 11
0.078050731
 21
0.1626176132
 31
0.0
  0
LINE
  5
147
330
1F
100
AcDbEntity
  8
0
  6
Continuous
 62
     7
370
    25
100
AcDbLine
 10
0.078050731
 20
0.1503576132
 30
0.0
 11
0.0782271799
 21
0.1503576132
 31
0.0
  0
LINE
  5
148
330
1F
100
AcDbEntity
  8
0
  6
Continuous
 62
     7
370
    25
100
AcDbLine
 10
0.0839071799
 20
0.1626176132
 30
0.0
 11
0.083730731
 21
0.1626176132
 31
0.0
  0
LINE
  5
149
330
1F
100
AcDbEntity
  8
0
  6
Continuous
 62
     7
370
    25
100
AcDbLine
 10
0.083730731
 20
0.1503576132
 30
0.0
 11
0.0839071799
 21
0.1503576132
 31
0.0
  0
LINE
  5
14A
330
1F
100
AcDbEntity
  8
0
  6
Continuous
 62
     7
370
    25
100
AcDbLine
 10
0.0824871799
 20
0.1626176132
 30
0.0
 11
0.082310731
 21
0.1626176132
 31
0.0
  0
LINE
  5
14B
330
1F
100
AcDbEntity
  8
0
  6
Continuous
 62
     7
370
    25
100
AcDbLine
 10
0.082310731
 20
0.1503576132
 30
0.0
 11
0.0824871799
 21
0.1503576132
 31
0.0
  0
LINE
  5
14C
330
1F
100
AcDbEntity
  8
0
  6
Continuous
 62
     7
370
    25
100
AcDbLine
 10
0.0881671799
 20
0.1626176132
 30
0.0
 11
0.087990731
 21
0.1626176132
 31
0.0
  0
LINE
  5
14D
330
1F
100
AcDbEntity
  8
0
  6
Continuous
 62
     7
370
    25
100
AcDbLine
 10
0.087990731
 20
0.1503576132
 30
0.0
 11
0.0881671799
 21
0.1503576132
 31
0.0
  0
LINE
  5
14E
330
1F
100
AcDbEntity
  8
0
  6
Continuous
 62
     7
370
    25
100
AcDbLine
 10
0.0768071799
 20
0.1626176132
 30
0.0
 11
0.076630731
 21
0.1626176132
 31
0.0
  0
LINE
  5
14F
330
1F
100
AcDbEntity
  8
0
  6
Continuous
 62
     7
370
    25
100
AcDbLine
 10
0.076630731
 20
0.1503576132
 30
0.0
 11
0.0768071799
 21
0.1503576132
 31
0.0
  0
LINE
  5
150
330
1F
100
AcDbEntity
  8
0
  6
Continuous
 62
     7
370
    25
100
AcDbLine
 10
0.0853271799
 20
0.1626176132
 30
0.0
 11
0.085150731
 21
0.1626176132
 31
0.0
  0
LINE
  5
151
330
1F
100
AcDbEntity
  8
0
  6
Continuous
 62
     7
370
    25
100
AcDbLine
 10
0.085150731
 20
0.1503576132
 30
0.0
 11
0.0853271799
 21
0.1503576132
 31
0.0
  0
ARC
  5
152
330
1F
100
AcDbEntity
  8
0
  6
Continuous
 62
     7
370
    25
100
AcDbCircle
 10
0.1372169554
 20
0.1502984459
 30
0.0
 40
0.0006408333333333
100
AcDbArc
 50
221.0288400338
 51
318.9711599662
  0
ARC
  5
153
330
1F
100
AcDbEntity
  8
0
  6
Continuous
 62
     7
370
    25
100
AcDbCircle
 10
0.1372169554
 20
0.1626767793
 30
0.0
 40
0.0006408333333333
100
AcDbArc
 50
41.0288400338
 51
138.9711599662
  0
ARC
  5
154
330
1F
100
AcDbEntity
  8
0
  6
Continuous
 62
     7
370
    25
100
AcDbCircle
 10
0.1301169554
 20
0.1502984459
 30
0.0
 40
0.0006408333333333
100
AcDbArc
 50
221.0288400338
 51
318.9711599662
  0
ARC
  5
155
330
1F
100
AcDbEntity
  8
0
  6
Continuous
 62
     7
370
    25
100
AcDbCircle
 10
0.1301169554
 20
0.1626767793
 30
0.0
 40
0.0006408333333333
100
AcDbArc
 50
41.0288400338
 51
138.9711599662
  0
ARC
  5
156
330
1F
100
AcDbEntity
  8
0
  6
Continuous
 62
     7
370
    25
100
AcDbCircle
 10
0.1343769554
 20
0.1502984459
 30
0.0
 40
0.0006408333333333
100
AcDbArc
 50
221.0288400338
 51
318.9711599662
  0
ARC
  5
157
330
1F
100
AcDbEntity
  8
0
  6
Continuous
 62
     7
370
    25
100
AcDbCircle
 10
0.1343769554
 20
0.1626767793
 30
0.0
 40
0.0006408333333333
100
AcDbArc
 50
41.0288400338
 51
138.9711599662
  0
ARC
  5
158
330
1F
100
AcDbEntity
  8
0
  6
Continuous
 62
     7
370
    25
100
AcDbCircle
 10
0.1215969554
 20
0.1502984459
 30
0.0
 40
0.0006408333333333
100
AcDbArc
 50
221.0288400338
 51
318.9711599662
  0
ARC
  5
159
330
1F
100
AcDbEntity
  8
0
  6
Continuous
 62
     7
370
    25
100
AcDbCircle
 10
0.1215969554
 20
0.1626767793
 30
0.0
 40
0.0006408333333333
100
AcDbArc
 50
41.0288400338
 51
138.9711599662
  0
ARC
  5
15A
330
1F
100
AcDbEntity
  8
0
  6
Continuous
 62
     7
370
    25
100
AcDbCircle
 10
0.1315369554
 20
0.1502984459
 30
0.0
 40
0.0006408333333333
100
AcDbArc
 50
221.0288400338
 51
318.9711599662
  0
ARC
  5
15B
330
1F
100
AcDbEntity
  8
0
  6
Continuous
 62
     7
370
    25
100
AcDbCircle
 10
0.1315369554
 20
0.1626767793
 30
0.0
 40
0.0006408333333333
100
AcDbArc
 50
41.0288400338
 51
138.9711599662
  0
ARC
  5
15C
330
1F
100
AcDbEntity
  8
0
  6
Continuous
 62
     7
370
    25
100
AcDbCircle
 10
0.1272769554
 20
0.1502984459
 30
0.0
 40
0.0006408333333333
100
AcDbArc
 50
221.0288400338
 51
318.9711599662
  0
ARC
  5
15D
330
1F
100
AcDbEntity
  8
0
  6
Continuous
 62
     7
370
    25
100
AcDbCircle
 10
0.1272769554
 20
0.1626767793
 30
0.0
 40
0.0006408333333333
100
AcDbArc
 50
41.0288400338
 51
138.9711599662
  0
ARC
  5
15E
330
1F
100
AcDbEntity
  8
0
  6
Continuous
 62
     7
370
    25
100
AcDbCircle
 10
0.1329569554
 20
0.1502984459
 30
0.0
 40
0.0006408333333333
100
AcDbArc
 50
221.0288400338
 51
318.9711599662
  0
ARC
  5
15F
330
1F
100
AcDbEntity
  8
0
  6
Continuous
 62
     7
370
    25
100
AcDbCircle
 10
0.1329569554
 20
0.1626767793
 30
0.0
 40
0.0006408333333333
100
AcDbArc
 50
41.0288400338
 51
138.9711599662
  0
ARC
  5
160
330
1F
100
AcDbEntity
  8
0
  6
Continuous
 62
     7
370
    25
100
AcDbCircle
 10
0.1230169554
 20
0.1502984459
 30
0.0
 40
0.0006408333333333
100
AcDbArc
 50
221.0288400338
 51
318.9711599662
  0
ARC
  5
161
330
1F
100
AcDbEntity
  8
0
  6
Continuous
 62
     7
370
    25
100
AcDbCircle
 10
0.1230169554
 20
0.1626767793
 30
0.0
 40
0.0006408333333333
100
AcDbArc
 50
41.0288400338
 51
138.9711599662
  0
ARC
  5
162
330
1F
100
AcDbEntity
  8
0
  6
Continuous
 62
     7
370
    25
100
AcDbCircle
 10
0.1258569554
 20
0.1502984459
 30
0.0
 40
0.0006408333333333
100
AcDbArc
 50
221.0288400338
 51
318.9711599662
  0
ARC
  5
163
330
1F
100
AcDbEntity
  8
0
  6
Continuous
 62
     7
370
    25
100
AcDbCircle
 10
0.1258569554
 20
0.1626767793
 30
0.0
 40
0.0006408333333333
100
AcDbArc
 50
41.0288400338
 51
138.9711599662
  0
ARC
  5
164
330
1F
100
AcDbEntity
  8
0
  6
Continuous
 62
     7
370
    25
100
AcDbCircle
 10
0.1244369554
 20
0.1502984459
 30
0.0
 40
0.0006408333333333
100
AcDbArc
 50
221.0288400338
 51
318.9711599662
  0
ARC
  5
165
330
1F
100
AcDbEntity
  8
0
  6
Continuous
 62
     7
370
    25
100
AcDbCircle
 10
0.1244369554
 20
0.1626767793
 30
0.0
 40
0.0006408333333333
100
AcDbArc
 50
41.0288400338
 51
138.9711599662
  0
ARC
  5
166
330
1F
100
AcDbEntity
  8
0
  6
Continuous
 62
     7
370
    25
100
AcDbCircle
 10
0.1286969554
 20
0.1502984459
 30
0.0
 40
0.0006408333333333
100
AcDbArc
 50
221.0288400338
 51
318.9711599662
  0
ARC
  5
167
330
1F
100
AcDbEntity
  8
0
  6
Continuous
 62
     7
370
    25
100
AcDbCircle
 10
0.1286969554
 20
0.1626767793
 30
0.0
 40
0.0006408333333333
100
AcDbArc
 50
41.0288400338
 51
138.9711599662
  0
ARC
  5
168
330
1F
100
AcDbEntity
  8
0
  6
Continuous
 62
     7
370
    25
100
AcDbCircle
 10
0.1357969554
 20
0.1502984459
 30
0.0
 40
0.0006408333333333
100
AcDbArc
 50
221.0288400338
 51
318.9711599662
  0
ARC
  5
169
330
1F
100
AcDbEntity
  8
0
  6
Continuous
 62
     7
370
    25
100
AcDbCircle
 10
0.1357969554
 20
0.1626767793
 30
0.0
 40
0.0006408333333333
100
AcDbArc
 50
41.0288400338
 51
138.9711599662
  0
ARC
  5
16A
330
1F
100
AcDbEntity
  8
0
  6
Continuous
 62
     7
370
    25
100
AcDbCircle
 10
0.1187569554
 20
0.1502984459
 30
0.0
 40
0.0006408333333333
100
AcDbArc
 50
221.0288400338
 51
318.9711599662
  0
ARC
  5
16B
330
1F
100
AcDbEntity
  8
0
  6
Continuous
 62
     7
370
    25
100
AcDbCircle
 10
0.1187569554
 20
0.1626767793
 30
0.0
 40
0.0006408333333333
100
AcDbArc
 50
41.0288400338
 51
138.9711599662
  0
ARC
  5
16C
330
1F
100
AcDbEntity
  8
0
  6
Continuous
 62
     7
370
    25
100
AcDbCircle
 10
0.1201769554
 20
0.1502984459
 30
0.0
 40
0.0006408333333333
100
AcDbArc
 50
221.0288400338
 51
318.9711599662
  0
ARC
  5
16D
330
1F
100
AcDbEntity
  8
0
  6
Continuous
 62
     7
370
    25
100
AcDbCircle
 10
0.1201769554
 20
0.1626767793
 30
0.0
 40
0.0006408333333333
100
AcDbArc
 50
41.0288400338
 51
138.9711599662
  0
ARC
  5
16E
330
1F
100
AcDbEntity
  8
0
  6
Continuous
 62
     7
370
    25
100
AcDbCircle
 10
0.1367938744
 20
0.1499302931
 30
0.0
 40
0.00008
100
AcDbArc
 50
186.2034479017
 51
221.0288400338
  0
ARC
  5
16F
330
1F
100
AcDbEntity
  8
0
  6
Continuous
 62
     7
370
    25
100
AcDbCircle
 10
0.1367938744
 20
0.163044932
 30
0.0
 40
0.00008
100
AcDbArc
 50
138.9711599662
 51
173.7965520983
  0
ARC
  5
170
330
1F
100
AcDbEntity
  8
0
  6
Continuous
 62
     7
370
    25
100
AcDbCircle
 10
0.1325338744
 20
0.1499302931
 30
0.0
 40
0.00008
100
AcDbArc
 50
186.2034479017
 51
221.0288400338
  0
ARC
  5
171
330
1F
100
AcDbEntity
  8
0
  6
Continuous
 62
     7
370
    25
100
AcDbCircle
 10
0.1325338744
 20
0.163044932
 30
0.0
 40
0.00008
100
AcDbArc
 50
138.9711599662
 51
173.7965520983
  0
ARC
  5
172
330
1F
100
AcDbEntity
  8
0
  6
Continuous
 62
     7
370
    25
100
AcDbCircle
 10
0.1311138744
 20
0.1499302931
 30
0.0
 40
0.00008
100
AcDbArc
 50
186.2034479017
 51
221.0288400338
  0
ARC
  5
173
330
1F
100
AcDbEntity
  8
0
  6
Continuous
 62
     7
370
    25
100
AcDbCircle
 10
0.1311138744
 20
0.163044932
 30
0.0
 40
0.00008
100
AcDbArc
 50
138.9711599662
 51
173.7965520983
  0
ARC
  5
174
330
1F
100
AcDbEntity
  8
0
  6
Continuous
 62
     7
370
    25
100
AcDbCircle
 10
0.1339538744
 20
0.1499302931
 30
0.0
 40
0.00008
100
AcDbArc
 50
186.2034479017
 51
221.0288400338
  0
ARC
  5
175
330
1F
100
AcDbEntity
  8
0
  6
Continuous
 62
     7
370
    25
100
AcDbCircle
 10
0.1339538744
 20
0.163044932
 30
0.0
 40
0.00008
100
AcDbArc
 50
138.9711599662
 51
173.7965520983
  0
ARC
  5
176
330
1F
100
AcDbEntity
  8
0
  6
Continuous
 62
     7
370
    25
100
AcDbCircle
 10
0.1296938744
 20
0.1499302931
 30
0.0
 40
0.00008
100
AcDbArc
 50
186.2034479017
 51
221.0288400338
  0
ARC
  5
177
330
1F
100
AcDbEntity
  8
0
  6
Continuous
 62
     7
370
    25
100
AcDbCircle
 10
0.1296938744
 20
0.163044932
 30
0.0
 40
0.00008
100
AcDbArc
 50
138.9711599662
 51
173.7965520983
  0
ARC
  5
178
330
1F
100
AcDbEntity
  8
0
  6
Continuous
 62
     7
370
    25
100
AcDbCircle
 10
0.1353738744
 20
0.1499302931
 30
0.0
 40
0.00008
100
AcDbArc
 50
186.2034479017
 51
221.0288400338
  0
ARC
  5
179
330
1F
100
AcDbEntity
  8
0
  6
Continuous
 62
     7
370
    25
100
AcDbCircle
 10
0.1353738744
 20
0.163044932
 30
0.0
 40
0.00008
100
AcDbArc
 50
138.9711599662
 51
173.7965520983
  0
ARC
  5
17A
330
1F
100
AcDbEntity
  8
0
  6
Continuous
 62
     7
370
    25
100
AcDbCircle
 10
0.1305400364
 20
0.1499302931
 30
0.0
 40
0.00008
100
AcDbArc
 50
318.9711599662
 51
353.7965520983
  0
ARC
  5
17B
330
1F
100
AcDbEntity
  8
0
  6
Continuous
 62
     7
370
    25
100
AcDbCircle
 10
0.1305400364
 20
0.163044932
 30
0.0
 40
0.00008
100
AcDbArc
 50
6.2034479017
 51
41.0288400338
  0
ARC
  5
17C
330
1F
100
AcDbEntity
  8
0
  6
Continuous
 62
     7
370
    25
100
AcDbCircle
 10
0.1254338744
 20
0.1499302931
 30
0.0
 40
0.00008
100
AcDbArc
 50
186.2034479017
 51
221.0288400338
  0
ARC
  5
17D
330
1F
100
AcDbEntity
  8
0
  6
Continuous
 62
     7
370
    25
100
AcDbCircle
 10
0.1254338744
 20
0.163044932
 30
0.0
 40
0.00008
100
AcDbArc
 50
138.9711599662
 51
173.7965520983
  0
ARC
  5
17E
330
1F
100
AcDbEntity
  8
0
  6
Continuous
 62
     7
370
    25
100
AcDbCircle
 10
0.1240138744
 20
0.1499302931
 30
0.0
 40
0.00008
100
AcDbArc
 50
186.2034479017
 51
221.0288400338
  0
ARC
  5
17F
330
1F
100
AcDbEntity
  8
0
  6
Continuous
 62
     7
370
    25
100
AcDbCircle
 10
0.1240138744
 20
0.163044932
 30
0.0
 40
0.00008
100
AcDbArc
 50
138.9711599662
 51
173.7965520983
  0
ARC
  5
180
330
1F
100
AcDbEntity
  8
0
  6
Continuous
 62
     7
370
    25
100
AcDbCircle
 10
0.1191800364
 20
0.1499302931
 30
0.0
 40
0.00008
100
AcDbArc
 50
318.9711599662
 51
353.7965520983
  0
ARC
  5
181
330
1F
100
AcDbEntity
  8
0
  6
Continuous
 62
     7
370
    25
100
AcDbCircle
 10
0.1191800364
 20
0.163044932
 30
0.0
 40
0.00008
100
AcDbArc
 50
6.2034479017
 51
41.0288400338
  0
ARC
  5
182
330
1F
100
AcDbEntity
  8
0
  6
Continuous
 62
     7
370
    25
100
AcDbCircle
 10
0.1291200364
 20
0.1499302931
 30
0.0
 40
0.00008
100
AcDbArc
 50
318.9711599662
 51
353.7965520983
  0
ARC
  5
183
330
1F
100
AcDbEntity
  8
0
  6
Continuous
 62
     7
370
    25
100
AcDbCircle
 10
0.1291200364
 20
0.163044932
 30
0.0
 40
0.00008
100
AcDbArc
 50
6.2034479017
 51
41.0288400338
  0
ARC
  5
184
330
1F
100
AcDbEntity
  8
0
  6
Continuous
 62
     7
370
    25
100
AcDbCircle
 10
0.1376400364
 20
0.1499302931
 30
0.0
 40
0.00008
100
AcDbArc
 50
318.9711599662
 51
353.7965520983
  0
ARC
  5
185
330
1F
100
AcDbEntity
  8
0
  6
Continuous
 62
     7
370
    25
100
AcDbCircle
 10
0.1376400364
 20
0.163044932
 30
0.0
 40
0.00008
100
AcDbArc
 50
6.2034479017
 51
41.0288400338
  0
ARC
  5
186
330
1F
100
AcDbEntity
  8
0
  6
Continuous
 62
     7
370
    25
100
AcDbCircle
 10
0.1211738744
 20
0.1499302931
 30
0.0
 40
0.00008
100
AcDbArc
 50
186.2034479017
 51
221.0288400338
  0
ARC
  5
187
330
1F
100
AcDbEntity
  8
0
  6
Continuous
 62
     7
370
    25
100
AcDbCircle
 10
0.1211738744
 20
0.163044932
 30
0.0
 40
0.00008
100
AcDbArc
 50
138.9711599662
 51
173.7965520983
  0
ARC
  5
188
330
1F
100
AcDbEntity
  8
0
  6
Continuous
 62
     7
370
    25
100
AcDbCircle
 10
0.1248600364
 20
0.1499302931
 30
0.0
 40
0.00008
100
AcDbArc
 50
318.9711599662
 51
353.7965520983
  0
ARC
  5
189
330
1F
100
AcDbEntity
  8
0
  6
Continuous
 62
     7
370
    25
100
AcDbCircle
 10
0.1248600364
 20
0.163044932
 30
0.0
 40
0.00008
100
AcDbArc
 50
6.2034479017
 51
41.0288400338
  0
ARC
  5
18A
330
1F
100
AcDbEntity
  8
0
  6
Continuous
 62
     7
370
    25
100
AcDbCircle
 10
0.1333800364
 20
0.1499302931
 30
0.0
 40
0.00008
100
AcDbArc
 50
318.9711599662
 51
353.7965520983
  0
ARC
  5
18B
330
1F
100
AcDbEntity
  8
0
  6
Continuous
 62
     7
370
    25
100
AcDbCircle
 10
0.1333800364
 20
0.163044932
 30
0.0
 40
0.00008
100
AcDbArc
 50
6.2034479017
 51
41.0288400338
  0
ARC
  5
18C
330
1F
100
AcDbEntity
  8
0
  6
Continuous
 62
     7
370
    25
100
AcDbCircle
 10
0.1220200364
 20
0.1499302931
 30
0.0
 40
0.00008
100
AcDbArc
 50
318.9711599662
 51
353.7965520983
  0
ARC
  5
18D
330
1F
100
AcDbEntity
  8
0
  6
Continuous
 62
     7
370
    25
100
AcDbCircle
 10
0.1220200364
 20
0.163044932
 30
0.0
 40
0.00008
100
AcDbArc
 50
6.2034479017
 51
41.0288400338
  0
ARC
  5
18E
330
1F
100
AcDbEntity
  8
0
  6
Continuous
 62
     7
370
    25
100
AcDbCircle
 10
0.1277000364
 20
0.1499302931
 30
0.0
 40
0.00008
100
AcDbArc
 50
318.9711599662
 51
353.7965520983
  0
ARC
  5
18F
330
1F
100
AcDbEntity
  8
0
  6
Continuous
 62
     7
370
    25
100
AcDbCircle
 10
0.1277000364
 20
0.163044932
 30
0.0
 40
0.00008
100
AcDbArc
 50
6.2034479017
 51
41.0288400338
  0
ARC
  5
190
330
1F
100
AcDbEntity
  8
0
  6
Continuous
 62
     7
370
    25
100
AcDbCircle
 10
0.1362200364
 20
0.1499302931
 30
0.0
 40
0.00008
100
AcDbArc
 50
318.9711599662
 51
353.7965520983
  0
ARC
  5
191
330
1F
100
AcDbEntity
  8
0
  6
Continuous
 62
     7
370
    25
100
AcDbCircle
 10
0.1362200364
 20
0.163044932
 30
0.0
 40
0.00008
100
AcDbArc
 50
6.2034479017
 51
41.0288400338
  0
ARC
  5
192
330
1F
100
AcDbEntity
  8
0
  6
Continuous
 62
     7
370
    25
100
AcDbCircle
 10
0.1206000364
 20
0.1499302931
 30
0.0
 40
0.00008
100
AcDbArc
 50
318.9711599662
 51
353.7965520983
  0
ARC
  5
193
330
1F
100
AcDbEntity
  8
0
  6
Continuous
 62
     7
370
    25
100
AcDbCircle
 10
0.1206000364
 20
0.163044932
 30
0.0
 40
0.00008
100
AcDbArc
 50
6.2034479017
 51
41.0288400338
  0
ARC
  5
194
330
1F
100
AcDbEntity
  8
0
  6
Continuous
 62
     7
370
    25
100
AcDbCircle
 10
0.1183338744
 20
0.1499302931
 30
0.0
 40
0.00008
100
AcDbArc
 50
186.2034479017
 51
221.0288400338
  0
ARC
  5
195
330
1F
100
AcDbEntity
  8
0
  6
Continuous
 62
     7
370
    25
100
AcDbCircle
 10
0.1183338744
 20
0.163044932
 30
0.0
 40
0.00008
100
AcDbArc
 50
138.9711599662
 51
173.7965520983
  0
ARC
  5
196
330
1F
100
AcDbEntity
  8
0
  6
Continuous
 62
     7
370
    25
100
AcDbCircle
 10
0.1319600364
 20
0.1499302931
 30
0.0
 40
0.00008
100
AcDbArc
 50
318.9711599662
 51
353.7965520983
  0
ARC
  5
197
330
1F
100
AcDbEntity
  8
0
  6
Continuous
 62
     7
370
    25
100
AcDbCircle
 10
0.1319600364
 20
0.163044932
 30
0.0
 40
0.00008
100
AcDbArc
 50
6.2034479017
 51
41.0288400338
  0
ARC
  5
198
330
1F
100
AcDbEntity
  8
0
  6
Continuous
 62
     7
370
    25
100
AcDbCircle
 10
0.1268538744
 20
0.1499302931
 30
0.0
 40
0.00008
100
AcDbArc
 50
186.2034479017
 51
221.0288400338
  0
ARC
  5
199
330
1F
100
AcDbEntity
  8
0
  6
Continuous
 62
     7
370
    25
100
AcDbCircle
 10
0.1268538744
 20
0.163044932
 30
0.0
 40
0.00008
100
AcDbArc
 50
138.9711599662
 51
173.7965520983
  0
ARC
  5
19A
330
1F
100
AcDbEntity
  8
0
  6
Continuous
 62
     7
370
    25
100
AcDbCircle
 10
0.1234400364
 20
0.1499302931
 30
0.0
 40
0.00008
100
AcDbArc
 50
318.9711599662
 51
353.7965520983
  0
ARC
  5
19B
330
1F
100
AcDbEntity
  8
0
  6
Continuous
 62
     7
370
    25
100
AcDbCircle
 10
0.1234400364
 20
0.163044932
 30
0.0
 40
0.00008
100
AcDbArc
 50
6.2034479017
 51
41.0288400338
  0
ARC
  5
19C
330
1F
100
AcDbEntity
  8
0
  6
Continuous
 62
     7
370
    25
100
AcDbCircle
 10
0.1262800364
 20
0.1499302931
 30
0.0
 40
0.00008
100
AcDbArc
 50
318.9711599662
 51
353.7965520983
  0
ARC
  5
19D
330
1F
100
AcDbEntity
  8
0
  6
Continuous
 62
     7
370
    25
100
AcDbCircle
 10
0.1262800364
 20
0.163044932
 30
0.0
 40
0.00008
100
AcDbArc
 50
6.2034479017
 51
41.0288400338
  0
ARC
  5
19E
330
1F
100
AcDbEntity
  8
0
  6
Continuous
 62
     7
370
    25
100
AcDbCircle
 10
0.1282738744
 20
0.1499302931
 30
0.0
 40
0.00008
100
AcDbArc
 50
186.2034479017
 51
221.0288400338
  0
ARC
  5
19F
330
1F
100
AcDbEntity
  8
0
  6
Continuous
 62
     7
370
    25
100
AcDbCircle
 10
0.1282738744
 20
0.163044932
 30
0.0
 40
0.00008
100
AcDbArc
 50
138.9711599662
 51
173.7965520983
  0
ARC
  5
1A0
330
1F
100
AcDbEntity
  8
0
  6
Continuous
 62
     7
370
    25
100
AcDbCircle
 10
0.1348000364
 20
0.1499302931
 30
0.0
 40
0.00008
100
AcDbArc
 50
318.9711599662
 51
353.7965520983
  0
ARC
  5
1A1
330
1F
100
AcDbEntity
  8
0
  6
Continuous
 62
     7
370
    25
100
AcDbCircle
 10
0.1348000364
 20
0.163044932
 30
0.0
 40
0.00008
100
AcDbArc
 50
6.2034479017
 51
41.0288400338
  0
ARC
  5
1A2
330
1F
100
AcDbEntity
  8
0
  6
Continuous
 62
     7
370
    25
100
AcDbCircle
 10
0.1197538744
 20
0.1499302931
 30
0.0
 40
0.00008
100
AcDbArc
 50
186.2034479017
 51
221.0288400338
  0
ARC
  5
1A3
330
1F
100
AcDbEntity
  8
0
  6
Continuous
 62
     7
370
    25
100
AcDbCircle
 10
0.1197538744
 20
0.163044932
 30
0.0
 40
0.00008
100
AcDbArc
 50
138.9711599662
 51
173.7965520983
  0
ARC
  5
1A4
330
1F
100
AcDbEntity
  8
0
  6
Continuous
 62
     7
370
    25
100
AcDbCircle
 10
0.1225938744
 20
0.1499302931
 30
0.0
 40
0.00008
100
AcDbArc
 50
186.2034479017
 51
221.0288400338
  0
ARC
  5
1A5
330
1F
100
AcDbEntity
  8
0
  6
Continuous
 62
     7
370
    25
100
AcDbCircle
 10
0.1225938744
 20
0.163044932
 30
0.0
 40
0.00008
100
AcDbArc
 50
138.9711599662
 51
173.7965520983
  0
LINE
  5
1A6
330
1F
100
AcDbEntity
  8
0
  6
Continuous
 62
     7
370
    25
100
AcDbLine
 10
0.119259568
 20
0.1499216484
 30
0.0
 11
0.1192991994
 21
0.1502862573
 31
0.0
  0
LINE
  5
1A7
330
1F
100
AcDbEntity
  8
0
  6
Continuous
 62
     7
370
    25
100
AcDbLine
 10
0.1192991994
 20
0.1626889679
 30
0.0
 11
0.119259568
 21
0.1630535768
 31
0.0
  0
LINE
  5
1A8
330
1F
100
AcDbEntity
  8
0
  6
Continuous
 62
     7
370
    25
100
AcDbLine
 10
0.1324543428
 20
0.1630535768
 30
0.0
 11
0.1324147114
 21
0.1626889679
 31
0.0
  0
LINE
  5
1A9
330
1F
100
AcDbEntity
  8
0
  6
Continuous
 62
     7
370
    25
100
AcDbLine
 10
0.1324147114
 20
0.1502862573
 30
0.0
 11
0.1324543428
 21
0.1499216484
 31
0.0
  0
LINE
  5
1AA
330
1F
100
AcDbEntity
  8
0
  6
Continuous
 62
     7
370
    25
100
AcDbLine
 10
0.1239343428
 20
0.1630535768
 30
0.0
 11
0.1238947114
 21
0.1626889679
 31
0.0
  0
LINE
  5
1AB
330
1F
100
AcDbEntity
  8
0
  6
Continuous
 62
     7
370
    25
100
AcDbLine
 10
0.1238947114
 20
0.1502862573
 30
0.0
 11
0.1239343428
 21
0.1499216484
 31
0.0
  0
LINE
  5
1AC
330
1F
100
AcDbEntity
  8
0
  6
Continuous
 62
     7
370
    25
100
AcDbLine
 10
0.130619568
 20
0.1499216484
 30
0.0
 11
0.1306591994
 21
0.1502862573
 31
0.0
  0
LINE
  5
1AD
330
1F
100
AcDbEntity
  8
0
  6
Continuous
 62
     7
370
    25
100
AcDbLine
 10
0.1306591994
 20
0.1626889679
 30
0.0
 11
0.130619568
 21
0.1630535768
 31
0.0
  0
LINE
  5
1AE
330
1F
100
AcDbEntity
  8
0
  6
Continuous
 62
     7
370
    25
100
AcDbLine
 10
0.133459568
 20
0.1499216484
 30
0.0
 11
0.1334991994
 21
0.1502862573
 31
0.0
  0
LINE
  5
1AF
330
1F
100
AcDbEntity
  8
0
  6
Continuous
 62
     7
370
    25
100
AcDbLine
 10
0.1334991994
 20
0.1626889679
 30
0.0
 11
0.133459568
 21
0.1630535768
 31
0.0
  0
LINE
  5
1B0
330
1F
100
AcDbEntity
  8
0
  6
Continuous
 62
     7
370
    25
100
AcDbLine
 10
0.1210943428
 20
0.1630535768
 30
0.0
 11
0.1210547114
 21
0.1626889679
 31
0.0
  0
LINE
  5
1B1
330
1F
100
AcDbEntity
  8
0
  6
Continuous
 62
     7
370
    25
100
AcDbLine
 10
0.1210547114
 20
0.1502862573
 30
0.0
 11
0.1210943428
 21
0.1499216484
 31
0.0
  0
LINE
  5
1B2
330
1F
100
AcDbEntity
  8
0
  6
Continuous
 62
     7
370
    25
100
AcDbLine
 10
0.1352943428
 20
0.1630535768
 30
0.0
 11
0.1352547114
 21
0.1626889679
 31
0.0
  0
LINE
  5
1B3
330
1F
100
AcDbEntity
  8
0
  6
Continuous
 62
     7
370
    25
100
AcDbLine
 10
0.1352547114
 20
0.1502862573
 30
0.0
 11
0.1352943428
 21
0.1499216484
 31
0.0
  0
LINE
  5
1B4
330
1F
100
AcDbEntity
  8
0
  6
Continuous
 62
     7
370
    25
100
AcDbLine
 10
0.1182543428
 20
0.1630535768
 30
0.0
 11
0.1182147114
 21
0.1626889679
 31
0.0
  0
LINE
  5
1B5
330
1F
100
AcDbEntity
  8
0
  6
Continuous
 62
     7
370
    25
100
AcDbLine
 10
0.1182147114
 20
0.1502862573
 30
0.0
 11
0.1182543428
 21
0.1499216484
 31
0.0
  0
LINE
  5
1B6
330
1F
100
AcDbEntity
  8
0
  6
Continuous
 62
     7
370
    25
100
AcDbLine
 10
0.120679568
 20
0.1499216484
 30
0.0
 11
0.1207191994
 21
0.1502862573
 31
0.0
  0
LINE
  5
1B7
330
1F
100
AcDbEntity
  8
0
  6
Continuous
 62
     7
370
    25
100
AcDbLine
 10
0.1207191994
 20
0.1626889679
 30
0.0
 11
0.120679568
 21
0.1630535768
 31
0.0
  0
LINE
  5
1B8
330
1F
100
AcDbEntity
  8
0
  6
Continuous
 62
     7
370
    25
100
AcDbLine
 10
0.129199568
 20
0.1499216484
 30
0.0
 11
0.1292391994
 21
0.1502862573
 31
0.0
  0
LINE
  5
1B9
330
1F
100
AcDbEntity
  8
0
  6
Continuous
 62
     7
370
    25
100
AcDbLine
 10
0.1292391994
 20
0.1626889679
 30
0.0
 11
0.129199568
 21
0.1630535768
 31
0.0
  0
LINE
  5
1BA
330
1F
100
AcDbEntity
  8
0
  6
Continuous
 62
     7
370
    25
100
AcDbLine
 10
0.1225143428
 20
0.1630535768
 30
0.0
 11
0.1224747114
 21
0.1626889679
 31
0.0
  0
LINE
  5
1BB
330
1F
100
AcDbEntity
  8
0
  6
Continuous
 62
     7
370
    25
100
AcDbLine
 10
0.1224747114
 20
0.1502862573
 30
0.0
 11
0.1225143428
 21
0.1499216484
 31
0.0
  0
LINE
  5
1BC
330
1F
100
AcDbEntity
  8
0
  6
Continuous
 62
     7
370
    25
100
AcDbLine
 10
0.1367143428
 20
0.1630535768
 30
0.0
 11
0.1366747114
 21
0.1626889679
 31
0.0
  0
LINE
  5
1BD
330
1F
100
AcDbEntity
  8
0
  6
Continuous
 62
     7
370
    25
100
AcDbLine
 10
0.1366747114
 20
0.1502862573
 30
0.0
 11
0.1367143428
 21
0.1499216484
 31
0.0
  0
LINE
  5
1BE
330
1F
100
AcDbEntity
  8
0
  6
Continuous
 62
     7
370
    25
100
AcDbLine
 10
0.1338743428
 20
0.1630535768
 30
0.0
 11
0.1338347114
 21
0.1626889679
 31
0.0
  0
LINE
  5
1BF
330
1F
100
AcDbEntity
  8
0
  6
Continuous
 62
     7
370
    25
100
AcDbLine
 10
0.1338347114
 20
0.1502862573
 30
0.0
 11
0.1338743428
 21
0.1499216484
 31
0.0
  0
LINE
  5
1C0
330
1F
100
AcDbEntity
  8
0
  6
Continuous
 62
     7
370
    25
100
AcDbLine
 10
0.1253543428
 20
0.1630535768
 30
0.0
 11
0.1253147114
 21
0.1626889679
 31
0.0
  0
LINE
  5
1C1
330
1F
100
AcDbEntity
  8
0
  6
Continuous
 62
     7
370
    25
100
AcDbLine
 10
0.1253147114
 20
0.1502862573
 30
0.0
 11
0.1253543428
 21
0.1499216484
 31
0.0
  0
LINE
  5
1C2
330
1F
100
AcDbEntity
  8
0
  6
Continuous
 62
     7
370
    25
100
AcDbLine
 10
0.137719568
 20
0.1499216484
 30
0.0
 11
0.1377591994
 21
0.1502862573
 31
0.0
  0
LINE
  5
1C3
330
1F
100
AcDbEntity
  8
0
  6
Continuous
 62
     7
370
    25
100
AcDbLine
 10
0.1377591994
 20
0.1626889679
 30
0.0
 11
0.137719568
 21
0.1630535768
 31
0.0
  0
LINE
  5
1C4
330
1F
100
AcDbEntity
  8
0
  6
Continuous
 62
     7
370
    25
100
AcDbLine
 10
0.1281943428
 20
0.1630535768
 30
0.0
 11
0.1281547114
 21
0.1626889679
 31
0.0
  0
LINE
  5
1C5
330
1F
100
AcDbEntity
  8
0
  6
Continuous
 62
     7
370
    25
100
AcDbLine
 10
0.1281547114
 20
0.1502862573
 30
0.0
 11
0.1281943428
 21
0.1499216484
 31
0.0
  0
LINE
  5
1C6
330
1F
100
AcDbEntity
  8
0
  6
Continuous
 62
     7
370
    25
100
AcDbLine
 10
0.123519568
 20
0.1499216484
 30
0.0
 11
0.1235591994
 21
0.1502862573
 31
0.0
  0
LINE
  5
1C7
330
1F
100
AcDbEntity
  8
0
  6
Continuous
 62
     7
370
    25
100
AcDbLine
 10
0.1235591994
 20
0.1626889679
 30
0.0
 11
0.123519568
 21
0.1630535768
 31
0.0
  0
LINE
  5
1C8
330
1F
100
AcDbEntity
  8
0
  6
Continuous
 62
     7
370
    25
100
AcDbLine
 10
0.1296143428
 20
0.1630535768
 30
0.0
 11
0.1295747114
 21
0.1626889679
 31
0.0
  0
LINE
  5
1C9
330
1F
100
AcDbEntity
  8
0
  6
Continuous
 62
     7
370
    25
100
AcDbLine
 10
0.1295747114
 20
0.1502862573
 30
0.0
 11
0.1296143428
 21
0.1499216484
 31
0.0
  0
LINE
  5
1CA
330
1F
100
AcDbEntity
  8
0
  6
Continuous
 62
     7
370
    25
100
AcDbLine
 10
0.1310343428
 20
0.1630535768
 30
0.0
 11
0.1309947114
 21
0.1626889679
 31
0.0
  0
LINE
  5
1CB
330
1F
100
AcDbEntity
  8
0
  6
Continuous
 62
     7
370
    25
100
AcDbLine
 10
0.1309947114
 20
0.1502862573
 30
0.0
 11
0.1310343428
 21
0.1499216484
 31
0.0
  0
LINE
  5
1CC
330
1F
100
AcDbEntity
  8
0
  6
Continuous
 62
     7
370
    25
100
AcDbLine
 10
0.132039568
 20
0.1499216484
 30
0.0
 11
0.1320791994
 21
0.1502862573
 31
0.0
  0
LINE
  5
1CD
330
1F
100
AcDbEntity
  8
0
  6
Continuous
 62
     7
370
    25
100
AcDbLine
 10
0.1320791994
 20
0.1626889679
 30
0.0
 11
0.132039568
 21
0.1630535768
 31
0.0
  0
LINE
  5
1CE
330
1F
100
AcDbEntity
  8
0
  6
Continuous
 62
     7
370
    25
100
AcDbLine
 10
0.127779568
 20
0.1499216484
 30
0.0
 11
0.1278191994
 21
0.1502862573
 31
0.0
  0
LINE
  5
1CF
330
1F
100
AcDbEntity
  8
0
  6
Continuous
 62
     7
370
    25
100
AcDbLine
 10
0.1278191994
 20
0.1626889679
 30
0.0
 11
0.127779568
 21
0.1630535768
 31
0.0
  0
LINE
  5
1D0
330
1F
100
AcDbEntity
  8
0
  6
Continuous
 62
     7
370
    25
100
AcDbLine
 10
0.1196743428
 20
0.1630535768
 30
0.0
 11
0.1196347114
 21
0.1626889679
 31
0.0
  0
LINE
  5
1D1
330
1F
100
AcDbEntity
  8
0
  6
Continuous
 62
     7
370
    25
100
AcDbLine
 10
0.1196347114
 20
0.1502862573
 30
0.0
 11
0.1196743428
 21
0.1499216484
 31
0.0
  0
LINE
  5
1D2
330
1F
100
AcDbEntity
  8
0
  6
Continuous
 62
     7
370
    25
100
AcDbLine
 10
0.134879568
 20
0.1499216484
 30
0.0
 11
0.1349191994
 21
0.1502862573
 31
0.0
  0
LINE
  5
1D3
330
1F
100
AcDbEntity
  8
0
  6
Continuous
 62
     7
370
    25
100
AcDbLine
 10
0.1349191994
 20
0.1626889679
 30
0.0
 11
0.134879568
 21
0.1630535768
 31
0.0
  0
LINE
  5
1D4
330
1F
100
AcDbEntity
  8
0
  6
Continuous
 62
     7
370
    25
100
AcDbLine
 10
0.126359568
 20
0.1499216484
 30
0.0
 11
0.1263991994
 21
0.1502862573
 31
0.0
  0
LINE
  5
1D5
330
1F
100
AcDbEntity
  8
0
  6
Continuous
 62
     7
370
    25
100
AcDbLine
 10
0.1263991994
 20
0.1626889679
 30
0.0
 11
0.126359568
 21
0.1630535768
 31
0.0
  0
LINE
  5
1D6
330
1F
100
AcDbEntity
  8
0
  6
Continuous
 62
     7
370
    25
100
AcDbLine
 10
0.1267743428
 20
0.1630535768
 30
0.0
 11
0.1267347114
 21
0.1626889679
 31
0.0
  0
LINE
  5
1D7
330
1F
100
AcDbEntity
  8
0
  6
Continuous
 62
     7
370
    25
100
AcDbLine
 10
0.1267347114
 20
0.1502862573
 30
0.0
 11
0.1267743428
 21
0.1499216484
 31
0.0
  0
LINE
  5
1D8
330
1F
100
AcDbEntity
  8
0
  6
Continuous
 62
     7
370
    25
100
AcDbLine
 10
0.124939568
 20
0.1499216484
 30
0.0
 11
0.1249791994
 21
0.1502862573
 31
0.0
  0
LINE
  5
1D9
330
1F
100
AcDbEntity
  8
0
  6
Continuous
 62
     7
370
    25
100
AcDbLine
 10
0.1249791994
 20
0.1626889679
 30
0.0
 11
0.124939568
 21
0.1630535768
 31
0.0
  0
LINE
  5
1DA
330
1F
100
AcDbEntity
  8
0
  6
Continuous
 62
     7
370
    25
100
AcDbLine
 10
0.122099568
 20
0.1499216484
 30
0.0
 11
0.1221391994
 21
0.1502862573
 31
0.0
  0
LINE
  5
1DB
330
1F
100
AcDbEntity
  8
0
  6
Continuous
 62
     7
370
    25
100
AcDbLine
 10
0.1221391994
 20
0.1626889679
 30
0.0
 11
0.122099568
 21
0.1630535768
 31
0.0
  0
LINE
  5
1DC
330
1F
100
AcDbEntity
  8
0
  6
Continuous
 62
     7
370
    25
100
AcDbLine
 10
0.136299568
 20
0.1499216484
 30
0.0
 11
0.1363391994
 21
0.1502862573
 31
0.0
  0
LINE
  5
1DD
330
1F
100
AcDbEntity
  8
0
  6
Continuous
 62
     7
370
    25
100
AcDbLine
 10
0.1363391994
 20
0.1626889679
 30
0.0
 11
0.136299568
 21
0.1630535768
 31
0.0
  0
ARC
  5
1DE
330
1F
100
AcDbEntity
  8
0
  6
Continuous
 62
     7
370
    25
100
AcDbCircle
 10
0.132158731
 20
0.1502776126
 30
0.0
 40
0.00008
100
AcDbArc
 50
90.0
 51
173.7965520983
  0
ARC
  5
1DF
330
1F
100
AcDbEntity
  8
0
  6
Continuous
 62
     7
370
    25
100
AcDbCircle
 10
0.132158731
 20
0.1626976126
 30
0.0
 40
0.00008
100
AcDbArc
 50
186.2034479017
 51
270.0
  0
ARC
  5
1E0
330
1F
100
AcDbEntity
  8
0
  6
Continuous
 62
     7
370
    25
100
AcDbCircle
 10
0.129318731
 20
0.1502776126
 30
0.0
 40
0.00008
100
AcDbArc
 50
90.0
 51
173.7965520983
  0
ARC
  5
1E1
330
1F
100
AcDbEntity
  8
0
  6
Continuous
 62
     7
370
    25
100
AcDbCircle
 10
0.129318731
 20
0.1626976126
 30
0.0
 40
0.00008
100
AcDbArc
 50
186.2034479017
 51
270.0
  0
ARC
  5
1E2
330
1F
100
AcDbEntity
  8
0
  6
Continuous
 62
     7
370
    25
100
AcDbCircle
 10
0.133578731
 20
0.1502776126
 30
0.0
 40
0.00008
100
AcDbArc
 50
90.0
 51
173.7965520983
  0
ARC
  5
1E3
330
1F
100
AcDbEntity
  8
0
  6
Continuous
 62
     7
370
    25
100
AcDbCircle
 10
0.133578731
 20
0.1626976126
 30
0.0
 40
0.00008
100
AcDbArc
 50
186.2034479017
 51
270.0
  0
ARC
  5
1E4
330
1F
100
AcDbEntity
  8
0
  6
Continuous
 62
     7
370
    25
100
AcDbCircle
 10
0.1323351799
 20
0.1502776126
 30
0.0
 40
0.00008
100
AcDbArc
 50
6.2034479017
 51
90.0
  0
ARC
  5
1E5
330
1F
100
AcDbEntity
  8
0
  6
Continuous
 62
     7
370
    25
100
AcDbCircle
 10
0.1323351799
 20
0.1626976126
 30
0.0
 40
0.00008
100
AcDbArc
 50
270.0
 51
353.7965520983
  0
ARC
  5
1E6
330
1F
100
AcDbEntity
  8
0
  6
Continuous
 62
     7
370
    25
100
AcDbCircle
 10
0.1337551799
 20
0.1502776126
 30
0.0
 40
0.00008
100
AcDbArc
 50
6.2034479017
 51
90.0
  0
ARC
  5
1E7
330
1F
100
AcDbEntity
  8
0
  6
Continuous
 62
     7
370
    25
100
AcDbCircle
 10
0.1337551799
 20
0.1626976126
 30
0.0
 40
0.00008
100
AcDbArc
 50
270.0
 51
353.7965520983
  0
ARC
  5
1E8
330
1F
100
AcDbEntity
  8
0
  6
Continuous
 62
     7
370
    25
100
AcDbCircle
 10
0.134998731
 20
0.1502776126
 30
0.0
 40
0.00008
100
AcDbArc
 50
90.0
 51
173.7965520983
  0
ARC
  5
1E9
330
1F
100
AcDbEntity
  8
0
  6
Continuous
 62
     7
370
    25
100
AcDbCircle
 10
0.134998731
 20
0.1626976126
 30
0.0
 40
0.00008
100
AcDbArc
 50
186.2034479017
 51
270.0
  0
ARC
  5
1EA
330
1F
100
AcDbEntity
  8
0
  6
Continuous
 62
     7
370
    25
100
AcDbCircle
 10
0.1195551799
 20
0.1502776126
 30
0.0
 40
0.00008
100
AcDbArc
 50
6.2034479017
 51
90.0
  0
ARC
  5
1EB
330
1F
100
AcDbEntity
  8
0
  6
Continuous
 62
     7
370
    25
100
AcDbCircle
 10
0.1195551799
 20
0.1626976126
 30
0.0
 40
0.00008
100
AcDbArc
 50
270.0
 51
353.7965520983
  0
ARC
  5
1EC
330
1F
100
AcDbEntity
  8
0
  6
Continuous
 62
     7
370
    25
100
AcDbCircle
 10
0.1238151799
 20
0.1502776126
 30
0.0
 40
0.00008
100
AcDbArc
 50
6.2034479017
 51
90.0
  0
ARC
  5
1ED
330
1F
100
AcDbEntity
  8
0
  6
Continuous
 62
     7
370
    25
100
AcDbCircle
 10
0.1238151799
 20
0.1626976126
 30
0.0
 40
0.00008
100
AcDbArc
 50
270.0
 51
353.7965520983
  0
ARC
  5
1EE
330
1F
100
AcDbEntity
  8
0
  6
Continuous
 62
     7
370
    25
100
AcDbCircle
 10
0.1309151799
 20
0.1502776126
 30
0.0
 40
0.00008
100
AcDbArc
 50
6.2034479017
 51
90.0
  0
ARC
  5
1EF
330
1F
100
AcDbEntity
  8
0
  6
Continuous
 62
     7
370
    25
100
AcDbCircle
 10
0.1309151799
 20
0.1626976126
 30
0.0
 40
0.00008
100
AcDbArc
 50
270.0
 51
353.7965520983
  0
ARC
  5
1F0
330
1F
100
AcDbEntity
  8
0
  6
Continuous
 62
     7
370
    25
100
AcDbCircle
 10
0.123638731
 20
0.1502776126
 30
0.0
 40
0.00008
100
AcDbArc
 50
90.0
 51
173.7965520983
  0
ARC
  5
1F1
330
1F
100
AcDbEntity
  8
0
  6
Continuous
 62
     7
370
    25
100
AcDbCircle
 10
0.123638731
 20
0.1626976126
 30
0.0
 40
0.00008
100
AcDbArc
 50
186.2034479017
 51
270.0
  0
ARC
  5
1F2
330
1F
100
AcDbEntity
  8
0
  6
Continuous
 62
     7
370
    25
100
AcDbCircle
 10
0.1294951799
 20
0.1502776126
 30
0.0
 40
0.00008
100
AcDbArc
 50
6.2034479017
 51
90.0
  0
ARC
  5
1F3
330
1F
100
AcDbEntity
  8
0
  6
Continuous
 62
     7
370
    25
100
AcDbCircle
 10
0.1294951799
 20
0.1626976126
 30
0.0
 40
0.00008
100
AcDbArc
 50
270.0
 51
353.7965520983
  0
ARC
  5
1F4
330
1F
100
AcDbEntity
  8
0
  6
Continuous
 62
     7
370
    25
100
AcDbCircle
 10
0.120798731
 20
0.1502776126
 30
0.0
 40
0.00008
100
AcDbArc
 50
90.0
 51
173.7965520983
  0
ARC
  5
1F5
330
1F
100
AcDbEntity
  8
0
  6
Continuous
 62
     7
370
    25
100
AcDbCircle
 10
0.120798731
 20
0.1626976126
 30
0.0
 40
0.00008
100
AcDbArc
 50
186.2034479017
 51
270.0
  0
ARC
  5
1F6
330
1F
100
AcDbEntity
  8
0
  6
Continuous
 62
     7
370
    25
100
AcDbCircle
 10
0.127898731
 20
0.1502776126
 30
0.0
 40
0.00008
100
AcDbArc
 50
90.0
 51
173.7965520983
  0
ARC
  5
1F7
330
1F
100
AcDbEntity
  8
0
  6
Continuous
 62
     7
370
    25
100
AcDbCircle
 10
0.127898731
 20
0.1626976126
 30
0.0
 40
0.00008
100
AcDbArc
 50
186.2034479017
 51
270.0
  0
ARC
  5
1F8
330
1F
100
AcDbEntity
  8
0
  6
Continuous
 62
     7
370
    25
100
AcDbCircle
 10
0.1209751799
 20
0.1502776126
 30
0.0
 40
0.00008
100
AcDbArc
 50
6.2034479017
 51
90.0
  0
ARC
  5
1F9
330
1F
100
AcDbEntity
  8
0
  6
Continuous
 62
     7
370
    25
100
AcDbCircle
 10
0.1209751799
 20
0.1626976126
 30
0.0
 40
0.00008
100
AcDbArc
 50
270.0
 51
353.7965520983
  0
ARC
  5
1FA
330
1F
100
AcDbEntity
  8
0
  6
Continuous
 62
     7
370
    25
100
AcDbCircle
 10
0.130738731
 20
0.1502776126
 30
0.0
 40
0.00008
100
AcDbArc
 50
90.0
 51
173.7965520983
  0
ARC
  5
1FB
330
1F
100
AcDbEntity
  8
0
  6
Continuous
 62
     7
370
    25
100
AcDbCircle
 10
0.130738731
 20
0.1626976126
 30
0.0
 40
0.00008
100
AcDbArc
 50
186.2034479017
 51
270.0
  0
ARC
  5
1FC
330
1F
100
AcDbEntity
  8
0
  6
Continuous
 62
     7
370
    25
100
AcDbCircle
 10
0.1351751799
 20
0.1502776126
 30
0.0
 40
0.00008
100
AcDbArc
 50
6.2034479017
 51
90.0
  0
ARC
  5
1FD
330
1F
100
AcDbEntity
  8
0
  6
Continuous
 62
     7
370
    25
100
AcDbCircle
 10
0.1351751799
 20
0.1626976126
 30
0.0
 40
0.00008
100
AcDbArc
 50
270.0
 51
353.7965520983
  0
ARC
  5
1FE
330
1F
100
AcDbEntity
  8
0
  6
Continuous
 62
     7
370
    25
100
AcDbCircle
 10
0.1365951799
 20
0.1502776126
 30
0.0
 40
0.00008
100
AcDbArc
 50
6.2034479017
 51
90.0
  0
ARC
  5
1FF
330
1F
100
AcDbEntity
  8
0
  6
Continuous
 62
     7
370
    25
100
AcDbCircle
 10
0.1365951799
 20
0.1626976126
 30
0.0
 40
0.00008
100
AcDbArc
 50
270.0
 51
353.7965520983
  0
ARC
  5
200
330
1F
100
AcDbEntity
  8
0
  6
Continuous
 62
     7
370
    25
100
AcDbCircle
 10
0.1252351799
 20
0.1502776126
 30
0.0
 40
0.00008
100
AcDbArc
 50
6.2034479017
 51
90.0
  0
ARC
  5
201
330
1F
100
AcDbEntity
  8
0
  6
Continuous
 62
     7
370
    25
100
AcDbCircle
 10
0.1252351799
 20
0.1626976126
 30
0.0
 40
0.00008
100
AcDbArc
 50
270.0
 51
353.7965520983
  0
ARC
  5
202
330
1F
100
AcDbEntity
  8
0
  6
Continuous
 62
     7
370
    25
100
AcDbCircle
 10
0.1223951799
 20
0.1502776126
 30
0.0
 40
0.00008
100
AcDbArc
 50
6.2034479017
 51
90.0
  0
ARC
  5
203
330
1F
100
AcDbEntity
  8
0
  6
Continuous
 62
     7
370
    25
100
AcDbCircle
 10
0.1223951799
 20
0.1626976126
 30
0.0
 40
0.00008
100
AcDbArc
 50
270.0
 51
353.7965520983
  0
ARC
  5
204
330
1F
100
AcDbEntity
  8
0
  6
Continuous
 62
     7
370
    25
100
AcDbCircle
 10
0.1280751799
 20
0.1502776126
 30
0.0
 40
0.00008
100
AcDbArc
 50
6.2034479017
 51
90.0
  0
ARC
  5
205
330
1F
100
AcDbEntity
  8
0
  6
Continuous
 62
     7
370
    25
100
AcDbCircle
 10
0.1280751799
 20
0.1626976126
 30
0.0
 40
0.00008
100
AcDbArc
 50
270.0
 51
353.7965520983
  0
ARC
  5
206
330
1F
100
AcDbEntity
  8
0
  6
Continuous
 62
     7
370
    25
100
AcDbCircle
 10
0.122218731
 20
0.1502776126
 30
0.0
 40
0.00008
100
AcDbArc
 50
90.0
 51
173.7965520983
  0
ARC
  5
207
330
1F
100
AcDbEntity
  8
0
  6
Continuous
 62
     7
370
    25
100
AcDbCircle
 10
0.122218731
 20
0.1626976126
 30
0.0
 40
0.00008
100
AcDbArc
 50
186.2034479017
 51
270.0
  0
ARC
  5
208
330
1F
100
AcDbEntity
  8
0
  6
Continuous
 62
     7
370
    25
100
AcDbCircle
 10
0.125058731
 20
0.1502776126
 30
0.0
 40
0.00008
100
AcDbArc
 50
90.0
 51
173.7965520983
  0
ARC
  5
209
330
1F
100
AcDbEntity
  8
0
  6
Continuous
 62
     7
370
    25
100
AcDbCircle
 10
0.125058731
 20
0.1626976126
 30
0.0
 40
0.00008
100
AcDbArc
 50
186.2034479017
 51
270.0
  0
ARC
  5
20A
330
1F
100
AcDbEntity
  8
0
  6
Continuous
 62
     7
370
    25
100
AcDbCircle
 10
0.136418731
 20
0.1502776126
 30
0.0
 40
0.00008
100
AcDbArc
 50
90.0
 51
173.7965520983
  0
ARC
  5
20B
330
1F
100
AcDbEntity
  8
0
  6
Continuous
 62
     7
370
    25
100
AcDbCircle
 10
0.136418731
 20
0.1626976126
 30
0.0
 40
0.00008
100
AcDbArc
 50
186.2034479017
 51
270.0
  0
ARC
  5
20C
330
1F
100
AcDbEntity
  8
0
  6
Continuous
 62
     7
370
    25
100
AcDbCircle
 10
0.119378731
 20
0.1502776126
 30
0.0
 40
0.00008
100
AcDbArc
 50
90.0
 51
173.7965520983
  0
ARC
  5
20D
330
1F
100
AcDbEntity
  8
0
  6
Continuous
 62
     7
370
    25
100
AcDbCircle
 10
0.119378731
 20
0.1626976126
 30
0.0
 40
0.00008
100
AcDbArc
 50
186.2034479017
 51
270.0
  0
ARC
  5
20E
330
1F
100
AcDbEntity
  8
0
  6
Continuous
 62
     7
370
    25
100
AcDbCircle
 10
0.126478731
 20
0.1502776126
 30
0.0
 40
0.00008
100
AcDbArc
 50
90.0
 51
173.7965520983
  0
ARC
  5
20F
330
1F
100
AcDbEntity
  8
0
  6
Continuous
 62
     7
370
    25
100
AcDbCircle
 10
0.126478731
 20
0.1626976126
 30
0.0
 40
0.00008
100
AcDbArc
 50
186.2034479017
 51
270.0
  0
ARC
  5
210
330
1F
100
AcDbEntity
  8
0
  6
Continuous
 62
     7
370
    25
100
AcDbCircle
 10
0.1181351799
 20
0.1502776126
 30
0.0
 40
0.00008
100
AcDbArc
 50
6.2034479017
 51
90.0
  0
ARC
  5
211
330
1F
100
AcDbEntity
  8
0
  6
Continuous
 62
     7
370
    25
100
AcDbCircle
 10
0.1181351799
 20
0.1626976126
 30
0.0
 40
0.00008
100
AcDbArc
 50
270.0
 51
353.7965520983
  0
ARC
  5
212
330
1F
100
AcDbEntity
  8
0
  6
Continuous
 62
     7
370
    25
100
AcDbCircle
 10
0.1266551799
 20
0.1502776126
 30
0.0
 40
0.00008
100
AcDbArc
 50
6.2034479017
 51
90.0
  0
ARC
  5
213
330
1F
100
AcDbEntity
  8
0
  6
Continuous
 62
     7
370
    25
100
AcDbCircle
 10
0.1266551799
 20
0.1626976126
 30
0.0
 40
0.00008
100
AcDbArc
 50
270.0
 51
353.7965520983
  0
LINE
  5
214
330
1F
100
AcDbEntity
  8
0
  6
Continuous
 62
     7
370
    25
100
AcDbLine
 10
0.130738731
 20
0.1503576126
 30
0.0
 11
0.1309151799
 21
0.1503576126
 31
0.0
  0
LINE
  5
215
330
1F
100
AcDbEntity
  8
0
  6
Continuous
 62
     7
370
    25
100
AcDbLine
 10
0.1309151799
 20
0.1626176126
 30
0.0
 11
0.130738731
 21
0.1626176126
 31
0.0
  0
LINE
  5
216
330
1F
100
AcDbEntity
  8
0
  6
Continuous
 62
     7
370
    25
100
AcDbLine
 10
0.122218731
 20
0.1503576126
 30
0.0
 11
0.1223951799
 21
0.1503576126
 31
0.0
  0
LINE
  5
217
330
1F
100
AcDbEntity
  8
0
  6
Continuous
 62
     7
370
    25
100
AcDbLine
 10
0.1223951799
 20
0.1626176126
 30
0.0
 11
0.122218731
 21
0.1626176126
 31
0.0
  0
LINE
  5
218
330
1F
100
AcDbEntity
  8
0
  6
Continuous
 62
     7
370
    25
100
AcDbLine
 10
0.127898731
 20
0.1503576126
 30
0.0
 11
0.1280751799
 21
0.1503576126
 31
0.0
  0
LINE
  5
219
330
1F
100
AcDbEntity
  8
0
  6
Continuous
 62
     7
370
    25
100
AcDbLine
 10
0.1280751799
 20
0.1626176126
 30
0.0
 11
0.127898731
 21
0.1626176126
 31
0.0
  0
LINE
  5
21A
330
1F
100
AcDbEntity
  8
0
  6
Continuous
 62
     7
370
    25
100
AcDbLine
 10
0.123638731
 20
0.1503576126
 30
0.0
 11
0.1238151799
 21
0.1503576126
 31
0.0
  0
LINE
  5
21B
330
1F
100
AcDbEntity
  8
0
  6
Continuous
 62
     7
370
    25
100
AcDbLine
 10
0.1238151799
 20
0.1626176126
 30
0.0
 11
0.123638731
 21
0.1626176126
 31
0.0
  0
LINE
  5
21C
330
1F
100
AcDbEntity
  8
0
  6
Continuous
 62
     7
370
    25
100
AcDbLine
 10
0.119378731
 20
0.1503576126
 30
0.0
 11
0.1195551799
 21
0.1503576126
 31
0.0
  0
LINE
  5
21D
330
1F
100
AcDbEntity
  8
0
  6
Continuous
 62
     7
370
    25
100
AcDbLine
 10
0.1195551799
 20
0.1626176126
 30
0.0
 11
0.119378731
 21
0.1626176126
 31
0.0
  0
LINE
  5
21E
330
1F
100
AcDbEntity
  8
0
  6
Continuous
 62
     7
370
    25
100
AcDbLine
 10
0.120798731
 20
0.1503576126
 30
0.0
 11
0.1209751799
 21
0.1503576126
 31
0.0
  0
LINE
  5
21F
330
1F
100
AcDbEntity
  8
0
  6
Continuous
 62
     7
370
    25
100
AcDbLine
 10
0.1209751799
 20
0.1626176126
 30
0.0
 11
0.120798731
 21
0.1626176126
 31
0.0
  0
LINE
  5
220
330
1F
100
AcDbEntity
  8
0
  6
Continuous
 62
     7
370
    25
100
AcDbLine
 10
0.132158731
 20
0.1503576126
 30
0.0
 11
0.1323351799
 21
0.1503576126
 31
0.0
  0
LINE
  5
221
330
1F
100
AcDbEntity
  8
0
  6
Continuous
 62
     7
370
    25
100
AcDbLine
 10
0.1323351799
 20
0.1626176126
 30
0.0
 11
0.132158731
 21
0.1626176126
 31
0.0
  0
LINE
  5
222
330
1F
100
AcDbEntity
  8
0
  6
Continuous
 62
     7
370
    25
100
AcDbLine
 10
0.126478731
 20
0.1503576126
 30
0.0
 11
0.1266551799
 21
0.1503576126
 31
0.0
  0
LINE
  5
223
330
1F
100
AcDbEntity
  8
0
  6
Continuous
 62
     7
370
    25
100
AcDbLine
 10
0.1266551799
 20
0.1626176126
 30
0.0
 11
0.126478731
 21
0.1626176126
 31
0.0
  0
LINE
  5
224
330
1F
100
AcDbEntity
  8
0
  6
Continuous
 62
     7
370
    25
100
AcDbLine
 10
0.125058731
 20
0.1503576126
 30
0.0
 11
0.1252351799
 21
0.1503576126
 31
0.0
  0
LINE
  5
225
330
1F
100
AcDbEntity
  8
0
  6
Continuous
 62
     7
370
    25
100
AcDbLine
 10
0.1252351799
 20
0.1626176126
 30
0.0
 11
0.125058731
 21
0.1626176126
 31
0.0
  0
LINE
  5
226
330
1F
100
AcDbEntity
  8
0
  6
Continuous
 62
     7
370
    25
100
AcDbLine
 10
0.136418731
 20
0.1503576126
 30
0.0
 11
0.1365951799
 21
0.1503576126
 31
0.0
  0
LINE
  5
227
330
1F
100
AcDbEntity
  8
0
  6
Continuous
 62
     7
370
    25
100
AcDbLine
 10
0.1365951799
 20
0.1626176126
 30
0.0
 11
0.136418731
 21
0.1626176126
 31
0.0
  0
LINE
  5
228
330
1F
100
AcDbEntity
  8
0
  6
Continuous
 62
     7
370
    25
100
AcDbLine
 10
0.129318731
 20
0.1503576126
 30
0.0
 11
0.1294951799
 21
0.1503576126
 31
0.0
  0
LINE
  5
229
330
1F
100
AcDbEntity
  8
0
  6
Continuous
 62
     7
370
    25
100
AcDbLine
 10
0.1294951799
 20
0.1626176126
 30
0.0
 11
0.129318731
 21
0.1626176126
 31
0.0
  0
LINE
  5
22A
330
1F
100
AcDbEntity
  8
0
  6
Continuous
 62
     7
370
    25
100
AcDbLine
 10
0.1180469554
 20
0.1503576126
 30
0.0
 11
0.1181351799
 21
0.1503576126
 31
0.0
  0
LINE
  5
22B
330
1F
100
AcDbEntity
  8
0
  6
Continuous
 62
     7
370
    25
100
AcDbLine
 10
0.1181351799
 20
0.1626176126
 30
0.0
 11
0.1180469554
 21
0.1626176126
 31
0.0
  0
LINE
  5
22C
330
1F
100
AcDbEntity
  8
0
  6
Continuous
 62
     7
370
    25
100
AcDbLine
 10
0.133578731
 20
0.1503576126
 30
0.0
 11
0.1337551799
 21
0.1503576126
 31
0.0
  0
LINE
  5
22D
330
1F
100
AcDbEntity
  8
0
  6
Continuous
 62
     7
370
    25
100
AcDbLine
 10
0.1337551799
 20
0.1626176126
 30
0.0
 11
0.133578731
 21
0.1626176126
 31
0.0
  0
LINE
  5
22E
330
1F
100
AcDbEntity
  8
0
  6
Continuous
 62
     7
370
    25
100
AcDbLine
 10
0.134998731
 20
0.1503576126
 30
0.0
 11
0.1351751799
 21
0.1503576126
 31
0.0
  0
LINE
  5
22F
330
1F
100
AcDbEntity
  8
0
  6
Continuous
 62
     7
370
    25
100
AcDbLine
 10
0.1351751799
 20
0.1626176126
 30
0.0
 11
0.134998731
 21
0.1626176126
 31
0.0
  0
ARC
  5
230
330
1F
100
AcDbEntity
  8
0
  6
Continuous
 62
     7
370
    25
100
AcDbCircle
 10
0.1383573375
 20
0.1564876129
 30
0.0
 40
0.0001490747274042
100
AcDbArc
 50
28.00594401
 51
69.9053469508
  0
ARC
  5
231
330
1F
100
AcDbEntity
  8
0
  6
Continuous
 62
     7
370
    25
100
AcDbCircle
 10
0.1383573375
 20
0.1564876129
 30
0.0
 40
0.0001490747274042
100
AcDbArc
 50
290.0946530492
 51
331.99405599
  0
LINE
  5
232
330
1F
100
AcDbEntity
  8
0
  6
Continuous
 62
     7
370
    25
100
AcDbLine
 10
0.1384085554
 20
0.1566276129
 30
0.0
 11
0.1384009554
 21
0.1566276129
 31
0.0
  0
LINE
  5
233
330
1F
100
AcDbEntity
  8
0
  6
Continuous
 62
     7
370
    25
100
AcDbLine
 10
0.1384009554
 20
0.1563476129
 30
0.0
 11
0.1384085554
 21
0.1563476129
 31
0.0
  0
LINE
  5
234
330
1F
100
AcDbEntity
  8
0
  6
Continuous
 62
     7
370
    25
100
AcDbLine
 10
0.1380469554
 20
0.1565676129
 30
0.0
 11
0.1378469554
 21
0.1565676129
 31
0.0
  0
LINE
  5
235
330
1F
100
AcDbEntity
  8
0
  6
Continuous
 62
     7
370
    25
100
AcDbLine
 10
0.1378469554
 20
0.1564076129
 30
0.0
 11
0.1380469554
 21
0.1564076129
 31
0.0
  0
LINE
  5
236
330
1F
100
AcDbEntity
  8
0
  6
Continuous
 62
     7
370
    25
100
AcDbLine
 10
0.0719773554
 20
0.1508050503
 30
0.0
 11
0.0719849554
 21
0.1508050503
 31
0.0
  0
LINE
  5
237
330
1F
100
AcDbEntity
  8
0
  6
Continuous
 62
     7
370
    25
100
AcDbLine
 10
0.0719849554
 20
0.1510850503
 30
0.0
 11
0.0719773554
 21
0.1510850503
 31
0.0
  0
ARC
  5
238
330
1F
100
AcDbEntity
  8
0
  6
Continuous
 62
     7
370
    25
100
AcDbCircle
 10
0.0720285733
 20
0.1509450503
 30
0.0
 40
0.0001490747274042
100
AcDbArc
 50
208.00594401
 51
249.9053469508
  0
ARC
  5
239
330
1F
100
AcDbEntity
  8
0
  6
Continuous
 62
     7
370
    25
100
AcDbCircle
 10
0.0720285733
 20
0.1509450503
 30
0.0
 40
0.0001490747274042
100
AcDbArc
 50
110.0946530492
 51
151.99405599
  0
LINE
  5
23A
330
1F
100
AcDbEntity
  8
0
  6
Continuous
 62
     7
370
    25
100
AcDbLine
 10
0.0723389554
 20
0.1508650503
 30
0.0
 11
0.0725389554
 21
0.1508650503
 31
0.0
  0
LINE
  5
23B
330
1F
100
AcDbEntity
  8
0
  6
Continuous
 62
     7
370
    25
100
AcDbLine
 10
0.0725389554
 20
0.1510250503
 30
0.0
 11
0.0723389554
 21
0.1510250503
 31
0.0
  0
LINE
  5
23C
330
1F
100
AcDbEntity
  8
0
  6
Continuous
 62
     7
370
    25
100
AcDbLine
 10
0.1384085554
 20
0.1510850503
 30
0.0
 11
0.1384009554
 21
0.1510850503
 31
0.0
  0
LINE
  5
23D
330
1F
100
AcDbEntity
  8
0
  6
Continuous
 62
     7
370
    25
100
AcDbLine
 10
0.1384009554
 20
0.1508050503
 30
0.0
 11
0.1384085554
 21
0.1508050503
 31
0.0
  0
ARC
  5
23E
330
1F
100
AcDbEntity
  8
0
  6
Continuous
 62
     7
370
    25
100
AcDbCircle
 10
0.1383573375
 20
0.1509450503
 30
0.0
 40
0.0001490747274042
100
AcDbArc
 50
28.00594401
 51
69.9053469508
  0
ARC
  5
23F
330
1F
100
AcDbEntity
  8
0
  6
Continuous
 62
     7
370
    25
100
AcDbCircle
 10
0.1383573375
 20
0.1509450503
 30
0.0
 40
0.0001490747274042
100
AcDbArc
 50
290.0946530492
 51
331.99405599
  0
LINE
  5
240
330
1F
100
AcDbEntity
  8
0
  6
Continuous
 62
     7
370
    25
100
AcDbLine
 10
0.1380469554
 20
0.1510250503
 30
0.0
 11
0.1378469554
 21
0.1510250503
 31
0.0
  0
LINE
  5
241
330
1F
100
AcDbEntity
  8
0
  6
Continuous
 62
     7
370
    25
100
AcDbLine
 10
0.1378469554
 20
0.1508650503
 30
0.0
 11
0.1380469554
 21
0.1508650503
 31
0.0
  0
ARC
  5
242
330
1F
100
AcDbEntity
  8
0
  6
Continuous
 62
     7
370
    25
100
AcDbCircle
 10
0.0720285733
 20
0.1564876129
 30
0.0
 40
0.0001490747274042
100
AcDbArc
 50
208.00594401
 51
249.9053469508
  0
ARC
  5
243
330
1F
100
AcDbEntity
  8
0
  6
Continuous
 62
     7
370
    25
100
AcDbCircle
 10
0.0720285733
 20
0.1564876129
 30
0.0
 40
0.0001490747274042
100
AcDbArc
 50
110.0946530492
 51
151.99405599
  0
LINE
  5
244
330
1F
100
AcDbEntity
  8
0
  6
Continuous
 62
     7
370
    25
100
AcDbLine
 10
0.0719773554
 20
0.1563476129
 30
0.0
 11
0.0719849554
 21
0.1563476129
 31
0.0
  0
LINE
  5
245
330
1F
100
AcDbEntity
  8
0
  6
Continuous
 62
     7
370
    25
100
AcDbLine
 10
0.0719849554
 20
0.1566276129
 30
0.0
 11
0.0719773554
 21
0.1566276129
 31
0.0
  0
LINE
  5
246
330
1F
100
AcDbEntity
  8
0
  6
Continuous
 62
     7
370
    25
100
AcDbLine
 10
0.0723389554
 20
0.1564076129
 30
0.0
 11
0.0725389554
 21
0.1564076129
 31
0.0
  0
LINE
  5
247
330
1F
100
AcDbEntity
  8
0
  6
Continuous
 62
     7
370
    25
100
AcDbLine
 10
0.0725389554
 20
0.1565676129
 30
0.0
 11
0.0723389554
 21
0.1565676129
 31
0.0
  0
LINE
  5
248
330
1F
100
AcDbEntity
  8
0
  6
Continuous
 62
     7
370
    25
100
AcDbLine
 10
0.0719773554
 20
0.1618901755
 30
0.0
 11
0.0719849554
 21
0.1618901755
 31
0.0
  0
LINE
  5
249
330
1F
100
AcDbEntity
  8
0
  6
Continuous
 62
     7
370
    25
100
AcDbLine
 10
0.0719849554
 20
0.1621701755
 30
0.0
 11
0.0719773554
 21
0.1621701755
 31
0.0
  0
ARC
  5
24A
330
1F
100
AcDbEntity
  8
0
  6
Continuous
 62
     7
370
    25
100
AcDbCircle
 10
0.0720285733
 20
0.1620301755
 30
0.0
 40
0.0001490747274042
100
AcDbArc
 50
208.00594401
 51
249.9053469508
  0
ARC
  5
24B
330
1F
100
AcDbEntity
  8
0
  6
Continuous
 62
     7
370
    25
100
AcDbCircle
 10
0.0720285733
 20
0.1620301755
 30
0.0
 40
0.0001490747274042
100
AcDbArc
 50
110.0946530492
 51
151.99405599
  0
LINE
  5
24C
330
1F
100
AcDbEntity
  8
0
  6
Continuous
 62
     7
370
    25
100
AcDbLine
 10
0.0723389554
 20
0.1619501755
 30
0.0
 11
0.0725389554
 21
0.1619501755
 31
0.0
  0
LINE
  5
24D
330
1F
100
AcDbEntity
  8
0
  6
Continuous
 62
     7
370
    25
100
AcDbLine
 10
0.0725389554
 20
0.1621101755
 30
0.0
 11
0.0723389554
 21
0.1621101755
 31
0.0
  0
ARC
  5
24E
330
1F
100
AcDbEntity
  8
0
  6
Continuous
 62
     7
370
    25
100
AcDbCircle
 10
0.1383573375
 20
0.1620301755
 30
0.0
 40
0.0001490747274042
100
AcDbArc
 50
28.00594401
 51
69.9053469508
  0
ARC
  5
24F
330
1F
100
AcDbEntity
  8
0
  6
Continuous
 62
     7
370
    25
100
AcDbCircle
 10
0.1383573375
 20
0.1620301755
 30
0.0
 40
0.0001490747274042
100
AcDbArc
 50
290.0946530492
 51
331.99405599
  0
LINE
  5
250
330
1F
100
AcDbEntity
  8
0
  6
Continuous
 62
     7
370
    25
100
AcDbLine
 10
0.1384085554
 20
0.1621701755
 30
0.0
 11
0.1384009554
 21
0.1621701755
 31
0.0
  0
LINE
  5
251
330
1F
100
AcDbEntity
  8
0
  6
Continuous
 62
     7
370
    25
100
AcDbLine
 10
0.1384009554
 20
0.1618901755
 30
0.0
 11
0.1384085554
 21
0.1618901755
 31
0.0
  0
LINE
  5
252
330
1F
100
AcDbEntity
  8
0
  6
Continuous
 62
     7
370
    25
100
AcDbLine
 10
0.1380469554
 20
0.1621101755
 30
0.0
 11
0.1378469554
 21
0.1621101755
 31
0.0
  0
LINE
  5
253
330
1F
100
AcDbEntity
  8
0
  6
Continuous
 62
     7
370
    25
100
AcDbLine
 10
0.1378469554
 20
0.1619501755
 30
0.0
 11
0.1380469554
 21
0.1619501755
 31
0.0
  0
LINE
  5
254
330
1F
100
AcDbEntity
  8
0
  6
Continuous
 62
     7
370
    25
100
AcDbLine
 10
0.0926759554
 20
0.1477659613
 30
0.0
 11
0.0926759554
 21
0.1480663882
 31
0.0
  0
LINE
  5
255
330
1F
100
AcDbEntity
  8
0
  6
Continuous
 62
     7
370
    25
100
AcDbLine
 10
0.0920019554
 20
0.1480663882
 30
0.0
 11
0.0920019554
 21
0.1477659604
 31
0.0
  0
LINE
  5
256
330
1F
100
AcDbEntity
  8
0
  6
Continuous
 62
     7
370
    25
100
AcDbLine
 10
0.0726759554
 20
0.1477659613
 30
0.0
 11
0.0726759554
 21
0.1480663882
 31
0.0
  0
LINE
  5
257
330
1F
100
AcDbEntity
  8
0
  6
Continuous
 62
     7
370
    25
100
AcDbLine
 10
0.0720019554
 20
0.1480663882
 30
0.0
 11
0.0720019554
 21
0.1477659604
 31
0.0
  0
LINE
  5
258
330
1F
100
AcDbEntity
  8
0
  6
Continuous
 62
     7
370
    25
100
AcDbLine
 10
0.1383839554
 20
0.147765961
 30
0.0
 11
0.1383839554
 21
0.1480663879
 31
0.0
  0
LINE
  5
259
330
1F
100
AcDbEntity
  8
0
  6
Continuous
 62
     7
370
    25
100
AcDbLine
 10
0.1377099554
 20
0.1480663879
 30
0.0
 11
0.1377099554
 21
0.1477659601
 31
0.0
  0
LINE
  5
25A
330
1F
100
AcDbEntity
  8
0
  6
Continuous
 62
     7
370
    25
100
AcDbLine
 10
0.1183839554
 20
0.147765961
 30
0.0
 11
0.1183839554
 21
0.1480663879
 31
0.0
  0
LINE
  5
25B
330
1F
100
AcDbEntity
  8
0
  6
Continuous
 62
     7
370
    25
100
AcDbLine
 10
0.1177099554
 20
0.1480663879
 30
0.0
 11
0.1177099554
 21
0.1477659601
 31
0.0
  0
LINE
  5
25C
330
1F
100
AcDbEntity
  8
0
  6
Continuous
 62
     7
370
    25
100
AcDbLine
 10
0.0920019554
 20
0.149769934
 30
0.0
 11
0.0920019554
 21
0.1480663882
 31
0.0
  0
LINE
  5
25D
330
1F
100
AcDbEntity
  8
0
  6
Continuous
 62
     7
370
    25
100
AcDbLine
 10
0.0926759554
 20
0.1480663882
 30
0.0
 11
0.0926759554
 21
0.1483845441
 31
0.0
  0
LINE
  5
25E
330
1F
100
AcDbEntity
  8
0
  6
Continuous
 62
     7
370
    25
100
AcDbLine
 10
0.1377099554
 20
0.1497699337
 30
0.0
 11
0.1377099554
 21
0.1480663879
 31
0.0
  0
LINE
  5
25F
330
1F
100
AcDbEntity
  8
0
  6
Continuous
 62
     7
370
    25
100
AcDbLine
 10
0.1383839554
 20
0.1480663879
 30
0.0
 11
0.1383839554
 21
0.1483845435
 31
0.0
  0
LINE
  5
260
330
1F
100
AcDbEntity
  8
0
  6
Continuous
 62
     7
370
    25
100
AcDbLine
 10
0.0720019554
 20
0.1483845484
 30
0.0
 11
0.0720019554
 21
0.1480663882
 31
0.0
  0
LINE
  5
261
330
1F
100
AcDbEntity
  8
0
  6
Continuous
 62
     7
370
    25
100
AcDbLine
 10
0.0726759554
 20
0.1480663882
 30
0.0
 11
0.0726759554
 21
0.149769934
 31
0.0
  0
LINE
  5
262
330
1F
100
AcDbEntity
  8
0
  6
Continuous
 62
     7
370
    25
100
AcDbLine
 10
0.1177099554
 20
0.1483845435
 30
0.0
 11
0.1177099554
 21
0.1480663879
 31
0.0
  0
LINE
  5
263
330
1F
100
AcDbEntity
  8
0
  6
Continuous
 62
     7
370
    25
100
AcDbLine
 10
0.1183839554
 20
0.1480663879
 30
0.0
 11
0.1183839554
 21
0.1497699337
 31
0.0
  0
LINE
  5
264
330
1F
100
AcDbEntity
  8
0
  6
Continuous
 62
     7
370
    25
100
AcDbLine
 10
0.1377099554
 20
0.1498914172
 30
0.0
 11
0.1377099554
 21
0.1497699337
 31
0.0
  0
LINE
  5
265
330
1F
100
AcDbEntity
  8
0
  6
Continuous
 62
     7
370
    25
100
AcDbLine
 10
0.1183839554
 20
0.1497699337
 30
0.0
 11
0.1183839554
 21
0.1497773525
 31
0.0
  0
LINE
  5
266
330
1F
100
AcDbEntity
  8
0
  6
Continuous
 62
     7
370
    25
100
AcDbLine
 10
0.0920019554
 20
0.1497773531
 30
0.0
 11
0.0920019554
 21
0.149769934
 31
0.0
  0
LINE
  5
267
330
1F
100
AcDbEntity
  8
0
  6
Continuous
 62
     7
370
    25
100
AcDbLine
 10
0.0726759554
 20
0.149769934
 30
0.0
 11
0.0726759554
 21
0.1498914178
 31
0.0
  0
LINE
  5
268
330
1F
100
AcDbEntity
  8
0
  6
Continuous
 62
     7
370
    25
100
AcDbLine
 10
0.1177099554
 20
0.1647573932
 30
0.0
 11
0.1177099554
 21
0.1645906817
 31
0.0
  0
LINE
  5
269
330
1F
100
AcDbEntity
  8
0
  6
Continuous
 62
     7
370
    25
100
AcDbLine
 10
0.1183839554
 20
0.1631978727
 30
0.0
 11
0.1183839554
 21
0.1647573932
 31
0.0
  0
LINE
  5
26A
330
1F
100
AcDbEntity
  8
0
  6
Continuous
 62
     7
370
    25
100
AcDbLine
 10
0.0720019554
 20
0.1647573935
 30
0.0
 11
0.0720019554
 21
0.1645906865
 31
0.0
  0
LINE
  5
26B
330
1F
100
AcDbEntity
  8
0
  6
Continuous
 62
     7
370
    25
100
AcDbLine
 10
0.0726759554
 20
0.1630838086
 30
0.0
 11
0.0726759554
 21
0.1647573935
 31
0.0
  0
LINE
  5
26C
330
1F
100
AcDbEntity
  8
0
  6
Continuous
 62
     7
370
    25
100
AcDbLine
 10
0.0920019554
 20
0.1647573935
 30
0.0
 11
0.0920019554
 21
0.1631978733
 31
0.0
  0
LINE
  5
26D
330
1F
100
AcDbEntity
  8
0
  6
Continuous
 62
     7
370
    25
100
AcDbLine
 10
0.0926759554
 20
0.1645906822
 30
0.0
 11
0.0926759554
 21
0.1647573935
 31
0.0
  0
LINE
  5
26E
330
1F
100
AcDbEntity
  8
0
  6
Continuous
 62
     7
370
    25
100
AcDbLine
 10
0.1377099554
 20
0.1647573932
 30
0.0
 11
0.1377099554
 21
0.163083808
 31
0.0
  0
LINE
  5
26F
330
1F
100
AcDbEntity
  8
0
  6
Continuous
 62
     7
370
    25
100
AcDbLine
 10
0.1383839554
 20
0.1645906817
 30
0.0
 11
0.1383839554
 21
0.1647573932
 31
0.0
  0
LINE
  5
270
330
1F
100
AcDbEntity
  8
0
  6
Continuous
 62
     7
370
    25
100
AcDbLine
 10
0.1383839554
 20
0.1647573932
 30
0.0
 11
0.1383839554
 21
0.165057821
 31
0.0
  0
LINE
  5
271
330
1F
100
AcDbEntity
  8
0
  6
Continuous
 62
     7
370
    25
100
AcDbLine
 10
0.1377099554
 20
0.1650578201
 30
0.0
 11
0.1377099554
 21
0.1647573932
 31
0.0
  0
LINE
  5
272
330
1F
100
AcDbEntity
  8
0
  6
Continuous
 62
     7
370
    25
100
AcDbLine
 10
0.0726759554
 20
0.1647573935
 30
0.0
 11
0.0726759554
 21
0.1650578213
 31
0.0
  0
LINE
  5
273
330
1F
100
AcDbEntity
  8
0
  6
Continuous
 62
     7
370
    25
100
AcDbLine
 10
0.0720019554
 20
0.1650578204
 30
0.0
 11
0.0720019554
 21
0.1647573935
 31
0.0
  0
LINE
  5
274
330
1F
100
AcDbEntity
  8
0
  6
Continuous
 62
     7
370
    25
100
AcDbLine
 10
0.1183839554
 20
0.1647573932
 30
0.0
 11
0.1183839554
 21
0.165057821
 31
0.0
  0
LINE
  5
275
330
1F
100
AcDbEntity
  8
0
  6
Continuous
 62
     7
370
    25
100
AcDbLine
 10
0.1177099554
 20
0.1650578201
 30
0.0
 11
0.1177099554
 21
0.1647573932
 31
0.0
  0
LINE
  5
276
330
1F
100
AcDbEntity
  8
0
  6
Continuous
 62
     7
370
    25
100
AcDbLine
 10
0.0926759554
 20
0.1647573935
 30
0.0
 11
0.0926759554
 21
0.1650578213
 31
0.0
  0
LINE
  5
277
330
1F
100
AcDbEntity
  8
0
  6
Continuous
 62
     7
370
    25
100
AcDbLine
 10
0.0920019554
 20
0.1650578204
 30
0.0
 11
0.0920019554
 21
0.1647573935
 31
0.0
  0
ARC
  5
278
330
1F
100
AcDbEntity
  8
0
  6
Continuous
 62
     7
370
    25
100
AcDbCircle
 10
0.1383301554
 20
0.1494784126
 30
0.0
 40
0.0000708
100
AcDbArc
 50
270.0
 51
0.0
  0
ARC
  5
279
330
1F
100
AcDbEntity
  8
0
  6
Continuous
 62
     7
370
    25
100
AcDbCircle
 10
0.1383301554
 20
0.1634968126
 30
0.0
 40
0.0000708
100
AcDbArc
 50
0.0
 51
90.0
  0
ARC
  5
27A
330
1F
100
AcDbEntity
  8
0
  6
Continuous
 62
     7
370
    25
100
AcDbCircle
 10
0.1381177554
 20
0.1494784126
 30
0.0
 40
0.0000708
100
AcDbArc
 50
180.0
 51
270.0
  0
ARC
  5
27B
330
1F
100
AcDbEntity
  8
0
  6
Continuous
 62
     7
370
    25
100
AcDbCircle
 10
0.1381177554
 20
0.1634968126
 30
0.0
 40
0.0000708
100
AcDbArc
 50
90.0
 51
180.0
  0
LINE
  5
27C
330
1F
100
AcDbEntity
  8
0
  6
Continuous
 62
     7
370
    25
100
AcDbLine
 10
0.1383301554
 20
0.1635676126
 30
0.0
 11
0.1381177554
 21
0.1635676126
 31
0.0
  0
LINE
  5
27D
330
1F
100
AcDbEntity
  8
0
  6
Continuous
 62
     7
370
    25
100
AcDbLine
 10
0.1381177554
 20
0.1494076126
 30
0.0
 11
0.1383301554
 21
0.1494076126
 31
0.0
  0
ARC
  5
27E
330
1F
100
AcDbEntity
  8
0
  6
Continuous
 62
     7
370
    25
100
AcDbCircle
 10
0.1383301554
 20
0.1487662741
 30
0.0
 40
0.0000708
100
AcDbArc
 50
270.0
 51
0.0
  0
ARC
  5
27F
330
1F
100
AcDbEntity
  8
0
  6
Continuous
 62
     7
370
    25
100
AcDbCircle
 10
0.1381177554
 20
0.1487662741
 30
0.0
 40
0.0000708
100
AcDbArc
 50
180.0
 51
270.0
  0
ARC
  5
280
330
1F
100
AcDbEntity
  8
0
  6
Continuous
 62
     7
370
    25
100
AcDbCircle
 10
0.1383301554
 20
0.1642089511
 30
0.0
 40
0.0000708
100
AcDbArc
 50
0.0
 51
90.0
  0
ARC
  5
281
330
1F
100
AcDbEntity
  8
0
  6
Continuous
 62
     7
370
    25
100
AcDbCircle
 10
0.1381177554
 20
0.1642089511
 30
0.0
 40
0.0000708
100
AcDbArc
 50
90.0
 51
180.0
  0
LINE
  5
282
330
1F
100
AcDbEntity
  8
0
  6
Continuous
 62
     7
370
    25
100
AcDbLine
 10
0.1381177554
 20
0.1486954741
 30
0.0
 11
0.1383301554
 21
0.1486954741
 31
0.0
  0
LINE
  5
283
330
1F
100
AcDbEntity
  8
0
  6
Continuous
 62
     7
370
    25
100
AcDbLine
 10
0.1383301554
 20
0.1642797511
 30
0.0
 11
0.1381177554
 21
0.1642797511
 31
0.0
  0
LINE
  5
284
330
1F
100
AcDbEntity
  8
0
  6
Continuous
 62
     7
370
    25
100
AcDbLine
 10
0.1381177554
 20
0.1483597674
 30
0.0
 11
0.1383301554
 21
0.1483597674
 31
0.0
  0
LINE
  5
285
330
1F
100
AcDbEntity
  8
0
  6
Continuous
 62
     7
370
    25
100
AcDbLine
 10
0.1383301554
 20
0.1646154577
 30
0.0
 11
0.1381177554
 21
0.1646154577
 31
0.0
  0
ARC
  5
286
330
1F
100
AcDbEntity
  8
0
  6
Continuous
 62
     7
370
    25
100
AcDbCircle
 10
0.1383301554
 20
0.1484305674
 30
0.0
 40
0.0000708
100
AcDbArc
 50
270.0
 51
0.0
  0
ARC
  5
287
330
1F
100
AcDbEntity
  8
0
  6
Continuous
 62
     7
370
    25
100
AcDbCircle
 10
0.1381177554
 20
0.1484305674
 30
0.0
 40
0.0000708
100
AcDbArc
 50
180.0
 51
270.0
  0
ARC
  5
288
330
1F
100
AcDbEntity
  8
0
  6
Continuous
 62
     7
370
    25
100
AcDbCircle
 10
0.1381177554
 20
0.1645446577
 30
0.0
 40
0.0000708
100
AcDbArc
 50
90.0
 51
180.0
  0
ARC
  5
289
330
1F
100
AcDbEntity
  8
0
  6
Continuous
 62
     7
370
    25
100
AcDbCircle
 10
0.1383301554
 20
0.1645446577
 30
0.0
 40
0.0000708
100
AcDbArc
 50
0.0
 51
90.0
  0
ARC
  5
28A
330
1F
100
AcDbEntity
  8
0
  6
Continuous
 62
     7
370
    25
100
AcDbCircle
 10
0.1177637554
 20
0.1494784126
 30
0.0
 40
0.0000708
100
AcDbArc
 50
180.0
 51
270.0
  0
ARC
  5
28B
330
1F
100
AcDbEntity
  8
0
  6
Continuous
 62
     7
370
    25
100
AcDbCircle
 10
0.1177637554
 20
0.1634968126
 30
0.0
 40
0.0000708
100
AcDbArc
 50
90.0
 51
180.0
  0
ARC
  5
28C
330
1F
100
AcDbEntity
  8
0
  6
Continuous
 62
     7
370
    25
100
AcDbCircle
 10
0.1179761554
 20
0.1494784126
 30
0.0
 40
0.0000708
100
AcDbArc
 50
270.0
 51
0.0
  0
ARC
  5
28D
330
1F
100
AcDbEntity
  8
0
  6
Continuous
 62
     7
370
    25
100
AcDbCircle
 10
0.1179761554
 20
0.1634968126
 30
0.0
 40
0.0000708
100
AcDbArc
 50
0.0
 51
90.0
  0
LINE
  5
28E
330
1F
100
AcDbEntity
  8
0
  6
Continuous
 62
     7
370
    25
100
AcDbLine
 10
0.1179761554
 20
0.1635676126
 30
0.0
 11
0.1177637554
 21
0.1635676126
 31
0.0
  0
LINE
  5
28F
330
1F
100
AcDbEntity
  8
0
  6
Continuous
 62
     7
370
    25
100
AcDbLine
 10
0.1177637554
 20
0.1494076126
 30
0.0
 11
0.1179761554
 21
0.1494076126
 31
0.0
  0
ARC
  5
290
330
1F
100
AcDbEntity
  8
0
  6
Continuous
 62
     7
370
    25
100
AcDbCircle
 10
0.1179761554
 20
0.1487662741
 30
0.0
 40
0.0000708
100
AcDbArc
 50
270.0
 51
0.0
  0
ARC
  5
291
330
1F
100
AcDbEntity
  8
0
  6
Continuous
 62
     7
370
    25
100
AcDbCircle
 10
0.1177637554
 20
0.1487662741
 30
0.0
 40
0.0000708
100
AcDbArc
 50
180.0
 51
270.0
  0
ARC
  5
292
330
1F
100
AcDbEntity
  8
0
  6
Continuous
 62
     7
370
    25
100
AcDbCircle
 10
0.1179761554
 20
0.1642089511
 30
0.0
 40
0.0000708
100
AcDbArc
 50
0.0
 51
90.0
  0
ARC
  5
293
330
1F
100
AcDbEntity
  8
0
  6
Continuous
 62
     7
370
    25
100
AcDbCircle
 10
0.1177637554
 20
0.1642089511
 30
0.0
 40
0.0000708
100
AcDbArc
 50
90.0
 51
180.0
  0
LINE
  5
294
330
1F
100
AcDbEntity
  8
0
  6
Continuous
 62
     7
370
    25
100
AcDbLine
 10
0.1177637554
 20
0.1486954741
 30
0.0
 11
0.1179761554
 21
0.1486954741
 31
0.0
  0
LINE
  5
295
330
1F
100
AcDbEntity
  8
0
  6
Continuous
 62
     7
370
    25
100
AcDbLine
 10
0.1179761554
 20
0.1642797511
 30
0.0
 11
0.1177637554
 21
0.1642797511
 31
0.0
  0
LINE
  5
296
330
1F
100
AcDbEntity
  8
0
  6
Continuous
 62
     7
370
    25
100
AcDbLine
 10
0.1177637554
 20
0.1483597674
 30
0.0
 11
0.1179761554
 21
0.1483597674
 31
0.0
  0
LINE
  5
297
330
1F
100
AcDbEntity
  8
0
  6
Continuous
 62
     7
370
    25
100
AcDbLine
 10
0.1179761554
 20
0.1646154577
 30
0.0
 11
0.1177637554
 21
0.1646154577
 31
0.0
  0
ARC
  5
298
330
1F
100
AcDbEntity
  8
0
  6
Continuous
 62
     7
370
    25
100
AcDbCircle
 10
0.1179761554
 20
0.1484305674
 30
0.0
 40
0.0000708
100
AcDbArc
 50
270.0
 51
0.0
  0
ARC
  5
299
330
1F
100
AcDbEntity
  8
0
  6
Continuous
 62
     7
370
    25
100
AcDbCircle
 10
0.1177637554
 20
0.1484305674
 30
0.0
 40
0.0000708
100
AcDbArc
 50
180.0
 51
270.0
  0
ARC
  5
29A
330
1F
100
AcDbEntity
  8
0
  6
Continuous
 62
     7
370
    25
100
AcDbCircle
 10
0.1177637554
 20
0.1645446577
 30
0.0
 40
0.0000708
100
AcDbArc
 50
90.0
 51
180.0
  0
ARC
  5
29B
330
1F
100
AcDbEntity
  8
0
  6
Continuous
 62
     7
370
    25
100
AcDbCircle
 10
0.1179761554
 20
0.1645446577
 30
0.0
 40
0.0000708
100
AcDbArc
 50
0.0
 51
90.0
  0
ARC
  5
29C
330
1F
100
AcDbEntity
  8
0
  6
Continuous
 62
     7
370
    25
100
AcDbCircle
 10
0.0926221554
 20
0.1634968132
 30
0.0
 40
0.0000708
100
AcDbArc
 50
0.0
 51
90.0
  0
ARC
  5
29D
330
1F
100
AcDbEntity
  8
0
  6
Continuous
 62
     7
370
    25
100
AcDbCircle
 10
0.0926221554
 20
0.1494784132
 30
0.0
 40
0.0000708
100
AcDbArc
 50
270.0
 51
0.0
  0
LINE
  5
29E
330
1F
100
AcDbEntity
  8
0
  6
Continuous
 62
     7
370
    25
100
AcDbLine
 10
0.0924097554
 20
0.1494076132
 30
0.0
 11
0.0926221554
 21
0.1494076132
 31
0.0
  0
LINE
  5
29F
330
1F
100
AcDbEntity
  8
0
  6
Continuous
 62
     7
370
    25
100
AcDbLine
 10
0.0926221554
 20
0.1635676132
 30
0.0
 11
0.0924097554
 21
0.1635676132
 31
0.0
  0
ARC
  5
2A0
330
1F
100
AcDbEntity
  8
0
  6
Continuous
 62
     7
370
    25
100
AcDbCircle
 10
0.0924097554
 20
0.1634968132
 30
0.0
 40
0.0000708
100
AcDbArc
 50
90.0
 51
180.0
  0
ARC
  5
2A1
330
1F
100
AcDbEntity
  8
0
  6
Continuous
 62
     7
370
    25
100
AcDbCircle
 10
0.0924097554
 20
0.1494784132
 30
0.0
 40
0.0000708
100
AcDbArc
 50
180.0
 51
270.0
  0
ARC
  5
2A2
330
1F
100
AcDbEntity
  8
0
  6
Continuous
 62
     7
370
    25
100
AcDbCircle
 10
0.0924097554
 20
0.1642089517
 30
0.0
 40
0.0000708
100
AcDbArc
 50
90.0
 51
180.0
  0
ARC
  5
2A3
330
1F
100
AcDbEntity
  8
0
  6
Continuous
 62
     7
370
    25
100
AcDbCircle
 10
0.0926221554
 20
0.1642089517
 30
0.0
 40
0.0000708
100
AcDbArc
 50
0.0
 51
90.0
  0
ARC
  5
2A4
330
1F
100
AcDbEntity
  8
0
  6
Continuous
 62
     7
370
    25
100
AcDbCircle
 10
0.0924097554
 20
0.1487662747
 30
0.0
 40
0.0000708
100
AcDbArc
 50
180.0
 51
270.0
  0
ARC
  5
2A5
330
1F
100
AcDbEntity
  8
0
  6
Continuous
 62
     7
370
    25
100
AcDbCircle
 10
0.0926221554
 20
0.1487662747
 30
0.0
 40
0.0000708
100
AcDbArc
 50
270.0
 51
0.0
  0
LINE
  5
2A6
330
1F
100
AcDbEntity
  8
0
  6
Continuous
 62
     7
370
    25
100
AcDbLine
 10
0.0926221554
 20
0.1642797517
 30
0.0
 11
0.0924097554
 21
0.1642797517
 31
0.0
  0
LINE
  5
2A7
330
1F
100
AcDbEntity
  8
0
  6
Continuous
 62
     7
370
    25
100
AcDbLine
 10
0.0924097554
 20
0.1486954747
 30
0.0
 11
0.0926221554
 21
0.1486954747
 31
0.0
  0
LINE
  5
2A8
330
1F
100
AcDbEntity
  8
0
  6
Continuous
 62
     7
370
    25
100
AcDbLine
 10
0.0926221554
 20
0.1646154583
 30
0.0
 11
0.0924097554
 21
0.1646154583
 31
0.0
  0
LINE
  5
2A9
330
1F
100
AcDbEntity
  8
0
  6
Continuous
 62
     7
370
    25
100
AcDbLine
 10
0.0924097554
 20
0.148359768
 30
0.0
 11
0.0926221554
 21
0.148359768
 31
0.0
  0
ARC
  5
2AA
330
1F
100
AcDbEntity
  8
0
  6
Continuous
 62
     7
370
    25
100
AcDbCircle
 10
0.0926221554
 20
0.1645446583
 30
0.0
 40
0.0000708
100
AcDbArc
 50
0.0
 51
90.0
  0
ARC
  5
2AB
330
1F
100
AcDbEntity
  8
0
  6
Continuous
 62
     7
370
    25
100
AcDbCircle
 10
0.0924097554
 20
0.1645446583
 30
0.0
 40
0.0000708
100
AcDbArc
 50
90.0
 51
180.0
  0
ARC
  5
2AC
330
1F
100
AcDbEntity
  8
0
  6
Continuous
 62
     7
370
    25
100
AcDbCircle
 10
0.0926221554
 20
0.148430568
 30
0.0
 40
0.0000708
100
AcDbArc
 50
270.0
 51
0.0
  0
ARC
  5
2AD
330
1F
100
AcDbEntity
  8
0
  6
Continuous
 62
     7
370
    25
100
AcDbCircle
 10
0.0924097554
 20
0.148430568
 30
0.0
 40
0.0000708
100
AcDbArc
 50
180.0
 51
270.0
  0
LINE
  5
2AE
330
1F
100
AcDbEntity
  8
0
  6
Continuous
 62
     7
370
    25
100
AcDbLine
 10
0.0722681554
 20
0.1529262276
 30
0.0
 11
0.0720557554
 21
0.1529262276
 31
0.0
  0
LINE
  5
2AF
330
1F
100
AcDbEntity
  8
0
  6
Continuous
 62
     7
370
    25
100
AcDbLine
 10
0.0720557554
 20
0.1516175703
 30
0.0
 11
0.0722681554
 21
0.1516175703
 31
0.0
  0
LINE
  5
2B0
330
1F
100
AcDbEntity
  8
0
  6
Continuous
 62
     7
370
    25
100
AcDbLine
 10
0.0722681554
 20
0.1613576646
 30
0.0
 11
0.0720557554
 21
0.1613576646
 31
0.0
  0
LINE
  5
2B1
330
1F
100
AcDbEntity
  8
0
  6
Continuous
 62
     7
370
    25
100
AcDbLine
 10
0.0720557554
 20
0.1600490073
 30
0.0
 11
0.0722681554
 21
0.1600490073
 31
0.0
  0
ARC
  5
2B2
330
1F
100
AcDbEntity
  8
0
  6
Continuous
 62
     7
370
    25
100
AcDbCircle
 10
0.0720557554
 20
0.1601198073
 30
0.0
 40
0.0000708
100
AcDbArc
 50
180.0
 51
270.0
  0
ARC
  5
2B3
330
1F
100
AcDbEntity
  8
0
  6
Continuous
 62
     7
370
    25
100
AcDbCircle
 10
0.0720557554
 20
0.1612868646
 30
0.0
 40
0.0000708
100
AcDbArc
 50
90.0
 51
180.0
  0
ARC
  5
2B4
330
1F
100
AcDbEntity
  8
0
  6
Continuous
 62
     7
370
    25
100
AcDbCircle
 10
0.0722681554
 20
0.1601198073
 30
0.0
 40
0.0000708
100
AcDbArc
 50
270.0
 51
0.0
  0
ARC
  5
2B5
330
1F
100
AcDbEntity
  8
0
  6
Continuous
 62
     7
370
    25
100
AcDbCircle
 10
0.0722681554
 20
0.1612868646
 30
0.0
 40
0.0000708
100
AcDbArc
 50
0.0
 51
90.0
  0
ARC
  5
2B6
330
1F
100
AcDbEntity
  8
0
  6
Continuous
 62
     7
370
    25
100
AcDbCircle
 10
0.0722681554
 20
0.1516883703
 30
0.0
 40
0.0000708
100
AcDbArc
 50
270.0
 51
0.0
  0
ARC
  5
2B7
330
1F
100
AcDbEntity
  8
0
  6
Continuous
 62
     7
370
    25
100
AcDbCircle
 10
0.0722681554
 20
0.1528554276
 30
0.0
 40
0.0000708
100
AcDbArc
 50
0.0
 51
90.0
  0
ARC
  5
2B8
330
1F
100
AcDbEntity
  8
0
  6
Continuous
 62
     7
370
    25
100
AcDbCircle
 10
0.0720557554
 20
0.1516883703
 30
0.0
 40
0.0000708
100
AcDbArc
 50
180.0
 51
270.0
  0
ARC
  5
2B9
330
1F
100
AcDbEntity
  8
0
  6
Continuous
 62
     7
370
    25
100
AcDbCircle
 10
0.0720557554
 20
0.1528554276
 30
0.0
 40
0.0000708
100
AcDbArc
 50
90.0
 51
180.0
  0
ARC
  5
2BA
330
1F
100
AcDbEntity
  8
0
  6
Continuous
 62
     7
370
    25
100
AcDbCircle
 10
0.0720557554
 20
0.1598819606
 30
0.0
 40
0.0000708
100
AcDbArc
 50
180.0
 51
270.0
  0
ARC
  5
2BB
330
1F
100
AcDbEntity
  8
0
  6
Continuous
 62
     7
370
    25
100
AcDbCircle
 10
0.0720557554
 20
0.1615247112
 30
0.0
 40
0.0000708
100
AcDbArc
 50
90.0
 51
180.0
  0
ARC
  5
2BC
330
1F
100
AcDbEntity
  8
0
  6
Continuous
 62
     7
370
    25
100
AcDbCircle
 10
0.0720557554
 20
0.1514505237
 30
0.0
 40
0.0000708
100
AcDbArc
 50
180.0
 51
270.0
  0
ARC
  5
2BD
330
1F
100
AcDbEntity
  8
0
  6
Continuous
 62
     7
370
    25
100
AcDbCircle
 10
0.0720557554
 20
0.1530932743
 30
0.0
 40
0.0000708
100
AcDbArc
 50
90.0
 51
180.0
  0
ARC
  5
2BE
330
1F
100
AcDbEntity
  8
0
  6
Continuous
 62
     7
370
    25
100
AcDbCircle
 10
0.0722681554
 20
0.1530932743
 30
0.0
 40
0.0000708
100
AcDbArc
 50
0.0
 51
90.0
  0
ARC
  5
2BF
330
1F
100
AcDbEntity
  8
0
  6
Continuous
 62
     7
370
    25
100
AcDbCircle
 10
0.0722681554
 20
0.1615247112
 30
0.0
 40
0.0000708
100
AcDbArc
 50
0.0
 51
90.0
  0
ARC
  5
2C0
330
1F
100
AcDbEntity
  8
0
  6
Continuous
 62
     7
370
    25
100
AcDbCircle
 10
0.0722681554
 20
0.1598819606
 30
0.0
 40
0.0000708
100
AcDbArc
 50
270.0
 51
0.0
  0
ARC
  5
2C1
330
1F
100
AcDbEntity
  8
0
  6
Continuous
 62
     7
370
    25
100
AcDbCircle
 10
0.0722681554
 20
0.1514505237
 30
0.0
 40
0.0000708
100
AcDbArc
 50
270.0
 51
0.0
  0
LINE
  5
2C2
330
1F
100
AcDbEntity
  8
0
  6
Continuous
 62
     7
370
    25
100
AcDbLine
 10
0.0720557554
 20
0.1598111606
 30
0.0
 11
0.0722681554
 21
0.1598111606
 31
0.0
  0
LINE
  5
2C3
330
1F
100
AcDbEntity
  8
0
  6
Continuous
 62
     7
370
    25
100
AcDbLine
 10
0.0722681554
 20
0.1531640743
 30
0.0
 11
0.0720557554
 21
0.1531640743
 31
0.0
  0
LINE
  5
2C4
330
1F
100
AcDbEntity
  8
0
  6
Continuous
 62
     7
370
    25
100
AcDbLine
 10
0.0720557554
 20
0.1513797237
 30
0.0
 11
0.0722681554
 21
0.1513797237
 31
0.0
  0
LINE
  5
2C5
330
1F
100
AcDbEntity
  8
0
  6
Continuous
 62
     7
370
    25
100
AcDbLine
 10
0.0722681554
 20
0.1615955112
 30
0.0
 11
0.0720557554
 21
0.1615955112
 31
0.0
  0
ARC
  5
2C6
330
1F
100
AcDbEntity
  8
0
  6
Continuous
 62
     7
370
    25
100
AcDbCircle
 10
0.0720557554
 20
0.1634968175
 30
0.0
 40
0.0000708
100
AcDbArc
 50
90.0
 51
180.0
  0
ARC
  5
2C7
330
1F
100
AcDbEntity
  8
0
  6
Continuous
 62
     7
370
    25
100
AcDbCircle
 10
0.0722681554
 20
0.1634968175
 30
0.0
 40
0.0000708
100
AcDbArc
 50
0.0
 51
90.0
  0
ARC
  5
2C8
330
1F
100
AcDbEntity
  8
0
  6
Continuous
 62
     7
370
    25
100
AcDbCircle
 10
0.0720557554
 20
0.1494784175
 30
0.0
 40
0.0000708
100
AcDbArc
 50
180.0
 51
270.0
  0
ARC
  5
2C9
330
1F
100
AcDbEntity
  8
0
  6
Continuous
 62
     7
370
    25
100
AcDbCircle
 10
0.0722681554
 20
0.1494784175
 30
0.0
 40
0.0000708
100
AcDbArc
 50
270.0
 51
0.0
  0
LINE
  5
2CA
330
1F
100
AcDbEntity
  8
0
  6
Continuous
 62
     7
370
    25
100
AcDbLine
 10
0.0722681554
 20
0.1635676175
 30
0.0
 11
0.0720557554
 21
0.1635676175
 31
0.0
  0
LINE
  5
2CB
330
1F
100
AcDbEntity
  8
0
  6
Continuous
 62
     7
370
    25
100
AcDbLine
 10
0.0720557554
 20
0.1494076175
 30
0.0
 11
0.0722681554
 21
0.1494076175
 31
0.0
  0
ARC
  5
2CC
330
1F
100
AcDbEntity
  8
0
  6
Continuous
 62
     7
370
    25
100
AcDbCircle
 10
0.0722681554
 20
0.148766279
 30
0.0
 40
0.0000708
100
AcDbArc
 50
270.0
 51
0.0
  0
ARC
  5
2CD
330
1F
100
AcDbEntity
  8
0
  6
Continuous
 62
     7
370
    25
100
AcDbCircle
 10
0.0720557554
 20
0.148766279
 30
0.0
 40
0.0000708
100
AcDbArc
 50
180.0
 51
270.0
  0
ARC
  5
2CE
330
1F
100
AcDbEntity
  8
0
  6
Continuous
 62
     7
370
    25
100
AcDbCircle
 10
0.0720557554
 20
0.1642089559
 30
0.0
 40
0.0000708
100
AcDbArc
 50
90.0
 51
180.0
  0
ARC
  5
2CF
330
1F
100
AcDbEntity
  8
0
  6
Continuous
 62
     7
370
    25
100
AcDbCircle
 10
0.0722681554
 20
0.1642089559
 30
0.0
 40
0.0000708
100
AcDbArc
 50
0.0
 51
90.0
  0
LINE
  5
2D0
330
1F
100
AcDbEntity
  8
0
  6
Continuous
 62
     7
370
    25
100
AcDbLine
 10
0.0722681554
 20
0.1642797559
 30
0.0
 11
0.0720557554
 21
0.1642797559
 31
0.0
  0
LINE
  5
2D1
330
1F
100
AcDbEntity
  8
0
  6
Continuous
 62
     7
370
    25
100
AcDbLine
 10
0.0720557554
 20
0.148695479
 30
0.0
 11
0.0722681554
 21
0.148695479
 31
0.0
  0
LINE
  5
2D2
330
1F
100
AcDbEntity
  8
0
  6
Continuous
 62
     7
370
    25
100
AcDbLine
 10
0.0720557554
 20
0.1483597723
 30
0.0
 11
0.0722681554
 21
0.1483597723
 31
0.0
  0
LINE
  5
2D3
330
1F
100
AcDbEntity
  8
0
  6
Continuous
 62
     7
370
    25
100
AcDbLine
 10
0.0722681554
 20
0.1646154626
 30
0.0
 11
0.0720557554
 21
0.1646154626
 31
0.0
  0
ARC
  5
2D4
330
1F
100
AcDbEntity
  8
0
  6
Continuous
 62
     7
370
    25
100
AcDbCircle
 10
0.0720557554
 20
0.1484305723
 30
0.0
 40
0.0000708
100
AcDbArc
 50
180.0
 51
270.0
  0
ARC
  5
2D5
330
1F
100
AcDbEntity
  8
0
  6
Continuous
 62
     7
370
    25
100
AcDbCircle
 10
0.0722681554
 20
0.1484305723
 30
0.0
 40
0.0000708
100
AcDbArc
 50
270.0
 51
0.0
  0
ARC
  5
2D6
330
1F
100
AcDbEntity
  8
0
  6
Continuous
 62
     7
370
    25
100
AcDbCircle
 10
0.0722681554
 20
0.1645446626
 30
0.0
 40
0.0000708
100
AcDbArc
 50
0.0
 51
90.0
  0
ARC
  5
2D7
330
1F
100
AcDbEntity
  8
0
  6
Continuous
 62
     7
370
    25
100
AcDbCircle
 10
0.0720557554
 20
0.1645446626
 30
0.0
 40
0.0000708
100
AcDbArc
 50
90.0
 51
180.0
  0
LINE
  5
2D8
330
1F
100
AcDbEntity
  8
0
  6
Continuous
 62
     7
370
    25
100
AcDbLine
 10
0.0932929554
 20
0.1507780503
 30
0.0
 11
0.0973033967
 21
0.1507780503
 31
0.0
  0
LINE
  5
2D9
330
1F
100
AcDbEntity
  8
0
  6
Continuous
 62
     7
370
    25
100
AcDbLine
 10
0.0980825141
 20
0.1507780503
 30
0.0
 11
0.1023033967
 21
0.1507780503
 31
0.0
  0
LINE
  5
2DA
330
1F
100
AcDbEntity
  8
0
  6
Continuous
 62
     7
370
    25
100
AcDbLine
 10
0.1030825141
 20
0.1507780503
 30
0.0
 11
0.1073033967
 21
0.1507780503
 31
0.0
  0
LINE
  5
2DB
330
1F
100
AcDbEntity
  8
0
  6
Continuous
 62
     7
370
    25
100
AcDbLine
 10
0.1080825141
 20
0.1507780503
 30
0.0
 11
0.1123033967
 21
0.1507780503
 31
0.0
  0
LINE
  5
2DC
330
1F
100
AcDbEntity
  8
0
  6
Continuous
 62
     7
370
    25
100
AcDbLine
 10
0.1130825141
 20
0.1507780503
 30
0.0
 11
0.1170929554
 21
0.1507780503
 31
0.0
  0
LINE
  5
2DD
330
1F
100
AcDbEntity
  8
0
  6
Continuous
 62
     7
370
    25
100
AcDbLine
 10
0.1170929554
 20
0.1511120503
 30
0.0
 11
0.1130825141
 21
0.1511120503
 31
0.0
  0
LINE
  5
2DE
330
1F
100
AcDbEntity
  8
0
  6
Continuous
 62
     7
370
    25
100
AcDbLine
 10
0.1123033967
 20
0.1511120503
 30
0.0
 11
0.1080825141
 21
0.1511120503
 31
0.0
  0
LINE
  5
2DF
330
1F
100
AcDbEntity
  8
0
  6
Continuous
 62
     7
370
    25
100
AcDbLine
 10
0.1073033967
 20
0.1511120503
 30
0.0
 11
0.1030825141
 21
0.1511120503
 31
0.0
  0
LINE
  5
2E0
330
1F
100
AcDbEntity
  8
0
  6
Continuous
 62
     7
370
    25
100
AcDbLine
 10
0.1023033967
 20
0.1511120503
 30
0.0
 11
0.0980825141
 21
0.1511120503
 31
0.0
  0
LINE
  5
2E1
330
1F
100
AcDbEntity
  8
0
  6
Continuous
 62
     7
370
    25
100
AcDbLine
 10
0.0973033967
 20
0.1511120503
 30
0.0
 11
0.0932929554
 21
0.1511120503
 31
0.0
  0
LINE
  5
2E2
330
1F
100
AcDbEntity
  8
0
  6
Continuous
 62
     7
370
    25
100
AcDbLine
 10
0.0932929554
 20
0.1618631755
 30
0.0
 11
0.0973033967
 21
0.1618631755
 31
0.0
  0
LINE
  5
2E3
330
1F
100
AcDbEntity
  8
0
  6
Continuous
 62
     7
370
    25
100
AcDbLine
 10
0.0980825141
 20
0.1618631755
 30
0.0
 11
0.1023033967
 21
0.1618631755
 31
0.0
  0
LINE
  5
2E4
330
1F
100
AcDbEntity
  8
0
  6
Continuous
 62
     7
370
    25
100
AcDbLine
 10
0.1030825141
 20
0.1618631755
 30
0.0
 11
0.1073033967
 21
0.1618631755
 31
0.0
  0
LINE
  5
2E5
330
1F
100
AcDbEntity
  8
0
  6
Continuous
 62
     7
370
    25
100
AcDbLine
 10
0.1080825141
 20
0.1618631755
 30
0.0
 11
0.1123033967
 21
0.1618631755
 31
0.0
  0
LINE
  5
2E6
330
1F
100
AcDbEntity
  8
0
  6
Continuous
 62
     7
370
    25
100
AcDbLine
 10
0.1130825141
 20
0.1618631755
 30
0.0
 11
0.1170929554
 21
0.1618631755
 31
0.0
  0
LINE
  5
2E7
330
1F
100
AcDbEntity
  8
0
  6
Continuous
 62
     7
370
    25
100
AcDbLine
 10
0.1170929554
 20
0.1621971755
 30
0.0
 11
0.1130825141
 21
0.1621971755
 31
0.0
  0
LINE
  5
2E8
330
1F
100
AcDbEntity
  8
0
  6
Continuous
 62
     7
370
    25
100
AcDbLine
 10
0.1123033967
 20
0.1621971755
 30
0.0
 11
0.1080825141
 21
0.1621971755
 31
0.0
  0
LINE
  5
2E9
330
1F
100
AcDbEntity
  8
0
  6
Continuous
 62
     7
370
    25
100
AcDbLine
 10
0.1073033967
 20
0.1621971755
 30
0.0
 11
0.1030825141
 21
0.1621971755
 31
0.0
  0
LINE
  5
2EA
330
1F
100
AcDbEntity
  8
0
  6
Continuous
 62
     7
370
    25
100
AcDbLine
 10
0.1023033967
 20
0.1621971755
 30
0.0
 11
0.0980825141
 21
0.1621971755
 31
0.0
  0
LINE
  5
2EB
330
1F
100
AcDbEntity
  8
0
  6
Continuous
 62
     7
370
    25
100
AcDbLine
 10
0.0973033967
 20
0.1621971755
 30
0.0
 11
0.0932929554
 21
0.1621971755
 31
0.0
  0
LINE
  5
2EC
330
1F
100
AcDbEntity
  8
0
  6
Continuous
 62
     7
370
    25
100
AcDbLine
 10
0.0932929554
 20
0.1563206129
 30
0.0
 11
0.0973033967
 21
0.1563206129
 31
0.0
  0
LINE
  5
2ED
330
1F
100
AcDbEntity
  8
0
  6
Continuous
 62
     7
370
    25
100
AcDbLine
 10
0.0980825141
 20
0.1563206129
 30
0.0
 11
0.1023033967
 21
0.1563206129
 31
0.0
  0
LINE
  5
2EE
330
1F
100
AcDbEntity
  8
0
  6
Continuous
 62
     7
370
    25
100
AcDbLine
 10
0.1030825141
 20
0.1563206129
 30
0.0
 11
0.1073033967
 21
0.1563206129
 31
0.0
  0
LINE
  5
2EF
330
1F
100
AcDbEntity
  8
0
  6
Continuous
 62
     7
370
    25
100
AcDbLine
 10
0.1080825141
 20
0.1563206129
 30
0.0
 11
0.1123033967
 21
0.1563206129
 31
0.0
  0
LINE
  5
2F0
330
1F
100
AcDbEntity
  8
0
  6
Continuous
 62
     7
370
    25
100
AcDbLine
 10
0.1130825141
 20
0.1563206129
 30
0.0
 11
0.1170929554
 21
0.1563206129
 31
0.0
  0
LINE
  5
2F1
330
1F
100
AcDbEntity
  8
0
  6
Continuous
 62
     7
370
    25
100
AcDbLine
 10
0.1170929554
 20
0.1566546129
 30
0.0
 11
0.1130825141
 21
0.1566546129
 31
0.0
  0
LINE
  5
2F2
330
1F
100
AcDbEntity
  8
0
  6
Continuous
 62
     7
370
    25
100
AcDbLine
 10
0.1123033967
 20
0.1566546129
 30
0.0
 11
0.1080825141
 21
0.1566546129
 31
0.0
  0
LINE
  5
2F3
330
1F
100
AcDbEntity
  8
0
  6
Continuous
 62
     7
370
    25
100
AcDbLine
 10
0.1073033967
 20
0.1566546129
 30
0.0
 11
0.1030825141
 21
0.1566546129
 31
0.0
  0
LINE
  5
2F4
330
1F
100
AcDbEntity
  8
0
  6
Continuous
 62
     7
370
    25
100
AcDbLine
 10
0.1023033967
 20
0.1566546129
 30
0.0
 11
0.0980825141
 21
0.1566546129
 31
0.0
  0
LINE
  5
2F5
330
1F
100
AcDbEntity
  8
0
  6
Continuous
 62
     7
370
    25
100
AcDbLine
 10
0.0973033967
 20
0.1566546129
 30
0.0
 11
0.0932929554
 21
0.1566546129
 31
0.0
  0
LINE
  5
2F6
330
1F
100
AcDbEntity
  8
0
  6
Continuous
 62
     7
370
    25
100
AcDbLine
 10
0.1078599554
 20
0.1568771716
 30
0.0
 11
0.1078599554
 21
0.1618252188
 31
0.0
  0
LINE
  5
2F7
330
1F
100
AcDbEntity
  8
0
  6
Continuous
 62
     7
370
    25
100
AcDbLine
 10
0.1075259554
 20
0.1618252188
 30
0.0
 11
0.1075259554
 21
0.1568771716
 31
0.0
  0
ARC
  5
2F8
330
1F
100
AcDbEntity
  8
0
  6
Continuous
 62
     7
370
    25
100
AcDbCircle
 10
0.1076929554
 20
0.1628876129
 30
0.0
 40
0.000167
100
AcDbArc
 50
0.0
 51
180.0
  0
LINE
  5
2F9
330
1F
100
AcDbEntity
  8
0
  6
Continuous
 62
     7
370
    25
100
AcDbLine
 10
0.1078599554
 20
0.1624197341
 30
0.0
 11
0.1078599554
 21
0.1628876129
 31
0.0
  0
LINE
  5
2FA
330
1F
100
AcDbEntity
  8
0
  6
Continuous
 62
     7
370
    25
100
AcDbLine
 10
0.1075259554
 20
0.1628876129
 30
0.0
 11
0.1075259554
 21
0.1624197341
 31
0.0
  0
LINE
  5
2FB
330
1F
100
AcDbEntity
  8
0
  6
Continuous
 62
     7
370
    25
100
AcDbLine
 10
0.1078599554
 20
0.151150007
 30
0.0
 11
0.1078599554
 21
0.1560980542
 31
0.0
  0
LINE
  5
2FC
330
1F
100
AcDbEntity
  8
0
  6
Continuous
 62
     7
370
    25
100
AcDbLine
 10
0.1075259554
 20
0.1560980542
 30
0.0
 11
0.1075259554
 21
0.151150007
 31
0.0
  0
ARC
  5
2FD
330
1F
100
AcDbEntity
  8
0
  6
Continuous
 62
     7
370
    25
100
AcDbCircle
 10
0.1076929554
 20
0.1500876129
 30
0.0
 40
0.000167
100
AcDbArc
 50
180.0
 51
0.0
  0
LINE
  5
2FE
330
1F
100
AcDbEntity
  8
0
  6
Continuous
 62
     7
370
    25
100
AcDbLine
 10
0.1078599554
 20
0.1500876129
 30
0.0
 11
0.1078599554
 21
0.1505554916
 31
0.0
  0
LINE
  5
2FF
330
1F
100
AcDbEntity
  8
0
  6
Continuous
 62
     7
370
    25
100
AcDbLine
 10
0.1075259554
 20
0.1505554916
 30
0.0
 11
0.1075259554
 21
0.1500876129
 31
0.0
  0
LINE
  5
300
330
1F
100
AcDbEntity
  8
0
  6
Continuous
 62
     7
370
    25
100
AcDbLine
 10
0.1028599554
 20
0.1568771716
 30
0.0
 11
0.1028599554
 21
0.1618252188
 31
0.0
  0
LINE
  5
301
330
1F
100
AcDbEntity
  8
0
  6
Continuous
 62
     7
370
    25
100
AcDbLine
 10
0.1025259554
 20
0.1618252188
 30
0.0
 11
0.1025259554
 21
0.1568771716
 31
0.0
  0
ARC
  5
302
330
1F
100
AcDbEntity
  8
0
  6
Continuous
 62
     7
370
    25
100
AcDbCircle
 10
0.1026929554
 20
0.1628876129
 30
0.0
 40
0.000167
100
AcDbArc
 50
0.0
 51
180.0
  0
LINE
  5
303
330
1F
100
AcDbEntity
  8
0
  6
Continuous
 62
     7
370
    25
100
AcDbLine
 10
0.1028599554
 20
0.1624197341
 30
0.0
 11
0.1028599554
 21
0.1628876129
 31
0.0
  0
LINE
  5
304
330
1F
100
AcDbEntity
  8
0
  6
Continuous
 62
     7
370
    25
100
AcDbLine
 10
0.1025259554
 20
0.1628876129
 30
0.0
 11
0.1025259554
 21
0.1624197341
 31
0.0
  0
LINE
  5
305
330
1F
100
AcDbEntity
  8
0
  6
Continuous
 62
     7
370
    25
100
AcDbLine
 10
0.1028599554
 20
0.151150007
 30
0.0
 11
0.1028599554
 21
0.1560980542
 31
0.0
  0
LINE
  5
306
330
1F
100
AcDbEntity
  8
0
  6
Continuous
 62
     7
370
    25
100
AcDbLine
 10
0.1025259554
 20
0.1560980542
 30
0.0
 11
0.1025259554
 21
0.151150007
 31
0.0
  0
ARC
  5
307
330
1F
100
AcDbEntity
  8
0
  6
Continuous
 62
     7
370
    25
100
AcDbCircle
 10
0.1026929554
 20
0.1500876129
 30
0.0
 40
0.000167
100
AcDbArc
 50
180.0
 51
0.0
  0
LINE
  5
308
330
1F
100
AcDbEntity
  8
0
  6
Continuous
 62
     7
370
    25
100
AcDbLine
 10
0.1028599554
 20
0.1500876129
 30
0.0
 11
0.1028599554
 21
0.1505554916
 31
0.0
  0
LINE
  5
309
330
1F
100
AcDbEntity
  8
0
  6
Continuous
 62
     7
370
    25
100
AcDbLine
 10
0.1025259554
 20
0.1505554916
 30
0.0
 11
0.1025259554
 21
0.1500876129
 31
0.0
  0
LINE
  5
30A
330
1F
100
AcDbEntity
  8
0
  6
Continuous
 62
     7
370
    25
100
AcDbLine
 10
0.0978599554
 20
0.151150007
 30
0.0
 11
0.0978599554
 21
0.1560980542
 31
0.0
  0
LINE
  5
30B
330
1F
100
AcDbEntity
  8
0
  6
Continuous
 62
     7
370
    25
100
AcDbLine
 10
0.0975259554
 20
0.1560980542
 30
0.0
 11
0.0975259554
 21
0.151150007
 31
0.0
  0
ARC
  5
30C
330
1F
100
AcDbEntity
  8
0
  6
Continuous
 62
     7
370
    25
100
AcDbCircle
 10
0.0976929554
 20
0.1500876129
 30
0.0
 40
0.000167
100
AcDbArc
 50
180.0
 51
0.0
  0
LINE
  5
30D
330
1F
100
AcDbEntity
  8
0
  6
Continuous
 62
     7
370
    25
100
AcDbLine
 10
0.0978599554
 20
0.1500876129
 30
0.0
 11
0.0978599554
 21
0.1505554916
 31
0.0
  0
LINE
  5
30E
330
1F
100
AcDbEntity
  8
0
  6
Continuous
 62
     7
370
    25
100
AcDbLine
 10
0.0975259554
 20
0.1505554916
 30
0.0
 11
0.0975259554
 21
0.1500876129
 31
0.0
  0
ARC
  5
30F
330
1F
100
AcDbEntity
  8
0
  6
Continuous
 62
     7
370
    25
100
AcDbCircle
 10
0.0976929554
 20
0.1628876129
 30
0.0
 40
0.000167
100
AcDbArc
 50
0.0
 51
180.0
  0
LINE
  5
310
330
1F
100
AcDbEntity
  8
0
  6
Continuous
 62
     7
370
    25
100
AcDbLine
 10
0.0978599554
 20
0.1624197341
 30
0.0
 11
0.0978599554
 21
0.1628876129
 31
0.0
  0
LINE
  5
311
330
1F
100
AcDbEntity
  8
0
  6
Continuous
 62
     7
370
    25
100
AcDbLine
 10
0.0975259554
 20
0.1628876129
 30
0.0
 11
0.0975259554
 21
0.1624197341
 31
0.0
  0
LINE
  5
312
330
1F
100
AcDbEntity
  8
0
  6
Continuous
 62
     7
370
    25
100
AcDbLine
 10
0.0978599554
 20
0.1568771716
 30
0.0
 11
0.0978599554
 21
0.1618252188
 31
0.0
  0
LINE
  5
313
330
1F
100
AcDbEntity
  8
0
  6
Continuous
 62
     7
370
    25
100
AcDbLine
 10
0.0975259554
 20
0.1618252188
 30
0.0
 11
0.0975259554
 21
0.1568771716
 31
0.0
  0
LINE
  5
314
330
1F
100
AcDbEntity
  8
0
  6
Continuous
 62
     7
370
    25
100
AcDbLine
 10
0.0927129554
 20
0.1618201755
 30
0.0
 11
0.0932729554
 21
0.1618201755
 31
0.0
  0
LINE
  5
315
330
1F
100
AcDbEntity
  8
0
  6
Continuous
 62
     7
370
    25
100
AcDbLine
 10
0.0932729554
 20
0.1622401755
 30
0.0
 11
0.0927129554
 21
0.1622401755
 31
0.0
  0
ARC
  5
316
330
1F
100
AcDbEntity
  8
0
  6
Continuous
 62
     7
370
    25
100
AcDbCircle
 10
0.0927129554
 20
0.1618401755
 30
0.0
 40
0.00002
100
AcDbArc
 50
180.0
 51
270.0
  0
ARC
  5
317
330
1F
100
AcDbEntity
  8
0
  6
Continuous
 62
     7
370
    25
100
AcDbCircle
 10
0.0927129554
 20
0.1622201755
 30
0.0
 40
0.00002
100
AcDbArc
 50
90.0
 51
180.0
  0
ARC
  5
318
330
1F
100
AcDbEntity
  8
0
  6
Continuous
 62
     7
370
    25
100
AcDbCircle
 10
0.0932729554
 20
0.1618401755
 30
0.0
 40
0.00002
100
AcDbArc
 50
270.0
 51
0.0
  0
ARC
  5
319
330
1F
100
AcDbEntity
  8
0
  6
Continuous
 62
     7
370
    25
100
AcDbCircle
 10
0.0932729554
 20
0.1622201755
 30
0.0
 40
0.00002
100
AcDbArc
 50
0.0
 51
90.0
  0
LINE
  5
31A
330
1F
100
AcDbEntity
  8
0
  6
Continuous
 62
     7
370
    25
100
AcDbLine
 10
0.0923389554
 20
0.1621301755
 30
0.0
 11
0.0921401852
 21
0.1621301755
 31
0.0
  0
LINE
  5
31B
330
1F
100
AcDbEntity
  8
0
  6
Continuous
 62
     7
370
    25
100
AcDbLine
 10
0.0921590116
 20
0.1619301755
 30
0.0
 11
0.0923389554
 21
0.1619301755
 31
0.0
  0
LINE
  5
31C
330
1F
100
AcDbEntity
  8
0
  6
Continuous
 62
     7
370
    25
100
AcDbLine
 10
0.0923389554
 20
0.1565876129
 30
0.0
 11
0.0921495467
 21
0.1565876129
 31
0.0
  0
LINE
  5
31D
330
1F
100
AcDbEntity
  8
0
  6
Continuous
 62
     7
370
    25
100
AcDbLine
 10
0.0921495467
 20
0.1563876129
 30
0.0
 11
0.0923389554
 21
0.1563876129
 31
0.0
  0
LINE
  5
31E
330
1F
100
AcDbEntity
  8
0
  6
Continuous
 62
     7
370
    25
100
AcDbLine
 10
0.0923389554
 20
0.1510450503
 30
0.0
 11
0.0921590115
 21
0.1510450503
 31
0.0
  0
LINE
  5
31F
330
1F
100
AcDbEntity
  8
0
  6
Continuous
 62
     7
370
    25
100
AcDbLine
 10
0.0921401851
 20
0.1508450503
 30
0.0
 11
0.0923389554
 21
0.1508450503
 31
0.0
  0
LINE
  5
320
330
1F
100
AcDbEntity
  8
0
  6
Continuous
 62
     7
370
    25
100
AcDbLine
 10
0.0927129554
 20
0.1562776129
 30
0.0
 11
0.0932729554
 21
0.1562776129
 31
0.0
  0
LINE
  5
321
330
1F
100
AcDbEntity
  8
0
  6
Continuous
 62
     7
370
    25
100
AcDbLine
 10
0.0932729554
 20
0.1566976129
 30
0.0
 11
0.0927129554
 21
0.1566976129
 31
0.0
  0
ARC
  5
322
330
1F
100
AcDbEntity
  8
0
  6
Continuous
 62
     7
370
    25
100
AcDbCircle
 10
0.0932729554
 20
0.1562976129
 30
0.0
 40
0.00002
100
AcDbArc
 50
270.0
 51
0.0
  0
ARC
  5
323
330
1F
100
AcDbEntity
  8
0
  6
Continuous
 62
     7
370
    25
100
AcDbCircle
 10
0.0932729554
 20
0.1566776129
 30
0.0
 40
0.00002
100
AcDbArc
 50
0.0
 51
90.0
  0
ARC
  5
324
330
1F
100
AcDbEntity
  8
0
  6
Continuous
 62
     7
370
    25
100
AcDbCircle
 10
0.0927129554
 20
0.1562976129
 30
0.0
 40
0.00002
100
AcDbArc
 50
180.0
 51
270.0
  0
ARC
  5
325
330
1F
100
AcDbEntity
  8
0
  6
Continuous
 62
     7
370
    25
100
AcDbCircle
 10
0.0927129554
 20
0.1566776129
 30
0.0
 40
0.00002
100
AcDbArc
 50
90.0
 51
180.0
  0
ARC
  5
326
330
1F
100
AcDbEntity
  8
0
  6
Continuous
 62
     7
370
    25
100
AcDbCircle
 10
0.0932729554
 20
0.1507550503
 30
0.0
 40
0.00002
100
AcDbArc
 50
270.0
 51
0.0
  0
ARC
  5
327
330
1F
100
AcDbEntity
  8
0
  6
Continuous
 62
     7
370
    25
100
AcDbCircle
 10
0.0932729554
 20
0.1511350503
 30
0.0
 40
0.00002
100
AcDbArc
 50
0.0
 51
90.0
  0
LINE
  5
328
330
1F
100
AcDbEntity
  8
0
  6
Continuous
 62
     7
370
    25
100
AcDbLine
 10
0.0927129554
 20
0.1507350503
 30
0.0
 11
0.0932729554
 21
0.1507350503
 31
0.0
  0
LINE
  5
329
330
1F
100
AcDbEntity
  8
0
  6
Continuous
 62
     7
370
    25
100
AcDbLine
 10
0.0932729554
 20
0.1511550503
 30
0.0
 11
0.0927129554
 21
0.1511550503
 31
0.0
  0
ARC
  5
32A
330
1F
100
AcDbEntity
  8
0
  6
Continuous
 62
     7
370
    25
100
AcDbCircle
 10
0.0927129554
 20
0.1507550503
 30
0.0
 40
0.00002
100
AcDbArc
 50
180.0
 51
270.0
  0
ARC
  5
32B
330
1F
100
AcDbEntity
  8
0
  6
Continuous
 62
     7
370
    25
100
AcDbCircle
 10
0.0927129554
 20
0.1511350503
 30
0.0
 40
0.00002
100
AcDbArc
 50
90.0
 51
180.0
  0
ARC
  5
32C
330
1F
100
AcDbEntity
  8
0
  6
Continuous
 62
     7
370
    25
100
AcDbCircle
 10
0.1176729554
 20
0.1566776129
 30
0.0
 40
0.00002
100
AcDbArc
 50
0.0
 51
90.0
  0
ARC
  5
32D
330
1F
100
AcDbEntity
  8
0
  6
Continuous
 62
     7
370
    25
100
AcDbCircle
 10
0.1176729554
 20
0.1562976129
 30
0.0
 40
0.00002
100
AcDbArc
 50
270.0
 51
0.0
  0
LINE
  5
32E
330
1F
100
AcDbEntity
  8
0
  6
Continuous
 62
     7
370
    25
100
AcDbLine
 10
0.1176729554
 20
0.1566976129
 30
0.0
 11
0.1171129554
 21
0.1566976129
 31
0.0
  0
LINE
  5
32F
330
1F
100
AcDbEntity
  8
0
  6
Continuous
 62
     7
370
    25
100
AcDbLine
 10
0.1171129554
 20
0.1562776129
 30
0.0
 11
0.1176729554
 21
0.1562776129
 31
0.0
  0
ARC
  5
330
330
1F
100
AcDbEntity
  8
0
  6
Continuous
 62
     7
370
    25
100
AcDbCircle
 10
0.1171129554
 20
0.1566776129
 30
0.0
 40
0.00002
100
AcDbArc
 50
90.0
 51
180.0
  0
ARC
  5
331
330
1F
100
AcDbEntity
  8
0
  6
Continuous
 62
     7
370
    25
100
AcDbCircle
 10
0.1171129554
 20
0.1562976129
 30
0.0
 40
0.00002
100
AcDbArc
 50
180.0
 51
270.0
  0
LINE
  5
332
330
1F
100
AcDbEntity
  8
0
  6
Continuous
 62
     7
370
    25
100
AcDbLine
 10
0.1180469554
 20
0.1563876129
 30
0.0
 11
0.1182363641
 21
0.1563876129
 31
0.0
  0
LINE
  5
333
330
1F
100
AcDbEntity
  8
0
  6
Continuous
 62
     7
370
    25
100
AcDbLine
 10
0.1182363641
 20
0.1565876129
 30
0.0
 11
0.1180469554
 21
0.1565876129
 31
0.0
  0
LINE
  5
334
330
1F
100
AcDbEntity
  8
0
  6
Continuous
 62
     7
370
    25
100
AcDbLine
 10
0.1180469554
 20
0.1508450503
 30
0.0
 11
0.1182457256
 21
0.1508450503
 31
0.0
  0
LINE
  5
335
330
1F
100
AcDbEntity
  8
0
  6
Continuous
 62
     7
370
    25
100
AcDbLine
 10
0.1182268992
 20
0.1510450503
 30
0.0
 11
0.1180469554
 21
0.1510450503
 31
0.0
  0
ARC
  5
336
330
1F
100
AcDbEntity
  8
0
  6
Continuous
 62
     7
370
    25
100
AcDbCircle
 10
0.1176729554
 20
0.1511350503
 30
0.0
 40
0.00002
100
AcDbArc
 50
0.0
 51
90.0
  0
ARC
  5
337
330
1F
100
AcDbEntity
  8
0
  6
Continuous
 62
     7
370
    25
100
AcDbCircle
 10
0.1176729554
 20
0.1507550503
 30
0.0
 40
0.00002
100
AcDbArc
 50
270.0
 51
0.0
  0
ARC
  5
338
330
1F
100
AcDbEntity
  8
0
  6
Continuous
 62
     7
370
    25
100
AcDbCircle
 10
0.1171129554
 20
0.1511350503
 30
0.0
 40
0.00002
100
AcDbArc
 50
90.0
 51
180.0
  0
ARC
  5
339
330
1F
100
AcDbEntity
  8
0
  6
Continuous
 62
     7
370
    25
100
AcDbCircle
 10
0.1171129554
 20
0.1507550503
 30
0.0
 40
0.00002
100
AcDbArc
 50
180.0
 51
270.0
  0
LINE
  5
33A
330
1F
100
AcDbEntity
  8
0
  6
Continuous
 62
     7
370
    25
100
AcDbLine
 10
0.1176729554
 20
0.1511550503
 30
0.0
 11
0.1171129554
 21
0.1511550503
 31
0.0
  0
LINE
  5
33B
330
1F
100
AcDbEntity
  8
0
  6
Continuous
 62
     7
370
    25
100
AcDbLine
 10
0.1171129554
 20
0.1507350503
 30
0.0
 11
0.1176729554
 21
0.1507350503
 31
0.0
  0
ARC
  5
33C
330
1F
100
AcDbEntity
  8
0
  6
Continuous
 62
     7
370
    25
100
AcDbCircle
 10
0.1171129554
 20
0.1622201755
 30
0.0
 40
0.00002
100
AcDbArc
 50
90.0
 51
180.0
  0
ARC
  5
33D
330
1F
100
AcDbEntity
  8
0
  6
Continuous
 62
     7
370
    25
100
AcDbCircle
 10
0.1171129554
 20
0.1618401755
 30
0.0
 40
0.00002
100
AcDbArc
 50
180.0
 51
270.0
  0
LINE
  5
33E
330
1F
100
AcDbEntity
  8
0
  6
Continuous
 62
     7
370
    25
100
AcDbLine
 10
0.1176729554
 20
0.1622401755
 30
0.0
 11
0.1171129554
 21
0.1622401755
 31
0.0
  0
LINE
  5
33F
330
1F
100
AcDbEntity
  8
0
  6
Continuous
 62
     7
370
    25
100
AcDbLine
 10
0.1171129554
 20
0.1618201755
 30
0.0
 11
0.1176729554
 21
0.1618201755
 31
0.0
  0
ARC
  5
340
330
1F
100
AcDbEntity
  8
0
  6
Continuous
 62
     7
370
    25
100
AcDbCircle
 10
0.1176729554
 20
0.1622201755
 30
0.0
 40
0.00002
100
AcDbArc
 50
0.0
 51
90.0
  0
ARC
  5
341
330
1F
100
AcDbEntity
  8
0
  6
Continuous
 62
     7
370
    25
100
AcDbCircle
 10
0.1176729554
 20
0.1618401755
 30
0.0
 40
0.00002
100
AcDbArc
 50
270.0
 51
0.0
  0
LINE
  5
342
330
1F
100
AcDbEntity
  8
0
  6
Continuous
 62
     7
370
    25
100
AcDbLine
 10
0.1180469554
 20
0.1619301755
 30
0.0
 11
0.1182268993
 21
0.1619301755
 31
0.0
  0
LINE
  5
343
330
1F
100
AcDbEntity
  8
0
  6
Continuous
 62
     7
370
    25
100
AcDbLine
 10
0.1182457257
 20
0.1621301755
 30
0.0
 11
0.1180469554
 21
0.1621301755
 31
0.0
  0
LINE
  5
344
330
1F
100
AcDbEntity
  8
0
  6
Continuous
 62
     7
370
    25
100
AcDbLine
 10
0.1128599554
 20
0.151150007
 30
0.0
 11
0.1128599554
 21
0.1560980542
 31
0.0
  0
LINE
  5
345
330
1F
100
AcDbEntity
  8
0
  6
Continuous
 62
     7
370
    25
100
AcDbLine
 10
0.1125259554
 20
0.1560980542
 30
0.0
 11
0.1125259554
 21
0.151150007
 31
0.0
  0
LINE
  5
346
330
1F
100
AcDbEntity
  8
0
  6
Continuous
 62
     7
370
    25
100
AcDbLine
 10
0.1128599554
 20
0.1568771716
 30
0.0
 11
0.1128599554
 21
0.1618252188
 31
0.0
  0
LINE
  5
347
330
1F
100
AcDbEntity
  8
0
  6
Continuous
 62
     7
370
    25
100
AcDbLine
 10
0.1125259554
 20
0.1618252188
 30
0.0
 11
0.1125259554
 21
0.1568771716
 31
0.0
  0
ARC
  5
348
330
1F
100
AcDbEntity
  8
0
  6
Continuous
 62
     7
370
    25
100
AcDbCircle
 10
0.1126929554
 20
0.1500876129
 30
0.0
 40
0.000167
100
AcDbArc
 50
180.0
 51
0.0
  0
LINE
  5
349
330
1F
100
AcDbEntity
  8
0
  6
Continuous
 62
     7
370
    25
100
AcDbLine
 10
0.1128599554
 20
0.1500876129
 30
0.0
 11
0.1128599554
 21
0.1505554916
 31
0.0
  0
LINE
  5
34A
330
1F
100
AcDbEntity
  8
0
  6
Continuous
 62
     7
370
    25
100
AcDbLine
 10
0.1125259554
 20
0.1505554916
 30
0.0
 11
0.1125259554
 21
0.1500876129
 31
0.0
  0
ARC
  5
34B
330
1F
100
AcDbEntity
  8
0
  6
Continuous
 62
     7
370
    25
100
AcDbCircle
 10
0.1126929554
 20
0.1628876129
 30
0.0
 40
0.000167
100
AcDbArc
 50
0.0
 51
180.0
  0
LINE
  5
34C
330
1F
100
AcDbEntity
  8
0
  6
Continuous
 62
     7
370
    25
100
AcDbLine
 10
0.1128599554
 20
0.1624197341
 30
0.0
 11
0.1128599554
 21
0.1628876129
 31
0.0
  0
LINE
  5
34D
330
1F
100
AcDbEntity
  8
0
  6
Continuous
 62
     7
370
    25
100
AcDbLine
 10
0.1125259554
 20
0.1628876129
 30
0.0
 11
0.1125259554
 21
0.1624197341
 31
0.0
  0
ARC
  5
34E
330
1F
100
AcDbEntity
  8
0
  6
Continuous
 62
     7
370
    25
100
AcDbCircle
 10
0.1126929554
 20
0.1509450503
 30
0.0
 40
0.0004238454434675
100
AcDbArc
 50
270.0
 51
336.7956588034
  0
ARC
  5
34F
330
1F
100
AcDbEntity
  8
0
  6
Continuous
 62
     7
370
    25
100
AcDbCircle
 10
0.1126929554
 20
0.1509450503
 30
0.0
 40
0.0004238454434675
100
AcDbArc
 50
23.2043411966
 51
66.7956588034
  0
ARC
  5
350
330
1F
100
AcDbEntity
  8
0
  6
Continuous
 62
     7
370
    25
100
AcDbCircle
 10
0.1126929554
 20
0.1509450503
 30
0.0
 40
0.0004238454434675
100
AcDbArc
 50
113.2043411966
 51
156.7956588034
  0
ARC
  5
351
330
1F
100
AcDbEntity
  8
0
  6
Continuous
 62
     7
370
    25
100
AcDbCircle
 10
0.1126929554
 20
0.1509450503
 30
0.0
 40
0.0004238454434675
100
AcDbArc
 50
203.2043411966
 51
270.0
  0
ARC
  5
352
330
1F
100
AcDbEntity
  8
0
  6
Continuous
 62
     7
370
    25
100
AcDbCircle
 10
0.0976929554
 20
0.1509450503
 30
0.0
 40
0.0004238454434675
100
AcDbArc
 50
270.0
 51
336.7956588034
  0
ARC
  5
353
330
1F
100
AcDbEntity
  8
0
  6
Continuous
 62
     7
370
    25
100
AcDbCircle
 10
0.0976929554
 20
0.1509450503
 30
0.0
 40
0.0004238454434675
100
AcDbArc
 50
23.2043411966
 51
66.7956588034
  0
ARC
  5
354
330
1F
100
AcDbEntity
  8
0
  6
Continuous
 62
     7
370
    25
100
AcDbCircle
 10
0.0976929554
 20
0.1509450503
 30
0.0
 40
0.0004238454434675
100
AcDbArc
 50
113.2043411966
 51
156.7956588034
  0
ARC
  5
355
330
1F
100
AcDbEntity
  8
0
  6
Continuous
 62
     7
370
    25
100
AcDbCircle
 10
0.0976929554
 20
0.1509450503
 30
0.0
 40
0.0004238454434675
100
AcDbArc
 50
203.2043411966
 51
270.0
  0
ARC
  5
356
330
1F
100
AcDbEntity
  8
0
  6
Continuous
 62
     7
370
    25
100
AcDbCircle
 10
0.1076929554
 20
0.1509450503
 30
0.0
 40
0.0004238454434675
100
AcDbArc
 50
270.0
 51
336.7956588034
  0
ARC
  5
357
330
1F
100
AcDbEntity
  8
0
  6
Continuous
 62
     7
370
    25
100
AcDbCircle
 10
0.1076929554
 20
0.1509450503
 30
0.0
 40
0.0004238454434675
100
AcDbArc
 50
23.2043411966
 51
66.7956588034
  0
ARC
  5
358
330
1F
100
AcDbEntity
  8
0
  6
Continuous
 62
     7
370
    25
100
AcDbCircle
 10
0.1076929554
 20
0.1509450503
 30
0.0
 40
0.0004238454434675
100
AcDbArc
 50
113.2043411966
 51
156.7956588034
  0
ARC
  5
359
330
1F
100
AcDbEntity
  8
0
  6
Continuous
 62
     7
370
    25
100
AcDbCircle
 10
0.1076929554
 20
0.1509450503
 30
0.0
 40
0.0004238454434675
100
AcDbArc
 50
203.2043411966
 51
270.0
  0
ARC
  5
35A
330
1F
100
AcDbEntity
  8
0
  6
Continuous
 62
     7
370
    25
100
AcDbCircle
 10
0.0976929554
 20
0.1620301755
 30
0.0
 40
0.0004238454434675
100
AcDbArc
 50
293.2043411966
 51
336.7956588034
  0
ARC
  5
35B
330
1F
100
AcDbEntity
  8
0
  6
Continuous
 62
     7
370
    25
100
AcDbCircle
 10
0.0976929554
 20
0.1620301755
 30
0.0
 40
0.0004238454434675
100
AcDbArc
 50
23.2043411966
 51
156.7956588034
  0
ARC
  5
35C
330
1F
100
AcDbEntity
  8
0
  6
Continuous
 62
     7
370
    25
100
AcDbCircle
 10
0.0976929554
 20
0.1620301755
 30
0.0
 40
0.0004238454434675
100
AcDbArc
 50
203.2043411966
 51
246.7956588034
  0
ARC
  5
35D
330
1F
100
AcDbEntity
  8
0
  6
Continuous
 62
     7
370
    25
100
AcDbCircle
 10
0.1076929554
 20
0.1620301755
 30
0.0
 40
0.0004238454434675
100
AcDbArc
 50
293.2043411966
 51
336.7956588034
  0
ARC
  5
35E
330
1F
100
AcDbEntity
  8
0
  6
Continuous
 62
     7
370
    25
100
AcDbCircle
 10
0.1076929554
 20
0.1620301755
 30
0.0
 40
0.0004238454434675
100
AcDbArc
 50
23.2043411966
 51
156.7956588034
  0
ARC
  5
35F
330
1F
100
AcDbEntity
  8
0
  6
Continuous
 62
     7
370
    25
100
AcDbCircle
 10
0.1076929554
 20
0.1620301755
 30
0.0
 40
0.0004238454434675
100
AcDbArc
 50
203.2043411966
 51
246.7956588034
  0
ARC
  5
360
330
1F
100
AcDbEntity
  8
0
  6
Continuous
 62
     7
370
    25
100
AcDbCircle
 10
0.1026929554
 20
0.1620301755
 30
0.0
 40
0.0004238454434675
100
AcDbArc
 50
293.2043411966
 51
336.7956588034
  0
ARC
  5
361
330
1F
100
AcDbEntity
  8
0
  6
Continuous
 62
     7
370
    25
100
AcDbCircle
 10
0.1026929554
 20
0.1620301755
 30
0.0
 40
0.0004238454434675
100
AcDbArc
 50
23.2043411966
 51
156.7956588034
  0
ARC
  5
362
330
1F
100
AcDbEntity
  8
0
  6
Continuous
 62
     7
370
    25
100
AcDbCircle
 10
0.1026929554
 20
0.1620301755
 30
0.0
 40
0.0004238454434675
100
AcDbArc
 50
203.2043411966
 51
246.7956588034
  0
ARC
  5
363
330
1F
100
AcDbEntity
  8
0
  6
Continuous
 62
     7
370
    25
100
AcDbCircle
 10
0.1126929554
 20
0.1564876129
 30
0.0
 40
0.0004238454434675
100
AcDbArc
 50
293.2043411966
 51
336.7956588034
  0
ARC
  5
364
330
1F
100
AcDbEntity
  8
0
  6
Continuous
 62
     7
370
    25
100
AcDbCircle
 10
0.1126929554
 20
0.1564876129
 30
0.0
 40
0.0004238454434675
100
AcDbArc
 50
23.2043411966
 51
66.7956588034
  0
ARC
  5
365
330
1F
100
AcDbEntity
  8
0
  6
Continuous
 62
     7
370
    25
100
AcDbCircle
 10
0.1126929554
 20
0.1564876129
 30
0.0
 40
0.0004238454434675
100
AcDbArc
 50
113.2043411966
 51
156.7956588034
  0
ARC
  5
366
330
1F
100
AcDbEntity
  8
0
  6
Continuous
 62
     7
370
    25
100
AcDbCircle
 10
0.1126929554
 20
0.1564876129
 30
0.0
 40
0.0004238454434675
100
AcDbArc
 50
203.2043411966
 51
246.7956588034
  0
ARC
  5
367
330
1F
100
AcDbEntity
  8
0
  6
Continuous
 62
     7
370
    25
100
AcDbCircle
 10
0.1026929554
 20
0.1509450503
 30
0.0
 40
0.0004238454434675
100
AcDbArc
 50
270.0
 51
336.7956588034
  0
ARC
  5
368
330
1F
100
AcDbEntity
  8
0
  6
Continuous
 62
     7
370
    25
100
AcDbCircle
 10
0.1026929554
 20
0.1509450503
 30
0.0
 40
0.0004238454434675
100
AcDbArc
 50
23.2043411966
 51
66.7956588034
  0
ARC
  5
369
330
1F
100
AcDbEntity
  8
0
  6
Continuous
 62
     7
370
    25
100
AcDbCircle
 10
0.1026929554
 20
0.1509450503
 30
0.0
 40
0.0004238454434675
100
AcDbArc
 50
113.2043411966
 51
156.7956588034
  0
ARC
  5
36A
330
1F
100
AcDbEntity
  8
0
  6
Continuous
 62
     7
370
    25
100
AcDbCircle
 10
0.1026929554
 20
0.1509450503
 30
0.0
 40
0.0004238454434675
100
AcDbArc
 50
203.2043411966
 51
270.0
  0
ARC
  5
36B
330
1F
100
AcDbEntity
  8
0
  6
Continuous
 62
     7
370
    25
100
AcDbCircle
 10
0.1126929554
 20
0.1620301755
 30
0.0
 40
0.0004238454434675
100
AcDbArc
 50
293.2043411966
 51
336.7956588034
  0
ARC
  5
36C
330
1F
100
AcDbEntity
  8
0
  6
Continuous
 62
     7
370
    25
100
AcDbCircle
 10
0.1126929554
 20
0.1620301755
 30
0.0
 40
0.0004238454434675
100
AcDbArc
 50
23.2043411966
 51
156.7956588034
  0
ARC
  5
36D
330
1F
100
AcDbEntity
  8
0
  6
Continuous
 62
     7
370
    25
100
AcDbCircle
 10
0.1126929554
 20
0.1620301755
 30
0.0
 40
0.0004238454434675
100
AcDbArc
 50
203.2043411966
 51
246.7956588034
  0
ARC
  5
36E
330
1F
100
AcDbEntity
  8
0
  6
Continuous
 62
     7
370
    25
100
AcDbCircle
 10
0.1026929554
 20
0.1564876129
 30
0.0
 40
0.0004238454434675
100
AcDbArc
 50
293.2043411966
 51
336.7956588034
  0
ARC
  5
36F
330
1F
100
AcDbEntity
  8
0
  6
Continuous
 62
     7
370
    25
100
AcDbCircle
 10
0.1026929554
 20
0.1564876129
 30
0.0
 40
0.0004238454434675
100
AcDbArc
 50
23.2043411966
 51
66.7956588034
  0
ARC
  5
370
330
1F
100
AcDbEntity
  8
0
  6
Continuous
 62
     7
370
    25
100
AcDbCircle
 10
0.1026929554
 20
0.1564876129
 30
0.0
 40
0.0004238454434675
100
AcDbArc
 50
113.2043411966
 51
156.7956588034
  0
ARC
  5
371
330
1F
100
AcDbEntity
  8
0
  6
Continuous
 62
     7
370
    25
100
AcDbCircle
 10
0.1026929554
 20
0.1564876129
 30
0.0
 40
0.0004238454434675
100
AcDbArc
 50
203.2043411966
 51
246.7956588034
  0
ARC
  5
372
330
1F
100
AcDbEntity
  8
0
  6
Continuous
 62
     7
370
    25
100
AcDbCircle
 10
0.1076929554
 20
0.1564876129
 30
0.0
 40
0.0004238454434675
100
AcDbArc
 50
293.2043411966
 51
336.7956588034
  0
ARC
  5
373
330
1F
100
AcDbEntity
  8
0
  6
Continuous
 62
     7
370
    25
100
AcDbCircle
 10
0.1076929554
 20
0.1564876129
 30
0.0
 40
0.0004238454434675
100
AcDbArc
 50
23.2043411966
 51
66.7956588034
  0
ARC
  5
374
330
1F
100
AcDbEntity
  8
0
  6
Continuous
 62
     7
370
    25
100
AcDbCircle
 10
0.1076929554
 20
0.1564876129
 30
0.0
 40
0.0004238454434675
100
AcDbArc
 50
113.2043411966
 51
156.7956588034
  0
ARC
  5
375
330
1F
100
AcDbEntity
  8
0
  6
Continuous
 62
     7
370
    25
100
AcDbCircle
 10
0.1076929554
 20
0.1564876129
 30
0.0
 40
0.0004238454434675
100
AcDbArc
 50
203.2043411966
 51
246.7956588034
  0
ARC
  5
376
330
1F
100
AcDbEntity
  8
0
  6
Continuous
 62
     7
370
    25
100
AcDbCircle
 10
0.0976929554
 20
0.1564876129
 30
0.0
 40
0.0004238454434675
100
AcDbArc
 50
293.2043411966
 51
336.7956588034
  0
ARC
  5
377
330
1F
100
AcDbEntity
  8
0
  6
Continuous
 62
     7
370
    25
100
AcDbCircle
 10
0.0976929554
 20
0.1564876129
 30
0.0
 40
0.0004238454434675
100
AcDbArc
 50
23.2043411966
 51
66.7956588034
  0
ARC
  5
378
330
1F
100
AcDbEntity
  8
0
  6
Continuous
 62
     7
370
    25
100
AcDbCircle
 10
0.0976929554
 20
0.1564876129
 30
0.0
 40
0.0004238454434675
100
AcDbArc
 50
113.2043411966
 51
156.7956588034
  0
ARC
  5
379
330
1F
100
AcDbEntity
  8
0
  6
Continuous
 62
     7
370
    25
100
AcDbCircle
 10
0.0976929554
 20
0.1564876129
 30
0.0
 40
0.0004238454434675
100
AcDbArc
 50
203.2043411966
 51
246.7956588034
  0
LINE
  5
37A
330
1F
100
AcDbEntity
  8
0
  6
Continuous
 62
     7
370
    25
100
AcDbLine
 10
0.0726267114
 20
0.1626889684
 30
0.0
 11
0.0726267114
 21
0.1621601755
 31
0.0
  0
LINE
  5
37B
330
1F
100
AcDbEntity
  8
0
  6
Continuous
 62
     7
370
    25
100
AcDbLine
 10
0.0726267114
 20
0.1619001755
 30
0.0
 11
0.0726267114
 21
0.1566176129
 31
0.0
  0
LINE
  5
37C
330
1F
100
AcDbEntity
  8
0
  6
Continuous
 62
     7
370
    25
100
AcDbLine
 10
0.0726267114
 20
0.1563576129
 30
0.0
 11
0.0726267114
 21
0.1510750503
 31
0.0
  0
LINE
  5
37D
330
1F
100
AcDbEntity
  8
0
  6
Continuous
 62
     7
370
    25
100
AcDbLine
 10
0.0726267114
 20
0.1508150503
 30
0.0
 11
0.0726267114
 21
0.1502862579
 31
0.0
  0
LINE
  5
37E
330
1F
100
AcDbEntity
  8
0
  6
Continuous
 62
     7
370
    25
100
AcDbLine
 10
0.1377591994
 20
0.1502862573
 30
0.0
 11
0.1377591994
 21
0.150806314
 31
0.0
  0
LINE
  5
37F
330
1F
100
AcDbEntity
  8
0
  6
Continuous
 62
     7
370
    25
100
AcDbLine
 10
0.1377591994
 20
0.1510837866
 30
0.0
 11
0.1377591994
 21
0.1563488765
 31
0.0
  0
LINE
  5
380
330
1F
100
AcDbEntity
  8
0
  6
Continuous
 62
     7
370
    25
100
AcDbLine
 10
0.1377591994
 20
0.1566263492
 30
0.0
 11
0.1377591994
 21
0.1618914391
 31
0.0
  0
LINE
  5
381
330
1F
100
AcDbEntity
  8
0
  6
Continuous
 62
     7
370
    25
100
AcDbLine
 10
0.1377591994
 20
0.1621689118
 30
0.0
 11
0.1377591994
 21
0.1626889679
 31
0.0
  0
LINE
  5
382
330
1F
100
AcDbEntity
  8
0
  6
Continuous
 62
     7
370
    25
100
AcDbLine
 10
0.1182500498
 20
0.156375421
 30
0.0
 11
0.1182469554
 21
0.1564076129
 31
0.0
  0
ARC
  5
383
330
1F
100
AcDbEntity
  8
0
  6
Continuous
 62
     7
370
    25
100
AcDbCircle
 10
0.1184463765
 20
0.1564087864
 30
0.0
 40
0.0001994245829806
100
AcDbArc
 50
162.5071613226
 51
180.337169502
  0
LWPOLYLINE
  5
384
330
1F
100
AcDbEntity
  8
0
  6
Continuous
 62
     7
370
    25
100
AcDbPolyline
 90
        3
 70
   128
 43
0.0
 10
0.1182562477
 20
0.1565065077
 10
0.1182508778
 20
0.1565268071
 10
0.1182469554
 20
0.1565676129
  0
LWPOLYLINE
  5
385
330
1F
100
AcDbEntity
  8
0
  6
Continuous
 62
     7
370
    25
100
AcDbPolyline
 90
        3
 70
   128
 43
0.0
 10
0.1182469554
 20
0.1565676129
 10
0.1182470332
 20
0.1565733015
 10
0.1182500581
 20
0.1565997956
  0
LINE
  5
386
330
1F
100
AcDbEntity
  8
0
  6
Continuous
 62
     7
370
    25
100
AcDbLine
 10
0.1182469554
 20
0.1564076129
 30
0.0
 11
0.1182469554
 21
0.1565676129
 31
0.0
  0
LINE
  5
387
330
1F
100
AcDbEntity
  8
0
  6
Continuous
 62
     7
370
    25
100
AcDbLine
 10
0.1182469554
 20
0.1565676129
 30
0.0
 11
0.1182469554
 21
0.1566148761
 31
0.0
  0
LINE
  5
388
330
1F
100
AcDbEntity
  8
0
  6
Continuous
 62
     7
370
    25
100
AcDbLine
 10
0.1182469554
 20
0.1508650503
 30
0.0
 11
0.1182469554
 21
0.1509248342
 31
0.0
  0
LWPOLYLINE
  5
389
330
1F
100
AcDbEntity
  8
0
  6
Continuous
 62
     7
370
    25
100
AcDbPolyline
 90
        3
 70
   128
 43
0.0
 10
0.1182469554
 20
0.1508650503
 10
0.1182470332
 20
0.1508707389
 10
0.1182500644
 20
0.150897288
  0
LWPOLYLINE
  5
38A
330
1F
100
AcDbEntity
  8
0
  6
Continuous
 62
     7
370
    25
100
AcDbPolyline
 90
        3
 70
   128
 43
0.0
 10
0.1182562889
 20
0.1508037894
 10
0.1182508778
 20
0.1508242446
 10
0.1182469554
 20
0.1508650503
  0
LINE
  5
38B
330
1F
100
AcDbEntity
  8
0
  6
Continuous
 62
     7
370
    25
100
AcDbLine
 10
0.1182469554
 20
0.1507850503
 30
0.0
 11
0.1182570354
 21
0.1507850503
 31
0.0
  0
LINE
  5
38C
330
1F
100
AcDbEntity
  8
0
  6
Continuous
 62
     7
370
    25
100
AcDbLine
 10
0.1182469554
 20
0.1507850503
 30
0.0
 11
0.1182469554
 21
0.1508650503
 31
0.0
  0
LINE
  5
38D
330
1F
100
AcDbEntity
  8
0
  6
Continuous
 62
     7
370
    25
100
AcDbLine
 10
0.1182500551
 20
0.1620779283
 30
0.0
 11
0.1182469554
 21
0.1621101755
 31
0.0
  0
ARC
  5
38E
330
1F
100
AcDbEntity
  8
0
  6
Continuous
 62
     7
370
    25
100
AcDbCircle
 10
0.118446701
 20
0.1621113228
 30
0.0
 40
0.0001997488507248
100
AcDbArc
 50
162.4815624917
 51
180.329102037
  0
LINE
  5
38F
330
1F
100
AcDbEntity
  8
0
  6
Continuous
 62
     7
370
    25
100
AcDbLine
 10
0.1182469554
 20
0.1620503909
 30
0.0
 11
0.1182469554
 21
0.1621101755
 31
0.0
  0
LINE
  5
390
330
1F
100
AcDbEntity
  8
0
  6
Continuous
 62
     7
370
    25
100
AcDbLine
 10
0.1182469554
 20
0.1621901755
 30
0.0
 11
0.1182570355
 21
0.1621901755
 31
0.0
  0
LINE
  5
391
330
1F
100
AcDbEntity
  8
0
  6
Continuous
 62
     7
370
    25
100
AcDbLine
 10
0.1182469554
 20
0.1621101755
 30
0.0
 11
0.1182469554
 21
0.1621901755
 31
0.0
  0
LINE
  5
392
330
1F
100
AcDbEntity
  8
0
  6
Continuous
 62
     7
370
    25
100
AcDbLine
 10
0.0921366449
 20
0.1566071341
 30
0.0
 11
0.0921389554
 21
0.1565851293
 31
0.0
  0
ARC
  5
393
330
1F
100
AcDbEntity
  8
0
  6
Continuous
 62
     7
370
    25
100
AcDbCircle
 10
0.0919779693
 20
0.1565834585
 30
0.0
 40
0.0001609947714367
100
AcDbArc
 50
341.7872254424
 51
0.5945989684
  0
LWPOLYLINE
  5
394
330
1F
100
AcDbEntity
  8
0
  6
Continuous
 62
     7
370
    25
100
AcDbPolyline
 90
        3
 70
   128
 43
0.0
 10
0.092129985
 20
0.1564931101
 10
0.0921303366
 20
0.156491869
 10
0.0921389554
 20
0.156426517
  0
LINE
  5
395
330
1F
100
AcDbEntity
  8
0
  6
Continuous
 62
     7
370
    25
100
AcDbLine
 10
0.0921389554
 20
0.1565851293
 30
0.0
 11
0.0921389554
 21
0.156426517
 31
0.0
  0
LWPOLYLINE
  5
396
330
1F
100
AcDbEntity
  8
0
  6
Continuous
 62
     7
370
    25
100
AcDbPolyline
 90
        3
 70
   128
 43
0.0
 10
0.0921389554
 20
0.156426517
 10
0.0921379409
 20
0.1564045407
 10
0.0921338567
 20
0.1563850366
  0
LINE
  5
397
330
1F
100
AcDbEntity
  8
0
  6
Continuous
 62
     7
370
    25
100
AcDbLine
 10
0.0921389554
 20
0.156426517
 30
0.0
 11
0.0921389554
 21
0.1563603497
 31
0.0
  0
LINE
  5
398
330
1F
100
AcDbEntity
  8
0
  6
Continuous
 62
     7
370
    25
100
AcDbLine
 10
0.0921389554
 20
0.1566148761
 30
0.0
 11
0.0921389554
 21
0.1565851293
 31
0.0
  0
LINE
  5
399
330
1F
100
AcDbEntity
  8
0
  6
Continuous
 62
     7
370
    25
100
AcDbLine
 10
0.1384889554
 20
0.1564608834
 30
0.0
 11
0.1384889554
 21
0.1564176129
 31
0.0
  0
LINE
  5
39A
330
1F
100
AcDbEntity
  8
0
  6
Continuous
 62
     7
370
    25
100
AcDbLine
 10
0.1384889554
 20
0.1565576129
 30
0.0
 11
0.1384889554
 21
0.1564608834
 31
0.0
  0
LINE
  5
39B
330
1F
100
AcDbEntity
  8
0
  6
Continuous
 62
     7
370
    25
100
AcDbLine
 10
0.1384085554
 20
0.156434154
 30
0.0
 11
0.1384085554
 21
0.1563476129
 31
0.0
  0
LINE
  5
39C
330
1F
100
AcDbEntity
  8
0
  6
Continuous
 62
     7
370
    25
100
AcDbLine
 10
0.1384085554
 20
0.1566276129
 30
0.0
 11
0.1384085554
 21
0.156434154
 31
0.0
  0
LINE
  5
39D
330
1F
100
AcDbEntity
  8
0
  6
Continuous
 62
     7
370
    25
100
AcDbLine
 10
0.0719773554
 20
0.1508050503
 30
0.0
 11
0.0719773554
 21
0.1510850503
 31
0.0
  0
LINE
  5
39E
330
1F
100
AcDbEntity
  8
0
  6
Continuous
 62
     7
370
    25
100
AcDbLine
 10
0.0718969554
 20
0.1508750503
 30
0.0
 11
0.0718969554
 21
0.1510150503
 31
0.0
  0
LINE
  5
39F
330
1F
100
AcDbEntity
  8
0
  6
Continuous
 62
     7
370
    25
100
AcDbLine
 10
0.1384085554
 20
0.1508915914
 30
0.0
 11
0.1384085554
 21
0.1508050503
 31
0.0
  0
LINE
  5
3A0
330
1F
100
AcDbEntity
  8
0
  6
Continuous
 62
     7
370
    25
100
AcDbLine
 10
0.1384085554
 20
0.1510850503
 30
0.0
 11
0.1384085554
 21
0.1508915914
 31
0.0
  0
LINE
  5
3A1
330
1F
100
AcDbEntity
  8
0
  6
Continuous
 62
     7
370
    25
100
AcDbLine
 10
0.1384889554
 20
0.1509183209
 30
0.0
 11
0.1384889554
 21
0.1508750503
 31
0.0
  0
LINE
  5
3A2
330
1F
100
AcDbEntity
  8
0
  6
Continuous
 62
     7
370
    25
100
AcDbLine
 10
0.1384889554
 20
0.1510150503
 30
0.0
 11
0.1384889554
 21
0.1509183209
 31
0.0
  0
LINE
  5
3A3
330
1F
100
AcDbEntity
  8
0
  6
Continuous
 62
     7
370
    25
100
AcDbLine
 10
0.0718969554
 20
0.1564176129
 30
0.0
 11
0.0718969554
 21
0.1565576129
 31
0.0
  0
LINE
  5
3A4
330
1F
100
AcDbEntity
  8
0
  6
Continuous
 62
     7
370
    25
100
AcDbLine
 10
0.0719773554
 20
0.1563476129
 30
0.0
 11
0.0719773554
 21
0.1566276129
 31
0.0
  0
LINE
  5
3A5
330
1F
100
AcDbEntity
  8
0
  6
Continuous
 62
     7
370
    25
100
AcDbLine
 10
0.0719773554
 20
0.1618901755
 30
0.0
 11
0.0719773554
 21
0.1621701755
 31
0.0
  0
LINE
  5
3A6
330
1F
100
AcDbEntity
  8
0
  6
Continuous
 62
     7
370
    25
100
AcDbLine
 10
0.0718969554
 20
0.1619601755
 30
0.0
 11
0.0718969554
 21
0.1621001755
 31
0.0
  0
LINE
  5
3A7
330
1F
100
AcDbEntity
  8
0
  6
Continuous
 62
     7
370
    25
100
AcDbLine
 10
0.1384889554
 20
0.162003446
 30
0.0
 11
0.1384889554
 21
0.1619601755
 31
0.0
  0
LINE
  5
3A8
330
1F
100
AcDbEntity
  8
0
  6
Continuous
 62
     7
370
    25
100
AcDbLine
 10
0.1384889554
 20
0.1621001755
 30
0.0
 11
0.1384889554
 21
0.162003446
 31
0.0
  0
LINE
  5
3A9
330
1F
100
AcDbEntity
  8
0
  6
Continuous
 62
     7
370
    25
100
AcDbLine
 10
0.1384085554
 20
0.1619767166
 30
0.0
 11
0.1384085554
 21
0.1618901755
 31
0.0
  0
LINE
  5
3AA
330
1F
100
AcDbEntity
  8
0
  6
Continuous
 62
     7
370
    25
100
AcDbLine
 10
0.1384085554
 20
0.1621701755
 30
0.0
 11
0.1384085554
 21
0.1619767166
 31
0.0
  0
ARC
  5
3AB
330
1F
100
AcDbEntity
  8
0
  6
Continuous
 62
     7
370
    25
100
AcDbCircle
 10
0.1180469554
 20
0.14776596
 30
0.0
 40
0.000337
100
AcDbArc
 50
270.0
 51
0.0697009771
  0
ARC
  5
3AC
330
1F
100
AcDbEntity
  8
0
  6
Continuous
 62
     7
370
    25
100
AcDbCircle
 10
0.1180469554
 20
0.14776596
 30
0.0
 40
0.000337
100
AcDbArc
 50
180.0703120956
 51
270.0
  0
ARC
  5
3AD
330
1F
100
AcDbEntity
  8
0
  6
Continuous
 62
     7
370
    25
100
AcDbCircle
 10
0.0723389554
 20
0.1477659603
 30
0.0
 40
0.000337
100
AcDbArc
 50
270.0
 51
359.9820423904
  0
ARC
  5
3AE
330
1F
100
AcDbEntity
  8
0
  6
Continuous
 62
     7
370
    25
100
AcDbCircle
 10
0.0723389554
 20
0.1477659603
 30
0.0
 40
0.000337
100
AcDbArc
 50
180.0101331086
 51
270.0
  0
ARC
  5
3AF
330
1F
100
AcDbEntity
  8
0
  6
Continuous
 62
     7
370
    25
100
AcDbCircle
 10
0.1380469554
 20
0.14776596
 30
0.0
 40
0.000337
100
AcDbArc
 50
270.0
 51
0.0430440943
  0
ARC
  5
3B0
330
1F
100
AcDbEntity
  8
0
  6
Continuous
 62
     7
370
    25
100
AcDbCircle
 10
0.1380469554
 20
0.14776596
 30
0.0
 40
0.000337
100
AcDbArc
 50
180.0459705581
 51
270.0
  0
ARC
  5
3B1
330
1F
100
AcDbEntity
  8
0
  6
Continuous
 62
     7
370
    25
100
AcDbCircle
 10
0.0923389554
 20
0.1477659603
 30
0.0
 40
0.000337
100
AcDbArc
 50
270.0
 51
359.9814906279
  0
ARC
  5
3B2
330
1F
100
AcDbEntity
  8
0
  6
Continuous
 62
     7
370
    25
100
AcDbCircle
 10
0.0923389554
 20
0.1477659603
 30
0.0
 40
0.000337
100
AcDbArc
 50
180.0099941893
 51
270.0
  0
ARC
  5
3B3
330
1F
100
AcDbEntity
  8
0
  6
Continuous
 62
     7
370
    25
100
AcDbCircle
 10
0.0923389554
 20
0.148116406
 30
0.0
 40
0.0003406916083933
100
AcDbArc
 50
188.4422393375
 51
351.5577606625
  0
ARC
  5
3B4
330
1F
100
AcDbEntity
  8
0
  6
Continuous
 62
     7
370
    25
100
AcDbCircle
 10
0.092339238
 20
0.1477647118
 30
0.0
 40
0.0003360559115661
100
AcDbArc
 50
179.6797503356
 51
0.4808056257
  0
ARC
  5
3B5
330
1F
100
AcDbEntity
  8
0
  6
Continuous
 62
     7
370
    25
100
AcDbCircle
 10
0.0723389554
 20
0.148116406
 30
0.0
 40
0.0003406916083933
100
AcDbArc
 50
188.4422393375
 51
351.5577606625
  0
ARC
  5
3B6
330
1F
100
AcDbEntity
  8
0
  6
Continuous
 62
     7
370
    25
100
AcDbCircle
 10
0.072339238
 20
0.1477647118
 30
0.0
 40
0.0003360559115661
100
AcDbArc
 50
179.6797503356
 51
0.4808056257
  0
ARC
  5
3B7
330
1F
100
AcDbEntity
  8
0
  6
Continuous
 62
     7
370
    25
100
AcDbCircle
 10
0.1380469554
 20
0.1481164057
 30
0.0
 40
0.0003406916083933
100
AcDbArc
 50
188.4422393375
 51
351.5577606625
  0
ARC
  5
3B8
330
1F
100
AcDbEntity
  8
0
  6
Continuous
 62
     7
370
    25
100
AcDbCircle
 10
0.138047238
 20
0.1477647115
 30
0.0
 40
0.0003360559115661
100
AcDbArc
 50
179.6797503356
 51
0.4808056257
  0
ARC
  5
3B9
330
1F
100
AcDbEntity
  8
0
  6
Continuous
 62
     7
370
    25
100
AcDbCircle
 10
0.1180469554
 20
0.1481164057
 30
0.0
 40
0.0003406916083933
100
AcDbArc
 50
188.4422393375
 51
351.5577606625
  0
ARC
  5
3BA
330
1F
100
AcDbEntity
  8
0
  6
Continuous
 62
     7
370
    25
100
AcDbCircle
 10
0.118047238
 20
0.1477647115
 30
0.0
 40
0.0003360559115661
100
AcDbArc
 50
179.6797503356
 51
0.4808056257
  0
ARC
  5
3BB
330
1F
100
AcDbEntity
  8
0
  6
Continuous
 62
     7
370
    25
100
AcDbCircle
 10
0.0923111314
 20
0.1498021392
 30
0.0
 40
0.0003108487455769
100
AcDbArc
 50
185.9467381444
 51
275.1354135444
  0
ARC
  5
3BC
330
1F
100
AcDbEntity
  8
0
  6
Continuous
 62
     7
370
    25
100
AcDbCircle
 10
0.0923085059
 20
0.1480954038
 30
0.0
 40
0.000307920615372
100
AcDbArc
 50
185.4070385259
 51
275.675113163
  0
ARC
  5
3BD
330
1F
100
AcDbEntity
  8
0
  6
Continuous
 62
     7
370
    25
100
AcDbCircle
 10
0.0923641505
 20
0.1481017872
 30
0.0
 40
0.0003138079066874
100
AcDbArc
 50
265.3948681564
 51
353.5229801548
  0
ARC
  5
3BE
330
1F
100
AcDbEntity
  8
0
  6
Continuous
 62
     7
370
    25
100
AcDbCircle
 10
0.1380191314
 20
0.1498021389
 30
0.0
 40
0.000310848745577
100
AcDbArc
 50
185.9467381444
 51
275.1354135444
  0
ARC
  5
3BF
330
1F
100
AcDbEntity
  8
0
  6
Continuous
 62
     7
370
    25
100
AcDbCircle
 10
0.1380165059
 20
0.1480954035
 30
0.0
 40
0.000307920615372
100
AcDbArc
 50
185.4070385259
 51
275.6751131629
  0
ARC
  5
3C0
330
1F
100
AcDbEntity
  8
0
  6
Continuous
 62
     7
370
    25
100
AcDbCircle
 10
0.1380721505
 20
0.148101787
 30
0.0
 40
0.0003138079066874
100
AcDbArc
 50
265.3948681564
 51
353.5229801548
  0
ARC
  5
3C1
330
1F
100
AcDbEntity
  8
0
  6
Continuous
 62
     7
370
    25
100
AcDbCircle
 10
0.0723667795
 20
0.1498021392
 30
0.0
 40
0.0003108487455769
100
AcDbArc
 50
264.8645864556
 51
354.0532618556
  0
ARC
  5
3C2
330
1F
100
AcDbEntity
  8
0
  6
Continuous
 62
     7
370
    25
100
AcDbCircle
 10
0.0723085059
 20
0.1480954038
 30
0.0
 40
0.000307920615372
100
AcDbArc
 50
185.4070385259
 51
275.6751131629
  0
ARC
  5
3C3
330
1F
100
AcDbEntity
  8
0
  6
Continuous
 62
     7
370
    25
100
AcDbCircle
 10
0.0723641505
 20
0.1481017872
 30
0.0
 40
0.0003138079066875
100
AcDbArc
 50
265.3948681564
 51
353.5229801548
  0
ARC
  5
3C4
330
1F
100
AcDbEntity
  8
0
  6
Continuous
 62
     7
370
    25
100
AcDbCircle
 10
0.1180747795
 20
0.1498021389
 30
0.0
 40
0.0003108487455769
100
AcDbArc
 50
264.8645864556
 51
354.0532618556
  0
ARC
  5
3C5
330
1F
100
AcDbEntity
  8
0
  6
Continuous
 62
     7
370
    25
100
AcDbCircle
 10
0.1180165059
 20
0.1480954035
 30
0.0
 40
0.000307920615372
100
AcDbArc
 50
185.4070385259
 51
275.6751131629
  0
ARC
  5
3C6
330
1F
100
AcDbEntity
  8
0
  6
Continuous
 62
     7
370
    25
100
AcDbCircle
 10
0.1180721505
 20
0.148101787
 30
0.0
 40
0.0003138079066874
100
AcDbArc
 50
265.3948681564
 51
353.5229801548
  0
ARC
  5
3C7
330
1F
100
AcDbEntity
  8
0
  6
Continuous
 62
     7
370
    25
100
AcDbCircle
 10
0.1380268493
 20
0.1519185424
 30
0.0
 40
0.00042850529583
100
AcDbArc
 50
87.3106066641
 51
128.6537716894
  0
ARC
  5
3C8
330
1F
100
AcDbEntity
  8
0
  6
Continuous
 62
     7
370
    25
100
AcDbCircle
 10
0.1380165059
 20
0.1497989493
 30
0.0
 40
0.0003079206153719
100
AcDbArc
 50
185.4070385259
 51
275.675113163
  0
ARC
  5
3C9
330
1F
100
AcDbEntity
  8
0
  6
Continuous
 62
     7
370
    25
100
AcDbCircle
 10
0.1180721505
 20
0.1498053327
 30
0.0
 40
0.0003138079066875
100
AcDbArc
 50
265.3948681564
 51
353.5229801548
  0
ARC
  5
3CA
330
1F
100
AcDbEntity
  8
0
  6
Continuous
 62
     7
370
    25
100
AcDbCircle
 10
0.0923085059
 20
0.1497989496
 30
0.0
 40
0.000307920615372
100
AcDbArc
 50
185.4070385259
 51
275.6751131629
  0
ARC
  5
3CB
330
1F
100
AcDbEntity
  8
0
  6
Continuous
 62
     7
370
    25
100
AcDbCircle
 10
0.0723590615
 20
0.1519185427
 30
0.0
 40
0.0004285052958303
100
AcDbArc
 50
51.3462283106
 51
92.6893933359
  0
ARC
  5
3CC
330
1F
100
AcDbEntity
  8
0
  6
Continuous
 62
     7
370
    25
100
AcDbCircle
 10
0.0723641505
 20
0.149805333
 30
0.0
 40
0.0003138079066874
100
AcDbArc
 50
265.3948681564
 51
353.5229801548
  0
ARC
  5
3CD
330
1F
100
AcDbEntity
  8
0
  6
Continuous
 62
     7
370
    25
100
AcDbCircle
 10
0.0723624631
 20
0.1519290226
 30
0.0
 40
0.0004182146202582
100
AcDbArc
 50
50.8133535767
 51
93.2222680697
  0
ARC
  5
3CE
330
1F
100
AcDbEntity
  8
0
  6
Continuous
 62
     7
370
    25
100
AcDbCircle
 10
0.0723590615
 20
0.1551960905
 30
0.0
 40
0.0004285052958298
100
AcDbArc
 50
51.3462283106
 51
92.6893933359
  0
ARC
  5
3CF
330
1F
100
AcDbEntity
  8
0
  6
Continuous
 62
     7
370
    25
100
AcDbCircle
 10
0.1380234478
 20
0.1519290223
 30
0.0
 40
0.000418214620258
100
AcDbArc
 50
86.7777319302
 51
129.1866464233
  0
ARC
  5
3D0
330
1F
100
AcDbEntity
  8
0
  6
Continuous
 62
     7
370
    25
100
AcDbCircle
 10
0.1380268493
 20
0.1551960902
 30
0.0
 40
0.0004285052958298
100
AcDbArc
 50
87.3106066641
 51
128.6537716894
  0
ARC
  5
3D1
330
1F
100
AcDbEntity
  8
0
  6
Continuous
 62
     7
370
    25
100
AcDbCircle
 10
0.0723590615
 20
0.1576276913
 30
0.0
 40
0.00042850529583
100
AcDbArc
 50
267.3106066641
 51
308.6537716894
  0
ARC
  5
3D2
330
1F
100
AcDbEntity
  8
0
  6
Continuous
 62
     7
370
    25
100
AcDbCircle
 10
0.0723624631
 20
0.1552065704
 30
0.0
 40
0.0004182146202583
100
AcDbArc
 50
50.8133535767
 51
93.2222680697
  0
ARC
  5
3D3
330
1F
100
AcDbEntity
  8
0
  6
Continuous
 62
     7
370
    25
100
AcDbCircle
 10
0.1380268493
 20
0.157627691
 30
0.0
 40
0.0004285052958301
100
AcDbArc
 50
231.3462283106
 51
272.6893933359
  0
ARC
  5
3D4
330
1F
100
AcDbEntity
  8
0
  6
Continuous
 62
     7
370
    25
100
AcDbCircle
 10
0.1380234478
 20
0.1552065701
 30
0.0
 40
0.0004182146202582
100
AcDbArc
 50
86.7777319303
 51
129.1866464233
  0
ARC
  5
3D5
330
1F
100
AcDbEntity
  8
0
  6
Continuous
 62
     7
370
    25
100
AcDbCircle
 10
0.1380268493
 20
0.1609052388
 30
0.0
 40
0.0004285052958298
100
AcDbArc
 50
231.3462283106
 51
272.6893933359
  0
ARC
  5
3D6
330
1F
100
AcDbEntity
  8
0
  6
Continuous
 62
     7
370
    25
100
AcDbCircle
 10
0.1380234478
 20
0.1576172111
 30
0.0
 40
0.0004182146202582
100
AcDbArc
 50
230.8133535767
 51
273.2222680698
  0
ARC
  5
3D7
330
1F
100
AcDbEntity
  8
0
  6
Continuous
 62
     7
370
    25
100
AcDbCircle
 10
0.0723590615
 20
0.1609052391
 30
0.0
 40
0.0004285052958303
100
AcDbArc
 50
267.3106066641
 51
308.6537716894
  0
ARC
  5
3D8
330
1F
100
AcDbEntity
  8
0
  6
Continuous
 62
     7
370
    25
100
AcDbCircle
 10
0.0723624631
 20
0.1576172114
 30
0.0
 40
0.0004182146202582
100
AcDbArc
 50
266.7777319303
 51
309.1866464233
  0
ARC
  5
3D9
330
1F
100
AcDbEntity
  8
0
  6
Continuous
 62
     7
370
    25
100
AcDbCircle
 10
0.1380259231
 20
0.1630095947
 30
0.0
 40
0.000322335475633
100
AcDbArc
 50
86.2588067741
 51
167.2392672687
  0
ARC
  5
3DA
330
1F
100
AcDbEntity
  8
0
  6
Continuous
 62
     7
370
    25
100
AcDbCircle
 10
0.1380234478
 20
0.1608947589
 30
0.0
 40
0.0004182146202582
100
AcDbArc
 50
230.8133535767
 51
273.2222680698
  0
ARC
  5
3DB
330
1F
100
AcDbEntity
  8
0
  6
Continuous
 62
     7
370
    25
100
AcDbCircle
 10
0.0723649546
 20
0.1630162467
 30
0.0
 40
0.0003160680776281
100
AcDbArc
 50
11.7836006712
 51
94.7183732238
  0
ARC
  5
3DC
330
1F
100
AcDbEntity
  8
0
  6
Continuous
 62
     7
370
    25
100
AcDbCircle
 10
0.0723624631
 20
0.1608947592
 30
0.0
 40
0.0004182146202583
100
AcDbArc
 50
266.7777319303
 51
309.1866464233
  0
ARC
  5
3DD
330
1F
100
AcDbEntity
  8
0
  6
Continuous
 62
     7
370
    25
100
AcDbCircle
 10
0.0923264358
 20
0.1629835767
 30
0.0
 40
0.0003478922464468
100
AcDbArc
 50
87.9376479755
 51
147.0287513086
  0
ARC
  5
3DE
330
1F
100
AcDbEntity
  8
0
  6
Continuous
 62
     7
370
    25
100
AcDbCircle
 10
0.1180607632
 20
0.1629860528
 30
0.0
 40
0.0003454665415573
100
AcDbArc
 50
32.7429156503
 51
92.2906434924
  0
ARC
  5
3DF
330
1F
100
AcDbEntity
  8
0
  6
Continuous
 62
     7
370
    25
100
AcDbCircle
 10
0.1180599213
 20
0.1629844344
 30
0.0
 40
0.0003470512326082
100
AcDbArc
 50
32.8924778205
 51
92.1410813223
  0
ARC
  5
3E0
330
1F
100
AcDbEntity
  8
0
  6
Continuous
 62
     7
370
    25
100
AcDbCircle
 10
0.1180469554
 20
0.1647073755
 30
0.0
 40
0.0003406916083933
100
AcDbArc
 50
8.4422393375
 51
171.5577606625
  0
ARC
  5
3E1
330
1F
100
AcDbEntity
  8
0
  6
Continuous
 62
     7
370
    25
100
AcDbCircle
 10
0.0723389554
 20
0.1647073758
 30
0.0
 40
0.0003406916083933
100
AcDbArc
 50
8.4422393375
 51
171.5577606625
  0
ARC
  5
3E2
330
1F
100
AcDbEntity
  8
0
  6
Continuous
 62
     7
370
    25
100
AcDbCircle
 10
0.0723624617
 20
0.1630129082
 30
0.0
 40
0.0003192020865768
100
AcDbArc
 50
12.2788424849
 51
94.2231314185
  0
ARC
  5
3E3
330
1F
100
AcDbEntity
  8
0
  6
Continuous
 62
     7
370
    25
100
AcDbCircle
 10
0.0923389554
 20
0.1647073758
 30
0.0
 40
0.0003406916083933
100
AcDbArc
 50
8.4422393375
 51
171.5577606625
  0
ARC
  5
3E4
330
1F
100
AcDbEntity
  8
0
  6
Continuous
 62
     7
370
    25
100
AcDbCircle
 10
0.0923259895
 20
0.1629844346
 30
0.0
 40
0.0003470512813871
100
AcDbArc
 50
87.8589210107
 51
147.1074782735
  0
ARC
  5
3E5
330
1F
100
AcDbEntity
  8
0
  6
Continuous
 62
     7
370
    25
100
AcDbCircle
 10
0.1380469554
 20
0.1647073755
 30
0.0
 40
0.0003406916083933
100
AcDbArc
 50
8.4422393375
 51
171.5577606625
  0
ARC
  5
3E6
330
1F
100
AcDbEntity
  8
0
  6
Continuous
 62
     7
370
    25
100
AcDbCircle
 10
0.1380184578
 20
0.1630195923
 30
0.0
 40
0.0003129512207428
100
AcDbArc
 50
84.7753655415
 51
168.7227084981
  0
ARC
  5
3E7
330
1F
100
AcDbEntity
  8
0
  6
Continuous
 62
     7
370
    25
100
AcDbCircle
 10
0.1380165059
 20
0.1647283777
 30
0.0
 40
0.000307920615372
100
AcDbArc
 50
84.324886837
 51
174.5929614741
  0
ARC
  5
3E8
330
1F
100
AcDbEntity
  8
0
  6
Continuous
 62
     7
370
    25
100
AcDbCircle
 10
0.1380721505
 20
0.1647219942
 30
0.0
 40
0.0003138079066874
100
AcDbArc
 50
6.4770198452
 51
94.6051318436
  0
ARC
  5
3E9
330
1F
100
AcDbEntity
  8
0
  6
Continuous
 62
     7
370
    25
100
AcDbCircle
 10
0.1380580204
 20
0.1650638062
 30
0.0
 40
0.0003249485905721
100
AcDbArc
 50
358.8281849188
 51
45.4033965774
  0
ARC
  5
3EA
330
1F
100
AcDbEntity
  8
0
  6
Continuous
 62
     7
370
    25
100
AcDbCircle
 10
0.138046999
 20
0.1650589788
 30
0.0
 40
0.0003361538409312
100
AcDbArc
 50
44.6434247286
 51
180.4780945085
  0
ARC
  5
3EB
330
1F
100
AcDbEntity
  8
0
  6
Continuous
 62
     7
370
    25
100
AcDbCircle
 10
0.0723085059
 20
0.164728378
 30
0.0
 40
0.000307920615372
100
AcDbArc
 50
84.3248868371
 51
174.5929614741
  0
ARC
  5
3EC
330
1F
100
AcDbEntity
  8
0
  6
Continuous
 62
     7
370
    25
100
AcDbCircle
 10
0.0723641505
 20
0.1647219945
 30
0.0
 40
0.0003138079066874
100
AcDbArc
 50
6.4770198452
 51
94.6051318436
  0
ARC
  5
3ED
330
1F
100
AcDbEntity
  8
0
  6
Continuous
 62
     7
370
    25
100
AcDbCircle
 10
0.0723500204
 20
0.1650638065
 30
0.0
 40
0.0003249485905725
100
AcDbArc
 50
358.8281849188
 51
45.4033965774
  0
ARC
  5
3EE
330
1F
100
AcDbEntity
  8
0
  6
Continuous
 62
     7
370
    25
100
AcDbCircle
 10
0.072338999
 20
0.1650589791
 30
0.0
 40
0.0003361538409311
100
AcDbArc
 50
44.6434247286
 51
180.4780945085
  0
ARC
  5
3EF
330
1F
100
AcDbEntity
  8
0
  6
Continuous
 62
     7
370
    25
100
AcDbCircle
 10
0.1180165059
 20
0.1647283777
 30
0.0
 40
0.000307920615372
100
AcDbArc
 50
84.324886837
 51
174.5929614741
  0
ARC
  5
3F0
330
1F
100
AcDbEntity
  8
0
  6
Continuous
 62
     7
370
    25
100
AcDbCircle
 10
0.1180721505
 20
0.1647219942
 30
0.0
 40
0.0003138079066873
100
AcDbArc
 50
6.4770198452
 51
94.6051318437
  0
ARC
  5
3F1
330
1F
100
AcDbEntity
  8
0
  6
Continuous
 62
     7
370
    25
100
AcDbCircle
 10
0.1180580204
 20
0.1650638062
 30
0.0
 40
0.0003249485905724
100
AcDbArc
 50
358.8281849188
 51
45.4033965774
  0
ARC
  5
3F2
330
1F
100
AcDbEntity
  8
0
  6
Continuous
 62
     7
370
    25
100
AcDbCircle
 10
0.118046999
 20
0.1650589788
 30
0.0
 40
0.0003361538409311
100
AcDbArc
 50
44.6434247286
 51
180.4780945085
  0
ARC
  5
3F3
330
1F
100
AcDbEntity
  8
0
  6
Continuous
 62
     7
370
    25
100
AcDbCircle
 10
0.0923085059
 20
0.164728378
 30
0.0
 40
0.000307920615372
100
AcDbArc
 50
84.3248868371
 51
174.5929614741
  0
ARC
  5
3F4
330
1F
100
AcDbEntity
  8
0
  6
Continuous
 62
     7
370
    25
100
AcDbCircle
 10
0.0923641505
 20
0.1647219945
 30
0.0
 40
0.0003138079066874
100
AcDbArc
 50
6.4770198452
 51
94.6051318436
  0
ARC
  5
3F5
330
1F
100
AcDbEntity
  8
0
  6
Continuous
 62
     7
370
    25
100
AcDbCircle
 10
0.0923500204
 20
0.1650638065
 30
0.0
 40
0.0003249485905725
100
AcDbArc
 50
358.8281849188
 51
45.4033965774
  0
ARC
  5
3F6
330
1F
100
AcDbEntity
  8
0
  6
Continuous
 62
     7
370
    25
100
AcDbCircle
 10
0.092338999
 20
0.1650589791
 30
0.0
 40
0.0003361538409312
100
AcDbArc
 50
44.6434247286
 51
180.4780945085
  0
ARC
  5
3F7
330
1F
100
AcDbEntity
  8
0
  6
Continuous
 62
     7
370
    25
100
AcDbCircle
 10
0.0923389554
 20
0.1650578215
 30
0.0
 40
0.000337
100
AcDbArc
 50
359.9542592837
 51
179.9575668671
  0
ARC
  5
3F8
330
1F
100
AcDbEntity
  8
0
  6
Continuous
 62
     7
370
    25
100
AcDbCircle
 10
0.1380469554
 20
0.1650578212
 30
0.0
 40
0.000337
100
AcDbArc
 50
359.9788270796
 51
180.0230783062
  0
ARC
  5
3F9
330
1F
100
AcDbEntity
  8
0
  6
Continuous
 62
     7
370
    25
100
AcDbCircle
 10
0.0723389554
 20
0.1650578215
 30
0.0
 40
0.000337
100
AcDbArc
 50
359.9541306194
 51
179.958646067
  0
ARC
  5
3FA
330
1F
100
AcDbEntity
  8
0
  6
Continuous
 62
     7
370
    25
100
AcDbCircle
 10
0.1180469554
 20
0.1650578212
 30
0.0
 40
0.000337
100
AcDbArc
 50
359.9544436449
 51
179.9581455742
  0
LINE
  5
3FB
330
1F
100
AcDbEntity
  8
0
  6
Continuous
 62
     7
370
    25
100
AcDbLine
 10
0.1384009554
 20
0.1634968126
 30
0.0
 11
0.1384009554
 21
0.1494784126
 31
0.0
  0
LINE
  5
3FC
330
1F
100
AcDbEntity
  8
0
  6
Continuous
 62
     7
370
    25
100
AcDbLine
 10
0.1380469554
 20
0.1494784126
 30
0.0
 11
0.1380469554
 21
0.1634968126
 31
0.0
  0
LINE
  5
3FD
330
1F
100
AcDbEntity
  8
0
  6
Continuous
 62
     7
370
    25
100
AcDbLine
 10
0.1384009554
 20
0.1494784126
 30
0.0
 11
0.1384009554
 21
0.1487662741
 31
0.0
  0
LINE
  5
3FE
330
1F
100
AcDbEntity
  8
0
  6
Continuous
 62
     7
370
    25
100
AcDbLine
 10
0.1380469554
 20
0.1487662741
 30
0.0
 11
0.1380469554
 21
0.1494784126
 31
0.0
  0
LINE
  5
3FF
330
1F
100
AcDbEntity
  8
0
  6
Continuous
 62
     7
370
    25
100
AcDbLine
 10
0.1384009554
 20
0.1642089511
 30
0.0
 11
0.1384009554
 21
0.1634968126
 31
0.0
  0
LINE
  5
400
330
1F
100
AcDbEntity
  8
0
  6
Continuous
 62
     7
370
    25
100
AcDbLine
 10
0.1380469554
 20
0.1634968126
 30
0.0
 11
0.1380469554
 21
0.1642089511
 31
0.0
  0
LINE
  5
401
330
1F
100
AcDbEntity
  8
0
  6
Continuous
 62
     7
370
    25
100
AcDbLine
 10
0.1381177554
 20
0.1486478293
 30
0.0
 11
0.1381177554
 21
0.1486954741
 31
0.0
  0
LINE
  5
402
330
1F
100
AcDbEntity
  8
0
  6
Continuous
 62
     7
370
    25
100
AcDbLine
 10
0.1383301554
 20
0.1486954741
 30
0.0
 11
0.1383301554
 21
0.1486478293
 31
0.0
  0
LINE
  5
403
330
1F
100
AcDbEntity
  8
0
  6
Continuous
 62
     7
370
    25
100
AcDbLine
 10
0.1383301554
 20
0.1643273959
 30
0.0
 11
0.1383301554
 21
0.1642797511
 31
0.0
  0
LINE
  5
404
330
1F
100
AcDbEntity
  8
0
  6
Continuous
 62
     7
370
    25
100
AcDbLine
 10
0.1381177554
 20
0.1642797511
 30
0.0
 11
0.1381177554
 21
0.1643273959
 31
0.0
  0
LINE
  5
405
330
1F
100
AcDbEntity
  8
0
  6
Continuous
 62
     7
370
    25
100
AcDbLine
 10
0.1384009554
 20
0.1487662741
 30
0.0
 11
0.1384009554
 21
0.1486121834
 31
0.0
  0
ARC
  5
406
330
1F
100
AcDbEntity
  8
0
  6
Continuous
 62
     7
370
    25
100
AcDbCircle
 10
0.1383428432
 20
0.1485848953
 30
0.0
 40
0.000064200250692
100
AcDbArc
 50
25.1536094821
 51
101.3982813886
  0
LINE
  5
407
330
1F
100
AcDbEntity
  8
0
  6
Continuous
 62
     7
370
    25
100
AcDbLine
 10
0.1384009554
 20
0.1486121834
 30
0.0
 11
0.1384009554
 21
0.1484305674
 31
0.0
  0
LINE
  5
408
330
1F
100
AcDbEntity
  8
0
  6
Continuous
 62
     7
370
    25
100
AcDbLine
 10
0.1380469554
 20
0.1484305674
 30
0.0
 11
0.1380469554
 21
0.1486121834
 31
0.0
  0
ARC
  5
409
330
1F
100
AcDbEntity
  8
0
  6
Continuous
 62
     7
370
    25
100
AcDbCircle
 10
0.1381050677
 20
0.1485848953
 30
0.0
 40
0.000064200250692
100
AcDbArc
 50
78.6017186114
 51
154.8463905179
  0
LINE
  5
40A
330
1F
100
AcDbEntity
  8
0
  6
Continuous
 62
     7
370
    25
100
AcDbLine
 10
0.1380469554
 20
0.1486121834
 30
0.0
 11
0.1380469554
 21
0.1487662741
 31
0.0
  0
ARC
  5
40B
330
1F
100
AcDbEntity
  8
0
  6
Continuous
 62
     7
370
    25
100
AcDbCircle
 10
0.1381050677
 20
0.1643903299
 30
0.0
 40
0.0000642002506919
100
AcDbArc
 50
205.1536094821
 51
281.3982813886
  0
LINE
  5
40C
330
1F
100
AcDbEntity
  8
0
  6
Continuous
 62
     7
370
    25
100
AcDbLine
 10
0.1380469554
 20
0.1643630418
 30
0.0
 11
0.1380469554
 21
0.1645446577
 31
0.0
  0
LINE
  5
40D
330
1F
100
AcDbEntity
  8
0
  6
Continuous
 62
     7
370
    25
100
AcDbLine
 10
0.1380469554
 20
0.1642089511
 30
0.0
 11
0.1380469554
 21
0.1643630418
 31
0.0
  0
LINE
  5
40E
330
1F
100
AcDbEntity
  8
0
  6
Continuous
 62
     7
370
    25
100
AcDbLine
 10
0.1384009554
 20
0.1645446577
 30
0.0
 11
0.1384009554
 21
0.1643630418
 31
0.0
  0
ARC
  5
40F
330
1F
100
AcDbEntity
  8
0
  6
Continuous
 62
     7
370
    25
100
AcDbCircle
 10
0.1383428432
 20
0.1643903299
 30
0.0
 40
0.000064200250692
100
AcDbArc
 50
258.6017186114
 51
334.8463905179
  0
LINE
  5
410
330
1F
100
AcDbEntity
  8
0
  6
Continuous
 62
     7
370
    25
100
AcDbLine
 10
0.1384009554
 20
0.1643630418
 30
0.0
 11
0.1384009554
 21
0.1642089511
 31
0.0
  0
LINE
  5
411
330
1F
100
AcDbEntity
  8
0
  6
Continuous
 62
     7
370
    25
100
AcDbLine
 10
0.1176929554
 20
0.1494784126
 30
0.0
 11
0.1176929554
 21
0.1634968126
 31
0.0
  0
LINE
  5
412
330
1F
100
AcDbEntity
  8
0
  6
Continuous
 62
     7
370
    25
100
AcDbLine
 10
0.1180469554
 20
0.1634968126
 30
0.0
 11
0.1180469554
 21
0.1494784126
 31
0.0
  0
LINE
  5
413
330
1F
100
AcDbEntity
  8
0
  6
Continuous
 62
     7
370
    25
100
AcDbLine
 10
0.1180469554
 20
0.1494784126
 30
0.0
 11
0.1180469554
 21
0.1487662741
 31
0.0
  0
LINE
  5
414
330
1F
100
AcDbEntity
  8
0
  6
Continuous
 62
     7
370
    25
100
AcDbLine
 10
0.1176929554
 20
0.1487662741
 30
0.0
 11
0.1176929554
 21
0.1494784126
 31
0.0
  0
LINE
  5
415
330
1F
100
AcDbEntity
  8
0
  6
Continuous
 62
     7
370
    25
100
AcDbLine
 10
0.1180469554
 20
0.1642089511
 30
0.0
 11
0.1180469554
 21
0.1634968126
 31
0.0
  0
LINE
  5
416
330
1F
100
AcDbEntity
  8
0
  6
Continuous
 62
     7
370
    25
100
AcDbLine
 10
0.1176929554
 20
0.1634968126
 30
0.0
 11
0.1176929554
 21
0.1642089511
 31
0.0
  0
LINE
  5
417
330
1F
100
AcDbEntity
  8
0
  6
Continuous
 62
     7
370
    25
100
AcDbLine
 10
0.1177637554
 20
0.1486478293
 30
0.0
 11
0.1177637554
 21
0.1486954741
 31
0.0
  0
LINE
  5
418
330
1F
100
AcDbEntity
  8
0
  6
Continuous
 62
     7
370
    25
100
AcDbLine
 10
0.1179761554
 20
0.1486954741
 30
0.0
 11
0.1179761554
 21
0.1486478293
 31
0.0
  0
LINE
  5
419
330
1F
100
AcDbEntity
  8
0
  6
Continuous
 62
     7
370
    25
100
AcDbLine
 10
0.1177637554
 20
0.1642797511
 30
0.0
 11
0.1177637554
 21
0.1643273959
 31
0.0
  0
LINE
  5
41A
330
1F
100
AcDbEntity
  8
0
  6
Continuous
 62
     7
370
    25
100
AcDbLine
 10
0.1179761554
 20
0.1643273959
 30
0.0
 11
0.1179761554
 21
0.1642797511
 31
0.0
  0
ARC
  5
41B
330
1F
100
AcDbEntity
  8
0
  6
Continuous
 62
     7
370
    25
100
AcDbCircle
 10
0.1179888432
 20
0.1485848953
 30
0.0
 40
0.000064200250692
100
AcDbArc
 50
25.1536094821
 51
101.3982813886
  0
LINE
  5
41C
330
1F
100
AcDbEntity
  8
0
  6
Continuous
 62
     7
370
    25
100
AcDbLine
 10
0.1180469554
 20
0.1486121834
 30
0.0
 11
0.1180469554
 21
0.1484305674
 31
0.0
  0
LINE
  5
41D
330
1F
100
AcDbEntity
  8
0
  6
Continuous
 62
     7
370
    25
100
AcDbLine
 10
0.1176929554
 20
0.1484305674
 30
0.0
 11
0.1176929554
 21
0.1486121834
 31
0.0
  0
ARC
  5
41E
330
1F
100
AcDbEntity
  8
0
  6
Continuous
 62
     7
370
    25
100
AcDbCircle
 10
0.1177510677
 20
0.1485848953
 30
0.0
 40
0.0000642002506919
100
AcDbArc
 50
78.6017186114
 51
154.8463905179
  0
LINE
  5
41F
330
1F
100
AcDbEntity
  8
0
  6
Continuous
 62
     7
370
    25
100
AcDbLine
 10
0.1176929554
 20
0.1486121834
 30
0.0
 11
0.1176929554
 21
0.1487662741
 31
0.0
  0
LINE
  5
420
330
1F
100
AcDbEntity
  8
0
  6
Continuous
 62
     7
370
    25
100
AcDbLine
 10
0.1180469554
 20
0.1487662741
 30
0.0
 11
0.1180469554
 21
0.1486121834
 31
0.0
  0
ARC
  5
421
330
1F
100
AcDbEntity
  8
0
  6
Continuous
 62
     7
370
    25
100
AcDbCircle
 10
0.1177510677
 20
0.1643903299
 30
0.0
 40
0.000064200250692
100
AcDbArc
 50
205.1536094821
 51
281.3982813886
  0
LINE
  5
422
330
1F
100
AcDbEntity
  8
0
  6
Continuous
 62
     7
370
    25
100
AcDbLine
 10
0.1176929554
 20
0.1643630418
 30
0.0
 11
0.1176929554
 21
0.1645446577
 31
0.0
  0
LINE
  5
423
330
1F
100
AcDbEntity
  8
0
  6
Continuous
 62
     7
370
    25
100
AcDbLine
 10
0.1176929554
 20
0.1642089511
 30
0.0
 11
0.1176929554
 21
0.1643630418
 31
0.0
  0
LINE
  5
424
330
1F
100
AcDbEntity
  8
0
  6
Continuous
 62
     7
370
    25
100
AcDbLine
 10
0.1180469554
 20
0.1645446577
 30
0.0
 11
0.1180469554
 21
0.1643630418
 31
0.0
  0
ARC
  5
425
330
1F
100
AcDbEntity
  8
0
  6
Continuous
 62
     7
370
    25
100
AcDbCircle
 10
0.1179888432
 20
0.1643903299
 30
0.0
 40
0.000064200250692
100
AcDbArc
 50
258.6017186114
 51
334.8463905179
  0
LINE
  5
426
330
1F
100
AcDbEntity
  8
0
  6
Continuous
 62
     7
370
    25
100
AcDbLine
 10
0.1180469554
 20
0.1643630418
 30
0.0
 11
0.1180469554
 21
0.1642089511
 31
0.0
  0
LINE
  5
427
330
1F
100
AcDbEntity
  8
0
  6
Continuous
 62
     7
370
    25
100
AcDbLine
 10
0.0926929554
 20
0.1634968132
 30
0.0
 11
0.0926929554
 21
0.1494784132
 31
0.0
  0
LINE
  5
428
330
1F
100
AcDbEntity
  8
0
  6
Continuous
 62
     7
370
    25
100
AcDbLine
 10
0.0923389554
 20
0.1494784132
 30
0.0
 11
0.0923389554
 21
0.1634968132
 31
0.0
  0
LINE
  5
429
330
1F
100
AcDbEntity
  8
0
  6
Continuous
 62
     7
370
    25
100
AcDbLine
 10
0.0923389554
 20
0.1634968132
 30
0.0
 11
0.0923389554
 21
0.1642089517
 31
0.0
  0
LINE
  5
42A
330
1F
100
AcDbEntity
  8
0
  6
Continuous
 62
     7
370
    25
100
AcDbLine
 10
0.0926929554
 20
0.1642089517
 30
0.0
 11
0.0926929554
 21
0.1634968132
 31
0.0
  0
LINE
  5
42B
330
1F
100
AcDbEntity
  8
0
  6
Continuous
 62
     7
370
    25
100
AcDbLine
 10
0.0923389554
 20
0.1487662747
 30
0.0
 11
0.0923389554
 21
0.1494784132
 31
0.0
  0
LINE
  5
42C
330
1F
100
AcDbEntity
  8
0
  6
Continuous
 62
     7
370
    25
100
AcDbLine
 10
0.0926929554
 20
0.1494784132
 30
0.0
 11
0.0926929554
 21
0.1487662747
 31
0.0
  0
LINE
  5
42D
330
1F
100
AcDbEntity
  8
0
  6
Continuous
 62
     7
370
    25
100
AcDbLine
 10
0.0926221554
 20
0.1643273964
 30
0.0
 11
0.0926221554
 21
0.1642797517
 31
0.0
  0
LINE
  5
42E
330
1F
100
AcDbEntity
  8
0
  6
Continuous
 62
     7
370
    25
100
AcDbLine
 10
0.0924097554
 20
0.1642797517
 30
0.0
 11
0.0924097554
 21
0.1643273964
 31
0.0
  0
LINE
  5
42F
330
1F
100
AcDbEntity
  8
0
  6
Continuous
 62
     7
370
    25
100
AcDbLine
 10
0.0926221554
 20
0.1486954747
 30
0.0
 11
0.0926221554
 21
0.1486478299
 31
0.0
  0
LINE
  5
430
330
1F
100
AcDbEntity
  8
0
  6
Continuous
 62
     7
370
    25
100
AcDbLine
 10
0.0924097554
 20
0.1486478299
 30
0.0
 11
0.0924097554
 21
0.1486954747
 31
0.0
  0
LINE
  5
431
330
1F
100
AcDbEntity
  8
0
  6
Continuous
 62
     7
370
    25
100
AcDbLine
 10
0.0926929554
 20
0.1645446583
 30
0.0
 11
0.0926929554
 21
0.1643630424
 31
0.0
  0
ARC
  5
432
330
1F
100
AcDbEntity
  8
0
  6
Continuous
 62
     7
370
    25
100
AcDbCircle
 10
0.0926348432
 20
0.1643903305
 30
0.0
 40
0.0000642002506919
100
AcDbArc
 50
258.6017186114
 51
334.8463905179
  0
ARC
  5
433
330
1F
100
AcDbEntity
  8
0
  6
Continuous
 62
     7
370
    25
100
AcDbCircle
 10
0.0923970677
 20
0.1643903305
 30
0.0
 40
0.0000642002506919
100
AcDbArc
 50
205.1536094821
 51
281.3982813886
  0
LINE
  5
434
330
1F
100
AcDbEntity
  8
0
  6
Continuous
 62
     7
370
    25
100
AcDbLine
 10
0.0923389554
 20
0.1643630424
 30
0.0
 11
0.0923389554
 21
0.1645446583
 31
0.0
  0
LINE
  5
435
330
1F
100
AcDbEntity
  8
0
  6
Continuous
 62
     7
370
    25
100
AcDbLine
 10
0.0923389554
 20
0.1642089517
 30
0.0
 11
0.0923389554
 21
0.1643630424
 31
0.0
  0
LINE
  5
436
330
1F
100
AcDbEntity
  8
0
  6
Continuous
 62
     7
370
    25
100
AcDbLine
 10
0.0926929554
 20
0.1643630424
 30
0.0
 11
0.0926929554
 21
0.1642089517
 31
0.0
  0
LINE
  5
437
330
1F
100
AcDbEntity
  8
0
  6
Continuous
 62
     7
370
    25
100
AcDbLine
 10
0.0926929554
 20
0.1487662747
 30
0.0
 11
0.0926929554
 21
0.148612184
 31
0.0
  0
ARC
  5
438
330
1F
100
AcDbEntity
  8
0
  6
Continuous
 62
     7
370
    25
100
AcDbCircle
 10
0.0926348432
 20
0.1485848959
 30
0.0
 40
0.0000642002506919
100
AcDbArc
 50
25.1536094821
 51
101.3982813886
  0
LINE
  5
439
330
1F
100
AcDbEntity
  8
0
  6
Continuous
 62
     7
370
    25
100
AcDbLine
 10
0.0926929554
 20
0.148612184
 30
0.0
 11
0.0926929554
 21
0.148430568
 31
0.0
  0
ARC
  5
43A
330
1F
100
AcDbEntity
  8
0
  6
Continuous
 62
     7
370
    25
100
AcDbCircle
 10
0.0923970677
 20
0.1485848959
 30
0.0
 40
0.000064200250692
100
AcDbArc
 50
78.6017186114
 51
154.8463905179
  0
LINE
  5
43B
330
1F
100
AcDbEntity
  8
0
  6
Continuous
 62
     7
370
    25
100
AcDbLine
 10
0.0923389554
 20
0.148612184
 30
0.0
 11
0.0923389554
 21
0.1487662747
 31
0.0
  0
LINE
  5
43C
330
1F
100
AcDbEntity
  8
0
  6
Continuous
 62
     7
370
    25
100
AcDbLine
 10
0.0923389554
 20
0.148430568
 30
0.0
 11
0.0923389554
 21
0.148612184
 31
0.0
  0
LINE
  5
43D
330
1F
100
AcDbEntity
  8
0
  6
Continuous
 62
     7
370
    25
100
AcDbLine
 10
0.0719849554
 20
0.1601198073
 30
0.0
 11
0.0719849554
 21
0.1612868646
 31
0.0
  0
LINE
  5
43E
330
1F
100
AcDbEntity
  8
0
  6
Continuous
 62
     7
370
    25
100
AcDbLine
 10
0.0723389554
 20
0.1612868646
 30
0.0
 11
0.0723389554
 21
0.1601198073
 31
0.0
  0
LINE
  5
43F
330
1F
100
AcDbEntity
  8
0
  6
Continuous
 62
     7
370
    25
100
AcDbLine
 10
0.0723389554
 20
0.1528554276
 30
0.0
 11
0.0723389554
 21
0.1516883703
 31
0.0
  0
LINE
  5
440
330
1F
100
AcDbEntity
  8
0
  6
Continuous
 62
     7
370
    25
100
AcDbLine
 10
0.0719849554
 20
0.1516883703
 30
0.0
 11
0.0719849554
 21
0.1528554276
 31
0.0
  0
LINE
  5
441
330
1F
100
AcDbEntity
  8
0
  6
Continuous
 62
     7
370
    25
100
AcDbLine
 10
0.0719849554
 20
0.1598819606
 30
0.0
 11
0.0719849554
 21
0.1601198073
 31
0.0
  0
LINE
  5
442
330
1F
100
AcDbEntity
  8
0
  6
Continuous
 62
     7
370
    25
100
AcDbLine
 10
0.0719849554
 20
0.1612868646
 30
0.0
 11
0.0719849554
 21
0.1615247112
 31
0.0
  0
LINE
  5
443
330
1F
100
AcDbEntity
  8
0
  6
Continuous
 62
     7
370
    25
100
AcDbLine
 10
0.0719849554
 20
0.1514505237
 30
0.0
 11
0.0719849554
 21
0.1516883703
 31
0.0
  0
LINE
  5
444
330
1F
100
AcDbEntity
  8
0
  6
Continuous
 62
     7
370
    25
100
AcDbLine
 10
0.0719849554
 20
0.1528554276
 30
0.0
 11
0.0719849554
 21
0.1530932743
 31
0.0
  0
LINE
  5
445
330
1F
100
AcDbEntity
  8
0
  6
Continuous
 62
     7
370
    25
100
AcDbLine
 10
0.0723389554
 20
0.1530932743
 30
0.0
 11
0.0723389554
 21
0.1528554276
 31
0.0
  0
LINE
  5
446
330
1F
100
AcDbEntity
  8
0
  6
Continuous
 62
     7
370
    25
100
AcDbLine
 10
0.0723389554
 20
0.1615247112
 30
0.0
 11
0.0723389554
 21
0.1612868646
 31
0.0
  0
LINE
  5
447
330
1F
100
AcDbEntity
  8
0
  6
Continuous
 62
     7
370
    25
100
AcDbLine
 10
0.0723389554
 20
0.1601198073
 30
0.0
 11
0.0723389554
 21
0.1598819606
 31
0.0
  0
LINE
  5
448
330
1F
100
AcDbEntity
  8
0
  6
Continuous
 62
     7
370
    25
100
AcDbLine
 10
0.0723389554
 20
0.1516883703
 30
0.0
 11
0.0723389554
 21
0.1514505237
 31
0.0
  0
LINE
  5
449
330
1F
100
AcDbEntity
  8
0
  6
Continuous
 62
     7
370
    25
100
AcDbLine
 10
0.0719849554
 20
0.1530932743
 30
0.0
 11
0.0719849554
 21
0.1542652877
 31
0.0
  0
ARC
  5
44A
330
1F
100
AcDbEntity
  8
0
  6
Continuous
 62
     7
370
    25
100
AcDbCircle
 10
0.0720383022
 20
0.154252476
 30
0.0
 40
0.0000548636015528
100
AcDbArc
 50
71.4506881733
 51
166.4956875294
  0
ARC
  5
44B
330
1F
100
AcDbEntity
  8
0
  6
Continuous
 62
     7
370
    25
100
AcDbCircle
 10
0.0720417682
 20
0.1587290187
 30
0.0
 40
0.0000599284458481
100
AcDbArc
 50
198.5564087492
 51
283.4972155481
  0
LINE
  5
44C
330
1F
100
AcDbEntity
  8
0
  6
Continuous
 62
     7
370
    25
100
AcDbLine
 10
0.0719849554
 20
0.1587099472
 30
0.0
 11
0.0719849554
 21
0.1598819606
 31
0.0
  0
ARC
  5
44D
330
1F
100
AcDbEntity
  8
0
  6
Continuous
 62
     7
370
    25
100
AcDbCircle
 10
0.0722856087
 20
0.1587227589
 30
0.0
 40
0.0000548636015541
100
AcDbArc
 50
251.4506881748
 51
346.4956875278
  0
LINE
  5
44E
330
1F
100
AcDbEntity
  8
0
  6
Continuous
 62
     7
370
    25
100
AcDbLine
 10
0.0723389554
 20
0.1598819606
 30
0.0
 11
0.0723389554
 21
0.1587099472
 31
0.0
  0
ARC
  5
44F
330
1F
100
AcDbEntity
  8
0
  6
Continuous
 62
     7
370
    25
100
AcDbCircle
 10
0.0722821426
 20
0.1542462162
 30
0.0
 40
0.0000599284458483
100
AcDbArc
 50
18.5564087494
 51
103.497215548
  0
LINE
  5
450
330
1F
100
AcDbEntity
  8
0
  6
Continuous
 62
     7
370
    25
100
AcDbLine
 10
0.0723389554
 20
0.1542652877
 30
0.0
 11
0.0723389554
 21
0.1530932743
 31
0.0
  0
LINE
  5
451
330
1F
100
AcDbEntity
  8
0
  6
Continuous
 62
     7
370
    25
100
AcDbLine
 10
0.0720557554
 20
0.1543044895
 30
0.0
 11
0.0722681554
 21
0.1543044895
 31
0.0
  0
LINE
  5
452
330
1F
100
AcDbEntity
  8
0
  6
Continuous
 62
     7
370
    25
100
AcDbLine
 10
0.0720557554
 20
0.1586707454
 30
0.0
 11
0.0722681554
 21
0.1586707454
 31
0.0
  0
ARC
  5
453
330
1F
100
AcDbEntity
  8
0
  6
Continuous
 62
     7
370
    25
100
AcDbCircle
 10
0.0720341951
 20
0.1554629751
 30
0.0
 40
0.0001865771218979
100
AcDbArc
 50
254.6977739449
 51
276.6357657815
  0
ARC
  5
454
330
1F
100
AcDbEntity
  8
0
  6
Continuous
 62
     7
370
    25
100
AcDbCircle
 10
0.0720341951
 20
0.1575122598
 30
0.0
 40
0.0001865771218979
100
AcDbArc
 50
83.3642342185
 51
105.3022260551
  0
LINE
  5
455
330
1F
100
AcDbEntity
  8
0
  6
Continuous
 62
     7
370
    25
100
AcDbLine
 10
0.0719849554
 20
0.1552830127
 30
0.0
 11
0.0719849554
 21
0.1576922222
 31
0.0
  0
LINE
  5
456
330
1F
100
AcDbEntity
  8
0
  6
Continuous
 62
     7
370
    25
100
AcDbLine
 10
0.0720557554
 20
0.157697587
 30
0.0
 11
0.0722681554
 21
0.157697587
 31
0.0
  0
LINE
  5
457
330
1F
100
AcDbEntity
  8
0
  6
Continuous
 62
     7
370
    25
100
AcDbLine
 10
0.0720557554
 20
0.1552776479
 30
0.0
 11
0.0722681554
 21
0.1552776479
 31
0.0
  0
ARC
  5
458
330
1F
100
AcDbEntity
  8
0
  6
Continuous
 62
     7
370
    25
100
AcDbCircle
 10
0.0722897157
 20
0.1554629751
 30
0.0
 40
0.0001865771218929
100
AcDbArc
 50
263.3642342182
 51
285.3022260554
  0
ARC
  5
459
330
1F
100
AcDbEntity
  8
0
  6
Continuous
 62
     7
370
    25
100
AcDbCircle
 10
0.0722897157
 20
0.1575122598
 30
0.0
 40
0.0001865771218929
100
AcDbArc
 50
74.6977739446
 51
96.6357657818
  0
LINE
  5
45A
330
1F
100
AcDbEntity
  8
0
  6
Continuous
 62
     7
370
    25
100
AcDbLine
 10
0.0723389554
 20
0.1576922222
 30
0.0
 11
0.0723389554
 21
0.1552830127
 31
0.0
  0
LINE
  5
45B
330
1F
100
AcDbEntity
  8
0
  6
Continuous
 62
     7
370
    25
100
AcDbLine
 10
0.0719849554
 20
0.1576922222
 30
0.0
 11
0.0719849554
 21
0.1587099472
 31
0.0
  0
LINE
  5
45C
330
1F
100
AcDbEntity
  8
0
  6
Continuous
 62
     7
370
    25
100
AcDbLine
 10
0.0723389554
 20
0.1587099472
 30
0.0
 11
0.0723389554
 21
0.1576922222
 31
0.0
  0
LINE
  5
45D
330
1F
100
AcDbEntity
  8
0
  6
Continuous
 62
     7
370
    25
100
AcDbLine
 10
0.0723389554
 20
0.1552830127
 30
0.0
 11
0.0723389554
 21
0.1542652877
 31
0.0
  0
LINE
  5
45E
330
1F
100
AcDbEntity
  8
0
  6
Continuous
 62
     7
370
    25
100
AcDbLine
 10
0.0719849554
 20
0.1542652877
 30
0.0
 11
0.0719849554
 21
0.1552830127
 31
0.0
  0
ARC
  5
45F
330
1F
100
AcDbEntity
  8
0
  6
Continuous
 62
     7
370
    25
100
AcDbCircle
 10
0.0720548571
 20
0.150689258
 30
0.0
 40
0.0000699040358844
100
AcDbArc
 50
180.474407375
 51
270.7363476545
  0
LINE
  5
460
330
1F
100
AcDbEntity
  8
0
  6
Continuous
 62
     7
370
    25
100
AcDbLine
 10
0.0719849554
 20
0.1506886792
 30
0.0
 11
0.0719849554
 21
0.1514505237
 31
0.0
  0
ARC
  5
461
330
1F
100
AcDbEntity
  8
0
  6
Continuous
 62
     7
370
    25
100
AcDbCircle
 10
0.0722690538
 20
0.150689258
 30
0.0
 40
0.0000699040358854
100
AcDbArc
 50
269.2636523463
 51
359.5255926242
  0
LINE
  5
462
330
1F
100
AcDbEntity
  8
0
  6
Continuous
 62
     7
370
    25
100
AcDbLine
 10
0.0723389554
 20
0.1514505237
 30
0.0
 11
0.0723389554
 21
0.1506886792
 31
0.0
  0
ARC
  5
463
330
1F
100
AcDbEntity
  8
0
  6
Continuous
 62
     7
370
    25
100
AcDbCircle
 10
0.0722690538
 20
0.1622859769
 30
0.0
 40
0.0000699040358854
100
AcDbArc
 50
0.4744073758
 51
90.7363476537
  0
LINE
  5
464
330
1F
100
AcDbEntity
  8
0
  6
Continuous
 62
     7
370
    25
100
AcDbLine
 10
0.0723389554
 20
0.1622865557
 30
0.0
 11
0.0723389554
 21
0.1615247112
 31
0.0
  0
ARC
  5
465
330
1F
100
AcDbEntity
  8
0
  6
Continuous
 62
     7
370
    25
100
AcDbCircle
 10
0.0720548571
 20
0.1622859769
 30
0.0
 40
0.0000699040358845
100
AcDbArc
 50
89.2636523455
 51
179.525592625
  0
LINE
  5
466
330
1F
100
AcDbEntity
  8
0
  6
Continuous
 62
     7
370
    25
100
AcDbLine
 10
0.0719849554
 20
0.1615247112
 30
0.0
 11
0.0719849554
 21
0.1622865557
 31
0.0
  0
LINE
  5
467
330
1F
100
AcDbEntity
  8
0
  6
Continuous
 62
     7
370
    25
100
AcDbLine
 10
0.0720557554
 20
0.1623558752
 30
0.0
 11
0.0722681554
 21
0.1623558752
 31
0.0
  0
LINE
  5
468
330
1F
100
AcDbEntity
  8
0
  6
Continuous
 62
     7
370
    25
100
AcDbLine
 10
0.0720557554
 20
0.1506193597
 30
0.0
 11
0.0722681554
 21
0.1506193597
 31
0.0
  0
LINE
  5
469
330
1F
100
AcDbEntity
  8
0
  6
Continuous
 62
     7
370
    25
100
AcDbLine
 10
0.0719849554
 20
0.1622865557
 30
0.0
 11
0.0719849554
 21
0.1634968175
 31
0.0
  0
LINE
  5
46A
330
1F
100
AcDbEntity
  8
0
  6
Continuous
 62
     7
370
    25
100
AcDbLine
 10
0.0723389554
 20
0.1634968175
 30
0.0
 11
0.0723389554
 21
0.1622865557
 31
0.0
  0
LINE
  5
46B
330
1F
100
AcDbEntity
  8
0
  6
Continuous
 62
     7
370
    25
100
AcDbLine
 10
0.0719849554
 20
0.1494784175
 30
0.0
 11
0.0719849554
 21
0.1506886792
 31
0.0
  0
LINE
  5
46C
330
1F
100
AcDbEntity
  8
0
  6
Continuous
 62
     7
370
    25
100
AcDbLine
 10
0.0723389554
 20
0.1506886792
 30
0.0
 11
0.0723389554
 21
0.1494784175
 31
0.0
  0
LINE
  5
46D
330
1F
100
AcDbEntity
  8
0
  6
Continuous
 62
     7
370
    25
100
AcDbLine
 10
0.0723389554
 20
0.1494784175
 30
0.0
 11
0.0723389554
 21
0.148766279
 31
0.0
  0
LINE
  5
46E
330
1F
100
AcDbEntity
  8
0
  6
Continuous
 62
     7
370
    25
100
AcDbLine
 10
0.0719849554
 20
0.148766279
 30
0.0
 11
0.0719849554
 21
0.1494784175
 31
0.0
  0
LINE
  5
46F
330
1F
100
AcDbEntity
  8
0
  6
Continuous
 62
     7
370
    25
100
AcDbLine
 10
0.0719849554
 20
0.1634968175
 30
0.0
 11
0.0719849554
 21
0.1642089559
 31
0.0
  0
LINE
  5
470
330
1F
100
AcDbEntity
  8
0
  6
Continuous
 62
     7
370
    25
100
AcDbLine
 10
0.0723389554
 20
0.1642089559
 30
0.0
 11
0.0723389554
 21
0.1634968175
 31
0.0
  0
LINE
  5
471
330
1F
100
AcDbEntity
  8
0
  6
Continuous
 62
     7
370
    25
100
AcDbLine
 10
0.0720557554
 20
0.1486478342
 30
0.0
 11
0.0720557554
 21
0.148695479
 31
0.0
  0
LINE
  5
472
330
1F
100
AcDbEntity
  8
0
  6
Continuous
 62
     7
370
    25
100
AcDbLine
 10
0.0722681554
 20
0.148695479
 30
0.0
 11
0.0722681554
 21
0.1486478342
 31
0.0
  0
LINE
  5
473
330
1F
100
AcDbEntity
  8
0
  6
Continuous
 62
     7
370
    25
100
AcDbLine
 10
0.0720557554
 20
0.1642797559
 30
0.0
 11
0.0720557554
 21
0.1643274007
 31
0.0
  0
LINE
  5
474
330
1F
100
AcDbEntity
  8
0
  6
Continuous
 62
     7
370
    25
100
AcDbLine
 10
0.0722681554
 20
0.1643274007
 30
0.0
 11
0.0722681554
 21
0.1642797559
 31
0.0
  0
LINE
  5
475
330
1F
100
AcDbEntity
  8
0
  6
Continuous
 62
     7
370
    25
100
AcDbLine
 10
0.0719849554
 20
0.1486121883
 30
0.0
 11
0.0719849554
 21
0.148766279
 31
0.0
  0
ARC
  5
476
330
1F
100
AcDbEntity
  8
0
  6
Continuous
 62
     7
370
    25
100
AcDbCircle
 10
0.0720430677
 20
0.1485849002
 30
0.0
 40
0.000064200250692
100
AcDbArc
 50
78.6017186114
 51
154.8463905179
  0
LINE
  5
477
330
1F
100
AcDbEntity
  8
0
  6
Continuous
 62
     7
370
    25
100
AcDbLine
 10
0.0719849554
 20
0.1484305723
 30
0.0
 11
0.0719849554
 21
0.1486121883
 31
0.0
  0
LINE
  5
478
330
1F
100
AcDbEntity
  8
0
  6
Continuous
 62
     7
370
    25
100
AcDbLine
 10
0.0723389554
 20
0.148766279
 30
0.0
 11
0.0723389554
 21
0.1486121883
 31
0.0
  0
ARC
  5
479
330
1F
100
AcDbEntity
  8
0
  6
Continuous
 62
     7
370
    25
100
AcDbCircle
 10
0.0722808432
 20
0.1485849002
 30
0.0
 40
0.0000642002506919
100
AcDbArc
 50
25.1536094821
 51
101.3982813886
  0
LINE
  5
47A
330
1F
100
AcDbEntity
  8
0
  6
Continuous
 62
     7
370
    25
100
AcDbLine
 10
0.0723389554
 20
0.1486121883
 30
0.0
 11
0.0723389554
 21
0.1484305723
 31
0.0
  0
LINE
  5
47B
330
1F
100
AcDbEntity
  8
0
  6
Continuous
 62
     7
370
    25
100
AcDbLine
 10
0.0723389554
 20
0.1645446626
 30
0.0
 11
0.0723389554
 21
0.1643630467
 31
0.0
  0
ARC
  5
47C
330
1F
100
AcDbEntity
  8
0
  6
Continuous
 62
     7
370
    25
100
AcDbCircle
 10
0.0722808432
 20
0.1643903348
 30
0.0
 40
0.000064200250692
100
AcDbArc
 50
258.6017186114
 51
334.8463905179
  0
ARC
  5
47D
330
1F
100
AcDbEntity
  8
0
  6
Continuous
 62
     7
370
    25
100
AcDbCircle
 10
0.0720430677
 20
0.1643903348
 30
0.0
 40
0.000064200250692
100
AcDbArc
 50
205.1536094822
 51
281.3982813885
  0
LINE
  5
47E
330
1F
100
AcDbEntity
  8
0
  6
Continuous
 62
     7
370
    25
100
AcDbLine
 10
0.0719849554
 20
0.1643630467
 30
0.0
 11
0.0719849554
 21
0.1645446626
 31
0.0
  0
LINE
  5
47F
330
1F
100
AcDbEntity
  8
0
  6
Continuous
 62
     7
370
    25
100
AcDbLine
 10
0.0723389554
 20
0.1643630467
 30
0.0
 11
0.0723389554
 21
0.1642089559
 31
0.0
  0
LINE
  5
480
330
1F
100
AcDbEntity
  8
0
  6
Continuous
 62
     7
370
    25
100
AcDbLine
 10
0.0719849554
 20
0.1642089559
 30
0.0
 11
0.0719849554
 21
0.1643630467
 31
0.0
  0
LINE
  5
481
330
1F
100
AcDbEntity
  8
0
  6
Continuous
 62
     7
370
    25
100
AcDbLine
 10
0.0932929554
 20
0.1618401755
 30
0.0
 11
0.0932929554
 21
0.1622201755
 31
0.0
  0
LINE
  5
482
330
1F
100
AcDbEntity
  8
0
  6
Continuous
 62
     7
370
    25
100
AcDbLine
 10
0.0932929554
 20
0.1566776129
 30
0.0
 11
0.0932929554
 21
0.1562976129
 31
0.0
  0
LINE
  5
483
330
1F
100
AcDbEntity
  8
0
  6
Continuous
 62
     7
370
    25
100
AcDbLine
 10
0.0932929554
 20
0.1511350503
 30
0.0
 11
0.0932929554
 21
0.1507550503
 31
0.0
  0
LINE
  5
484
330
1F
100
AcDbEntity
  8
0
  6
Continuous
 62
     7
370
    25
100
AcDbLine
 10
0.1170929554
 20
0.1566776129
 30
0.0
 11
0.1170929554
 21
0.1562976129
 31
0.0
  0
LINE
  5
485
330
1F
100
AcDbEntity
  8
0
  6
Continuous
 62
     7
370
    25
100
AcDbLine
 10
0.1170929554
 20
0.1511350503
 30
0.0
 11
0.1170929554
 21
0.1507550503
 31
0.0
  0
LINE
  5
486
330
1F
100
AcDbEntity
  8
0
  6
Continuous
 62
     7
370
    25
100
AcDbLine
 10
0.1170929554
 20
0.1618401755
 30
0.0
 11
0.1170929554
 21
0.1622201755
 31
0.0
  0
LINE
  5
487
330
1F
100
AcDbEntity
  8
0
  6
Continuous
 62
     7
370
    25
100
AcDbLine
 10
0.0726613243
 20
0.1565084227
 30
0.0
 11
0.0726573443
 21
0.1564876129
 31
0.0
  0
LINE
  5
488
330
1F
100
AcDbEntity
  8
0
  6
Continuous
 62
     7
370
    25
100
AcDbLine
 10
0.0726573443
 20
0.1564876129
 30
0.0
 11
0.0725505665
 21
0.1564876129
 31
0.0
  0
LINE
  5
489
330
1F
100
AcDbEntity
  8
0
  6
Continuous
 62
     7
370
    25
100
AcDbLine
 10
0.0725505665
 20
0.1564876129
 30
0.0
 11
0.0725389554
 21
0.1565526129
 31
0.0
  0
LWPOLYLINE
  5
48A
330
1F
100
AcDbEntity
  8
0
  6
Continuous
 62
     7
370
    25
100
AcDbPolyline
 90
        3
 70
   128
 43
0.0
 10
0.0725389554
 20
0.1565526129
 10
0.0725390186
 20
0.1565572343
 10
0.0725505665
 20
0.1566176129
  0
LINE
  5
48B
330
1F
100
AcDbEntity
  8
0
  6
Continuous
 62
     7
370
    25
100
AcDbLine
 10
0.0726565793
 20
0.1566176129
 30
0.0
 11
0.0725505665
 21
0.1566176129
 31
0.0
  0
LINE
  5
48C
330
1F
100
AcDbEntity
  8
0
  6
Continuous
 62
     7
370
    25
100
AcDbLine
 10
0.0726565793
 20
0.1563576129
 30
0.0
 11
0.0725505665
 21
0.1563576129
 31
0.0
  0
LINE
  5
48D
330
1F
100
AcDbEntity
  8
0
  6
Continuous
 62
     7
370
    25
100
AcDbLine
 10
0.0725505665
 20
0.1563576129
 30
0.0
 11
0.0725389554
 21
0.1564226129
 31
0.0
  0
LWPOLYLINE
  5
48E
330
1F
100
AcDbEntity
  8
0
  6
Continuous
 62
     7
370
    25
100
AcDbPolyline
 90
        3
 70
   128
 43
0.0
 10
0.0725389554
 20
0.1564226129
 10
0.0725390186
 20
0.1564272343
 10
0.0725505665
 20
0.1564876129
  0
LINE
  5
48F
330
1F
100
AcDbEntity
  8
0
  6
Continuous
 62
     7
370
    25
100
AcDbLine
 10
0.0726573443
 20
0.1564876129
 30
0.0
 11
0.0726610644
 21
0.1564667871
 31
0.0
  0
LINE
  5
490
330
1F
100
AcDbEntity
  8
0
  6
Continuous
 62
     7
370
    25
100
AcDbLine
 10
0.0725389554
 20
0.1565526129
 30
0.0
 11
0.0725389554
 21
0.1564226129
 31
0.0
  0
LINE
  5
491
330
1F
100
AcDbEntity
  8
0
  6
Continuous
 62
     7
370
    25
100
AcDbLine
 10
0.0725389554
 20
0.1563576129
 30
0.0
 11
0.0725505665
 21
0.1563576129
 31
0.0
  0
LINE
  5
492
330
1F
100
AcDbEntity
  8
0
  6
Continuous
 62
     7
370
    25
100
AcDbLine
 10
0.0725389554
 20
0.1563576129
 30
0.0
 11
0.0725389554
 21
0.1564226129
 31
0.0
  0
LINE
  5
493
330
1F
100
AcDbEntity
  8
0
  6
Continuous
 62
     7
370
    25
100
AcDbLine
 10
0.0725389554
 20
0.1566176129
 30
0.0
 11
0.0725505665
 21
0.1566176129
 31
0.0
  0
LINE
  5
494
330
1F
100
AcDbEntity
  8
0
  6
Continuous
 62
     7
370
    25
100
AcDbLine
 10
0.0725389554
 20
0.1566176129
 30
0.0
 11
0.0725389554
 21
0.1565526129
 31
0.0
  0
LINE
  5
495
330
1F
100
AcDbEntity
  8
0
  6
Continuous
 62
     7
370
    25
100
AcDbLine
 10
0.0726565908
 20
0.1620301755
 30
0.0
 11
0.0725505665
 21
0.1620301755
 31
0.0
  0
LINE
  5
496
330
1F
100
AcDbEntity
  8
0
  6
Continuous
 62
     7
370
    25
100
AcDbLine
 10
0.0725505665
 20
0.1620301755
 30
0.0
 11
0.0725389554
 21
0.1620951755
 31
0.0
  0
LWPOLYLINE
  5
497
330
1F
100
AcDbEntity
  8
0
  6
Continuous
 62
     7
370
    25
100
AcDbPolyline
 90
        3
 70
   128
 43
0.0
 10
0.0725389554
 20
0.1620951755
 10
0.0725390186
 20
0.1620997969
 10
0.0725505665
 20
0.1621601755
  0
LINE
  5
498
330
1F
100
AcDbEntity
  8
0
  6
Continuous
 62
     7
370
    25
100
AcDbLine
 10
0.0726573443
 20
0.1621601755
 30
0.0
 11
0.0725505665
 21
0.1621601755
 31
0.0
  0
LINE
  5
499
330
1F
100
AcDbEntity
  8
0
  6
Continuous
 62
     7
370
    25
100
AcDbLine
 10
0.0726573443
 20
0.1621601755
 30
0.0
 11
0.0726610714
 21
0.1621393106
 31
0.0
  0
LINE
  5
49A
330
1F
100
AcDbEntity
  8
0
  6
Continuous
 62
     7
370
    25
100
AcDbLine
 10
0.0725389554
 20
0.1620951755
 30
0.0
 11
0.0725389554
 21
0.1619651755
 31
0.0
  0
LWPOLYLINE
  5
49B
330
1F
100
AcDbEntity
  8
0
  6
Continuous
 62
     7
370
    25
100
AcDbPolyline
 90
        3
 70
   128
 43
0.0
 10
0.0725389554
 20
0.1619651755
 10
0.0725390186
 20
0.1619697969
 10
0.0725505665
 20
0.1620301755
  0
LINE
  5
49C
330
1F
100
AcDbEntity
  8
0
  6
Continuous
 62
     7
370
    25
100
AcDbLine
 10
0.0726402778
 20
0.1619001755
 30
0.0
 11
0.0725505665
 21
0.1619001755
 31
0.0
  0
LINE
  5
49D
330
1F
100
AcDbEntity
  8
0
  6
Continuous
 62
     7
370
    25
100
AcDbLine
 10
0.0725505665
 20
0.1619001755
 30
0.0
 11
0.0725389554
 21
0.1619651755
 31
0.0
  0
LINE
  5
49E
330
1F
100
AcDbEntity
  8
0
  6
Continuous
 62
     7
370
    25
100
AcDbLine
 10
0.0725389554
 20
0.1619001755
 30
0.0
 11
0.0725505665
 21
0.1619001755
 31
0.0
  0
LINE
  5
49F
330
1F
100
AcDbEntity
  8
0
  6
Continuous
 62
     7
370
    25
100
AcDbLine
 10
0.0725389554
 20
0.1619001755
 30
0.0
 11
0.0725389554
 21
0.1619651755
 31
0.0
  0
LINE
  5
4A0
330
1F
100
AcDbEntity
  8
0
  6
Continuous
 62
     7
370
    25
100
AcDbLine
 10
0.0725389554
 20
0.1621601755
 30
0.0
 11
0.0725505665
 21
0.1621601755
 31
0.0
  0
LINE
  5
4A1
330
1F
100
AcDbEntity
  8
0
  6
Continuous
 62
     7
370
    25
100
AcDbLine
 10
0.0725389554
 20
0.1621601755
 30
0.0
 11
0.0725389554
 21
0.1620951755
 31
0.0
  0
LINE
  5
4A2
330
1F
100
AcDbEntity
  8
0
  6
Continuous
 62
     7
370
    25
100
AcDbLine
 10
0.0726573443
 20
0.1621601755
 30
0.0
 11
0.0726619897
 21
0.1621601755
 31
0.0
  0
LINE
  5
4A3
330
1F
100
AcDbEntity
  8
0
  6
Continuous
 62
     7
370
    25
100
AcDbLine
 10
0.0726565909
 20
0.1509450503
 30
0.0
 11
0.0725505665
 21
0.1509450503
 31
0.0
  0
LINE
  5
4A4
330
1F
100
AcDbEntity
  8
0
  6
Continuous
 62
     7
370
    25
100
AcDbLine
 10
0.0725505665
 20
0.1509450503
 30
0.0
 11
0.0725389554
 21
0.1510100503
 31
0.0
  0
LWPOLYLINE
  5
4A5
330
1F
100
AcDbEntity
  8
0
  6
Continuous
 62
     7
370
    25
100
AcDbPolyline
 90
        3
 70
   128
 43
0.0
 10
0.0725389554
 20
0.1510100503
 10
0.0725390186
 20
0.1510146717
 10
0.0725505665
 20
0.1510750503
  0
LINE
  5
4A6
330
1F
100
AcDbEntity
  8
0
  6
Continuous
 62
     7
370
    25
100
AcDbLine
 10
0.0726402778
 20
0.1510750503
 30
0.0
 11
0.0725505665
 21
0.1510750503
 31
0.0
  0
LINE
  5
4A7
330
1F
100
AcDbEntity
  8
0
  6
Continuous
 62
     7
370
    25
100
AcDbLine
 10
0.0726613318
 20
0.1508358993
 30
0.0
 11
0.0726573443
 21
0.1508150503
 31
0.0
  0
LINE
  5
4A8
330
1F
100
AcDbEntity
  8
0
  6
Continuous
 62
     7
370
    25
100
AcDbLine
 10
0.0726573443
 20
0.1508150503
 30
0.0
 11
0.0725505665
 21
0.1508150503
 31
0.0
  0
LINE
  5
4A9
330
1F
100
AcDbEntity
  8
0
  6
Continuous
 62
     7
370
    25
100
AcDbLine
 10
0.0725505665
 20
0.1508150503
 30
0.0
 11
0.0725389554
 21
0.1508800503
 31
0.0
  0
LWPOLYLINE
  5
4AA
330
1F
100
AcDbEntity
  8
0
  6
Continuous
 62
     7
370
    25
100
AcDbPolyline
 90
        3
 70
   128
 43
0.0
 10
0.0725389554
 20
0.1508800503
 10
0.0725390186
 20
0.1508846717
 10
0.0725505665
 20
0.1509450503
  0
LINE
  5
4AB
330
1F
100
AcDbEntity
  8
0
  6
Continuous
 62
     7
370
    25
100
AcDbLine
 10
0.0725389554
 20
0.1510100503
 30
0.0
 11
0.0725389554
 21
0.1508800503
 31
0.0
  0
LINE
  5
4AC
330
1F
100
AcDbEntity
  8
0
  6
Continuous
 62
     7
370
    25
100
AcDbLine
 10
0.0726573443
 20
0.1508150503
 30
0.0
 11
0.0726619897
 21
0.1508150503
 31
0.0
  0
LINE
  5
4AD
330
1F
100
AcDbEntity
  8
0
  6
Continuous
 62
     7
370
    25
100
AcDbLine
 10
0.0725389554
 20
0.1508150503
 30
0.0
 11
0.0725505665
 21
0.1508150503
 31
0.0
  0
LINE
  5
4AE
330
1F
100
AcDbEntity
  8
0
  6
Continuous
 62
     7
370
    25
100
AcDbLine
 10
0.0725389554
 20
0.1508150503
 30
0.0
 11
0.0725389554
 21
0.1508800503
 31
0.0
  0
LINE
  5
4AF
330
1F
100
AcDbEntity
  8
0
  6
Continuous
 62
     7
370
    25
100
AcDbLine
 10
0.0725389554
 20
0.1510750503
 30
0.0
 11
0.0725505665
 21
0.1510750503
 31
0.0
  0
LINE
  5
4B0
330
1F
100
AcDbEntity
  8
0
  6
Continuous
 62
     7
370
    25
100
AcDbLine
 10
0.0725389554
 20
0.1510750503
 30
0.0
 11
0.0725389554
 21
0.1510100503
 31
0.0
  0
LINE
  5
4B1
330
1F
100
AcDbEntity
  8
0
  6
Continuous
 62
     7
370
    25
100
AcDbLine
 10
0.1377312392
 20
0.1566263492
 30
0.0
 11
0.1378353443
 21
0.1566263492
 31
0.0
  0
LINE
  5
4B2
330
1F
100
AcDbEntity
  8
0
  6
Continuous
 62
     7
370
    25
100
AcDbLine
 10
0.1378353443
 20
0.1566263492
 30
0.0
 11
0.1378469554
 21
0.1565668449
 31
0.0
  0
LWPOLYLINE
  5
4B3
330
1F
100
AcDbEntity
  8
0
  6
Continuous
 62
     7
370
    25
100
AcDbPolyline
 90
        3
 70
   128
 43
0.0
 10
0.1378469554
 20
0.1565668449
 10
0.1378468922
 20
0.1565626143
 10
0.1378353443
 20
0.1565073406
  0
LINE
  5
4B4
330
1F
100
AcDbEntity
  8
0
  6
Continuous
 62
     7
370
    25
100
AcDbLine
 10
0.1377285665
 20
0.1565073406
 30
0.0
 11
0.1378353443
 21
0.1565073406
 31
0.0
  0
LINE
  5
4B5
330
1F
100
AcDbEntity
  8
0
  6
Continuous
 62
     7
370
    25
100
AcDbLine
 10
0.1377285665
 20
0.1565073406
 30
0.0
 11
0.1377250772
 21
0.1565252229
 31
0.0
  0
LWPOLYLINE
  5
4B6
330
1F
100
AcDbEntity
  8
0
  6
Continuous
 62
     7
370
    25
100
AcDbPolyline
 90
        3
 70
   128
 43
0.0
 10
0.1378353443
 20
0.1565073406
 10
0.1378399526
 20
0.1564910709
 10
0.1378469554
 20
0.1564379725
  0
LINE
  5
4B7
330
1F
100
AcDbEntity
  8
0
  6
Continuous
 62
     7
370
    25
100
AcDbLine
 10
0.1378469554
 20
0.1564379725
 30
0.0
 11
0.1378469554
 21
0.1565668449
 31
0.0
  0
LWPOLYLINE
  5
4B8
330
1F
100
AcDbEntity
  8
0
  6
Continuous
 62
     7
370
    25
100
AcDbPolyline
 90
        3
 70
   128
 43
0.0
 10
0.1377231284
 20
0.1564847785
 10
0.1377239582
 20
0.1564910709
 10
0.1377285665
 20
0.1565073406
  0
LWPOLYLINE
  5
4B9
330
1F
100
AcDbEntity
  8
0
  6
Continuous
 62
     7
370
    25
100
AcDbPolyline
 90
        3
 70
   128
 43
0.0
 10
0.1378469554
 20
0.1564379725
 10
0.1378461311
 20
0.1564201167
 10
0.1378353443
 20
0.1563686043
  0
LINE
  5
4BA
330
1F
100
AcDbEntity
  8
0
  6
Continuous
 62
     7
370
    25
100
AcDbLine
 10
0.1377285665
 20
0.1563686043
 30
0.0
 11
0.1378353443
 21
0.1563686043
 31
0.0
  0
LINE
  5
4BB
330
1F
100
AcDbEntity
  8
0
  6
Continuous
 62
     7
370
    25
100
AcDbLine
 10
0.1377285665
 20
0.1563686043
 30
0.0
 11
0.1377277584
 21
0.1563724635
 31
0.0
  0
LINE
  5
4BC
330
1F
100
AcDbEntity
  8
0
  6
Continuous
 62
     7
370
    25
100
AcDbLine
 10
0.1378353443
 20
0.1563686043
 30
0.0
 11
0.1378469554
 21
0.1563587404
 31
0.0
  0
LINE
  5
4BD
330
1F
100
AcDbEntity
  8
0
  6
Continuous
 62
     7
370
    25
100
AcDbLine
 10
0.1378469554
 20
0.1564379725
 30
0.0
 11
0.1378469554
 21
0.1563587404
 31
0.0
  0
LWPOLYLINE
  5
4BE
330
1F
100
AcDbEntity
  8
0
  6
Continuous
 62
     7
370
    25
100
AcDbPolyline
 90
        3
 70
   128
 43
0.0
 10
0.1378469554
 20
0.1566164854
 10
0.1378468922
 20
0.1566171867
 10
0.1378353443
 20
0.1566263492
  0
LINE
  5
4BF
330
1F
100
AcDbEntity
  8
0
  6
Continuous
 62
     7
370
    25
100
AcDbLine
 10
0.1378469554
 20
0.1565668449
 30
0.0
 11
0.1378469554
 21
0.1566176128
 31
0.0
  0
LWPOLYLINE
  5
4C0
330
1F
100
AcDbEntity
  8
0
  6
Continuous
 62
     7
370
    25
100
AcDbPolyline
 90
        3
 70
   128
 43
0.0
 10
0.1378469554
 20
0.1563587404
 10
0.1378468922
 20
0.1563580391
 10
0.1378353443
 20
0.1563488765
  0
LINE
  5
4C1
330
1F
100
AcDbEntity
  8
0
  6
Continuous
 62
     7
370
    25
100
AcDbLine
 10
0.1377436971
 20
0.1563488765
 30
0.0
 11
0.1378353443
 21
0.1563488765
 31
0.0
  0
LINE
  5
4C2
330
1F
100
AcDbEntity
  8
0
  6
Continuous
 62
     7
370
    25
100
AcDbLine
 10
0.1377244732
 20
0.1621493191
 30
0.0
 11
0.1377285665
 21
0.1621689118
 31
0.0
  0
LINE
  5
4C3
330
1F
100
AcDbEntity
  8
0
  6
Continuous
 62
     7
370
    25
100
AcDbLine
 10
0.1377285665
 20
0.1621689118
 30
0.0
 11
0.1378353443
 21
0.1621689118
 31
0.0
  0
LINE
  5
4C4
330
1F
100
AcDbEntity
  8
0
  6
Continuous
 62
     7
370
    25
100
AcDbLine
 10
0.1378353443
 20
0.1621689118
 30
0.0
 11
0.1378469554
 21
0.1621094075
 31
0.0
  0
LWPOLYLINE
  5
4C5
330
1F
100
AcDbEntity
  8
0
  6
Continuous
 62
     7
370
    25
100
AcDbPolyline
 90
        3
 70
   128
 43
0.0
 10
0.1378469554
 20
0.1621094075
 10
0.1378468922
 20
0.1621051768
 10
0.1378353443
 20
0.1620499032
  0
LINE
  5
4C6
330
1F
100
AcDbEntity
  8
0
  6
Continuous
 62
     7
370
    25
100
AcDbLine
 10
0.1377285665
 20
0.1620499032
 30
0.0
 11
0.1378353443
 21
0.1620499032
 31
0.0
  0
LINE
  5
4C7
330
1F
100
AcDbEntity
  8
0
  6
Continuous
 62
     7
370
    25
100
AcDbLine
 10
0.1377285665
 20
0.1620499032
 30
0.0
 11
0.1377279111
 21
0.1620532622
 31
0.0
  0
LWPOLYLINE
  5
4C8
330
1F
100
AcDbEntity
  8
0
  6
Continuous
 62
     7
370
    25
100
AcDbPolyline
 90
        3
 70
   128
 43
0.0
 10
0.1378353443
 20
0.1620499032
 10
0.1378399526
 20
0.1620336335
 10
0.1378469554
 20
0.1619805351
  0
LINE
  5
4C9
330
1F
100
AcDbEntity
  8
0
  6
Continuous
 62
     7
370
    25
100
AcDbLine
 10
0.1378469554
 20
0.1619805351
 30
0.0
 11
0.1378469554
 21
0.1621094075
 31
0.0
  0
LWPOLYLINE
  5
4CA
330
1F
100
AcDbEntity
  8
0
  6
Continuous
 62
     7
370
    25
100
AcDbPolyline
 90
        3
 70
   128
 43
0.0
 10
0.1378469554
 20
0.1619805351
 10
0.1378461311
 20
0.1619626793
 10
0.1378353443
 20
0.1619111669
  0
LINE
  5
4CB
330
1F
100
AcDbEntity
  8
0
  6
Continuous
 62
     7
370
    25
100
AcDbLine
 10
0.1377436855
 20
0.1619111669
 30
0.0
 11
0.1378353443
 21
0.1619111669
 31
0.0
  0
LINE
  5
4CC
330
1F
100
AcDbEntity
  8
0
  6
Continuous
 62
     7
370
    25
100
AcDbLine
 10
0.1378353443
 20
0.1619111669
 30
0.0
 11
0.1378469554
 21
0.161901303
 31
0.0
  0
LINE
  5
4CD
330
1F
100
AcDbEntity
  8
0
  6
Continuous
 62
     7
370
    25
100
AcDbLine
 10
0.1378469554
 20
0.1619805351
 30
0.0
 11
0.1378469554
 21
0.161901303
 31
0.0
  0
LINE
  5
4CE
330
1F
100
AcDbEntity
  8
0
  6
Continuous
 62
     7
370
    25
100
AcDbLine
 10
0.1377285665
 20
0.1621689118
 30
0.0
 11
0.1377250705
 21
0.1621659418
 31
0.0
  0
LWPOLYLINE
  5
4CF
330
1F
100
AcDbEntity
  8
0
  6
Continuous
 62
     7
370
    25
100
AcDbPolyline
 90
        3
 70
   128
 43
0.0
 10
0.1378469554
 20
0.1621590479
 10
0.1378468922
 20
0.1621597492
 10
0.1378353443
 20
0.1621689118
  0
LINE
  5
4D0
330
1F
100
AcDbEntity
  8
0
  6
Continuous
 62
     7
370
    25
100
AcDbLine
 10
0.1378469554
 20
0.1621094075
 30
0.0
 11
0.1378469554
 21
0.1621601754
 31
0.0
  0
LWPOLYLINE
  5
4D1
330
1F
100
AcDbEntity
  8
0
  6
Continuous
 62
     7
370
    25
100
AcDbPolyline
 90
        3
 70
   128
 43
0.0
 10
0.1378469554
 20
0.161901303
 10
0.1378468922
 20
0.1619006017
 10
0.1378353443
 20
0.1618914391
  0
LINE
  5
4D2
330
1F
100
AcDbEntity
  8
0
  6
Continuous
 62
     7
370
    25
100
AcDbLine
 10
0.1377537912
 20
0.1618914391
 30
0.0
 11
0.1378353443
 21
0.1618914391
 31
0.0
  0
LINE
  5
4D3
330
1F
100
AcDbEntity
  8
0
  6
Continuous
 62
     7
370
    25
100
AcDbLine
 10
0.1377474425
 20
0.1510837866
 30
0.0
 11
0.1378353443
 21
0.1510837866
 31
0.0
  0
LINE
  5
4D4
330
1F
100
AcDbEntity
  8
0
  6
Continuous
 62
     7
370
    25
100
AcDbLine
 10
0.1378353443
 20
0.1510837866
 30
0.0
 11
0.1378469554
 21
0.1510242824
 31
0.0
  0
LWPOLYLINE
  5
4D5
330
1F
100
AcDbEntity
  8
0
  6
Continuous
 62
     7
370
    25
100
AcDbPolyline
 90
        3
 70
   128
 43
0.0
 10
0.1378469554
 20
0.1510242824
 10
0.1378468922
 20
0.1510200517
 10
0.1378353443
 20
0.1509647781
  0
LINE
  5
4D6
330
1F
100
AcDbEntity
  8
0
  6
Continuous
 62
     7
370
    25
100
AcDbLine
 10
0.1377312277
 20
0.1509647781
 30
0.0
 11
0.1378353443
 21
0.1509647781
 31
0.0
  0
LWPOLYLINE
  5
4D7
330
1F
100
AcDbEntity
  8
0
  6
Continuous
 62
     7
370
    25
100
AcDbPolyline
 90
        3
 70
   128
 43
0.0
 10
0.1378353443
 20
0.1509647781
 10
0.1378399526
 20
0.1509485084
 10
0.1378469554
 20
0.1508954099
  0
LINE
  5
4D8
330
1F
100
AcDbEntity
  8
0
  6
Continuous
 62
     7
370
    25
100
AcDbLine
 10
0.1378469554
 20
0.1508954099
 30
0.0
 11
0.1378469554
 21
0.1510242824
 31
0.0
  0
LWPOLYLINE
  5
4D9
330
1F
100
AcDbEntity
  8
0
  6
Continuous
 62
     7
370
    25
100
AcDbPolyline
 90
        3
 70
   128
 43
0.0
 10
0.1378469554
 20
0.1508954099
 10
0.1378461311
 20
0.1508775541
 10
0.1378353443
 20
0.1508260417
  0
LINE
  5
4DA
330
1F
100
AcDbEntity
  8
0
  6
Continuous
 62
     7
370
    25
100
AcDbLine
 10
0.1377285665
 20
0.1508260417
 30
0.0
 11
0.1378353443
 21
0.1508260417
 31
0.0
  0
LINE
  5
4DB
330
1F
100
AcDbEntity
  8
0
  6
Continuous
 62
     7
370
    25
100
AcDbLine
 10
0.1377285665
 20
0.1508260417
 30
0.0
 11
0.1377242091
 21
0.1508468508
 31
0.0
  0
LINE
  5
4DC
330
1F
100
AcDbEntity
  8
0
  6
Continuous
 62
     7
370
    25
100
AcDbLine
 10
0.1377244732
 20
0.1508227939
 30
0.0
 11
0.1377285665
 21
0.1508260417
 31
0.0
  0
LINE
  5
4DD
330
1F
100
AcDbEntity
  8
0
  6
Continuous
 62
     7
370
    25
100
AcDbLine
 10
0.1378353443
 20
0.1508260417
 30
0.0
 11
0.1378469554
 21
0.1508161778
 31
0.0
  0
LINE
  5
4DE
330
1F
100
AcDbEntity
  8
0
  6
Continuous
 62
     7
370
    25
100
AcDbLine
 10
0.1378469554
 20
0.1508954099
 30
0.0
 11
0.1378469554
 21
0.1508161778
 31
0.0
  0
LWPOLYLINE
  5
4DF
330
1F
100
AcDbEntity
  8
0
  6
Continuous
 62
     7
370
    25
100
AcDbPolyline
 90
        3
 70
   128
 43
0.0
 10
0.1378469554
 20
0.1510739228
 10
0.1378468922
 20
0.1510746241
 10
0.1378353443
 20
0.1510837866
  0
LINE
  5
4E0
330
1F
100
AcDbEntity
  8
0
  6
Continuous
 62
     7
370
    25
100
AcDbLine
 10
0.1378469554
 20
0.1510242824
 30
0.0
 11
0.1378469554
 21
0.1510750503
 31
0.0
  0
LWPOLYLINE
  5
4E1
330
1F
100
AcDbEntity
  8
0
  6
Continuous
 62
     7
370
    25
100
AcDbPolyline
 90
        3
 70
   128
 43
0.0
 10
0.1378469554
 20
0.1508161778
 10
0.1378468922
 20
0.1508154765
 10
0.1378353443
 20
0.150806314
  0
LINE
  5
4E2
330
1F
100
AcDbEntity
  8
0
  6
Continuous
 62
     7
370
    25
100
AcDbLine
 10
0.1377285665
 20
0.150806314
 30
0.0
 11
0.1378353443
 21
0.150806314
 31
0.0
  0
LINE
  5
4E3
330
1F
100
AcDbEntity
  8
0
  6
Continuous
 62
     7
370
    25
100
AcDbLine
 10
0.1377285665
 20
0.150806314
 30
0.0
 11
0.1377279106
 21
0.1508068712
 31
0.0
  0
LINE
  5
4E4
330
1F
100
AcDbEntity
  8
FORMAT
 62
     7
100
AcDbLine
 10
0.0722727114
 20
0.1938758269
 30
0.0
 11
0.1381131994
 21
0.1938758269
 31
0.0
  0
LINE
  5
4E5
330
1F
100
AcDbEntity
  8
FORMAT
 62
     7
100
AcDbLine
 10
0.1681131994
 20
0.1476201281
 30
0.0
 11
0.1681131994
 21
0.1638758269
 31
0.0
  0
LINE
  5
4E6
330
1F
100
AcDbEntity
  8
FORMAT
 62
     7
100
AcDbLine
 10
0.0722727114
 20
0.1176201281
 30
0.0
 11
0.1381131994
 21
0.1176201281
 31
0.0
  0
LINE
  5
4E7
330
1F
100
AcDbEntity
  8
FORMAT
 62
     7
100
AcDbLine
 10
0.0422727114
 20
0.1476201281
 30
0.0
 11
0.0422727114
 21
0.1638758269
 31
0.0
  0
ARC
  5
4E8
330
1F
100
AcDbEntity
  8
FORMAT
 62
     7
100
AcDbCircle
 10
0.0722727114
 20
0.1638758269
 30
0.0
 40
0.03
100
AcDbArc
 50
90.0
 51
180.0
  0
ARC
  5
4E9
330
1F
100
AcDbEntity
  8
FORMAT
 62
     7
100
AcDbCircle
 10
0.1381131994
 20
0.1638758269
 30
0.0
 40
0.03
100
AcDbArc
 50
0.0
 51
90.0
  0
ARC
  5
4EA
330
1F
100
AcDbEntity
  8
FORMAT
 62
     7
100
AcDbCircle
 10
0.1381131994
 20
0.1476201281
 30
0.0
 40
0.03
100
AcDbArc
 50
270.0
 51
0.0
  0
ARC
  5
4EB
330
1F
100
AcDbEntity
  8
FORMAT
 62
     7
100
AcDbCircle
 10
0.0722727114
 20
0.1476201281
 30
0.0
 40
0.0300000000000001
100
AcDbArc
 50
180.0
 51
270.0
  0
ENDSEC
  0
SECTION
  2
OBJECTS
  0
DICTIONARY
  5
C
330
0
100
AcDbDictionary
281
     1
  3
ACAD_DETAILVIEWSTYLE
350
4F4
  3
ACAD_GROUP
350
D
  3
ACAD_LAYOUT
350
1A
  3
ACAD_MATERIAL
350
43
  3
ACAD_MLEADERSTYLE
350
6B
  3
ACAD_MLINESTYLE
350
17
  3
ACAD_PLOTSETTINGS
350
19
  3
ACAD_PLOTSTYLENAME
350
E
  3
ACAD_SCALELIST
350
47
  3
ACAD_SECTIONVIEWSTYLE
350
4F5
  3
ACAD_TABLESTYLE
350
69
  3
ACAD_VISUALSTYLE
350
2A
  3
ACDB_RECOMPOSE_DATA
350
4F1
  3
AcDbVariableDictionary
350
4EC
  0
SUN
  5
6D
330
29
100
AcDbSun
 90
        1
290
     0
 63
     7
421
 16777215
 40
1.0
291
     1
 91
  2455826
 92
 54000000
292
     0
 70
     2
 71
   256
280
     1
  0
DICTIONARY
  5
4F4
102
{ACAD_REACTORS
330
C
102
}
330
C
100
AcDbDictionary
281
     1
  0
DICTIONARY
  5
D
102
{ACAD_REACTORS
330
C
102
}
330
C
100
AcDbDictionary
281
     1
  0
DICTIONARY
  5
1A
102
{ACAD_REACTORS
330
C
102
}
330
C
100
AcDbDictionary
281
     1
  3
Layout1
350
1E
  3
Layout2
350
26
  3
Model
350
22
  0
DICTIONARY
  5
43
102
{ACAD_REACTORS
330
C
102
}
330
C
100
AcDbDictionary
281
     1
  3
ByBlock
350
45
  3
ByLayer
350
44
  3
Global
350
46
  0
DICTIONARY
  5
6B
102
{ACAD_REACTORS
330
C
102
}
330
C
100
AcDbDictionary
281
     1
  3
Standard
350
6C
  0
DICTIONARY
  5
17
102
{ACAD_REACTORS
330
C
102
}
330
C
100
AcDbDictionary
281
     1
  3
Standard
350
18
  0
DICTIONARY
  5
19
102
{ACAD_REACTORS
330
C
102
}
330
C
100
AcDbDictionary
281
     1
  0
ACDBDICTIONARYWDFLT
  5
E
102
{ACAD_REACTORS
330
C
102
}
330
C
100
AcDbDictionary
281
     1
  3
Normal
350
F
100
AcDbDictionaryWithDefault
340
F
  0
DICTIONARY
  5
47
102
{ACAD_REACTORS
330
C
102
}
330
C
100
AcDbDictionary
281
     1
  3
A0
350
48
  3
A1
350
49
  3
A2
350
4A
  3
A3
350
4B
  3
A4
350
4C
  3
A5
350
4D
  3
A6
350
4E
  3
A7
350
4F
  3
A8
350
50
  3
A9
350
51
  3
B0
350
52
  3
B1
350
53
  3
B2
350
54
  3
B3
350
55
  3
B4
350
56
  3
B5
350
57
  3
B6
350
58
  3
B7
350
59
  3
B8
350
5A
  3
B9
350
5B
  3
C0
350
5C
  3
C1
350
5D
  3
C2
350
5E
  3
C3
350
5F
  3
C4
350
60
  3
C5
350
61
  3
C6
350
62
  3
C7
350
63
  3
C8
350
64
  3
C9
350
65
  3
D0
350
66
  3
D1
350
67
  3
D2
350
68
  0
DICTIONARY
  5
4F5
102
{ACAD_REACTORS
330
C
102
}
330
C
100
AcDbDictionary
281
     1
  0
DICTIONARY
  5
69
102
{ACAD_REACTORS
330
C
102
}
330
C
100
AcDbDictionary
281
     1
  3
Standard
350
6A
  0
DICTIONARY
  5
2A
102
{ACAD_REACTORS
330
C
102
}
330
C
100
AcDbDictionary
281
     1
  3
2dWireframe
350
2F
  3
Basic
350
32
  3
Brighten
350
36
  3
ColorChange
350
3A
  3
Conceptual
350
34
  3
Dim
350
35
  3
EdgeColorOff
350
3D
  3
Facepattern
350
39
  3
Flat
350
2B
  3
FlatWithEdges
350
2C
  3
Gouraud
350
2D
  3
GouraudWithEdges
350
2E
  3
Hidden
350
31
  3
JitterOff
350
3B
  3
Linepattern
350
38
  3
OverhangOff
350
3C
  3
Realistic
350
33
  3
Shaded
350
42
  3
Shaded with edges
350
41
  3
Shades of Gray
350
3E
  3
Sketchy
350
3F
  3
Thicken
350
37
  3
Wireframe
350
30
  3
X-Ray
350
40
  0
XRECORD
  5
4F1
102
{ACAD_REACTORS
330
C
102
}
330
C
100
AcDbXrecord
280
     1
 90
        1
330
6A
  0
DICTIONARY
  5
4EC
102
{ACAD_REACTORS
330
C
102
}
330
C
100
AcDbDictionary
281
     1
  3
CANNOSCALE
350
4ED
  3
CMLEADERSTYLE
350
4F3
  3
CTABLESTYLE
350
4F2
  0
LAYOUT
  5
1E
102
{ACAD_REACTORS
330
1A
102
}
330
1A
100
AcDbPlotSettings
  1

  2
none_device
  4

  6

 40
0.0
 41
0.0
 42
0.0
 43
0.0
 44
0.0
 45
0.0
 46
0.0
 47
0.0
 48
0.0
 49
0.0
140
0.0
141
0.0
142
1.0
143
1.0
 70
   688
 72
     1
 73
     0
 74
     5
  7

 75
    16
 76
     0
 77
     2
 78
   300
147
1.0
148
0.0
149
0.0
100
AcDbLayout
  1
Layout1
 70
     1
 71
     1
 10
0.0
 20
0.0
 11
420.0
 21
297.0
 12
0.0
 22
0.0
 32
0.0
 14
1.0000000000E+20
 24
1.0000000000E+20
 34
1.0000000000E+20
 15
-1.0000000000E+20
 25
-1.0000000000E+20
 35
-1.0000000000E+20
146
0.0
 13
0.0
 23
0.0
 33
0.0
 16
1.0
 26
0.0
 36
0.0
 17
0.0
 27
1.0
 37
0.0
 76
     0
330
1B
  0
LAYOUT
  5
26
102
{ACAD_REACTORS
330
1A
102
}
330
1A
100
AcDbPlotSettings
  1

  2
none_device
  4

  6

 40
0.0
 41
0.0
 42
0.0
 43
0.0
 44
0.0
 45
0.0
 46
0.0
 47
0.0
 48
0.0
 49
0.0
140
0.0
141
0.0
142
1.0
143
1.0
 70
   688
 72
     1
 73
     0
 74
     5
  7

 75
    16
 76
     0
 77
     2
 78
   300
147
1.0
148
0.0
149
0.0
100
AcDbLayout
  1
Layout2
 70
     1
 71
     2
 10
0.0
 20
0.0
 11
0.0
 21
0.0
 12
0.0
 22
0.0
 32
0.0
 14
0.0
 24
0.0
 34
0.0
 15
0.0
 25
0.0
 35
0.0
146
0.0
 13
0.0
 23
0.0
 33
0.0
 16
1.0
 26
0.0
 36
0.0
 17
0.0
 27
1.0
 37
0.0
 76
     0
330
23
  0
LAYOUT
  5
22
102
{ACAD_REACTORS
330
1A
102
}
330
1A
100
AcDbPlotSettings
  1

  2
none_device
  4
Letter_(8.50_x_11.00_Inches)
  6

 40
6.35
 41
6.35
 42
6.35000508
 43
6.35000508
 44
215.9
 45
279.4
 46
0.0
 47
0.0
 48
0.0
 49
0.0
140
0.0
141
0.0
142
1.0
143
1.0
 70
  1712
 72
     1
 73
     0
 74
     0
  7

 75
     0
 76
     0
 77
     2
 78
   300
147
1.0
148
0.0
149
0.0
100
AcDbLayout
  1
Model
 70
     1
 71
     0
 10
0.0
 20
0.0
 11
0.21
 21
0.297
 12
0.0
 22
0.0
 32
0.0
 14
0.0
 24
0.0
 34
0.0
 15
0.21
 25
0.297
 35
0.0
146
0.0
 13
0.0
 23
0.0
 33
0.0
 16
1.0
 26
0.0
 36
0.0
 17
0.0
 27
1.0
 37
0.0
 76
     0
330
1F
331
29
  0
MATERIAL
  5
45
102
{ACAD_REACTORS
330
43
102
}
330
43
100
AcDbMaterial
  1
ByBlock
 72
     1
 94
      127
  0
MATERIAL
  5
44
102
{ACAD_REACTORS
330
43
102
}
330
43
100
AcDbMaterial
  1
ByLayer
 72
     1
 94
      127
  0
MATERIAL
  5
46
102
{ACAD_REACTORS
330
43
102
}
330
43
100
AcDbMaterial
  1
Global
 72
     1
 94
      127
  0
MLEADERSTYLE
  5
6C
102
{ACAD_REACTORS
330
6B
102
}
330
6B
100
AcDbMLeaderStyle
170
     2
171
     1
172
     0
 90
        2
 40
0.0
 41
0.0
173
     1
 91
-1056964608
340
14
 92
       -2
290
     1
 42
2.0
291
     1
 43
8.0
  3
Standard
341
0
 44
4.0
300

342
11
174
     1
178
     6
175
     1
176
     0
 93
-1056964608
 45
4.0
292
     0
297
     0
 46
4.0
343
0
 94
-1056964608
 47
1.0
 49
1.0
140
1.0
293
     1
141
0.0
294
     1
177
     0
142
1.0
295
     0
296
     0
143
3.75
1001
ACAD_MLEADERVER
1070
     2
  0
MLINESTYLE
  5
18
102
{ACAD_REACTORS
330
17
102
}
330
17
100
AcDbMlineStyle
  2
Standard
 70
     0
  3

 62
   256
 51
90.0
 52
90.0
 71
     2
 49
0.5
 62
   256
  6
BYLAYER
 49
-0.5
 62
   256
  6
BYLAYER
  0
ACDBPLACEHOLDER
  5
F
102
{ACAD_REACTORS
330
E
102
}
330
E
  0
SCALE
  5
48
102
{ACAD_REACTORS
330
47
102
}
330
47
100
AcDbScale
 70
     0
300
1:1
140
1.0
141
1.0
290
     1
  0
SCALE
  5
49
102
{ACAD_REACTORS
330
47
102
}
330
47
100
AcDbScale
 70
     0
300
1:2
140
1.0
141
2.0
290
     0
  0
SCALE
  5
4A
102
{ACAD_REACTORS
330
47
102
}
330
47
100
AcDbScale
 70
     0
300
1:4
140
1.0
141
4.0
290
     0
  0
SCALE
  5
4B
102
{ACAD_REACTORS
330
47
102
}
330
47
100
AcDbScale
 70
     0
300
1:5
140
1.0
141
5.0
290
     0
  0
SCALE
  5
4C
102
{ACAD_REACTORS
330
47
102
}
330
47
100
AcDbScale
 70
     0
300
1:8
140
1.0
141
8.0
290
     0
  0
SCALE
  5
4D
102
{ACAD_REACTORS
330
47
102
}
330
47
100
AcDbScale
 70
     0
300
1:10
140
1.0
141
10.0
290
     0
  0
SCALE
  5
4E
102
{ACAD_REACTORS
330
47
102
}
330
47
100
AcDbScale
 70
     0
300
1:16
140
1.0
141
16.0
290
     0
  0
SCALE
  5
4F
102
{ACAD_REACTORS
330
47
102
}
330
47
100
AcDbScale
 70
     0
300
1:20
140
1.0
141
20.0
290
     0
  0
SCALE
  5
50
102
{ACAD_REACTORS
330
47
102
}
330
47
100
AcDbScale
 70
     0
300
1:30
140
1.0
141
30.0
290
     0
  0
SCALE
  5
51
102
{ACAD_REACTORS
330
47
102
}
330
47
100
AcDbScale
 70
     0
300
1:40
140
1.0
141
40.0
290
     0
  0
SCALE
  5
52
102
{ACAD_REACTORS
330
47
102
}
330
47
100
AcDbScale
 70
     0
300
1:50
140
1.0
141
50.0
290
     0
  0
SCALE
  5
53
102
{ACAD_REACTORS
330
47
102
}
330
47
100
AcDbScale
 70
     0
300
1:100
140
1.0
141
100.0
290
     0
  0
SCALE
  5
54
102
{ACAD_REACTORS
330
47
102
}
330
47
100
AcDbScale
 70
     0
300
2:1
140
2.0
141
1.0
290
     0
  0
SCALE
  5
55
102
{ACAD_REACTORS
330
47
102
}
330
47
100
AcDbScale
 70
     0
300
4:1
140
4.0
141
1.0
290
     0
  0
SCALE
  5
56
102
{ACAD_REACTORS
330
47
102
}
330
47
100
AcDbScale
 70
     0
300
8:1
140
8.0
141
1.0
290
     0
  0
SCALE
  5
57
102
{ACAD_REACTORS
330
47
102
}
330
47
100
AcDbScale
 70
     0
300
10:1
140
10.0
141
1.0
290
     0
  0
SCALE
  5
58
102
{ACAD_REACTORS
330
47
102
}
330
47
100
AcDbScale
 70
     0
300
100:1
140
100.0
141
1.0
290
     0
  0
SCALE
  5
59
102
{ACAD_REACTORS
330
47
102
}
330
47
100
AcDbScale
 70
     0
300
1/128" = 1'-0"
140
0.0078125
141
12.0
290
     0
  0
SCALE
  5
5A
102
{ACAD_REACTORS
330
47
102
}
330
47
100
AcDbScale
 70
     0
300
1/64" = 1'-0"
140
0.015625
141
12.0
290
     0
  0
SCALE
  5
5B
102
{ACAD_REACTORS
330
47
102
}
330
47
100
AcDbScale
 70
     0
300
1/32" = 1'-0"
140
0.03125
141
12.0
290
     0
  0
SCALE
  5
5C
102
{ACAD_REACTORS
330
47
102
}
330
47
100
AcDbScale
 70
     0
300
1/16" = 1'-0"
140
0.0625
141
12.0
290
     0
  0
SCALE
  5
5D
102
{ACAD_REACTORS
330
47
102
}
330
47
100
AcDbScale
 70
     0
300
3/32" = 1'-0"
140
0.09375
141
12.0
290
     0
  0
SCALE
  5
5E
102
{ACAD_REACTORS
330
47
102
}
330
47
100
AcDbScale
 70
     0
300
1/8" = 1'-0"
140
0.125
141
12.0
290
     0
  0
SCALE
  5
5F
102
{ACAD_REACTORS
330
47
102
}
330
47
100
AcDbScale
 70
     0
300
3/16" = 1'-0"
140
0.1875
141
12.0
290
     0
  0
SCALE
  5
60
102
{ACAD_REACTORS
330
47
102
}
330
47
100
AcDbScale
 70
     0
300
1/4" = 1'-0"
140
0.25
141
12.0
290
     0
  0
SCALE
  5
61
102
{ACAD_REACTORS
330
47
102
}
330
47
100
AcDbScale
 70
     0
300
3/8" = 1'-0"
140
0.375
141
12.0
290
     0
  0
SCALE
  5
62
102
{ACAD_REACTORS
330
47
102
}
330
47
100
AcDbScale
 70
     0
300
1/2" = 1'-0"
140
0.5
141
12.0
290
     0
  0
SCALE
  5
63
102
{ACAD_REACTORS
330
47
102
}
330
47
100
AcDbScale
 70
     0
300
3/4" = 1'-0"
140
0.75
141
12.0
290
     0
  0
SCALE
  5
64
102
{ACAD_REACTORS
330
47
102
}
330
47
100
AcDbScale
 70
     0
300
1" = 1'-0"
140
1.0
141
12.0
290
     0
  0
SCALE
  5
65
102
{ACAD_REACTORS
330
47
102
}
330
47
100
AcDbScale
 70
     0
300
1-1/2" = 1'-0"
140
1.5
141
12.0
290
     0
  0
SCALE
  5
66
102
{ACAD_REACTORS
330
47
102
}
330
47
100
AcDbScale
 70
     0
300
3" = 1'-0"
140
3.0
141
12.0
290
     0
  0
SCALE
  5
67
102
{ACAD_REACTORS
330
47
102
}
330
47
100
AcDbScale
 70
     0
300
6" = 1'-0"
140
6.0
141
12.0
290
     0
  0
SCALE
  5
68
102
{ACAD_REACTORS
330
47
102
}
330
47
100
AcDbScale
 70
     0
300
1'-0" = 1'-0"
140
12.0
141
12.0
290
     0
  0
TABLESTYLE
  5
6A
102
{ACAD_REACTORS
330
69
102
}
102
{ACAD_XDICTIONARY
360
4EE
102
}
330
69
100
AcDbTableStyle
  3
Standard
 70
     0
 71
     0
 40
0.06
 41
0.06
280
     0
281
     0
  7
Standard
140
4.5
170
     2
 62
     0
 63
   257
283
     0
 90
        4
 91
        0
  1

274
    -2
284
     1
 64
     0
275
    -2
285
     1
 65
     0
276
    -2
286
     1
 66
     0
277
    -2
287
     1
 67
     0
278
    -2
288
     1
 68
     0
279
    -2
289
     1
 69
     0
  7
Standard
140
6.0
170
     5
 62
     0
 63
   257
283
     0
 90
        4
 91
        0
  1

274
    -2
284
     1
 64
     0
275
    -2
285
     1
 65
     0
276
    -2
286
     1
 66
     0
277
    -2
287
     1
 67
     0
278
    -2
288
     1
 68
     0
279
    -2
289
     1
 69
     0
  7
Standard
140
4.5
170
     5
 62
     0
 63
   257
283
     0
 90
        4
 91
        0
  1

274
    -2
284
     1
 64
     0
275
    -2
285
     1
 65
     0
276
    -2
286
     1
 66
     0
277
    -2
287
     1
 67
     0
278
    -2
288
     1
 68
     0
279
    -2
289
     1
 69
     0
  0
VISUALSTYLE
  5
2F
102
{ACAD_REACTORS
330
2A
102
}
330
2A
100
AcDbVisualStyle
  2
2dWireframe
 70
     4
 71
     0
 72
     2
 73
     0
 90
        0
 40
0.6
 41
30.0
 62
     5
 63
     7
421
 16777215
 74
     1
 91
        4
 64
     7
 65
   257
 75
     1
175
     1
 42
1.0
 92
        0
 66
   257
 43
1.0
 76
     1
 77
     6
 78
     2
 67
     7
 79
     5
170
     0
171
     0
290
     0
174
     0
 93
        1
 44
0.0
173
     0
291
     0
 45
0.0
  0
VISUALSTYLE
  5
32
102
{ACAD_REACTORS
330
2A
102
}
330
2A
100
AcDbVisualStyle
  2
Basic
 70
     7
 71
     1
 72
     0
 73
     1
 90
        0
 40
0.6
 41
30.0
 62
     5
 63
     7
421
 16777215
 74
     0
 91
        4
 64
     7
 65
   257
 75
     1
175
     1
 42
1.0
 92
        8
 66
     7
 43
1.0
 76
     1
 77
     6
 78
     2
 67
     7
 79
     5
170
     0
171
     0
290
     0
174
     0
 93
        1
 44
0.0
173
     0
291
     1
 45
0.0
  0
VISUALSTYLE
  5
36
102
{ACAD_REACTORS
330
2A
102
}
330
2A
100
AcDbVisualStyle
  2
Brighten
 70
    12
 71
     2
 72
     2
 73
     0
 90
        0
 40
0.6
 41
30.0
 62
     5
 63
     7
421
 16777215
 74
     1
 91
        4
 64
     7
 65
   257
 75
     1
175
     1
 42
1.0
 92
        8
 66
     7
 43
1.0
 76
     1
 77
     6
 78
     2
 67
     7
 79
     5
170
     0
171
     0
290
     0
174
     0
 93
        1
 44
50.0
173
     0
291
     1
 45
0.0
  0
VISUALSTYLE
  5
3A
102
{ACAD_REACTORS
330
2A
102
}
330
2A
100
AcDbVisualStyle
  2
ColorChange
 70
    16
 71
     2
 72
     2
 73
     3
 90
        0
 40
0.6
 41
30.0
 62
     5
 63
     8
421
  8421504
 74
     1
 91
        4
 64
     7
 65
   257
 75
     1
175
     1
 42
1.0
 92
        8
 66
     8
424
  8421504
 43
1.0
 76
     1
 77
     6
 78
     2
 67
     7
 79
     5
170
     0
171
     0
290
     0
174
     0
 93
        1
 44
0.0
173
     0
291
     1
 45
0.0
  0
VISUALSTYLE
  5
34
102
{ACAD_REACTORS
330
2A
102
}
330
2A
100
AcDbVisualStyle
  2
Conceptual
 70
     9
 71
     3
 72
     2
 73
     0
 90
        0
 40
0.6
 41
30.0
 62
     5
 63
     7
421
 16777215
 74
     2
 91
        2
 64
     7
 65
   257
 75
     1
175
     1
 42
179.0
 92
        8
 66
     7
 43
1.0
 76
     1
 77
     6
 78
     2
 67
     7
 79
     3
170
     0
171
     0
290
     0
174
     0
 93
        1
 44
0.0
173
     0
291
     0
 45
0.0
  0
VISUALSTYLE
  5
35
102
{ACAD_REACTORS
330
2A
102
}
330
2A
100
AcDbVisualStyle
  2
Dim
 70
    11
 71
     2
 72
     2
 73
     0
 90
        0
 40
0.6
 41
30.0
 62
     5
 63
     7
421
 16777215
 74
     1
 91
        4
 64
     7
 65
   257
 75
     1
175
     1
 42
1.0
 92
        8
 66
     7
 43
1.0
 76
     1
 77
     6
 78
     2
 67
     7
 79
     5
170
     0
171
     0
290
     0
174
     0
 93
        1
 44
-50.0
173
     0
291
     1
 45
0.0
  0
VISUALSTYLE
  5
3D
102
{ACAD_REACTORS
330
2A
102
}
330
2A
100
AcDbVisualStyle
  2
EdgeColorOff
 70
    22
 71
     2
 72
     2
 73
     0
 90
        0
 40
0.6
 41
30.0
 62
     5
 63
     7
421
 16777215
 74
     1
 91
        4
 64
     7
 65
   257
 75
     1
175
     1
 42
1.0
 92
        8
 66
     7
 43
1.0
 76
     1
 77
     6
 78
     2
 67
     7
 79
     5
170
     0
171
     0
290
     0
174
     0
 93
        1
 44
0.0
173
     0
291
     1
 45
0.0
  0
VISUALSTYLE
  5
39
102
{ACAD_REACTORS
330
2A
102
}
330
2A
100
AcDbVisualStyle
  2
Facepattern
 70
    15
 71
     2
 72
     2
 73
     0
 90
        0
 40
0.6
 41
30.0
 62
     5
 63
     7
421
 16777215
 74
     1
 91
        4
 64
     7
 65
   257
 75
     1
175
     1
 42
1.0
 92
        8
 66
     7
 43
1.0
 76
     1
 77
     6
 78
     2
 67
     7
 79
     5
170
     0
171
     0
290
     0
174
     0
 93
        1
 44
0.0
173
     0
291
     1
 45
0.0
  0
VISUALSTYLE
  5
2B
102
{ACAD_REACTORS
330
2A
102
}
330
2A
100
AcDbVisualStyle
  2
Flat
 70
     0
 71
     2
 72
     1
 73
     1
 90
        2
 40
0.6
 41
30.0
 62
     5
 63
     7
421
 16777215
 74
     0
 91
        0
 64
     7
 65
   257
 75
     1
175
     1
 42
1.0
 92
        8
 66
     7
 43
1.0
 76
     1
 77
     6
 78
     2
 67
     7
 79
     5
170
     0
171
     0
290
     0
174
     0
 93
       13
 44
0.0
173
     0
291
     1
 45
0.0
  0
VISUALSTYLE
  5
2C
102
{ACAD_REACTORS
330
2A
102
}
330
2A
100
AcDbVisualStyle
  2
FlatWithEdges
 70
     1
 71
     2
 72
     1
 73
     1
 90
        2
 40
0.6
 41
30.0
 62
     5
 63
     7
421
 16777215
 74
     1
 91
        0
 64
     7
 65
   257
 75
     1
175
     1
 42
1.0
 92
        0
 66
   257
 43
1.0
 76
     1
 77
     6
 78
     2
 67
     7
 79
     5
170
     0
171
     0
290
     0
174
     0
 93
       13
 44
0.0
173
     0
291
     1
 45
0.0
  0
VISUALSTYLE
  5
2D
102
{ACAD_REACTORS
330
2A
102
}
330
2A
100
AcDbVisualStyle
  2
Gouraud
 70
     2
 71
     2
 72
     2
 73
     1
 90
        2
 40
0.6
 41
30.0
 62
     5
 63
     7
421
 16777215
 74
     0
 91
        0
 64
     7
 65
   257
 75
     1
175
     1
 42
1.0
 92
        0
 66
     7
 43
1.0
 76
     1
 77
     6
 78
     2
 67
     7
 79
     5
170
     0
171
     0
290
     0
174
     0
 93
       13
 44
0.0
173
     0
291
     1
 45
0.0
  0
VISUALSTYLE
  5
2E
102
{ACAD_REACTORS
330
2A
102
}
330
2A
100
AcDbVisualStyle
  2
GouraudWithEdges
 70
     3
 71
     2
 72
     2
 73
     1
 90
        2
 40
0.6
 41
30.0
 62
     5
 63
     7
421
 16777215
 74
     1
 91
        0
 64
     7
 65
   257
 75
     1
175
     1
 42
1.0
 92
        0
 66
   257
 43
1.0
 76
     1
 77
     6
 78
     2
 67
     7
 79
     5
170
     0
171
     0
290
     0
174
     0
 93
       13
 44
0.0
173
     0
291
     1
 45
0.0
  0
VISUALSTYLE
  5
31
102
{ACAD_REACTORS
330
2A
102
}
330
2A
100
AcDbVisualStyle
  2
Hidden
 70
     6
 71
     1
 72
     2
 73
     2
 90
        0
 40
0.6
 41
30.0
 62
     5
 63
     7
421
 16777215
 74
     2
 91
        2
 64
     7
 65
   257
 75
     2
175
     1
 42
40.0
 92
        0
 66
   257
 43
1.0
 76
     1
 77
     6
 78
     2
 67
     7
 79
     3
170
     0
171
     0
290
     0
174
     0
 93
        1
 44
0.0
173
     0
291
     0
 45
0.0
  0
VISUALSTYLE
  5
3B
102
{ACAD_REACTORS
330
2A
102
}
330
2A
100
AcDbVisualStyle
  2
JitterOff
 70
    20
 71
     2
 72
     2
 73
     0
 90
        0
 40
0.6
 41
30.0
 62
     5
 63
     7
421
 16777215
 74
     1
 91
        4
 64
     7
 65
   257
 75
     1
175
     1
 42
1.0
 92
       10
 66
     7
 43
1.0
 76
     1
 77
     6
 78
     2
 67
     7
 79
     5
170
     0
171
     0
290
     0
174
     0
 93
        1
 44
0.0
173
     0
291
     1
 45
0.0
  0
VISUALSTYLE
  5
38
102
{ACAD_REACTORS
330
2A
102
}
330
2A
100
AcDbVisualStyle
  2
Linepattern
 70
    14
 71
     2
 72
     2
 73
     0
 90
        0
 40
0.6
 41
30.0
 62
     5
 63
     7
421
 16777215
 74
     1
 91
        4
 64
     7
 65
   257
 75
     7
175
     7
 42
1.0
 92
        8
 66
     7
 43
1.0
 76
     1
 77
     6
 78
     2
 67
     7
 79
     5
170
     0
171
     0
290
     0
174
     0
 93
        1
 44
0.0
173
     0
291
     1
 45
0.0
  0
VISUALSTYLE
  5
3C
102
{ACAD_REACTORS
330
2A
102
}
330
2A
100
AcDbVisualStyle
  2
OverhangOff
 70
    21
 71
     2
 72
     2
 73
     0
 90
        0
 40
0.6
 41
30.0
 62
     5
 63
     7
421
 16777215
 74
     1
 91
        4
 64
     7
 65
   257
 75
     1
175
     1
 42
1.0
 92
        9
 66
     7
 43
1.0
 76
     1
 77
     6
 78
     2
 67
     7
 79
     5
170
     0
171
     0
290
     0
174
     0
 93
        1
 44
0.0
173
     0
291
     1
 45
0.0
  0
VISUALSTYLE
  5
33
102
{ACAD_REACTORS
330
2A
102
}
330
2A
100
AcDbVisualStyle
  2
Realistic
 70
     8
 71
     2
 72
     3
 73
     0
 90
        2
 40
0.6
 41
30.0
 62
     5
 63
     7
421
 16777215
 74
     0
 91
        0
 64
     7
 65
   257
 75
     1
175
     1
 42
1.0
 92
        8
 66
   257
 43
1.0
 76
     1
 77
     6
 78
     2
 67
     7
 79
     3
170
     0
171
     0
290
     0
174
     0
 93
       13
 44
0.0
173
     0
291
     0
 45
0.0
  0
VISUALSTYLE
  5
42
102
{ACAD_REACTORS
330
2A
102
}
330
2A
100
AcDbVisualStyle
  2
Shaded
 70
    27
 71
     2
 72
     2
 73
     1
 90
        2
 40
0.6
 41
30.0
 62
     5
 63
     7
421
 16777215
 74
     0
 91
        4
 64
     7
 65
   257
 75
     1
175
     1
 42
1.0
 92
        8
 66
   257
 43
1.0
 76
     1
 77
     6
 78
     2
 67
     8
425
  7895160
 79
     3
170
     0
171
     0
290
     0
174
     0
 93
        5
 44
0.0
173
     0
291
     0
 45
0.0
  0
VISUALSTYLE
  5
41
102
{ACAD_REACTORS
330
2A
102
}
330
2A
100
AcDbVisualStyle
  2
Shaded with edges
 70
    26
 71
     2
 72
     2
 73
     1
 90
        2
 40
0.6
 41
30.0
 62
     5
 63
     7
421
 16777215
 74
     1
 91
       10
 64
     7
 65
   257
 75
     2
175
     1
 42
1.0
 92
        8
 66
   257
 43
1.0
 76
     1
 77
     6
 78
     2
 67
     7
 79
     3
170
     0
171
     0
290
     0
174
     0
 93
        5
 44
0.0
173
     0
291
     0
 45
0.0
  0
VISUALSTYLE
  5
3E
102
{ACAD_REACTORS
330
2A
102
}
330
2A
100
AcDbVisualStyle
  2
Shades of Gray
 70
    23
 71
     2
 72
     2
 73
     3
 90
        0
 40
0.6
 41
30.0
 62
     5
 63
     7
421
 16777215
 74
     2
 91
        2
 64
     7
 65
     7
 75
     1
175
     1
 42
40.0
 92
        8
 66
     7
 43
1.0
 76
     1
 77
     6
 78
     2
 67
     7
 79
     3
170
     0
171
     0
290
     0
174
     0
 93
        1
 44
0.0
173
     0
291
     0
 45
0.0
  0
VISUALSTYLE
  5
3F
102
{ACAD_REACTORS
330
2A
102
}
330
2A
100
AcDbVisualStyle
  2
Sketchy
 70
    24
 71
     1
 72
     2
 73
     2
 90
        0
 40
0.6
 41
30.0
 62
     5
 63
     7
421
 16777215
 74
     2
 91
        2
 64
     7
 65
     7
 75
     1
175
     1
 42
40.0
 92
       11
 66
     7
 43
1.0
 76
     1
 77
     6
 78
     2
 67
     7
 79
     6
170
     0
171
     0
290
     0
174
     0
 93
        1
 44
0.0
173
     0
291
     0
 45
0.0
  0
VISUALSTYLE
  5
37
102
{ACAD_REACTORS
330
2A
102
}
330
2A
100
AcDbVisualStyle
  2
Thicken
 70
    13
 71
     2
 72
     2
 73
     0
 90
        0
 40
0.6
 41
30.0
 62
     5
 63
     7
421
 16777215
 74
     1
 91
        4
 64
     7
 65
   257
 75
     1
175
     1
 42
1.0
 92
       12
 66
     7
 43
1.0
 76
     1
 77
     6
 78
     2
 67
     7
 79
     5
170
     0
171
     0
290
     0
174
     0
 93
        1
 44
0.0
173
     0
291
     1
 45
0.0
  0
VISUALSTYLE
  5
30
102
{ACAD_REACTORS
330
2A
102
}
330
2A
100
AcDbVisualStyle
  2
Wireframe
 70
     5
 71
     0
 72
     2
 73
     0
 90
        0
 40
0.6
 41
30.0
 62
     5
 63
     7
421
 16777215
 74
     1
 91
        4
 64
     7
 65
   257
 75
     1
175
     1
 42
1.0
 92
        0
 66
   257
 43
1.0
 76
     1
 77
     6
 78
     2
 67
     7
 79
     3
170
     0
171
     0
290
     0
174
     0
 93
        1
 44
0.0
173
     0
291
     0
 45
0.0
  0
VISUALSTYLE
  5
40
102
{ACAD_REACTORS
330
2A
102
}
330
2A
100
AcDbVisualStyle
  2
X-Ray
 70
    25
 71
     2
 72
     2
 73
     1
 90
        1
 40
0.5
 41
30.0
 62
     5
 63
     7
421
 16777215
 74
     1
 91
        0
 64
     7
 65
   257
 75
     1
175
     1
 42
1.0
 92
        8
 66
     7
 43
1.0
 76
     1
 77
     6
 78
     2
 67
     7
 79
     3
170
     0
171
     0
290
     0
174
     0
 93
       13
 44
0.0
173
     0
291
     0
 45
0.0
  0
DICTIONARYVAR
  5
4ED
102
{ACAD_REACTORS
330
4EC
102
}
330
4EC
100
DictionaryVariables
280
     0
  1
1:1
  0
DICTIONARYVAR
  5
4F3
102
{ACAD_REACTORS
330
4EC
102
}
330
4EC
100
DictionaryVariables
280
     0
  1
Standard
  0
DICTIONARYVAR
  5
4F2
102
{ACAD_REACTORS
330
4EC
102
}
330
4EC
100
DictionaryVariables
280
     0
  1
Standard
  0
DICTIONARY
  5
4EE
330
6A
100
AcDbDictionary
280
     1
281
     1
  3
ACAD_ROUNDTRIP_2008_TABLESTYLE_CELLSTYLEMAP
360
4EF
  0
CELLSTYLEMAP
  5
4EF
102
{ACAD_REACTORS
330
4EE
102
}
330
4EE
100
AcDbCellStyleMap
 90
        3
300
CELLSTYLE
  1
TABLEFORMAT_BEGIN
 90
        5
170
     1
 91
        0
 92
    32768
 62
   257
 93
        1
300
CONTENTFORMAT
  1
CONTENTFORMAT_BEGIN
 90
        0
 91
        0
 92
        4
 93
        0
300

 40
0.0
140
1.0
 94
        5
 62
     0
340
11
144
6.0
309
CONTENTFORMAT_END
171
     1
301
MARGIN
  1
CELLMARGIN_BEGIN
 40
1.5
 40
1.5
 40
1.5
 40
1.5
 40
1.5
 40
1.5
309
CELLMARGIN_END
 94
        6
 95
        1
302
GRIDFORMAT
  1
GRIDFORMAT_BEGIN
 90
        0
 91
        1
 62
     0
 92
       -2
340
14
 93
        0
 40
0.045
309
GRIDFORMAT_END
 95
        2
302
GRIDFORMAT
  1
GRIDFORMAT_BEGIN
 90
        0
 91
        1
 62
     0
 92
       -2
340
14
 93
        0
 40
0.045
309
GRIDFORMAT_END
 95
        4
302
GRIDFORMAT
  1
GRIDFORMAT_BEGIN
 90
        0
 91
        1
 62
     0
 92
       -2
340
14
 93
        0
 40
0.045
309
GRIDFORMAT_END
 95
        8
302
GRIDFORMAT
  1
GRIDFORMAT_BEGIN
 90
        0
 91
        1
 62
     0
 92
       -2
340
14
 93
        0
 40
0.045
309
GRIDFORMAT_END
 95
       16
302
GRIDFORMAT
  1
GRIDFORMAT_BEGIN
 90
        0
 91
        1
 62
     0
 92
       -2
340
14
 93
        0
 40
0.045
309
GRIDFORMAT_END
 95
       32
302
GRIDFORMAT
  1
GRIDFORMAT_BEGIN
 90
        0
 91
        1
 62
     0
 92
       -2
340
14
 93
        0
 40
0.045
309
GRIDFORMAT_END
309
TABLEFORMAT_END
  1
CELLSTYLE_BEGIN
 90
        1
 91
        1
300
_TITLE
309
CELLSTYLE_END
300
CELLSTYLE
  1
TABLEFORMAT_BEGIN
 90
        5
170
     1
 91
        0
 92
        0
 62
   257
 93
        1
300
CONTENTFORMAT
  1
CONTENTFORMAT_BEGIN
 90
        0
 91
        0
 92
        4
 93
        0
300

 40
0.0
140
1.0
 94
        5
 62
     0
340
11
144
4.5
309
CONTENTFORMAT_END
171
     1
301
MARGIN
  1
CELLMARGIN_BEGIN
 40
1.5
 40
1.5
 40
1.5
 40
1.5
 40
1.5
 40
1.5
309
CELLMARGIN_END
 94
        6
 95
        1
302
GRIDFORMAT
  1
GRIDFORMAT_BEGIN
 90
        0
 91
        1
 62
     0
 92
       -2
340
14
 93
        0
 40
0.045
309
GRIDFORMAT_END
 95
        2
302
GRIDFORMAT
  1
GRIDFORMAT_BEGIN
 90
        0
 91
        1
 62
     0
 92
       -2
340
14
 93
        0
 40
0.045
309
GRIDFORMAT_END
 95
        4
302
GRIDFORMAT
  1
GRIDFORMAT_BEGIN
 90
        0
 91
        1
 62
     0
 92
       -2
340
14
 93
        0
 40
0.045
309
GRIDFORMAT_END
 95
        8
302
GRIDFORMAT
  1
GRIDFORMAT_BEGIN
 90
        0
 91
        1
 62
     0
 92
       -2
340
14
 93
        0
 40
0.045
309
GRIDFORMAT_END
 95
       16
302
GRIDFORMAT
  1
GRIDFORMAT_BEGIN
 90
        0
 91
        1
 62
     0
 92
       -2
340
14
 93
        0
 40
0.045
309
GRIDFORMAT_END
 95
       32
302
GRIDFORMAT
  1
GRIDFORMAT_BEGIN
 90
        0
 91
        1
 62
     0
 92
       -2
340
14
 93
        0
 40
0.045
309
GRIDFORMAT_END
309
TABLEFORMAT_END
  1
CELLSTYLE_BEGIN
 90
        2
 91
        1
300
_HEADER
309
CELLSTYLE_END
300
CELLSTYLE
  1
TABLEFORMAT_BEGIN
 90
        5
170
     1
 91
        0
 92
        0
 62
   257
 93
        1
300
CONTENTFORMAT
  1
CONTENTFORMAT_BEGIN
 90
        0
 91
        0
 92
        4
 93
        0
300

 40
0.0
140
1.0
 94
        2
 62
     0
340
11
144
4.5
309
CONTENTFORMAT_END
171
     1
301
MARGIN
  1
CELLMARGIN_BEGIN
 40
1.5
 40
1.5
 40
1.5
 40
1.5
 40
1.5
 40
1.5
309
CELLMARGIN_END
 94
        6
 95
        1
302
GRIDFORMAT
  1
GRIDFORMAT_BEGIN
 90
        0
 91
        1
 62
     0
 92
       -2
340
14
 93
        0
 40
0.045
309
GRIDFORMAT_END
 95
        2
302
GRIDFORMAT
  1
GRIDFORMAT_BEGIN
 90
        0
 91
        1
 62
     0
 92
       -2
340
14
 93
        0
 40
0.045
309
GRIDFORMAT_END
 95
        4
302
GRIDFORMAT
  1
GRIDFORMAT_BEGIN
 90
        0
 91
        1
 62
     0
 92
       -2
340
14
 93
        0
 40
0.045
309
GRIDFORMAT_END
 95
        8
302
GRIDFORMAT
  1
GRIDFORMAT_BEGIN
 90
        0
 91
        1
 62
     0
 92
       -2
340
14
 93
        0
 40
0.045
309
GRIDFORMAT_END
 95
       16
302
GRIDFORMAT
  1
GRIDFORMAT_BEGIN
 90
        0
 91
        1
 62
     0
 92
       -2
340
14
 93
        0
 40
0.045
309
GRIDFORMAT_END
 95
       32
302
GRIDFORMAT
  1
GRIDFORMAT_BEGIN
 90
        0
 91
        1
 62
     0
 92
       -2
340
14
 93
        0
 40
0.045
309
GRIDFORMAT_END
309
TABLEFORMAT_END
  1
CELLSTYLE_BEGIN
 90
        3
 91
        2
300
_DATA
309
CELLSTYLE_END
  0
ENDSEC
  0
EOF
