  0
SECTION
  2
HEADER
  9
$ACADVER
  1
AC1021
  9
$ACADMAINTVER
 70
    25
  9
$DWGCODEPAGE
  3
ANSI_1250
  9
$INSBASE
 10
0.0
 20
0.0
 30
0.0
  9
$EXTMIN
 10
0.0
 20
0.0
 30
0.0
  9
$EXTMAX
 10
210.0
 20
297.0
 30
0.0
  9
$LIMMIN
 10
0.0
 20
0.0
  9
$LIMMAX
 10
210.0
 20
297.0
  9
$ORTHOMODE
 70
     0
  9
$REGENMODE
 70
     1
  9
$FILLMODE
 70
     1
  9
$QTEXTMODE
 70
     0
  9
$MIRRTEXT
 70
     1
  9
$LTSCALE
 40
1.0
  9
$ATTMODE
 70
     1
  9
$TEXTSIZE
 40
3.5
  9
$TRACEWID
 40
1.0
  9
$TEXTSTYLE
  7
Standard
  9
$CLAYER
  8
0
  9
$CELTYPE
  6
ByLayer
  9
$CECOLOR
 62
   256
  9
$CELTSCALE
 40
1.0
  9
$DISPSILH
 70
     0
  9
$DIMSCALE
 40
1.0
  9
$DIMASZ
 40
3.302
  9
$DIMEXO
 40
1.0
  9
$DIMDLI
 40
3.75
  9
$DIMRND
 40
0.0
  9
$DIMDLE
 40
0.0
  9
$DIMEXE
 40
1.0
  9
$DIMTP
 40
0.0
  9
$DIMTM
 40
0.0
  9
$DIMTXT
 40
3.5
  9
$DIMCEN
 40
2.5
  9
$DIMTSZ
 40
0.0
  9
$DIMTOL
 70
     0
  9
$DIMLIM
 70
     0
  9
$DIMTIH
 70
     1
  9
$DIMTOH
 70
     1
  9
$DIMSE1
 70
     0
  9
$DIMSE2
 70
     0
  9
$DIMTAD
 70
     1
  9
$DIMZIN
 70
     0
  9
$DIMBLK
  1

  9
$DIMASO
 70
     1
  9
$DIMSHO
 70
     1
  9
$DIMPOST
  1

  9
$DIMAPOST
  1

  9
$DIMALT
 70
     0
  9
$DIMALTD
 70
     3
  9
$DIMALTF
 40
0.0393700787
  9
$DIMLFAC
 40
1.0
  9
$DIMTOFL
 70
     1
  9
$DIMTVP
 40
0.0
  9
$DIMTIX
 70
     0
  9
$DIMSOXD
 70
     0
  9
$DIMSAH
 70
     0
  9
$DIMBLK1
  1

  9
$DIMBLK2
  1

  9
$DIMSTYLE
  2
ISO-25
  9
$DIMCLRD
 70
     0
  9
$DIMCLRE
 70
     0
  9
$DIMCLRT
 70
     0
  9
$DIMTFAC
 40
1.0
  9
$DIMGAP
 40
1.524
  9
$DIMJUST
 70
     0
  9
$DIMSD1
 70
     0
  9
$DIMSD2
 70
     0
  9
$DIMTOLJ
 70
     0
  9
$DIMTZIN
 70
     0
  9
$DIMALTZ
 70
     0
  9
$DIMALTTZ
 70
     0
  9
$DIMUPT
 70
     0
  9
$DIMDEC
 70
     2
  9
$DIMTDEC
 70
     2
  9
$DIMALTU
 70
     2
  9
$DIMALTTD
 70
     3
  9
$DIMTXSTY
  7
Standard
  9
$DIMAUNIT
 70
     0
  9
$DIMADEC
 70
     2
  9
$DIMALTRND
 40
0.0
  9
$DIMAZIN
 70
     0
  9
$DIMDSEP
 70
    44
  9
$DIMATFIT
 70
     3
  9
$DIMFRAC
 70
     0
  9
$DIMLDRBLK
  1

  9
$DIMLUNIT
 70
     2
  9
$DIMLWD
 70
    -2
  9
$DIMLWE
 70
    -2
  9
$DIMTMOVE
 70
     0
  9
$DIMFXL
 40
1.0
  9
$DIMFXLON
 70
     0
  9
$DIMJOGANG
 40
0.7853981634
  9
$DIMTFILL
 70
     0
  9
$DIMTFILLCLR
 70
     0
  9
$DIMARCSYM
 70
     0
  9
$DIMLTYPE
  6

  9
$DIMLTEX1
  6

  9
$DIMLTEX2
  6

  9
$LUNITS
 70
     2
  9
$LUPREC
 70
     2
  9
$SKETCHINC
 40
1.0
  9
$FILLETRAD
 40
10.0
  9
$AUNITS
 70
     0
  9
$AUPREC
 70
     2
  9
$MENU
  1
.
  9
$ELEVATION
 40
0.0
  9
$PELEVATION
 40
0.0
  9
$THICKNESS
 40
0.0
  9
$LIMCHECK
 70
     0
  9
$CHAMFERA
 40
0.0
  9
$CHAMFERB
 40
0.0
  9
$CHAMFERC
 40
0.0
  9
$CHAMFERD
 40
0.0
  9
$SKPOLY
 70
     0
  9
$TDCREATE
 40
2458501.621032072
  9
$TDUCREATE
 40
2458501.579365405
  9
$TDUPDATE
 40
2458501.62103235
  9
$TDUUPDATE
 40
2458501.579365683
  9
$TDINDWG
 40
0.0000000116
  9
$TDUSRTIMER
 40
0.0000000116
  9
$USRTIMER
 70
     1
  9
$ANGBASE
 50
0.0
  9
$ANGDIR
 70
     0
  9
$PDMODE
 70
     0
  9
$PDSIZE
 40
-1.0
  9
$PLINEWID
 40
0.0
  9
$SPLFRAME
 70
     0
  9
$SPLINETYPE
 70
     6
  9
$SPLINESEGS
 70
     8
  9
$HANDSEED
  5
21A
  9
$SURFTAB1
 70
     6
  9
$SURFTAB2
 70
     6
  9
$SURFTYPE
 70
     6
  9
$SURFU
 70
     6
  9
$SURFV
 70
     6
  9
$UCSBASE
  2

  9
$UCSNAME
  2

  9
$UCSORG
 10
0.0
 20
0.0
 30
0.0
  9
$UCSXDIR
 10
1.0
 20
0.0
 30
0.0
  9
$UCSYDIR
 10
0.0
 20
1.0
 30
0.0
  9
$UCSORTHOREF
  2

  9
$UCSORTHOVIEW
 70
     0
  9
$UCSORGTOP
 10
0.0
 20
0.0
 30
0.0
  9
$UCSORGBOTTOM
 10
0.0
 20
0.0
 30
0.0
  9
$UCSORGLEFT
 10
0.0
 20
0.0
 30
0.0
  9
$UCSORGRIGHT
 10
0.0
 20
0.0
 30
0.0
  9
$UCSORGFRONT
 10
0.0
 20
0.0
 30
0.0
  9
$UCSORGBACK
 10
0.0
 20
0.0
 30
0.0
  9
$PUCSBASE
  2

  9
$PUCSNAME
  2

  9
$PUCSORG
 10
0.0
 20
0.0
 30
0.0
  9
$PUCSXDIR
 10
1.0
 20
0.0
 30
0.0
  9
$PUCSYDIR
 10
0.0
 20
1.0
 30
0.0
  9
$PUCSORTHOREF
  2

  9
$PUCSORTHOVIEW
 70
     0
  9
$PUCSORGTOP
 10
0.0
 20
0.0
 30
0.0
  9
$PUCSORGBOTTOM
 10
0.0
 20
0.0
 30
0.0
  9
$PUCSORGLEFT
 10
0.0
 20
0.0
 30
0.0
  9
$PUCSORGRIGHT
 10
0.0
 20
0.0
 30
0.0
  9
$PUCSORGFRONT
 10
0.0
 20
0.0
 30
0.0
  9
$PUCSORGBACK
 10
0.0
 20
0.0
 30
0.0
  9
$USERI1
 70
     0
  9
$USERI2
 70
     0
  9
$USERI3
 70
     0
  9
$USERI4
 70
     0
  9
$USERI5
 70
     0
  9
$USERR1
 40
0.0
  9
$USERR2
 40
0.0
  9
$USERR3
 40
0.0
  9
$USERR4
 40
0.0
  9
$USERR5
 40
0.0
  9
$WORLDVIEW
 70
     1
  9
$SHADEDGE
 70
     3
  9
$SHADEDIF
 70
    70
  9
$TILEMODE
 70
     1
  9
$MAXACTVP
 70
    64
  9
$PINSBASE
 10
0.0
 20
0.0
 30
0.0
  9
$PLIMCHECK
 70
     0
  9
$PEXTMIN
 10
1.0000000000E+20
 20
1.0000000000E+20
 30
1.0000000000E+20
  9
$PEXTMAX
 10
-1.0000000000E+20
 20
-1.0000000000E+20
 30
-1.0000000000E+20
  9
$PLIMMIN
 10
0.0
 20
0.0
  9
$PLIMMAX
 10
420.0
 20
297.0
  9
$UNITMODE
 70
     0
  9
$VISRETAIN
 70
     1
  9
$PLINEGEN
 70
     0
  9
$PSLTSCALE
 70
     1
  9
$TREEDEPTH
 70
  3020
  9
$CMLSTYLE
  2
Standard
  9
$CMLJUST
 70
     0
  9
$CMLSCALE
 40
20.0
  9
$PROXYGRAPHICS
 70
     1
  9
$MEASUREMENT
 70
     1
  9
$CELWEIGHT
370
    -1
  9
$ENDCAPS
280
     0
  9
$JOINSTYLE
280
     0
  9
$LWDISPLAY
290
     1
  9
$INSUNITS
 70
     4
  9
$HYPERLINKBASE
  1

  9
$STYLESHEET
  1

  9
$XEDIT
290
     1
  9
$CEPSNTYPE
380
     0
  9
$PSTYLEMODE
290
     1
  9
$FINGERPRINTGUID
  2
{9454358E-45F2-4EB0-8BDF-B7098FA1F865}
  9
$VERSIONGUID
  2
{FAEB1C32-E019-11D5-929B-00C0DF256EC4}
  9
$EXTNAMES
290
     1
  9
$PSVPSCALE
 40
0.0
  9
$OLESTARTUP
290
     0
  9
$SORTENTS
280
   127
  9
$INDEXCTL
280
     0
  9
$HIDETEXT
280
     1
  9
$XCLIPFRAME
290
     0
  9
$HALOGAP
280
     0
  9
$OBSCOLOR
 70
   257
  9
$OBSLTYPE
280
     0
  9
$INTERSECTIONDISPLAY
280
     0
  9
$INTERSECTIONCOLOR
 70
   257
  9
$DIMASSOC
280
     2
  9
$PROJECTNAME
  1

  9
$CAMERADISPLAY
290
     0
  9
$LENSLENGTH
 40
50.0
  9
$CAMERAHEIGHT
 40
0.0
  9
$STEPSPERSEC
 40
2.0
  9
$STEPSIZE
 40
6.0
  9
$3DDWFPREC
 40
2.0
  9
$PSOLWIDTH
 40
5.0
  9
$PSOLHEIGHT
 40
80.0
  9
$LOFTANG1
 40
1.5707963268
  9
$LOFTANG2
 40
1.5707963268
  9
$LOFTMAG1
 40
0.0
  9
$LOFTMAG2
 40
0.0
  9
$LOFTPARAM
 70
     7
  9
$LOFTNORMALS
280
     1
  9
$LATITUDE
 40
37.795
  9
$LONGITUDE
 40
-122.394
  9
$NORTHDIRECTION
 40
0.0
  9
$TIMEZONE
 70
 -8000
  9
$LIGHTGLYPHDISPLAY
280
     1
  9
$TILEMODELIGHTSYNCH
280
     1
  9
$CMATERIAL
347
44
  9
$SOLIDHIST
280
     0
  9
$SHOWHIST
280
     1
  9
$DWFFRAME
280
     2
  9
$DGNFRAME
280
     2
  9
$REALWORLDSCALE
290
     1
  9
$INTERFERECOLOR
 62
   256
  9
$CSHADOW
280
     0
  9
$SHADOWPLANELOCATION
 40
0.0
  0
ENDSEC
  0
SECTION
  2
CLASSES
  0
CLASS
  1
ACDBDICTIONARYWDFLT
  2
AcDbDictionaryWithDefault
  3
ObjectDBX Classes
 90
        0
 91
        4
280
     0
281
     0
  0
CLASS
  1
VISUALSTYLE
  2
AcDbVisualStyle
  3
ObjectDBX Classes
 90
     4095
 91
        4
280
     0
281
     0
  0
CLASS
  1
MATERIAL
  2
AcDbMaterial
  3
ObjectDBX Classes
 90
     1153
 91
        4
280
     0
281
     0
  0
CLASS
  1
SCALE
  2
AcDbScale
  3
ObjectDBX Classes
 90
     1153
 91
        4
280
     0
281
     0
  0
CLASS
  1
TABLESTYLE
  2
AcDbTableStyle
  3
ObjectDBX Classes
 90
     4095
 91
        4
280
     0
281
     0
  0
CLASS
  1
MLEADERSTYLE
  2
AcDbMLeaderStyle
  3
ACDB_MLEADERSTYLE_CLASS
 90
     4095
 91
        4
280
     0
281
     0
  0
CLASS
  1
SUN
  2
AcDbSun
  3
SCENEOE
 90
     1153
 91
        4
280
     0
281
     0
  0
CLASS
  1
DICTIONARYVAR
  2
AcDbDictionaryVar
  3
ObjectDBX Classes
 90
        0
 91
        4
280
     0
281
     0
  0
CLASS
  1
CELLSTYLEMAP
  2
AcDbCellStyleMap
  3
ObjectDBX Classes
 90
     1152
 91
        4
280
     0
281
     0
  0
ENDSEC
  0
SECTION
  2
TABLES
  0
TABLE
  2
VPORT
  5
8
330
0
100
AcDbSymbolTable
 70
     1
  0
VPORT
  5
29
330
8
100
AcDbSymbolTableRecord
100
AcDbViewportTableRecord
  2
*Active
 70
     0
 10
0.0
 20
0.0
 11
1.0
 21
1.0
 12
105.0
 22
148.5
 13
0.0
 23
0.0
 14
10.0
 24
10.0
 15
10.0
 25
10.0
 16
0.0
 26
0.0
 36
1.0
 17
0.0
 27
0.0
 37
0.0
 40
297.0
 41
0.7070707071
 42
50.0
 43
0.0
 44
0.0
 50
0.0
 51
0.0
 71
     0
 72
  2000
 73
     1
 74
     3
 75
     0
 76
     0
 77
     0
 78
     0
281
     0
 65
     1
110
0.0
120
0.0
130
0.0
111
1.0
121
0.0
131
0.0
112
0.0
122
1.0
132
0.0
 79
     0
146
0.0
 60
     3
 61
     5
292
     1
282
     1
141
0.0
142
0.0
 63
   250
361
6D
  0
ENDTAB
  0
TABLE
  2
LTYPE
  5
5
330
0
100
AcDbSymbolTable
 70
     6
  0
LTYPE
  5
14
330
5
100
AcDbSymbolTableRecord
100
AcDbLinetypeTableRecord
  2
ByBlock
 70
     0
  3

 72
    65
 73
     0
 40
0.0
  0
LTYPE
  5
15
330
5
100
AcDbSymbolTableRecord
100
AcDbLinetypeTableRecord
  2
ByLayer
 70
     0
  3

 72
    65
 73
     0
 40
0.0
  0
LTYPE
  5
16
330
5
100
AcDbSymbolTableRecord
100
AcDbLinetypeTableRecord
  2
Continuous
 70
     0
  3
Solid line
 72
    65
 73
     0
 40
0.0
  0
LTYPE
  5
6E
330
5
100
AcDbSymbolTableRecord
100
AcDbLinetypeTableRecord
  2
HIDDEN
 70
     0
  3
Hidden __ __ __ __ __ __ __ __ __ __ __ __ __ __
 72
    65
 73
     2
 40
1.905
 49
1.27
 74
     0
 49
-0.635
 74
     0
  0
LTYPE
  5
6F
330
5
100
AcDbSymbolTableRecord
100
AcDbLinetypeTableRecord
  2
PHANTOM
 70
     0
  3
Phantom ______  __  __  ______  __  __  ______
 72
    65
 73
     6
 40
12.7
 49
6.35
 74
     0
 49
-1.27
 74
     0
 49
1.27
 74
     0
 49
-1.27
 74
     0
 49
1.27
 74
     0
 49
-1.27
 74
     0
  0
LTYPE
  5
70
330
5
100
AcDbSymbolTableRecord
100
AcDbLinetypeTableRecord
  2
CENTER
 70
     0
  3
Center ____ _ ____ _ ____ _ ____ _ ____ _ ____
 72
    65
 73
     4
 40
10.16
 49
6.35
 74
     0
 49
-1.27
 74
     0
 49
1.27
 74
     0
 49
-1.27
 74
     0
  0
LTYPE
  5
71
330
5
100
AcDbSymbolTableRecord
100
AcDbLinetypeTableRecord
  2
CENTERX2
 70
     0
  3
Center (2x) ________  __  ________  __  _____
 72
    65
 73
     4
 40
20.32
 49
12.7
 74
     0
 49
-2.54
 74
     0
 49
2.54
 74
     0
 49
-2.54
 74
     0
  0
LTYPE
  5
72
330
5
100
AcDbSymbolTableRecord
100
AcDbLinetypeTableRecord
  2
DOT2
 70
     0
  3
Dot (.5x) ........................................
 72
    65
 73
     2
 40
0.635
 49
0.0
 74
     0
 49
-0.635
 74
     0
  0
ENDTAB
  0
TABLE
  2
LAYER
  5
2
330
0
100
AcDbSymbolTable
 70
     1
  0
LAYER
  5
10
330
2
100
AcDbSymbolTableRecord
100
AcDbLayerTableRecord
  2
0
 70
     0
 62
     7
  6
Continuous
370
    -3
390
F
347
46
  0
ENDTAB
  0
TABLE
  2
STYLE
  5
3
330
0
100
AcDbSymbolTable
 70
     1
  0
STYLE
  5
11
330
3
100
AcDbSymbolTableRecord
100
AcDbTextStyleTableRecord
  2
Standard
 70
     0
 40
0.0
 41
1.0
 50
0.0
 71
     0
 42
3.5
  3
txt
  4

  0
ENDTAB
  0
TABLE
  2
VIEW
  5
6
330
0
100
AcDbSymbolTable
 70
     0
  0
ENDTAB
  0
TABLE
  2
UCS
  5
7
330
0
100
AcDbSymbolTable
 70
     0
  0
ENDTAB
  0
TABLE
  2
APPID
  5
9
330
0
100
AcDbSymbolTable
 70
     2
  0
APPID
  5
12
330
9
100
AcDbSymbolTableRecord
100
AcDbRegAppTableRecord
  2
ACAD
 70
     0
  0
APPID
  5
214
330
9
100
AcDbSymbolTableRecord
100
AcDbRegAppTableRecord
  2
ACAD_MLEADERVER
 70
     0
  0
ENDTAB
  0
TABLE
  2
DIMSTYLE
  5
A
330
0
100
AcDbSymbolTable
 70
     1
100
AcDbDimStyleTable
  0
DIMSTYLE
105
27
330
A
100
AcDbSymbolTableRecord
100
AcDbDimStyleTableRecord
  2
ISO-25
 70
     0
 41
2.5
 42
0.625
 43
3.75
 44
1.25
 73
     0
 74
     0
 77
     1
 78
     8
140
2.5
141
2.5
143
0.0393700787
147
0.625
171
     3
172
     1
178
     0
271
     2
272
     2
274
     3
278
    44
283
     0
284
     8
340
11
  0
ENDTAB
  0
TABLE
  2
BLOCK_RECORD
  5
1
330
0
100
AcDbSymbolTable
 70
     1
  0
BLOCK_RECORD
  5
1F
330
1
100
AcDbSymbolTableRecord
100
AcDbBlockTableRecord
  2
*Model_Space
340
22
 70
     0
280
     1
281
     0
  0
BLOCK_RECORD
  5
1B
330
1
100
AcDbSymbolTableRecord
100
AcDbBlockTableRecord
  2
*Paper_Space
340
1E
 70
     0
280
     1
281
     0
  0
BLOCK_RECORD
  5
23
330
1
100
AcDbSymbolTableRecord
100
AcDbBlockTableRecord
  2
*Paper_Space0
340
26
 70
     0
280
     1
281
     0
  0
ENDTAB
  0
ENDSEC
  0
SECTION
  2
BLOCKS
  0
BLOCK
  5
20
330
1F
100
AcDbEntity
  8
0
100
AcDbBlockBegin
  2
*Model_Space
 70
     0
 10
0.0
 20
0.0
 30
0.0
  3
*Model_Space
  1

  0
ENDBLK
  5
21
330
1F
100
AcDbEntity
  8
0
100
AcDbBlockEnd
  0
BLOCK
  5
1C
330
1B
100
AcDbEntity
 67
     1
  8
0
100
AcDbBlockBegin
  2
*Paper_Space
 70
     0
 10
0.0
 20
0.0
 30
0.0
  3
*Paper_Space
  1

  0
ENDBLK
  5
1D
330
1B
100
AcDbEntity
 67
     1
  8
0
100
AcDbBlockEnd
  0
BLOCK
  5
24
330
23
100
AcDbEntity
  8
0
100
AcDbBlockBegin
  2
*Paper_Space0
 70
     0
 10
0.0
 20
0.0
 30
0.0
  3
*Paper_Space0
  1

  0
ENDBLK
  5
25
330
23
100
AcDbEntity
  8
0
100
AcDbBlockEnd
  0
ENDSEC
  0
SECTION
  2
ENTITIES
  0
ARC
  5
73
330
1F
100
AcDbEntity
  8
0
  6
Continuous
 62
     7
370
    25
100
AcDbCircle
 10
234.0939861234
 20
-51.6642523753
 30
0.0
 40
1798.000000000001
100
AcDbArc
 50
180.171930024
 51
0.171930024
  0
LINE
  5
74
330
1F
100
AcDbEntity
  8
0
  6
Continuous
 62
     7
370
    25
100
AcDbLine
 10
-1563.8978857104
 20
-57.0595837953
 30
0.0
 11
-1523.8980430667
 21
-56.9395540106
 31
0.0
  0
ARC
  5
75
330
1F
100
AcDbEntity
  8
0
  6
Continuous
 62
     7
370
    25
100
AcDbCircle
 10
234.0939861234
 20
-51.6642523753
 30
0.0
 40
1758.0
100
AcDbArc
 50
180.171930024
 51
0.171930024
  0
LINE
  5
76
330
1F
100
AcDbEntity
  8
0
  6
Continuous
 62
     7
370
    25
100
AcDbLine
 10
1992.0860153134
 20
-46.38895074
 30
0.0
 11
2032.0858579572
 21
-46.2689209553
 31
0.0
  0
ARC
  5
77
330
1F
100
AcDbEntity
  8
0
  6
Continuous
 62
     7
370
    25
100
AcDbCircle
 10
234.0939861234
 20
-51.6642523753
 30
0.0
 40
1758.0
100
AcDbArc
 50
0.171930024
 51
180.171930024
  0
ARC
  5
78
330
1F
100
AcDbEntity
  8
0
  6
Continuous
 62
     7
370
    25
100
AcDbCircle
 10
234.0939861234
 20
-51.6642523753
 30
0.0
 40
1798.000000000001
100
AcDbArc
 50
0.171930024
 51
180.171930024
  0
CIRCLE
  5
79
330
1F
100
AcDbEntity
  8
0
  6
Continuous
 62
     7
370
    25
100
AcDbCircle
 10
234.0939861234
 20
-51.6642523753
 30
0.0
 40
3750.0
  0
LINE
  5
7A
330
1F
100
AcDbEntity
  8
0
  6
Continuous
 62
     7
370
    25
100
AcDbLine
 10
1749.6384006436
 20
823.3357476247
 30
0.0
 11
1749.1350990231
 21
824.2069887174
 31
0.0
  0
ARC
  5
7B
330
1F
100
AcDbEntity
  8
0
  6
Continuous
 62
     7
370
    25
100
AcDbCircle
 10
234.0939861234
 20
-51.6642523753
 30
0.0
 40
1750.0
100
AcDbArc
 50
34.0990060608
 51
55.9009939392
  0
LWPOLYLINE
  5
7C
330
1F
100
AcDbEntity
  8
0
  6
Continuous
 62
     7
370
    25
100
AcDbPolyline
 90
        3
 70
   128
 43
0.0
 10
1109.965227216
 20
1463.3768605245
 10
1109.0939861234
 20
1463.880162145
 10
1108.2224470075
 20
1464.3829869283
  0
ARC
  5
7D
330
1F
100
AcDbEntity
  8
0
  6
Continuous
 62
     7
370
    25
100
AcDbCircle
 10
234.0939861234
 20
-51.6642523753
 30
0.0
 40
1750.0
100
AcDbArc
 50
64.0990060608
 51
85.9009939392
  0
LWPOLYLINE
  5
7E
330
1F
100
AcDbEntity
  8
0
  6
Continuous
 62
     7
370
    25
100
AcDbPolyline
 90
        3
 70
   128
 43
0.0
 10
235.1001588605
 20
1698.3355092061
 10
234.0939861234
 20
1698.3357476247
 10
233.0878133862
 20
1698.3355092061
  0
ARC
  5
7F
330
1F
100
AcDbEntity
  8
0
  6
Continuous
 62
     7
370
    25
100
AcDbCircle
 10
234.0939861234
 20
-51.6642523753
 30
0.0
 40
1750.0
100
AcDbArc
 50
94.0990060608
 51
115.9009939392
  0
LINE
  5
80
330
1F
100
AcDbEntity
  8
0
  6
Continuous
 62
     7
370
    25
100
AcDbLine
 10
-640.0344747607
 20
1464.3829869283
 30
0.0
 11
-640.9060138766
 21
1463.880162145
 31
0.0
  0
LINE
  5
81
330
1F
100
AcDbEntity
  8
0
  6
Continuous
 62
     7
370
    25
100
AcDbLine
 10
-1281.4504283969
 20
-926.6642523753
 30
0.0
 11
-1280.9471267764
 21
-927.535493468
 31
0.0
  0
ARC
  5
82
330
1F
100
AcDbEntity
  8
0
  6
Continuous
 62
     7
370
    25
100
AcDbCircle
 10
234.0939861234
 20
-51.6642523753
 30
0.0
 40
1750.0
100
AcDbArc
 50
214.0990060608
 51
235.9009939392
  0
LWPOLYLINE
  5
83
330
1F
100
AcDbEntity
  8
0
  6
Continuous
 62
     7
370
    25
100
AcDbPolyline
 90
        3
 70
   128
 43
0.0
 10
-641.7772549693
 20
-1566.7053652751
 10
-640.9060138766
 20
-1567.2086668956
 10
-640.0344747607
 20
-1567.7114916789
  0
ARC
  5
84
330
1F
100
AcDbEntity
  8
0
  6
Continuous
 62
     7
370
    25
100
AcDbCircle
 10
234.0939861234
 20
-51.6642523753
 30
0.0
 40
1750.0
100
AcDbArc
 50
244.0990060608
 51
265.9009939392
  0
LWPOLYLINE
  5
85
330
1F
100
AcDbEntity
  8
0
  6
Continuous
 62
     7
370
    25
100
AcDbPolyline
 90
        3
 70
   128
 43
0.0
 10
233.0878133862
 20
-1801.6640139567
 10
234.0939861233
 20
-1801.6642523753
 10
235.1001588605
 20
-1801.6640139567
  0
ARC
  5
86
330
1F
100
AcDbEntity
  8
0
  6
Continuous
 62
     7
370
    25
100
AcDbCircle
 10
234.0939861234
 20
-51.6642523753
 30
0.0
 40
1750.0
100
AcDbArc
 50
274.0990060608
 51
295.9009939392
  0
LINE
  5
87
330
1F
100
AcDbEntity
  8
0
  6
Continuous
 62
     7
370
    25
100
AcDbLine
 10
1108.2224470075
 20
-1567.7114916789
 30
0.0
 11
1109.0939861234
 21
-1567.2086668956
 31
0.0
  0
LINE
  5
88
330
1F
100
AcDbEntity
  8
0
  6
Continuous
 62
     7
370
    25
100
AcDbLine
 10
-640.9060138766
 20
1463.880162145
 30
0.0
 11
-641.7772549693
 21
1463.3768605245
 31
0.0
  0
ARC
  5
89
330
1F
100
AcDbEntity
  8
0
  6
Continuous
 62
     7
370
    25
100
AcDbCircle
 10
234.0939861234
 20
-51.6642523753
 30
0.0
 40
1750.0
100
AcDbArc
 50
124.0990060608
 51
145.9009939392
  0
LWPOLYLINE
  5
8A
330
1F
100
AcDbEntity
  8
0
  6
Continuous
 62
     7
370
    25
100
AcDbPolyline
 90
        3
 70
   128
 43
0.0
 10
-1280.9471267764
 20
824.2069887174
 10
-1281.4504283969
 20
823.3357476247
 10
-1281.9532531802
 20
822.4642085088
  0
ARC
  5
8B
330
1F
100
AcDbEntity
  8
0
  6
Continuous
 62
     7
370
    25
100
AcDbCircle
 10
234.0939861234
 20
-51.6642523753
 30
0.0
 40
1750.0
100
AcDbArc
 50
154.0990060608
 51
175.9009939392
  0
LWPOLYLINE
  5
8C
330
1F
100
AcDbEntity
  8
0
  6
Continuous
 62
     7
370
    25
100
AcDbPolyline
 90
        3
 70
   128
 43
0.0
 10
-1515.9057754581
 20
-50.6580796382
 10
-1515.9060138766
 20
-51.6642523753
 10
-1515.9057754581
 20
-52.6704251124
  0
ARC
  5
8D
330
1F
100
AcDbEntity
  8
0
  6
Continuous
 62
     7
370
    25
100
AcDbCircle
 10
234.0939861234
 20
-51.6642523753
 30
0.0
 40
1750.0
100
AcDbArc
 50
184.0990060608
 51
205.9009939392
  0
LINE
  5
8E
330
1F
100
AcDbEntity
  8
0
  6
Continuous
 62
     7
370
    25
100
AcDbLine
 10
-1281.9532531802
 20
-925.7927132594
 30
0.0
 11
-1281.4504283969
 21
-926.6642523753
 31
0.0
  0
LINE
  5
8F
330
1F
100
AcDbEntity
  8
0
  6
Continuous
 62
     7
370
    25
100
AcDbLine
 10
-599.3033427303
 20
1391.8221997274
 30
0.0
 11
-640.9060138766
 21
1463.880162145
 31
0.0
  0
LINE
  5
90
330
1F
100
AcDbEntity
  8
0
  6
Continuous
 62
     7
370
    25
100
AcDbLine
 10
-1209.3924659793
 20
-885.0615812289
 30
0.0
 11
-1281.4504283969
 21
-926.6642523753
 31
0.0
  0
LINE
  5
91
330
1F
100
AcDbEntity
  8
0
  6
Continuous
 62
     7
370
    25
100
AcDbLine
 10
1749.6384006436
 20
823.3357476247
 30
0.0
 11
1677.580438226
 21
781.7330764783
 31
0.0
  0
LINE
  5
92
330
1F
100
AcDbEntity
  8
0
  6
Continuous
 62
     7
370
    25
100
AcDbLine
 10
1109.0939861234
 20
-1567.2086668956
 30
0.0
 11
1109.965227216
 21
-1566.7053652751
 31
0.0
  0
ARC
  5
93
330
1F
100
AcDbEntity
  8
0
  6
Continuous
 62
     7
370
    25
100
AcDbCircle
 10
234.0939861234
 20
-51.6642523753
 30
0.0
 40
1750.0
100
AcDbArc
 50
304.0990060608
 51
325.9009939392
  0
LWPOLYLINE
  5
94
330
1F
100
AcDbEntity
  8
0
  6
Continuous
 62
     7
370
    25
100
AcDbPolyline
 90
        3
 70
   128
 43
0.0
 10
1749.1350990231
 20
-927.535493468
 10
1749.6384006436
 20
-926.6642523753
 10
1750.1412254269
 20
-925.7927132594
  0
ARC
  5
95
330
1F
100
AcDbEntity
  8
0
  6
Continuous
 62
     7
370
    25
100
AcDbCircle
 10
234.0939861234
 20
-51.6642523753
 30
0.0
 40
1750.0
100
AcDbArc
 50
334.0990060608
 51
355.9009939392
  0
LWPOLYLINE
  5
96
330
1F
100
AcDbEntity
  8
0
  6
Continuous
 62
     7
370
    25
100
AcDbPolyline
 90
        3
 70
   128
 43
0.0
 10
1984.0937477048
 20
-52.6704251124
 10
1984.0939861234
 20
-51.6642523753
 10
1984.0937477048
 20
-50.6580796382
  0
ARC
  5
97
330
1F
100
AcDbEntity
  8
0
  6
Continuous
 62
     7
370
    25
100
AcDbCircle
 10
234.0939861234
 20
-51.6642523753
 30
0.0
 40
1750.0
100
AcDbArc
 50
4.0990060608
 51
25.9009939392
  0
LINE
  5
98
330
1F
100
AcDbEntity
  8
0
  6
Continuous
 62
     7
370
    25
100
AcDbLine
 10
1750.1412254269
 20
822.4642085088
 30
0.0
 11
1749.6384006436
 21
823.3357476247
 31
0.0
  0
LINE
  5
99
330
1F
100
AcDbEntity
  8
0
  6
Continuous
 62
     7
370
    25
100
AcDbLine
 10
1109.0939861234
 20
-1567.2086668956
 30
0.0
 11
1067.491314977
 21
-1495.150704478
 31
0.0
  0
CIRCLE
  5
9A
330
1F
100
AcDbEntity
  8
0
  6
Continuous
 62
     7
370
    25
100
AcDbCircle
 10
234.0939861234
 20
-51.6642523753
 30
0.0
 40
37.49999999999999
  0
CIRCLE
  5
9B
330
1F
100
AcDbEntity
  8
0
  6
Continuous
 62
     7
370
    25
100
AcDbCircle
 10
234.0939861234
 20
-51.6642523753
 30
0.0
 40
171.1613099710162
  0
CIRCLE
  5
9C
330
1F
100
AcDbEntity
  8
0
  6
Continuous
 62
     7
370
    25
100
AcDbCircle
 10
234.0939861234
 20
-51.6642523753
 30
0.0
 40
6.000000000000004
  0
LINE
  5
9D
330
1F
100
AcDbEntity
  8
0
  6
Continuous
 62
     7
370
    25
100
AcDbLine
 10
-1286.8657487933
 20
-927.1090222346
 30
0.0
 11
-1281.9073576038
 21
-925.7804347026
 31
0.0
  0
LINE
  5
9E
330
1F
100
AcDbEntity
  8
0
  6
Continuous
 62
     7
370
    25
100
AcDbLine
 10
-1286.8657487933
 20
-927.1090222346
 30
0.0
 11
84.7163569625
 21
-135.2257175194
 31
0.0
  0
LINE
  5
9F
330
1F
100
AcDbEntity
  8
0
  6
Continuous
 62
     7
370
    25
100
AcDbLine
 10
228.2984309341
 20
-53.2171666446
 30
0.0
 11
229.264356799
 21
-52.9583475609
 31
0.0
  0
LINE
  5
A0
330
1F
100
AcDbEntity
  8
0
  6
Continuous
 62
     7
370
    25
100
AcDbLine
 10
-1281.9073576038
 20
-925.7804347026
 30
0.0
 11
-1206.6032070224
 21
-882.3035551058
 31
0.0
  0
LINE
  5
A1
330
1F
100
AcDbEntity
  8
0
  6
Continuous
 62
     7
370
    25
100
AcDbLine
 10
-1203.8565057819
 20
-880.7177735316
 30
0.0
 11
-663.0228537624
 21
-568.4672785746
 31
0.0
  0
LINE
  5
A2
330
1F
100
AcDbEntity
  8
0
  6
Continuous
 62
     7
370
    25
100
AcDbLine
 10
228.4726874414
 20
-53.7621093272
 30
0.0
 11
229.3533362891
 21
-53.2536665732
 31
0.0
  0
LINE
  5
A3
330
1F
100
AcDbEntity
  8
0
  6
Continuous
 62
     7
370
    25
100
AcDbLine
 10
62.9484277661
 20
-53.9867152283
 30
0.0
 11
-1520.8181518619
 21
-53.9867152283
 31
0.0
  0
LINE
  5
A4
330
1F
100
AcDbEntity
  8
0
  6
Continuous
 62
     7
370
    25
100
AcDbLine
 10
-1520.8181518619
 20
-53.9867152283
 30
0.0
 11
-1515.8597606723
 21
-52.6581042968
 31
0.0
  0
LINE
  5
A5
330
1F
100
AcDbEntity
  8
0
  6
Continuous
 62
     7
370
    25
100
AcDbLine
 10
229.1937555629
 20
-52.6581042968
 30
0.0
 11
228.1768705207
 21
-52.6581042968
 31
0.0
  0
LINE
  5
A6
330
1F
100
AcDbEntity
  8
0
  6
Continuous
 62
     7
370
    25
100
AcDbLine
 10
-1429.2226213519
 20
-52.6581042968
 30
0.0
 11
-1515.8597606723
 21
-52.6581042968
 31
0.0
  0
ELLIPSE
  5
A7
330
1F
100
AcDbEntity
  8
0
  6
Continuous
 62
     7
370
    25
100
AcDbEllipse
 10
-69.654629428
 20
-133.0534486144
 30
0.0
 11
-452.9333289293997
 21
1690.370196005872
 31
0.0
210
0.0
220
0.0
230
1.0
 40
0.8170043765
 41
1.309571894871054
 42
1.83202075871874
  0
LWPOLYLINE
  5
A8
330
1F
100
AcDbEntity
  8
0
  6
Continuous
 62
     7
370
    25
100
AcDbPolyline
 90
      100
 70
   128
 43
0.0
 10
-1123.9095110004
 20
-425.5940807807
 10
-1123.4932321613
 20
-431.117732619
 10
-1122.7577108447
 20
-436.6191519248
 10
-1121.705927283
 20
-442.0761657702
 10
-1120.3420538013
 20
-447.466839646
 10
-1118.6716932361
 20
-452.7694178569
 10
-1116.7015213077
 20
-457.9625619399
 10
-1114.4394058292
 20
-463.0253804671
 10
-1111.8945259158
 20
-467.93748865
 10
-1109.0771335666
 20
-472.6790977465
 10
-1105.9985536639
 20
-477.231104468
 10
-1102.6710647647
 20
-481.5751803862
 10
-1099.1083759372
 20
-485.6938315379
 10
-1095.3245538776
 20
-489.5704878318
 10
-1091.3348573749
 20
-493.1895328509
 10
-1087.1554988925
 20
-496.536423062
 10
-1082.803167731
 20
-499.5976282107
 10
-1078.2955068652
 20
-502.3608399379
 10
-1073.6505168979
 20
-504.8149419772
 10
-1068.8870328967
 20
-506.95006976
 10
-1064.0242475574
 20
-508.7575806128
 10
-1059.0817112033
 20
-510.2302325713
 10
-1054.0792125766
 20
-511.3620949733
 10
-1049.0370172565
 20
-512.1485782611
 10
-1043.9753908221
 20
-512.5865531909
 10
-1038.9147180621
 20
-512.6742316233
 10
-1033.8753837649
 20
-512.4112857329
 10
-1028.8776535098
 20
-511.7987287986
 10
-1023.9416736667
 20
-510.8390940177
 10
-1019.0873521869
 20
-509.5361662852
 10
-1014.3341201846
 20
-507.8952504145
 10
-1009.7012895648
 20
-505.9229327189
 10
-1005.2073377673
 20
-503.6271704184
 10
-1000.8705038135
 20
-501.017202233
 10
-996.7081922595
 20
-498.1035185801
 10
-992.737092406
 20
-494.8978615748
 10
-988.9734167163
 20
-491.413165425
 10
-985.4320663516
 20
-487.6634074198
 10
-982.1273464267
 20
-483.6637271392
 10
-979.0727275912
 20
-479.4302476393
 10
-976.2803691928
 20
-474.9799562442
 10
-973.7614769046
 20
-470.330823754
 10
-971.5264219348
 20
-465.501536225
 10
-969.5839065616
 20
-460.5115545737
 10
-967.9419178073
 20
-455.3809953677
 10
-966.6071313922
 20
-450.1304818141
 10
-965.584792525
 20
-444.7811735617
 10
-964.8789543216
 20
-439.3545878875
 10
-964.4927162234
 20
-433.8725996958
 10
-964.4273895328
 20
-428.3572925078
 10
-964.6833318774
 20
-422.8308392512
 10
-965.2595895831
 20
-417.3155320632
 10
-966.1536592548
 20
-411.8335438716
 10
-967.3620838229
 20
-406.4069581973
 10
-968.8799757068
 20
-401.0576499449
 10
-970.7012552325
 20
-395.8071363913
 10
-972.818412215
 20
-390.6765771853
 10
-975.2231020038
 20
-385.686595534
 10
-977.9056686465
 20
-380.857308005
 10
-980.8551448886
 20
-376.2081755149
 10
-984.0597290103
 20
-371.757913922
 10
-987.5065464084
 20
-367.5244046199
 10
-991.1817688052
 20
-363.5247243392
 10
-995.0703758304
 20
-359.774966334
 10
-999.1569894855
 20
-356.2902701842
 10
-1003.42492047
 20
-353.0846131789
 10
-1007.8572410648
 20
-350.170929526
 10
-1012.4358314578
 20
-347.5609613406
 10
-1017.1423334186
 20
-345.2651990401
 10
-1021.9579118793
 20
-343.2928813445
 10
-1026.8631357257
 20
-341.6519654738
 10
-1031.8382162158
 20
-340.3490675437
 10
-1036.8630069797
 20
-339.3894029605
 10
-1041.9174808566
 20
-338.7768460261
 10
-1046.9812530582
 20
-338.5139001357
 10
-1052.0338195865
 20
-338.6015785681
 10
-1057.0547956531
 20
-339.039553498
 10
-1062.0241540973
 20
-339.8260367858
 10
-1066.9217485492
 20
-340.9578991877
 10
-1071.7280286853
 20
-342.4305511462
 10
-1076.4233249728
 20
-344.238061999
 10
-1080.9890407626
 20
-346.3731897818
 10
-1085.4066986148
 20
-348.8272918212
 10
-1089.6584171359
 20
-351.5905035483
 10
-1093.7271493976
 20
-354.6517384993
 10
-1097.5964445178
 20
-357.9985989081
 10
-1101.250805289
 20
-361.6176439273
 10
-1104.6755689685
 20
-365.4943002211
 10
-1107.8567880695
 20
-369.6129513728
 10
-1110.7818264072
 20
-373.9570570933
 10
-1113.4387630527
 20
-378.5090340125
 10
-1115.8168691699
 20
-383.250643109
 10
-1117.906727225
 20
-388.1627512919
 10
-1119.6998733585
 20
-393.2255698191
 10
-1121.1890358035
 20
-398.4187139022
 10
-1122.3682540958
 20
-403.721292113
 10
-1123.2327598636
 20
-409.1119659888
 10
-1123.7789768283
 20
-414.5689798342
 10
-1124.0049976413
 20
-420.07039914
 10
-1123.9095110004
 20
-425.5940807807
  0
ELLIPSE
  5
A9
330
1F
100
AcDbEntity
  8
0
  6
Continuous
 62
     7
370
    25
100
AcDbEllipse
 10
-769.5759776306
 20
-251.1423268847
 30
0.0
 11
-2.917662233992587
 21
118.2122335826349
 31
0.0
210
0.0
220
0.0
230
1.0
 40
0.5555890841
 41
0.0
 42
6.283185307179586
  0
ELLIPSE
  5
AA
330
1F
100
AcDbEntity
  8
0
  6
Continuous
 62
     7
370
    25
100
AcDbEllipse
 10
-398.4291662523
 20
-170.3464102334
 30
0.0
 11
67.10956908646875
 21
48.86783986668767
 31
0.0
210
0.0
220
0.0
230
1.0
 40
0.7432200988
 41
0.0
 42
6.283185307179586
  0
ELLIPSE
  5
AB
330
1F
100
AcDbEntity
  8
0
  6
Continuous
 62
     7
370
    25
100
AcDbEllipse
 10
-1265.7178487362
 20
-682.4942908345
 30
0.0
 11
-13.26867368123613
 21
50.06558247574651
 31
0.0
210
0.0
220
0.0
230
1.0
 40
0.9054539127
 41
0.0
 42
6.283185307179586
  0
ELLIPSE
  5
AC
330
1F
100
AcDbEntity
  8
0
  6
Continuous
 62
     7
370
    25
100
AcDbEllipse
 10
-1424.7163858707
 20
-201.0163932717
 30
0.0
 11
-17.61829434905189
 21
56.94355522518779
 31
0.0
210
0.0
220
0.0
230
1.0
 40
0.5549780406
 41
0.0
 42
6.283185307179586
  0
ELLIPSE
  5
AD
330
1F
100
AcDbEntity
  8
0
  6
Continuous
 62
     7
370
    25
100
AcDbEllipse
 10
-397.1895553576
 20
-170.0142574952
 30
0.0
 11
67.10956908646875
 21
48.86783986668769
 31
0.0
210
0.0
220
0.0
230
1.0
 40
0.7432200988
 41
3.053436898983284
 42
4.226209828293303
  0
ELLIPSE
  5
AE
330
1F
100
AcDbEntity
  8
0
  6
Continuous
 62
     7
370
    25
100
AcDbEllipse
 10
-397.1895553576
 20
-170.0142574952
 30
0.0
 11
67.10956908646875
 21
48.86783986668769
 31
0.0
210
0.0
220
0.0
230
1.0
 40
0.7432200988
 41
1.100864970549553
 42
3.05343689898331
  0
ELLIPSE
  5
AF
330
1F
100
AcDbEntity
  8
0
  6
Continuous
 62
     7
370
    25
100
AcDbEllipse
 10
-768.336366736
 20
-250.8101741466
 30
0.0
 11
-2.917662233992587
 21
118.2122335826349
 31
0.0
210
0.0
220
0.0
230
1.0
 40
0.5555890841
 41
3.097197717359599
 42
3.26548418099701
  0
ELLIPSE
  5
B0
330
1F
100
AcDbEntity
  8
0
  6
Continuous
 62
     7
370
    25
100
AcDbEllipse
 10
-768.336366736
 20
-250.8101741466
 30
0.0
 11
-2.917662233992587
 21
118.2122335826349
 31
0.0
210
0.0
220
0.0
230
1.0
 40
0.5555890841
 41
0.1430496969988999
 42
3.097197717359615
  0
LWPOLYLINE
  5
B1
330
1F
100
AcDbEntity
  8
0
  6
Continuous
 62
     7
370
    25
100
AcDbPolyline
 90
       30
 70
   128
 43
0.0
 10
-1122.6699728076
 20
-425.2619040953
 10
-1122.2536939685
 20
-430.785585736
 10
-1121.518172652
 20
-436.2870050418
 10
-1120.466269881
 20
-441.7440188872
 10
-1119.1025156085
 20
-447.1346629607
 10
-1117.432035834
 20
-452.4372709738
 10
-1115.4618639056
 20
-457.6304150569
 10
-1113.1997484271
 20
-462.6932335841
 10
-1110.6548685138
 20
-467.605341767
 10
-1107.8374761645
 20
-472.3469210612
 10
-1104.7588962619
 20
-476.8989277827
 10
-1101.431526572
 20
-481.2430037009
 10
-1097.8687185352
 20
-485.3616846549
 10
-1094.0848964755
 20
-489.2383409487
 10
-1090.0951999728
 20
-492.8573859679
 10
-1085.9158414905
 20
-496.2042463767
 10
-1081.5636295383
 20
-499.2654515254
 10
-1077.0558494632
 20
-502.0286930548
 10
-1072.4109787051
 20
-504.4827950942
 10
-1067.647494704
 20
-506.617922877
 10
-1062.7847093646
 20
-508.4254337298
 10
-1057.8420538013
 20
-509.8980856883
 10
-1052.8395551746
 20
-511.0299480902
 10
-1047.7973598544
 20
-511.8164313781
 10
-1042.7357334201
 20
-512.2544063079
 10
-1037.6750606601
 20
-512.3420847403
 10
-1032.6357263629
 20
-512.0791388499
 10
-1027.6379961078
 20
-511.4665819155
 10
-1022.7020162646
 20
-510.5069173323
 10
-1020.9130424564
 20
-510.0691808211
  0
LWPOLYLINE
  5
B2
330
1F
100
AcDbEntity
  8
0
  6
Continuous
 62
     7
370
    25
100
AcDbPolyline
 90
       22
 70
   128
 43
0.0
 10
-1066.2721771304
 20
-340.7868040549
 10
-1070.4883712833
 20
-342.0984042632
 10
-1075.1837867801
 20
-343.905915116
 10
-1079.7495025699
 20
-346.0410428988
 10
-1084.1670412128
 20
-348.4951449382
 10
-1088.4187597339
 20
-351.2583566653
 10
-1092.4874919955
 20
-354.319561814
 10
-1096.3569063251
 20
-357.6664520251
 10
-1100.0112670962
 20
-361.2854970442
 10
-1103.4359115665
 20
-365.1621533381
 10
-1106.6172498767
 20
-369.2808044898
 10
-1109.5421690051
 20
-373.624880408
 10
-1112.1991056506
 20
-378.1768871295
 10
-1114.5773309772
 20
-382.918496226
 10
-1116.6671890323
 20
-387.8305746066
 10
-1118.4603351657
 20
-392.8934229361
 10
-1119.9493784015
 20
-398.0865670191
 10
-1121.1285966937
 20
-403.38914523
 10
-1121.9931024615
 20
-408.7798191058
 10
-1122.5394386356
 20
-414.2368329512
 10
-1122.7653402393
 20
-419.738252257
 10
-1122.6699728076
 20
-425.2619040953
  0
ELLIPSE
  5
B3
330
1F
100
AcDbEntity
  8
0
  6
Continuous
 62
     7
370
    25
100
AcDbEllipse
 10
-1264.4782378416
 20
-682.1621380964
 30
0.0
 11
-13.26867368123613
 21
50.06558247574662
 31
0.0
210
0.0
220
0.0
230
1.0
 40
0.9054539127
 41
0.0161543628388516
 42
3.130381168147148
  0
ELLIPSE
  5
B4
330
1F
100
AcDbEntity
  8
0
  6
Continuous
 62
     7
370
    25
100
AcDbEllipse
 10
-1423.4767749761
 20
-200.6842405335
 30
0.0
 11
-17.61829434905189
 21
56.94355522518779
 31
0.0
210
0.0
220
0.0
230
1.0
 40
0.5549780406
 41
6.281334346738667
 42
9.38414973915704
  0
LINE
  5
B5
330
1F
100
AcDbEntity
  8
0
  6
Continuous
 62
     7
370
    25
100
AcDbLine
 10
84.7163569625
 20
31.8972127689
 30
0.0
 11
-1286.8657487933
 21
823.780517484
 31
0.0
  0
LINE
  5
B6
330
1F
100
AcDbEntity
  8
0
  6
Continuous
 62
     7
370
    25
100
AcDbLine
 10
-1520.8181518619
 20
-49.3417895222
 30
0.0
 11
62.9484277661
 21
-49.3417895222
 31
0.0
  0
ELLIPSE
  5
B7
330
1F
100
AcDbEntity
  8
0
  6
Continuous
 62
     7
370
    25
100
AcDbEllipse
 10
-69.654629428
 20
29.7249438638
 30
0.0
 11
452.9333289294249
 21
1690.370196005866
 31
0.0
210
0.0
220
0.0
230
1.0
 40
0.8170043765
 41
1.309571894871054
 42
1.83202075871874
  0
ELLIPSE
  5
B8
330
1F
100
AcDbEntity
  8
0
  6
Continuous
 62
     7
370
    25
100
AcDbEllipse
 10
-136.7727178895
 20
71.7589085009
 30
0.0
 11
2.068324677344037
 21
45.74716051994587
 31
0.0
210
0.0
220
0.0
230
1.0
 40
0.6702870638
 41
0.0
 42
6.283185307179586
  0
ELLIPSE
  5
B9
330
1F
100
AcDbEntity
  8
0
  6
Continuous
 62
     7
370
    25
100
AcDbEllipse
 10
-1306.0434123925
 20
104.3782623778
 30
0.0
 11
18.69001192969131
 21
48.86109157422278
 31
0.0
210
0.0
220
0.0
230
1.0
 40
0.3980279203
 41
0.0
 42
6.283185307179586
  0
ELLIPSE
  5
BA
330
1F
100
AcDbEntity
  8
0
  6
Continuous
 62
     7
370
    25
100
AcDbEllipse
 10
-1239.8196834955
 20
498.6737588536
 30
0.0
 11
2.125432746344131
 21
84.53586665586238
 31
0.0
210
0.0
220
0.0
230
1.0
 40
0.5591334672
 41
0.0
 42
6.283185307179586
  0
ELLIPSE
  5
BB
330
1F
100
AcDbEntity
  8
0
  6
Continuous
 62
     7
370
    25
100
AcDbEllipse
 10
-948.8559355402
 20
124.0836405399
 30
0.0
 11
-59.92353906967116
 21
107.4332789070344
 31
0.0
210
0.0
220
0.0
230
1.0
 40
0.9338642071
 41
0.0
 42
6.283185307179586
  0
ELLIPSE
  5
BC
330
1F
100
AcDbEntity
  8
0
  6
Continuous
 62
     7
370
    25
100
AcDbEllipse
 10
-727.8943931902
 20
378.7206023831
 30
0.0
 11
97.94007167547898
 21
-59.52348720152236
 31
0.0
210
0.0
220
0.0
230
1.0
 40
0.4588965678
 41
0.0
 42
6.283185307179586
  0
ELLIPSE
  5
BD
330
1F
100
AcDbEntity
  8
0
  6
Continuous
 62
     7
370
    25
100
AcDbEllipse
 10
-464.3503005393
 20
79.3816177183
 30
0.0
 11
18.24723762271947
 21
69.60137589258932
 31
0.0
210
0.0
220
0.0
230
1.0
 40
0.9023321251
 41
0.0
 42
6.283185307179586
  0
LINE
  5
BE
330
1F
100
AcDbEntity
  8
0
  6
Continuous
 62
     7
370
    25
100
AcDbLine
 10
-1520.8181518619
 20
-49.3417895222
 30
0.0
 11
-1515.8597606723
 21
-50.6704004538
 31
0.0
  0
LINE
  5
BF
330
1F
100
AcDbEntity
  8
0
  6
Continuous
 62
     7
370
    25
100
AcDbLine
 10
228.2984309341
 20
-50.111338106
 30
0.0
 11
229.264356799
 21
-50.3701571897
 31
0.0
  0
LINE
  5
C0
330
1F
100
AcDbEntity
  8
0
  6
Continuous
 62
     7
370
    25
100
AcDbLine
 10
-1515.8597606723
 20
-50.6704004538
 30
0.0
 11
-1429.2226213519
 21
-50.6704004538
 31
0.0
  0
LINE
  5
C1
330
1F
100
AcDbEntity
  8
0
  6
Continuous
 62
     7
370
    25
100
AcDbLine
 10
228.1768705207
 20
-50.6704004538
 30
0.0
 11
229.1937555629
 21
-50.6704004538
 31
0.0
  0
LINE
  5
C2
330
1F
100
AcDbEntity
  8
0
  6
Continuous
 62
     7
370
    25
100
AcDbLine
 10
-1286.8657487933
 20
823.780517484
 30
0.0
 11
-1281.9073576038
 21
822.451929952
 31
0.0
  0
LINE
  5
C3
330
1F
100
AcDbEntity
  8
0
  6
Continuous
 62
     7
370
    25
100
AcDbLine
 10
229.3533362891
 20
-50.0748381773
 30
0.0
 11
228.4726874414
 21
-49.5663954234
 31
0.0
  0
LINE
  5
C4
330
1F
100
AcDbEntity
  8
0
  6
Continuous
 62
     7
370
    25
100
AcDbLine
 10
-663.0228537624
 20
465.1387738241
 30
0.0
 11
-1203.8565057819
 21
777.389268781
 31
0.0
  0
LINE
  5
C5
330
1F
100
AcDbEntity
  8
0
  6
Continuous
 62
     7
370
    25
100
AcDbLine
 10
-1206.6032070224
 20
778.9750503553
 30
0.0
 11
-1281.9073576038
 21
822.451929952
 31
0.0
  0
ELLIPSE
  5
C6
330
1F
100
AcDbEntity
  8
0
  6
Continuous
 62
     7
370
    25
100
AcDbEllipse
 10
-135.5331069949
 20
71.4267557627
 30
0.0
 11
2.068324677344009
 21
45.74716051994587
 31
0.0
210
0.0
220
0.0
230
1.0
 40
0.6702870638
 41
6.157369207172271
 42
9.25768483678346
  0
ELLIPSE
  5
C7
330
1F
100
AcDbEntity
  8
0
  6
Continuous
 62
     7
370
    25
100
AcDbEllipse
 10
-463.1106896447
 20
79.0494649802
 30
0.0
 11
18.24723762271953
 21
69.60137589258933
 31
0.0
210
0.0
220
0.0
230
1.0
 40
0.9023321251
 41
0.0050089176349102
 42
3.126835112969494
  0
ELLIPSE
  5
C8
330
1F
100
AcDbEntity
  8
0
  6
Continuous
 62
     7
370
    25
100
AcDbEllipse
 10
-726.6547822956
 20
378.388449645
 30
0.0
 11
97.94007167547886
 21
-59.52348720152241
 31
0.0
210
0.0
220
0.0
230
1.0
 40
0.4588965678
 41
2.144195933854416
 42
5.273046346394966
  0
ELLIPSE
  5
C9
330
1F
100
AcDbEntity
  8
0
  6
Continuous
 62
     7
370
    25
100
AcDbEllipse
 10
-947.6163246455
 20
123.7514878017
 30
0.0
 11
-59.92353906967116
 21
107.4332789070344
 31
0.0
210
0.0
220
0.0
230
1.0
 40
0.9338642071
 41
0.4970216963511132
 42
2.399727188848551
  0
ELLIPSE
  5
CA
330
1F
100
AcDbEntity
  8
0
  6
Continuous
 62
     7
370
    25
100
AcDbEllipse
 10
-947.6163246455
 20
123.7514878017
 30
0.0
 11
-59.92353906967116
 21
107.4332789070344
 31
0.0
210
0.0
220
0.0
230
1.0
 40
0.9338642071
 41
5.552138909745195
 42
6.78020700353073
  0
ELLIPSE
  5
CB
330
1F
100
AcDbEntity
  8
0
  6
Continuous
 62
     7
370
    25
100
AcDbEllipse
 10
-1304.8038014979
 20
104.0461096397
 30
0.0
 11
18.69001192969131
 21
48.86109157422278
 31
0.0
210
0.0
220
0.0
230
1.0
 40
0.3980279203
 41
0.0720193362580007
 42
3.152247126596591
  0
ELLIPSE
  5
CC
330
1F
100
AcDbEntity
  8
0
  6
Continuous
 62
     7
370
    25
100
AcDbEllipse
 10
-1238.5800726008
 20
498.3416061154
 30
0.0
 11
2.125432746343904
 21
84.53586665586238
 31
0.0
210
0.0
220
0.0
230
1.0
 40
0.5591334672
 41
6.162453737598932
 42
9.277420959565982
  0
LINE
  5
CD
330
1F
100
AcDbEntity
  8
0
  6
Continuous
 62
     7
370
    25
100
AcDbLine
 10
229.851345669
 20
-47.421611921
 30
0.0
 11
230.5584523338
 21
-48.1287185857
 31
0.0
  0
LINE
  5
CE
330
1F
100
AcDbEntity
  8
0
  6
Continuous
 62
     7
370
    25
100
AcDbLine
 10
146.5099003609
 20
95.3909116042
 30
0.0
 11
-645.3734416072
 21
1466.9730471624
 31
0.0
  0
LINE
  5
CF
330
1F
100
AcDbEntity
  8
0
  6
Continuous
 62
     7
370
    25
100
AcDbLine
 10
-645.3734416072
 20
1466.9730471624
 30
0.0
 11
-641.743578345
 21
1463.3432435048
 31
0.0
  0
LINE
  5
D0
330
1F
100
AcDbEntity
  8
0
  6
Continuous
 62
     7
370
    25
100
AcDbLine
 10
230.7831699937
 20
-47.9174543461
 30
0.0
 11
230.2747272398
 21
-47.0368057313
 31
0.0
  0
LINE
  5
D1
330
1F
100
AcDbEntity
  8
0
  6
Continuous
 62
     7
370
    25
100
AcDbLine
 10
-598.4250086848
 20
1388.3131550802
 30
0.0
 11
-641.743578345
 21
1463.3432435048
 31
0.0
  0
LINE
  5
D2
330
1F
100
AcDbEntity
  8
0
  6
Continuous
 62
     7
370
    25
100
AcDbLine
 10
-1284.5433134143
 20
827.8031753553
 30
0.0
 11
87.0388221438
 21
35.9198333872
 31
0.0
  0
ELLIPSE
  5
D3
330
1F
100
AcDbEntity
  8
0
  6
Continuous
 62
     7
370
    25
100
AcDbEllipse
 10
11.734566811
 20
170.695166937
 30
0.0
 11
1237.436867076469
 21
1237.436867076447
 31
0.0
210
0.0
220
0.0
230
1.0
 40
0.8170043765
 41
1.309571894871054
 42
1.83202075871874
  0
ELLIPSE
  5
D4
330
1F
100
AcDbEntity
  8
0
  6
Continuous
 62
     7
370
    25
100
AcDbEllipse
 10
-509.6576571233
 20
1028.9482680062
 30
0.0
 11
67.73572393650352
 21
14.8109153989401
 31
0.0
210
0.0
220
0.0
230
1.0
 40
0.5874607266
 41
0.0
 42
6.283185307179586
  0
ELLIPSE
  5
D5
330
1F
100
AcDbEntity
  8
0
  6
Continuous
 62
     7
370
    25
100
AcDbEllipse
 10
-490.9607913869
 20
413.7416333712
 30
0.0
 11
-18.53480175768215
 21
23.44900398015255
 31
0.0
210
0.0
220
0.0
230
1.0
 40
0.5094523818
 41
0.0
 42
6.283185307179586
  0
ELLIPSE
  5
D6
330
1F
100
AcDbEntity
  8
0
  6
Continuous
 62
     7
370
    25
100
AcDbEllipse
 10
-90.268253073
 20
258.9140250047
 30
0.0
 11
3.986049451045687
 21
62.97986973510939
 31
0.0
210
0.0
220
0.0
230
1.0
 40
0.6192344616
 41
0.0
 42
6.283185307179586
  0
ELLIPSE
  5
D7
330
1F
100
AcDbEntity
  8
0
  6
Continuous
 62
     7
370
    25
100
AcDbEllipse
 10
-975.0853702792
 20
859.285799602
 30
0.0
 11
-6.5303322934094
 21
60.71603125198407
 31
0.0
210
0.0
220
0.0
230
1.0
 40
0.8544439112
 41
0.0
 42
6.283185307179586
  0
ELLIPSE
  5
D8
330
1F
100
AcDbEntity
  8
0
  6
Continuous
 62
     7
370
    25
100
AcDbEllipse
 10
-723.3664490513
 20
1175.7145397963
 30
0.0
 11
51.38838246216267
 21
65.50869791716173
 31
0.0
210
0.0
220
0.0
230
1.0
 40
0.7716413363
 41
0.0
 42
6.283185307179586
  0
ELLIPSE
  5
D9
330
1F
100
AcDbEntity
  8
0
  6
Continuous
 62
     7
370
    25
100
AcDbEllipse
 10
-577.8983970757
 20
757.3573630697
 30
0.0
 11
101.2347483877104
 21
114.5593219983507
 31
0.0
210
0.0
220
0.0
230
1.0
 40
0.8649051837
 41
0.0
 42
6.283185307179586
  0
ELLIPSE
  5
DA
330
1F
100
AcDbEntity
  8
0
  6
Continuous
 62
     7
370
    25
100
AcDbEllipse
 10
-274.2810448688
 20
509.1285092578
 30
0.0
 11
-26.16074851504885
 21
46.03802047147922
 31
0.0
210
0.0
220
0.0
230
1.0
 40
0.4786444953
 41
0.0
 42
6.283185307179586
  0
LINE
  5
DB
330
1F
100
AcDbEntity
  8
0
  6
Continuous
 62
     7
370
    25
100
AcDbLine
 10
-1284.5433134143
 20
827.8031753553
 30
0.0
 11
-1280.9135097568
 21
824.1733120931
 31
0.0
  0
LINE
  5
DC
330
1F
100
AcDbEntity
  8
0
  6
Continuous
 62
     7
370
    25
100
AcDbLine
 10
-1280.9135097568
 20
824.1733120931
 30
0.0
 11
-1205.6093591754
 21
780.6964324964
 31
0.0
  0
LINE
  5
DD
330
1F
100
AcDbEntity
  8
0
  6
Continuous
 62
     7
370
    25
100
AcDbLine
 10
-1202.8626579349
 20
779.1106509221
 30
0.0
 11
-662.0290059154
 21
466.8602155698
 31
0.0
  0
LINE
  5
DE
330
1F
100
AcDbEntity
  8
0
  6
Continuous
 62
     7
370
    25
100
AcDbLine
 10
229.4665394793
 20
-47.8449934917
 30
0.0
 11
230.3471880942
 21
-48.3534362456
 31
0.0
  0
ELLIPSE
  5
DF
330
1F
100
AcDbEntity
  8
0
  6
Continuous
 62
     7
370
    25
100
AcDbEllipse
 10
-89.3607949165
 20
258.0065668482
 30
0.0
 11
3.986049451045687
 21
62.97986973510939
 31
0.0
210
0.0
220
0.0
230
1.0
 40
0.6192344616
 41
0.10185452325332
 42
2.6281624321521
  0
ELLIPSE
  5
E0
330
1F
100
AcDbEntity
  8
0
  6
Continuous
 62
     7
370
    25
100
AcDbEllipse
 10
-89.3607949165
 20
258.0065668482
 30
0.0
 11
3.986049451045687
 21
62.97986973510939
 31
0.0
210
0.0
220
0.0
230
1.0
 40
0.6192344616
 41
5.797826759003817
 42
6.38503983043293
  0
ELLIPSE
  5
E1
330
1F
100
AcDbEntity
  8
0
  6
Continuous
 62
     7
370
    25
100
AcDbEllipse
 10
-273.3735867123
 20
508.2210511013
 30
0.0
 11
-26.16074851504886
 21
46.03802047147917
 31
0.0
210
0.0
220
0.0
230
1.0
 40
0.4786444953
 41
5.247847182842623
 42
8.362482705626196
  0
ELLIPSE
  5
E2
330
1F
100
AcDbEntity
  8
0
  6
Continuous
 62
     7
370
    25
100
AcDbEllipse
 10
-490.0533332304
 20
412.8341752147
 30
0.0
 11
-18.53480175768215
 21
23.44900398015261
 31
0.0
210
0.0
220
0.0
230
1.0
 40
0.5094523818
 41
0.0137125055181906
 42
1.774753702099741
  0
ELLIPSE
  5
E3
330
1F
100
AcDbEntity
  8
0
  6
Continuous
 62
     7
370
    25
100
AcDbEllipse
 10
-490.0533332304
 20
412.8341752147
 30
0.0
 11
-18.53480175768215
 21
23.44900398015261
 31
0.0
210
0.0
220
0.0
230
1.0
 40
0.5094523818
 41
4.960105640140623
 42
6.296897812697786
  0
ELLIPSE
  5
E4
330
1F
100
AcDbEntity
  8
0
  6
Continuous
 62
     7
370
    25
100
AcDbEllipse
 10
-576.9909389192
 20
756.4499049132
 30
0.0
 11
101.2347483877104
 21
114.5593219983507
 31
0.0
210
0.0
220
0.0
230
1.0
 40
0.8649051837
 41
6.234681447300765
 42
9.366573097964038
  0
ELLIPSE
  5
E5
330
1F
100
AcDbEntity
  8
0
  6
Continuous
 62
     7
370
    25
100
AcDbEllipse
 10
-508.7501989668
 20
1028.0408098497
 30
0.0
 11
67.73572393650352
 21
14.81091539894032
 31
0.0
210
0.0
220
0.0
230
1.0
 40
0.5874607266
 41
3.052685424548699
 42
3.487638035591036
  0
ELLIPSE
  5
E6
330
1F
100
AcDbEntity
  8
0
  6
Continuous
 62
     7
370
    25
100
AcDbEllipse
 10
-508.7501989668
 20
1028.0408098497
 30
0.0
 11
67.73572393650352
 21
14.81091539894032
 31
0.0
210
0.0
220
0.0
230
1.0
 40
0.5874607266
 41
0.3743887005109047
 42
3.052685424548716
  0
ELLIPSE
  5
E7
330
1F
100
AcDbEntity
  8
0
  6
Continuous
 62
     7
370
    25
100
AcDbEllipse
 10
-974.1779121227
 20
858.3783414455
 30
0.0
 11
-6.5303322934094
 21
60.71603125198407
 31
0.0
210
0.0
220
0.0
230
1.0
 40
0.8544439112
 41
5.479729931910133
 42
8.598829082045404
  0
ELLIPSE
  5
E8
330
1F
100
AcDbEntity
  8
0
  6
Continuous
 62
     7
370
    25
100
AcDbEllipse
 10
-722.4589908948
 20
1174.8070816398
 30
0.0
 11
51.38838246216255
 21
65.50869791716171
 31
0.0
210
0.0
220
0.0
230
1.0
 40
0.7716413363
 41
6.200203874951479
 42
9.321879154345911
  0
LINE
  5
E9
330
1F
100
AcDbEntity
  8
0
  6
Continuous
 62
     7
370
    25
100
AcDbLine
 10
-641.350783736
 20
1469.2954825414
 30
0.0
 11
-640.0221962039
 21
1464.3370913518
 31
0.0
  0
LINE
  5
EA
330
1F
100
AcDbEntity
  8
0
  6
Continuous
 62
     7
370
    25
100
AcDbLine
 10
-641.350783736
 20
1469.2954825414
 30
0.0
 11
150.5325209792
 21
97.7133767856
 31
0.0
  0
LINE
  5
EB
330
1F
100
AcDbEntity
  8
0
  6
Continuous
 62
     7
370
    25
100
AcDbLine
 10
232.5410718541
 20
-45.868697186
 30
0.0
 11
232.7998909378
 21
-46.8346230509
 31
0.0
  0
LINE
  5
EC
330
1F
100
AcDbEntity
  8
0
  6
Continuous
 62
     7
370
    25
100
AcDbLine
 10
-640.0221962039
 20
1464.3370913518
 30
0.0
 11
-596.7035669391
 21
1389.3070029271
 31
0.0
  0
LINE
  5
ED
330
1F
100
AcDbEntity
  8
0
  6
Continuous
 62
     7
370
    25
100
AcDbLine
 10
231.9961291715
 20
-46.0429536933
 30
0.0
 11
232.5045719254
 21
-46.923602541
 31
0.0
  0
LINE
  5
EE
330
1F
100
AcDbEntity
  8
0
  6
Continuous
 62
     7
370
    25
100
AcDbLine
 10
231.7715232703
 20
119.4813059819
 30
0.0
 11
231.7715232703
 21
1703.2478856099
 31
0.0
  0
LINE
  5
EF
330
1F
100
AcDbEntity
  8
0
  6
Continuous
 62
     7
370
    25
100
AcDbLine
 10
231.7715232703
 20
1703.2478856099
 30
0.0
 11
233.1001342018
 21
1698.2894944204
 31
0.0
  0
LINE
  5
F0
330
1F
100
AcDbEntity
  8
0
  6
Continuous
 62
     7
370
    25
100
AcDbLine
 10
233.1001342018
 20
-46.7640218148
 30
0.0
 11
233.1001342018
 21
-45.7471367726
 31
0.0
  0
LINE
  5
F1
330
1F
100
AcDbEntity
  8
0
  6
Continuous
 62
     7
370
    25
100
AcDbLine
 10
233.1001342018
 20
983.6631821645
 30
0.0
 11
233.1001342018
 21
1608.1641720784
 31
0.0
  0
LINE
  5
F2
330
1F
100
AcDbEntity
  8
0
  6
Continuous
 62
     7
370
    25
100
AcDbLine
 10
233.1001342018
 20
1611.3357352269
 30
0.0
 11
233.1001342018
 21
1698.2894944204
 31
0.0
  0
ELLIPSE
  5
F3
330
1F
100
AcDbEntity
  8
0
  6
Continuous
 62
     7
370
    25
100
AcDbEllipse
 10
152.7047898843
 20
252.0843631761
 30
0.0
 11
1690.370196005874
 21
452.9333289293939
 31
0.0
210
0.0
220
0.0
230
1.0
 40
0.8170043765
 41
1.309571894871054
 42
1.83202075871874
  0
ELLIPSE
  5
F4
330
1F
100
AcDbEntity
  8
0
  6
Continuous
 62
     7
370
    25
100
AcDbEllipse
 10
-544.5904053561
 20
1432.8563007402
 30
0.0
 11
45.76741284735266
 21
0.07140814614012925
 31
0.0
210
0.0
220
0.0
230
1.0
 40
0.9116052148
 41
0.0
 42
6.283185307179586
  0
ELLIPSE
  5
F5
330
1F
100
AcDbEntity
  8
0
  6
Continuous
 62
     7
370
    25
100
AcDbEllipse
 10
-137.4350156839
 20
1412.3924986505
 30
0.0
 11
158.2453634335034
 21
65.55866198917761
 31
0.0
210
0.0
220
0.0
230
1.0
 40
0.780820813
 41
0.0
 42
6.283185307179586
  0
ELLIPSE
  5
F6
330
1F
100
AcDbEntity
  8
0
  6
Continuous
 62
     7
370
    25
100
AcDbEllipse
 10
-249.958922559
 20
1111.5699687997
 30
0.0
 11
59.23709255931792
 21
4.909400672894891
 31
0.0
210
0.0
220
0.0
230
1.0
 40
0.662912999
 41
0.0
 42
6.283185307179586
  0
ELLIPSE
  5
F7
330
1F
100
AcDbEntity
  8
0
  6
Continuous
 62
     7
370
    25
100
AcDbEllipse
 10
92.6014396936
 20
1111.1645271202
 30
0.0
 11
101.8626787438494
 21
-36.4103671711473
 31
0.0
210
0.0
220
0.0
230
1.0
 40
0.7740592493
 41
0.0
 42
6.283185307179586
  0
ELLIPSE
  5
F8
330
1F
100
AcDbEntity
  8
0
  6
Continuous
 62
     7
370
    25
100
AcDbEllipse
 10
-57.4738094093
 20
780.7667758928
 30
0.0
 11
41.11768617292152
 21
112.2137724367485
 31
0.0
210
0.0
220
0.0
230
1.0
 40
0.4782768806
 41
0.0
 42
6.283185307179586
  0
ELLIPSE
  5
F9
330
1F
100
AcDbEntity
  8
0
  6
Continuous
 62
     7
370
    25
100
AcDbEllipse
 10
138.9954337637
 20
563.7010043791
 30
0.0
 11
25.70676476369488
 21
70.49988744048471
 31
0.0
210
0.0
220
0.0
230
1.0
 40
0.6278533016
 41
0.0
 42
6.283185307179586
  0
ELLIPSE
  5
FA
330
1F
100
AcDbEntity
  8
0
  6
Continuous
 62
     7
370
    25
100
AcDbEllipse
 10
115.7984367287
 20
297.8789002906
 30
0.0
 11
54.45985408001626
 21
10.00363693065725
 31
0.0
210
0.0
220
0.0
230
1.0
 40
0.9304737704
 41
0.0
 42
6.283185307179586
  0
ELLIPSE
  5
FB
330
1F
100
AcDbEntity
  8
0
  6
Continuous
 62
     7
370
    25
100
AcDbEllipse
 10
116.1305894668
 20
296.6392893959
 30
0.0
 11
54.45985408001623
 21
10.00363693065731
 31
0.0
210
0.0
220
0.0
230
1.0
 40
0.9304737704
 41
1.834804114707661
 42
3.20372929203164
  0
ELLIPSE
  5
FC
330
1F
100
AcDbEntity
  8
0
  6
Continuous
 62
     7
370
    25
100
AcDbEllipse
 10
116.1305894668
 20
296.6392893959
 30
0.0
 11
54.45985408001623
 21
10.00363693065731
 31
0.0
210
0.0
220
0.0
230
1.0
 40
0.9304737704
 41
0.0870354959105567
 42
1.834804114707679
  0
ELLIPSE
  5
FD
330
1F
100
AcDbEntity
  8
0
  6
Continuous
 62
     7
370
    25
100
AcDbEllipse
 10
139.3275865019
 20
562.4613934845
 30
0.0
 11
25.70676476369488
 21
70.49988744048483
 31
0.0
210
0.0
220
0.0
230
1.0
 40
0.6278533016
 41
0.089956847515535
 42
2.400747569808549
  0
ELLIPSE
  5
FE
330
1F
100
AcDbEntity
  8
0
  6
Continuous
 62
     7
370
    25
100
AcDbEllipse
 10
139.3275865019
 20
562.4613934845
 30
0.0
 11
25.70676476369488
 21
70.49988744048483
 31
0.0
210
0.0
220
0.0
230
1.0
 40
0.6278533016
 41
5.563331036336773
 42
6.373142154695138
  0
ELLIPSE
  5
FF
330
1F
100
AcDbEntity
  8
0
  6
Continuous
 62
     7
370
    25
100
AcDbEllipse
 10
-57.1416566711
 20
779.5271649982
 30
0.0
 11
41.11768617292152
 21
112.2137724367486
 31
0.0
210
0.0
220
0.0
230
1.0
 40
0.4782768806
 41
5.693878011076478
 42
8.819849649667773
  0
ELLIPSE
  5
100
330
1F
100
AcDbEntity
  8
0
  6
Continuous
 62
     7
370
    25
100
AcDbEllipse
 10
92.9335924318
 20
1109.9249162255
 30
0.0
 11
101.8626787438494
 21
-36.4103671711473
 31
0.0
210
0.0
220
0.0
230
1.0
 40
0.7740592493
 41
0.4986897727269702
 42
3.62598424532069
  0
ELLIPSE
  5
101
330
1F
100
AcDbEntity
  8
0
  6
Continuous
 62
     7
370
    25
100
AcDbEllipse
 10
-249.6267698209
 20
1110.3303579051
 30
0.0
 11
59.23709255931792
 21
4.909400672894891
 31
0.0
210
0.0
220
0.0
230
1.0
 40
0.662912999
 41
3.086707499869751
 42
3.244902941014594
  0
ELLIPSE
  5
102
330
1F
100
AcDbEntity
  8
0
  6
Continuous
 62
     7
370
    25
100
AcDbEllipse
 10
-249.6267698209
 20
1110.3303579051
 30
0.0
 11
59.23709255931792
 21
4.909400672894891
 31
0.0
210
0.0
220
0.0
230
1.0
 40
0.662912999
 41
0.1355897034183548
 42
3.086707499869768
  0
ELLIPSE
  5
103
330
1F
100
AcDbEntity
  8
0
  6
Continuous
 62
     7
370
    25
100
AcDbEllipse
 10
-137.1028629457
 20
1411.1528877558
 30
0.0
 11
158.2453634335034
 21
65.55866198917761
 31
0.0
210
0.0
220
0.0
230
1.0
 40
0.780820813
 41
6.185481991301828
 42
9.317511183156604
  0
ELLIPSE
  5
104
330
1F
100
AcDbEntity
  8
0
  6
Continuous
 62
     7
370
    25
100
AcDbEllipse
 10
-544.258252618
 20
1431.6166898456
 30
0.0
 11
45.76741284735266
 21
0.07140814614012925
 31
0.0
210
0.0
220
0.0
230
1.0
 40
0.9116052148
 41
2.405247849374545
 42
3.364432838428496
  0
ELLIPSE
  5
105
330
1F
100
AcDbEntity
  8
0
  6
Continuous
 62
     7
370
    25
100
AcDbEllipse
 10
-544.258252618
 20
1431.6166898456
 30
0.0
 11
45.76741284735266
 21
0.07140814614012925
 31
0.0
210
0.0
220
0.0
230
1.0
 40
0.9116052148
 41
0.2534282338160603
 42
2.405247849374554
  0
LINE
  5
106
330
1F
100
AcDbEntity
  8
0
  6
Continuous
 62
     7
370
    25
100
AcDbLine
 10
235.6469003926
 20
-45.868697186
 30
0.0
 11
235.3880813089
 21
-46.8346230509
 31
0.0
  0
LINE
  5
107
330
1F
100
AcDbEntity
  8
0
  6
Continuous
 62
     7
370
    25
100
AcDbLine
 10
317.6554512675
 20
97.7133767856
 30
0.0
 11
1109.5387559827
 21
1469.2954825414
 31
0.0
  0
LINE
  5
108
330
1F
100
AcDbEntity
  8
0
  6
Continuous
 62
     7
370
    25
100
AcDbLine
 10
1109.5387559827
 20
1469.2954825414
 30
0.0
 11
1108.2101684506
 21
1464.3370913518
 31
0.0
  0
LINE
  5
109
330
1F
100
AcDbEntity
  8
0
  6
Continuous
 62
     7
370
    25
100
AcDbLine
 10
235.6834003213
 20
-46.923602541
 30
0.0
 11
236.1918430752
 21
-46.0429536933
 31
0.0
  0
LINE
  5
10A
330
1F
100
AcDbEntity
  8
0
  6
Continuous
 62
     7
370
    25
100
AcDbLine
 10
1064.8915391858
 20
1389.3070029271
 30
0.0
 11
1108.2101684506
 21
1464.3370913518
 31
0.0
  0
LINE
  5
10B
330
1F
100
AcDbEntity
  8
0
  6
Continuous
 62
     7
370
    25
100
AcDbLine
 10
236.4164489764
 20
1703.2478856099
 30
0.0
 11
236.4164489764
 21
119.4813059819
 31
0.0
  0
ELLIPSE
  5
10C
330
1F
100
AcDbEntity
  8
0
  6
Continuous
 62
     7
370
    25
100
AcDbEllipse
 10
315.4831823624
 20
252.0843631761
 30
0.0
 11
1690.370196005865
 21
-452.9333289294308
 31
0.0
210
0.0
220
0.0
230
1.0
 40
0.8170043765
 41
1.309571894871054
 42
1.83202075871874
  0
ELLIPSE
  5
10D
330
1F
100
AcDbEntity
  8
0
  6
Continuous
 62
     7
370
    25
100
AcDbEllipse
 10
352.389535518
 20
297.8789002906
 30
0.0
 11
54.45985408001628
 21
-10.00363693065725
 31
0.0
210
0.0
220
0.0
230
1.0
 40
0.9304737704
 41
0.0
 42
6.283185307179586
  0
ELLIPSE
  5
10E
330
1F
100
AcDbEntity
  8
0
  6
Continuous
 62
     7
370
    25
100
AcDbEllipse
 10
1012.7783776028
 20
1432.8563007402
 30
0.0
 11
45.76741284735248
 21
-0.07140814614012923
 31
0.0
210
0.0
220
0.0
230
1.0
 40
0.9116052148
 41
0.0
 42
6.283185307179586
  0
ELLIPSE
  5
10F
330
1F
100
AcDbEntity
  8
0
  6
Continuous
 62
     7
370
    25
100
AcDbEllipse
 10
605.6229879306
 20
1412.3924986505
 30
0.0
 11
158.2453634335035
 21
-65.55866198917785
 31
0.0
210
0.0
220
0.0
230
1.0
 40
0.780820813
 41
0.0
 42
6.283185307179586
  0
ELLIPSE
  5
110
330
1F
100
AcDbEntity
  8
0
  6
Continuous
 62
     7
370
    25
100
AcDbEllipse
 10
718.1468948057
 20
1111.5699687997
 30
0.0
 11
59.23709255931783
 21
-4.90940067289489
 31
0.0
210
0.0
220
0.0
230
1.0
 40
0.662912999
 41
0.0
 42
6.283185307179586
  0
ELLIPSE
  5
111
330
1F
100
AcDbEntity
  8
0
  6
Continuous
 62
     7
370
    25
100
AcDbEllipse
 10
375.5865325531
 20
1111.1645271202
 30
0.0
 11
101.8626787438494
 21
36.41036717114753
 31
0.0
210
0.0
220
0.0
230
1.0
 40
0.7740592493
 41
0.0
 42
6.283185307179586
  0
ELLIPSE
  5
112
330
1F
100
AcDbEntity
  8
0
  6
Continuous
 62
     7
370
    25
100
AcDbEllipse
 10
525.661781656
 20
780.7667758928
 30
0.0
 11
-41.11768617292142
 21
112.2137724367485
 31
0.0
210
0.0
220
0.0
230
1.0
 40
0.4782768806
 41
0.0
 42
6.283185307179586
  0
ELLIPSE
  5
113
330
1F
100
AcDbEntity
  8
0
  6
Continuous
 62
     7
370
    25
100
AcDbEllipse
 10
329.192538483
 20
563.7010043791
 30
0.0
 11
-25.70676476369488
 21
70.49988744048471
 31
0.0
210
0.0
220
0.0
230
1.0
 40
0.6278533016
 41
0.0
 42
6.283185307179586
  0
LINE
  5
114
330
1F
100
AcDbEntity
  8
0
  6
Continuous
 62
     7
370
    25
100
AcDbLine
 10
236.4164489764
 20
1703.2478856099
 30
0.0
 11
235.0878380449
 21
1698.2894944204
 31
0.0
  0
LINE
  5
115
330
1F
100
AcDbEntity
  8
0
  6
Continuous
 62
     7
370
    25
100
AcDbLine
 10
235.0878380449
 20
1698.2894944204
 30
0.0
 11
235.0878380449
 21
1611.3357352269
 31
0.0
  0
LINE
  5
116
330
1F
100
AcDbEntity
  8
0
  6
Continuous
 62
     7
370
    25
100
AcDbLine
 10
235.0878380449
 20
1608.1641720784
 30
0.0
 11
235.0878380449
 21
983.6631821645
 31
0.0
  0
LINE
  5
117
330
1F
100
AcDbEntity
  8
0
  6
Continuous
 62
     7
370
    25
100
AcDbLine
 10
235.0878380449
 20
-45.7471367726
 30
0.0
 11
235.0878380449
 21
-46.7640218148
 31
0.0
  0
ELLIPSE
  5
118
330
1F
100
AcDbEntity
  8
0
  6
Continuous
 62
     7
370
    25
100
AcDbEllipse
 10
352.0573827799
 20
296.6392893959
 30
0.0
 11
54.45985408001627
 21
-10.00363693065736
 31
0.0
210
0.0
220
0.0
230
1.0
 40
0.9304737704
 41
6.221048668741119
 42
7.589973846061721
  0
ELLIPSE
  5
119
330
1F
100
AcDbEntity
  8
0
  6
Continuous
 62
     7
370
    25
100
AcDbEllipse
 10
352.0573827799
 20
296.6392893959
 30
0.0
 11
54.45985408001627
 21
-10.00363693065736
 31
0.0
210
0.0
220
0.0
230
1.0
 40
0.9304737704
 41
1.306788538882115
 42
3.054557157678386
  0
ELLIPSE
  5
11A
330
1F
100
AcDbEntity
  8
0
  6
Continuous
 62
     7
370
    25
100
AcDbEllipse
 10
328.8603857448
 20
562.4613934845
 30
0.0
 11
-25.70676476369488
 21
70.49988744048483
 31
0.0
210
0.0
220
0.0
230
1.0
 40
0.6278533016
 41
3.882437737580642
 42
6.193228459664073
  0
ELLIPSE
  5
11B
330
1F
100
AcDbEntity
  8
0
  6
Continuous
 62
     7
370
    25
100
AcDbEllipse
 10
328.8603857448
 20
562.4613934845
 30
0.0
 11
-25.70676476369488
 21
70.49988744048483
 31
0.0
210
0.0
220
0.0
230
1.0
 40
0.6278533016
 41
6.193228459664057
 42
7.003039578001339
  0
ELLIPSE
  5
11C
330
1F
100
AcDbEntity
  8
0
  6
Continuous
 62
     7
370
    25
100
AcDbEllipse
 10
525.3296289178
 20
779.5271649982
 30
0.0
 11
-41.11768617292148
 21
112.2137724367486
 31
0.0
210
0.0
220
0.0
230
1.0
 40
0.4782768806
 41
3.746520962530873
 42
6.872492606487127
  0
ELLIPSE
  5
11D
330
1F
100
AcDbEntity
  8
0
  6
Continuous
 62
     7
370
    25
100
AcDbEllipse
 10
375.2543798149
 20
1109.9249162255
 30
0.0
 11
101.8626787438494
 21
36.41036717114753
 31
0.0
210
0.0
220
0.0
230
1.0
 40
0.7740592493
 41
5.798793715547834
 42
8.926088188042963
  0
ELLIPSE
  5
11E
330
1F
100
AcDbEntity
  8
0
  6
Continuous
 62
     7
370
    25
100
AcDbEllipse
 10
717.8147420676
 20
1110.3303579051
 30
0.0
 11
59.23709255931795
 21
-4.909400672895117
 31
0.0
210
0.0
220
0.0
230
1.0
 40
0.662912999
 41
6.179875019754504
 42
6.338070460899633
  0
ELLIPSE
  5
11F
330
1F
100
AcDbEntity
  8
0
  6
Continuous
 62
     7
370
    25
100
AcDbEllipse
 10
717.8147420676
 20
1110.3303579051
 30
0.0
 11
59.23709255931795
 21
-4.909400672895117
 31
0.0
210
0.0
220
0.0
230
1.0
 40
0.662912999
 41
0.0548851537200304
 42
3.0060029501717
  0
ELLIPSE
  5
120
330
1F
100
AcDbEntity
  8
0
  6
Continuous
 62
     7
370
    25
100
AcDbEllipse
 10
605.2908351925
 20
1411.1528877558
 30
0.0
 11
158.2453634335035
 21
-65.55866198917785
 31
0.0
210
0.0
220
0.0
230
1.0
 40
0.780820813
 41
0.1072667776388596
 42
3.239295969579035
  0
ELLIPSE
  5
121
330
1F
100
AcDbEntity
  8
0
  6
Continuous
 62
     7
370
    25
100
AcDbEllipse
 10
1012.4462248647
 20
1431.6166898456
 30
0.0
 11
45.76741284735284
 21
-0.07140814614012925
 31
0.0
210
0.0
220
0.0
230
1.0
 40
0.9116052148
 41
6.060345122340913
 42
7.019530111394829
  0
ELLIPSE
  5
122
330
1F
100
AcDbEntity
  8
0
  6
Continuous
 62
     7
370
    25
100
AcDbEllipse
 10
1012.4462248647
 20
1431.6166898456
 30
0.0
 11
45.76741284735284
 21
-0.07140814614012925
 31
0.0
210
0.0
220
0.0
230
1.0
 40
0.9116052148
 41
0.7363448042152329
 42
2.888164419773732
  0
LINE
  5
123
330
1F
100
AcDbEntity
  8
0
  6
Continuous
 62
     7
370
    25
100
AcDbLine
 10
1113.5614138539
 20
1466.9730471624
 30
0.0
 11
1109.9315505917
 21
1463.3432435048
 31
0.0
  0
LINE
  5
124
330
1F
100
AcDbEntity
  8
0
  6
Continuous
 62
     7
370
    25
100
AcDbLine
 10
1113.5614138539
 20
1466.9730471624
 30
0.0
 11
321.6780718859
 21
95.3909116042
 31
0.0
  0
LINE
  5
125
330
1F
100
AcDbEntity
  8
0
  6
Continuous
 62
     7
370
    25
100
AcDbLine
 10
238.3366265777
 20
-47.421611921
 30
0.0
 11
237.6295199129
 21
-48.1287185857
 31
0.0
  0
LINE
  5
126
330
1F
100
AcDbEntity
  8
0
  6
Continuous
 62
     7
370
    25
100
AcDbLine
 10
1109.9315505917
 20
1463.3432435048
 30
0.0
 11
1066.6129809316
 21
1388.3131550802
 31
0.0
  0
LINE
  5
127
330
1F
100
AcDbEntity
  8
0
  6
Continuous
 62
     7
370
    25
100
AcDbLine
 10
237.913245007
 20
-47.0368057313
 30
0.0
 11
237.404802253
 21
-47.9174543461
 31
0.0
  0
LINE
  5
128
330
1F
100
AcDbEntity
  8
0
  6
Continuous
 62
     7
370
    25
100
AcDbLine
 10
381.1491501029
 20
35.9198333872
 30
0.0
 11
1752.731285661
 21
827.8031753553
 31
0.0
  0
LINE
  5
129
330
1F
100
AcDbEntity
  8
0
  6
Continuous
 62
     7
370
    25
100
AcDbLine
 10
1752.731285661
 20
827.8031753553
 30
0.0
 11
1749.1014820035
 21
824.1733120931
 31
0.0
  0
LINE
  5
12A
330
1F
100
AcDbEntity
  8
0
  6
Continuous
 62
     7
370
    25
100
AcDbLine
 10
237.8407841525
 20
-48.3534362456
 30
0.0
 11
238.7214327674
 21
-47.8449934917
 31
0.0
  0
LINE
  5
12B
330
1F
100
AcDbEntity
  8
0
  6
Continuous
 62
     7
370
    25
100
AcDbLine
 10
1130.2169781621
 20
466.8602155698
 30
0.0
 11
1671.0506301816
 21
779.1106509221
 31
0.0
  0
LINE
  5
12C
330
1F
100
AcDbEntity
  8
0
  6
Continuous
 62
     7
370
    25
100
AcDbLine
 10
1673.7973314221
 20
780.6964324964
 30
0.0
 11
1749.1014820035
 21
824.1733120931
 31
0.0
  0
ELLIPSE
  5
12D
330
1F
100
AcDbEntity
  8
0
  6
Continuous
 62
     7
370
    25
100
AcDbEllipse
 10
456.4534054357
 20
170.695166937
 30
0.0
 11
-1237.436867076443
 21
1237.436867076474
 31
0.0
210
0.0
220
0.0
230
1.0
 40
0.8170043765
 41
4.451164548460858
 42
4.973613412308545
  0
ELLIPSE
  5
12E
330
1F
100
AcDbEntity
  8
0
  6
Continuous
 62
     7
370
    25
100
AcDbEllipse
 10
742.4690171155
 20
509.1285092578
 30
0.0
 11
26.16074851504891
 21
46.03802047147923
 31
0.0
210
0.0
220
0.0
230
1.0
 40
0.4786444953
 41
0.0
 42
6.283185307179586
  0
ELLIPSE
  5
12F
330
1F
100
AcDbEntity
  8
0
  6
Continuous
 62
     7
370
    25
100
AcDbEllipse
 10
977.84562937
 20
1028.9482680062
 30
0.0
 11
67.73572393650329
 21
-14.81091539894021
 31
0.0
210
0.0
220
0.0
230
1.0
 40
0.5874607266
 41
0.0
 42
6.283185307179586
  0
ELLIPSE
  5
130
330
1F
100
AcDbEntity
  8
0
  6
Continuous
 62
     7
370
    25
100
AcDbEllipse
 10
959.1487636336
 20
413.7416333712
 30
0.0
 11
18.53480175768209
 21
23.44900398015255
 31
0.0
210
0.0
220
0.0
230
1.0
 40
0.5094523818
 41
0.0
 42
6.283185307179586
  0
ELLIPSE
  5
131
330
1F
100
AcDbEntity
  8
0
  6
Continuous
 62
     7
370
    25
100
AcDbEllipse
 10
558.4562253197
 20
258.9140250047
 30
0.0
 11
-3.986049451045574
 21
62.9798697351094
 31
0.0
210
0.0
220
0.0
230
1.0
 40
0.6192344616
 41
0.0
 42
6.283185307179586
  0
ELLIPSE
  5
132
330
1F
100
AcDbEntity
  8
0
  6
Continuous
 62
     7
370
    25
100
AcDbEllipse
 10
1443.2733425259
 20
859.285799602
 30
0.0
 11
6.5303322934094
 21
60.71603125198407
 31
0.0
210
0.0
220
0.0
230
1.0
 40
0.8544439112
 41
0.0
 42
6.283185307179586
  0
ELLIPSE
  5
133
330
1F
100
AcDbEntity
  8
0
  6
Continuous
 62
     7
370
    25
100
AcDbEllipse
 10
1191.554421298
 20
1175.7145397963
 30
0.0
 11
-51.38838246216255
 21
65.50869791716171
 31
0.0
210
0.0
220
0.0
230
1.0
 40
0.7716413363
 41
0.0
 42
6.283185307179586
  0
ELLIPSE
  5
134
330
1F
100
AcDbEntity
  8
0
  6
Continuous
 62
     7
370
    25
100
AcDbEllipse
 10
1046.0863693224
 20
757.3573630697
 30
0.0
 11
-101.2347483877105
 21
114.5593219983507
 31
0.0
210
0.0
220
0.0
230
1.0
 40
0.8649051837
 41
0.0
 42
6.283185307179586
  0
ELLIPSE
  5
135
330
1F
100
AcDbEntity
  8
0
  6
Continuous
 62
     7
370
    25
100
AcDbEllipse
 10
557.5487671632
 20
258.0065668482
 30
0.0
 11
-3.986049451045687
 21
62.97986973510939
 31
0.0
210
0.0
220
0.0
230
1.0
 40
0.6192344616
 41
3.655022875075983
 42
6.181330783926288
  0
ELLIPSE
  5
136
330
1F
100
AcDbEntity
  8
0
  6
Continuous
 62
     7
370
    25
100
AcDbEllipse
 10
557.5487671632
 20
258.0065668482
 30
0.0
 11
-3.986049451045687
 21
62.97986973510939
 31
0.0
210
0.0
220
0.0
230
1.0
 40
0.6192344616
 41
6.181330783926263
 42
6.768543855258096
  0
ELLIPSE
  5
137
330
1F
100
AcDbEntity
  8
0
  6
Continuous
 62
     7
370
    25
100
AcDbEllipse
 10
741.561558959
 20
508.2210511013
 30
0.0
 11
26.16074851504891
 21
46.03802047147917
 31
0.0
210
0.0
220
0.0
230
1.0
 40
0.4786444953
 41
4.203887908732989
 42
7.318523431516562
  0
ELLIPSE
  5
138
330
1F
100
AcDbEntity
  8
0
  6
Continuous
 62
     7
370
    25
100
AcDbEllipse
 10
958.2413054771
 20
412.8341752147
 30
0.0
 11
18.5348017576822
 21
23.44900398015261
 31
0.0
210
0.0
220
0.0
230
1.0
 40
0.5094523818
 41
4.508431605079855
 42
6.269472801661426
  0
ELLIPSE
  5
139
330
1F
100
AcDbEntity
  8
0
  6
Continuous
 62
     7
370
    25
100
AcDbEllipse
 10
958.2413054771
 20
412.8341752147
 30
0.0
 11
18.5348017576822
 21
23.44900398015261
 31
0.0
210
0.0
220
0.0
230
1.0
 40
0.5094523818
 41
6.269472801661415
 42
7.606264974218557
  0
ELLIPSE
  5
13A
330
1F
100
AcDbEntity
  8
0
  6
Continuous
 62
     7
370
    25
100
AcDbEllipse
 10
1045.1789111659
 20
756.4499049132
 30
0.0
 11
-101.2347483877102
 21
114.5593219983507
 31
0.0
210
0.0
220
0.0
230
1.0
 40
0.8649051837
 41
3.19979751639515
 42
6.331689167058423
  0
ELLIPSE
  5
13B
330
1F
100
AcDbEntity
  8
0
  6
Continuous
 62
     7
370
    25
100
AcDbEllipse
 10
976.9381712135
 20
1028.0408098497
 30
0.0
 11
67.73572393650363
 21
-14.8109153989401
 31
0.0
210
0.0
220
0.0
230
1.0
 40
0.5874607266
 41
5.937139924759103
 42
6.372092536220674
  0
ELLIPSE
  5
13C
330
1F
100
AcDbEntity
  8
0
  6
Continuous
 62
     7
370
    25
100
AcDbEllipse
 10
976.9381712135
 20
1028.0408098497
 30
0.0
 11
67.73572393650363
 21
-14.8109153989401
 31
0.0
210
0.0
220
0.0
230
1.0
 40
0.5874607266
 41
0.0889072290410714
 42
2.767203952776762
  0
ELLIPSE
  5
13D
330
1F
100
AcDbEntity
  8
0
  6
Continuous
 62
     7
370
    25
100
AcDbEllipse
 10
1442.3658843694
 20
858.3783414455
 30
0.0
 11
6.5303322934094
 21
60.71603125198407
 31
0.0
210
0.0
220
0.0
230
1.0
 40
0.8544439112
 41
3.967541532313787
 42
7.086640682449063
  0
ELLIPSE
  5
13E
330
1F
100
AcDbEntity
  8
0
  6
Continuous
 62
     7
370
    25
100
AcDbEllipse
 10
1190.6469631415
 20
1174.8070816398
 30
0.0
 11
-51.38838246216255
 21
65.50869791716171
 31
0.0
210
0.0
220
0.0
230
1.0
 40
0.7716413363
 41
3.244491460013276
 42
6.366166739407713
  0
LINE
  5
13F
330
1F
100
AcDbEntity
  8
0
  6
Continuous
 62
     7
370
    25
100
AcDbLine
 10
1755.05372104
 20
823.780517484
 30
0.0
 11
1750.0953298505
 21
822.451929952
 31
0.0
  0
LINE
  5
140
330
1F
100
AcDbEntity
  8
0
  6
Continuous
 62
     7
370
    25
100
AcDbLine
 10
1755.05372104
 20
823.780517484
 30
0.0
 11
383.4716152842
 21
31.8972127689
 31
0.0
  0
LINE
  5
141
330
1F
100
AcDbEntity
  8
0
  6
Continuous
 62
     7
370
    25
100
AcDbLine
 10
239.8895413126
 20
-50.111338106
 30
0.0
 11
238.9236154477
 21
-50.3701571897
 31
0.0
  0
LINE
  5
142
330
1F
100
AcDbEntity
  8
0
  6
Continuous
 62
     7
370
    25
100
AcDbLine
 10
1750.0953298505
 20
822.451929952
 30
0.0
 11
1674.7911792691
 21
778.9750503553
 31
0.0
  0
LINE
  5
143
330
1F
100
AcDbEntity
  8
0
  6
Continuous
 62
     7
370
    25
100
AcDbLine
 10
1672.0444780286
 20
777.389268781
 30
0.0
 11
1131.2108260091
 21
465.1387738241
 31
0.0
  0
LINE
  5
144
330
1F
100
AcDbEntity
  8
0
  6
Continuous
 62
     7
370
    25
100
AcDbLine
 10
239.7152848053
 20
-49.5663954234
 30
0.0
 11
238.8346359576
 21
-50.0748381773
 31
0.0
  0
LINE
  5
145
330
1F
100
AcDbEntity
  8
0
  6
Continuous
 62
     7
370
    25
100
AcDbLine
 10
405.2395444806
 20
-49.3417895222
 30
0.0
 11
1989.0061241086
 21
-49.3417895222
 31
0.0
  0
LINE
  5
146
330
1F
100
AcDbEntity
  8
0
  6
Continuous
 62
     7
370
    25
100
AcDbLine
 10
1989.0061241086
 20
-49.3417895222
 30
0.0
 11
1984.047732919
 21
-50.6704004538
 31
0.0
  0
LINE
  5
147
330
1F
100
AcDbEntity
  8
0
  6
Continuous
 62
     7
370
    25
100
AcDbLine
 10
238.9942166838
 20
-50.6704004538
 30
0.0
 11
240.011101726
 21
-50.6704004538
 31
0.0
  0
LINE
  5
148
330
1F
100
AcDbEntity
  8
0
  6
Continuous
 62
     7
370
    25
100
AcDbLine
 10
1897.4105935986
 20
-50.6704004538
 30
0.0
 11
1984.047732919
 21
-50.6704004538
 31
0.0
  0
ELLIPSE
  5
149
330
1F
100
AcDbEntity
  8
0
  6
Continuous
 62
     7
370
    25
100
AcDbEllipse
 10
537.8426016748
 20
29.7249438638
 30
0.0
 11
-452.9333289293997
 21
1690.370196005872
 31
0.0
210
0.0
220
0.0
230
1.0
 40
0.8170043765
 41
4.451164548460858
 42
4.973613412308545
  0
ELLIPSE
  5
14A
330
1F
100
AcDbEntity
  8
0
  6
Continuous
 62
     7
370
    25
100
AcDbEllipse
 10
932.538272786
 20
79.3816177183
 30
0.0
 11
-18.24723762271958
 21
69.60137589258932
 31
0.0
210
0.0
220
0.0
230
1.0
 40
0.9023321251
 41
0.0
 42
6.283185307179586
  0
ELLIPSE
  5
14B
330
1F
100
AcDbEntity
  8
0
  6
Continuous
 62
     7
370
    25
100
AcDbEllipse
 10
604.9606901362
 20
71.7589085009
 30
0.0
 11
-2.068324677343981
 21
45.74716051994587
 31
0.0
210
0.0
220
0.0
230
1.0
 40
0.6702870638
 41
0.0
 42
6.283185307179586
  0
ELLIPSE
  5
14C
330
1F
100
AcDbEntity
  8
0
  6
Continuous
 62
     7
370
    25
100
AcDbEllipse
 10
1774.2313846393
 20
104.3782623778
 30
0.0
 11
-18.69001192969131
 21
48.86109157422278
 31
0.0
210
0.0
220
0.0
230
1.0
 40
0.3980279203
 41
0.0
 42
6.283185307179586
  0
ELLIPSE
  5
14D
330
1F
100
AcDbEntity
  8
0
  6
Continuous
 62
     7
370
    25
100
AcDbEllipse
 10
1708.0076557422
 20
498.6737588536
 30
0.0
 11
-2.125432746344359
 21
84.53586665586238
 31
0.0
210
0.0
220
0.0
230
1.0
 40
0.5591334672
 41
0.0
 42
6.283185307179586
  0
ELLIPSE
  5
14E
330
1F
100
AcDbEntity
  8
0
  6
Continuous
 62
     7
370
    25
100
AcDbEllipse
 10
1417.0439077869
 20
124.0836405399
 30
0.0
 11
59.92353906967106
 21
107.4332789070345
 31
0.0
210
0.0
220
0.0
230
1.0
 40
0.9338642071
 41
0.0
 42
6.283185307179586
  0
ELLIPSE
  5
14F
330
1F
100
AcDbEntity
  8
0
  6
Continuous
 62
     7
370
    25
100
AcDbEllipse
 10
1196.0823654369
 20
378.7206023831
 30
0.0
 11
97.94007167547922
 21
59.52348720152241
 31
0.0
210
0.0
220
0.0
230
1.0
 40
0.4588965678
 41
0.0
 42
6.283185307179586
  0
ELLIPSE
  5
150
330
1F
100
AcDbEntity
  8
0
  6
Continuous
 62
     7
370
    25
100
AcDbEllipse
 10
603.7210792416
 20
71.4267557627
 30
0.0
 11
-2.068324677343981
 21
45.74716051994587
 31
0.0
210
0.0
220
0.0
230
1.0
 40
0.6702870638
 41
3.30868577758732
 42
6.409001407134321
  0
ELLIPSE
  5
151
330
1F
100
AcDbEntity
  8
0
  6
Continuous
 62
     7
370
    25
100
AcDbEllipse
 10
931.2986618914
 20
79.0494649802
 30
0.0
 11
-18.24723762271958
 21
69.60137589258933
 31
0.0
210
0.0
220
0.0
230
1.0
 40
0.9023321251
 41
3.156350194210106
 42
6.278176389544691
  0
ELLIPSE
  5
152
330
1F
100
AcDbEntity
  8
0
  6
Continuous
 62
     7
370
    25
100
AcDbEllipse
 10
1194.8427545423
 20
378.388449645
 30
0.0
 11
97.94007167547917
 21
59.52348720152234
 31
0.0
210
0.0
220
0.0
230
1.0
 40
0.4588965678
 41
4.151731614374445
 42
7.280582026914963
  0
ELLIPSE
  5
153
330
1F
100
AcDbEntity
  8
0
  6
Continuous
 62
     7
370
    25
100
AcDbEllipse
 10
1415.8042968923
 20
123.7514878017
 30
0.0
 11
59.92353906967106
 21
107.4332789070345
 31
0.0
210
0.0
220
0.0
230
1.0
 40
0.9338642071
 41
3.883458118331047
 42
5.786163610828486
  0
ELLIPSE
  5
154
330
1F
100
AcDbEntity
  8
0
  6
Continuous
 62
     7
370
    25
100
AcDbEllipse
 10
1415.8042968923
 20
123.7514878017
 30
0.0
 11
59.92353906967106
 21
107.4332789070345
 31
0.0
210
0.0
220
0.0
230
1.0
 40
0.9338642071
 41
5.786163610828455
 42
7.014231704613989
  0
ELLIPSE
  5
155
330
1F
100
AcDbEntity
  8
0
  6
Continuous
 62
     7
370
    25
100
AcDbEllipse
 10
1772.9917737446
 20
104.0461096397
 30
0.0
 11
-18.69001192969131
 21
48.86109157422278
 31
0.0
210
0.0
220
0.0
230
1.0
 40
0.3980279203
 41
3.130938180583021
 42
6.211165970921621
  0
ELLIPSE
  5
156
330
1F
100
AcDbEntity
  8
0
  6
Continuous
 62
     7
370
    25
100
AcDbEllipse
 10
1706.7680448475
 20
498.3416061154
 30
0.0
 11
-2.125432746344586
 21
84.53586665586238
 31
0.0
210
0.0
220
0.0
230
1.0
 40
0.5591334672
 41
3.288949654793202
 42
6.403916876760251
  0
LINE
  5
157
330
1F
100
AcDbEntity
  8
0
  6
Continuous
 62
     7
370
    25
100
AcDbLine
 10
1989.0061241086
 20
-53.9867152283
 30
0.0
 11
1984.047732919
 21
-52.6581042968
 31
0.0
  0
LINE
  5
158
330
1F
100
AcDbEntity
  8
0
  6
Continuous
 62
     7
370
    25
100
AcDbLine
 10
1989.0061241086
 20
-53.9867152283
 30
0.0
 11
405.2395444806
 21
-53.9867152283
 31
0.0
  0
LINE
  5
159
330
1F
100
AcDbEntity
  8
0
  6
Continuous
 62
     7
370
    25
100
AcDbLine
 10
239.8895413126
 20
-53.2171666446
 30
0.0
 11
238.9236154477
 21
-52.9583475609
 31
0.0
  0
LINE
  5
15A
330
1F
100
AcDbEntity
  8
0
  6
Continuous
 62
     7
370
    25
100
AcDbLine
 10
1984.047732919
 20
-52.6581042968
 30
0.0
 11
1897.4105935986
 21
-52.6581042968
 31
0.0
  0
LINE
  5
15B
330
1F
100
AcDbEntity
  8
0
  6
Continuous
 62
     7
370
    25
100
AcDbLine
 10
240.011101726
 20
-52.6581042968
 30
0.0
 11
238.9942166838
 21
-52.6581042968
 31
0.0
  0
LINE
  5
15C
330
1F
100
AcDbEntity
  8
0
  6
Continuous
 62
     7
370
    25
100
AcDbLine
 10
383.4716152842
 20
-135.2257175194
 30
0.0
 11
1755.05372104
 21
-927.1090222346
 31
0.0
  0
LINE
  5
15D
330
1F
100
AcDbEntity
  8
0
  6
Continuous
 62
     7
370
    25
100
AcDbLine
 10
1755.05372104
 20
-927.1090222346
 30
0.0
 11
1750.0953298505
 21
-925.7804347026
 31
0.0
  0
LINE
  5
15E
330
1F
100
AcDbEntity
  8
0
  6
Continuous
 62
     7
370
    25
100
AcDbLine
 10
238.8346359576
 20
-53.2536665732
 30
0.0
 11
239.7152848053
 21
-53.7621093272
 31
0.0
  0
LINE
  5
15F
330
1F
100
AcDbEntity
  8
0
  6
Continuous
 62
     7
370
    25
100
AcDbLine
 10
1131.2108260091
 20
-568.4672785746
 30
0.0
 11
1672.0444780286
 21
-880.7177735316
 31
0.0
  0
LINE
  5
160
330
1F
100
AcDbEntity
  8
0
  6
Continuous
 62
     7
370
    25
100
AcDbLine
 10
1674.7911792691
 20
-882.3035551058
 30
0.0
 11
1750.0953298505
 21
-925.7804347026
 31
0.0
  0
ELLIPSE
  5
161
330
1F
100
AcDbEntity
  8
0
  6
Continuous
 62
     7
370
    25
100
AcDbEllipse
 10
537.8426016748
 20
-133.0534486144
 30
0.0
 11
452.9333289294369
 21
1690.370196005863
 31
0.0
210
0.0
220
0.0
230
1.0
 40
0.8170043765
 41
4.451164548460858
 42
4.973613412308545
  0
ELLIPSE
  5
162
330
1F
100
AcDbEntity
  8
0
  6
Continuous
 62
     7
370
    25
100
AcDbEllipse
 10
1892.9043581175
 20
-201.0163932717
 30
0.0
 11
17.61829434905234
 21
56.94355522518779
 31
0.0
210
0.0
220
0.0
230
1.0
 40
0.5549780406
 41
0.0
 42
6.283185307179586
  0
LWPOLYLINE
  5
163
330
1F
100
AcDbEntity
  8
0
  6
Continuous
 62
     7
370
    25
100
AcDbPolyline
 90
      100
 70
   128
 43
0.0
 10
1592.0974832471
 20
-425.5940807807
 10
1591.681204408
 20
-431.117732619
 10
1590.9456830914
 20
-436.6191519248
 10
1589.8938995297
 20
-442.0761657702
 10
1588.530026048
 20
-447.466839646
 10
1586.8596654828
 20
-452.7694178569
 10
1584.8894935544
 20
-457.9625619399
 10
1582.6273780759
 20
-463.0253804671
 10
1580.0824981625
 20
-467.93748865
 10
1577.2651058133
 20
-472.6790977465
 10
1574.1865259106
 20
-477.231104468
 10
1570.8590370114
 20
-481.5751803862
 10
1567.2963481839
 20
-485.6938315379
 10
1563.5125261243
 20
-489.5704878318
 10
1559.5228296216
 20
-493.1895328509
 10
1555.3434711392
 20
-496.536423062
 10
1550.9911399777
 20
-499.5976282107
 10
1546.4834791119
 20
-502.3608399379
 10
1541.8384891446
 20
-504.8149419772
 10
1537.0750051434
 20
-506.95006976
 10
1532.2122198041
 20
-508.7575806128
 10
1527.26968345
 20
-510.2302325713
 10
1522.2671848233
 20
-511.3620949733
 10
1517.2249895032
 20
-512.1485782611
 10
1512.1633630689
 20
-512.5865531909
 10
1507.1026903088
 20
-512.6742316233
 10
1502.0633560117
 20
-512.4112857329
 10
1497.0656257565
 20
-511.7987287986
 10
1492.1296459134
 20
-510.8390940177
 10
1487.2753244336
 20
-509.5361662852
 10
1482.5220924313
 20
-507.8952504145
 10
1477.8892618115
 20
-505.9229327189
 10
1473.395310014
 20
-503.6271704184
 10
1469.0584760602
 20
-501.017202233
 10
1464.8961645062
 20
-498.1035185801
 10
1460.9250646527
 20
-494.8978615748
 10
1457.161388963
 20
-491.413165425
 10
1453.6200385983
 20
-487.6634074198
 10
1450.3153186734
 20
-483.6637271392
 10
1447.260699838
 20
-479.4302476393
 10
1444.4683414395
 20
-474.9799562442
 10
1441.9494491513
 20
-470.330823754
 10
1439.7143941815
 20
-465.501536225
 10
1437.7718788083
 20
-460.5115545737
 10
1436.129890054
 20
-455.3809953677
 10
1434.7951036389
 20
-450.1304818141
 10
1433.7727647717
 20
-444.7811735617
 10
1433.0669265683
 20
-439.3545878875
 10
1432.6806884702
 20
-433.8725996958
 10
1432.6153617795
 20
-428.3572925078
 10
1432.8713041241
 20
-422.8308392512
 10
1433.4475618298
 20
-417.3155320632
 10
1434.3416315015
 20
-411.8335438716
 10
1435.5500560696
 20
-406.4069581973
 10
1437.0679479535
 20
-401.0576499449
 10
1438.8892274793
 20
-395.8071363913
 10
1441.0063844617
 20
-390.6765771853
 10
1443.4110742505
 20
-385.686595534
 10
1446.0936408933
 20
-380.857308005
 10
1449.0431171353
 20
-376.2081755149
 10
1452.247701257
 20
-371.757913922
 10
1455.6945186551
 20
-367.5244046199
 10
1459.3697410519
 20
-363.5247243392
 10
1463.2583480771
 20
-359.774966334
 10
1467.3449617322
 20
-356.2902701842
 10
1471.6128927167
 20
-353.0846131789
 10
1476.0452133115
 20
-350.170929526
 10
1480.6238037045
 20
-347.5609613406
 10
1485.3303056653
 20
-345.2651990401
 10
1490.145884126
 20
-343.2928813445
 10
1495.0511079724
 20
-341.6519654738
 10
1500.0261884625
 20
-340.3490675437
 10
1505.0509792264
 20
-339.3894029605
 10
1510.1054531033
 20
-338.7768460261
 10
1515.1692253049
 20
-338.5139001357
 10
1520.2217918332
 20
-338.6015785681
 10
1525.2427678998
 20
-339.039553498
 10
1530.212126344
 20
-339.8260367858
 10
1535.1097207959
 20
-340.9578991877
 10
1539.916000932
 20
-342.4305511462
 10
1544.6112972195
 20
-344.238061999
 10
1549.1770130093
 20
-346.3731897818
 10
1553.5946708615
 20
-348.8272918212
 10
1557.8463893826
 20
-351.5905035483
 10
1561.9151216443
 20
-354.6517384993
 10
1565.7844167645
 20
-357.9985989081
 10
1569.4387775357
 20
-361.6176439273
 10
1572.8635412152
 20
-365.4943002211
 10
1576.0447603162
 20
-369.6129513728
 10
1578.9697986539
 20
-373.9570570933
 10
1581.6267352994
 20
-378.5090340125
 10
1584.0048414166
 20
-383.250643109
 10
1586.0946994717
 20
-388.1627512919
 10
1587.8878456052
 20
-393.2255698191
 10
1589.3770080502
 20
-398.4187139022
 10
1590.5562263425
 20
-403.721292113
 10
1591.4207321103
 20
-409.1119659888
 10
1591.966949075
 20
-414.5689798342
 10
1592.192969888
 20
-420.07039914
 10
1592.0974832471
 20
-425.5940807807
  0
ELLIPSE
  5
164
330
1F
100
AcDbEntity
  8
0
  6
Continuous
 62
     7
370
    25
100
AcDbEllipse
 10
1237.7639498773
 20
-251.1423268847
 30
0.0
 11
2.917662233992587
 21
118.2122335826349
 31
0.0
210
0.0
220
0.0
230
1.0
 40
0.5555890841
 41
0.0
 42
6.283185307179586
  0
ELLIPSE
  5
165
330
1F
100
AcDbEntity
  8
0
  6
Continuous
 62
     7
370
    25
100
AcDbEllipse
 10
866.617138499
 20
-170.3464102334
 30
0.0
 11
67.1095690864688
 21
-48.86783986668769
 31
0.0
210
0.0
220
0.0
230
1.0
 40
0.7432200988
 41
0.0
 42
6.283185307179586
  0
ELLIPSE
  5
166
330
1F
100
AcDbEntity
  8
0
  6
Continuous
 62
     7
370
    25
100
AcDbEllipse
 10
1733.9058209829
 20
-682.4942908345
 30
0.0
 11
13.26867368123613
 21
50.06558247574651
 31
0.0
210
0.0
220
0.0
230
1.0
 40
0.9054539127
 41
0.0
 42
6.283185307179586
  0
ELLIPSE
  5
167
330
1F
100
AcDbEntity
  8
0
  6
Continuous
 62
     7
370
    25
100
AcDbEllipse
 10
865.3775276044
 20
-170.0142574952
 30
0.0
 11
67.1095690864688
 21
-48.86783986668769
 31
0.0
210
0.0
220
0.0
230
1.0
 40
0.7432200988
 41
5.1985681324761
 42
6.371341061786094
  0
ELLIPSE
  5
168
330
1F
100
AcDbEntity
  8
0
  6
Continuous
 62
     7
370
    25
100
AcDbEllipse
 10
865.3775276044
 20
-170.0142574952
 30
0.0
 11
67.1095690864688
 21
-48.86783986668769
 31
0.0
210
0.0
220
0.0
230
1.0
 40
0.7432200988
 41
0.088155754606483
 42
2.04072768304024
  0
ELLIPSE
  5
169
330
1F
100
AcDbEntity
  8
0
  6
Continuous
 62
     7
370
    25
100
AcDbEllipse
 10
1236.5243389827
 20
-250.8101741466
 30
0.0
 11
2.917662233992587
 21
118.2122335826349
 31
0.0
210
0.0
220
0.0
230
1.0
 40
0.5555890841
 41
3.017701126182601
 42
3.185987589820012
  0
ELLIPSE
  5
16A
330
1F
100
AcDbEntity
  8
0
  6
Continuous
 62
     7
370
    25
100
AcDbEllipse
 10
1236.5243389827
 20
-250.8101741466
 30
0.0
 11
2.917662233992587
 21
118.2122335826349
 31
0.0
210
0.0
220
0.0
230
1.0
 40
0.5555890841
 41
3.185987589819999
 42
6.14013561018071
  0
LWPOLYLINE
  5
16B
330
1F
100
AcDbEntity
  8
0
  6
Continuous
 62
     7
370
    25
100
AcDbPolyline
 90
       30
 70
   128
 43
0.0
 10
1590.8579450543
 20
-425.2619040953
 10
1590.4416662152
 20
-430.785585736
 10
1589.7061448987
 20
-436.2870050418
 10
1588.6542421277
 20
-441.7440188872
 10
1587.2904878552
 20
-447.1346629607
 10
1585.6200080808
 20
-452.4372709738
 10
1583.6498361523
 20
-457.6304150569
 10
1581.3877206738
 20
-462.6932335841
 10
1578.8428407605
 20
-467.605341767
 10
1576.0254484113
 20
-472.3469210612
 10
1572.9468685086
 20
-476.8989277827
 10
1569.6194988187
 20
-481.2430037009
 10
1566.0566907819
 20
-485.3616846549
 10
1562.2728687222
 20
-489.2383409487
 10
1558.2831722195
 20
-492.8573859679
 10
1554.1038137372
 20
-496.2042463767
 10
1549.751601785
 20
-499.2654515254
 10
1545.2438217099
 20
-502.0286930548
 10
1540.5989509518
 20
-504.4827950942
 10
1535.8354669507
 20
-506.617922877
 10
1530.9726816113
 20
-508.4254337298
 10
1526.030026048
 20
-509.8980856883
 10
1521.0275274213
 20
-511.0299480902
 10
1515.9853321011
 20
-511.8164313781
 10
1510.9237056668
 20
-512.2544063079
 10
1505.8630329068
 20
-512.3420847403
 10
1500.8236986096
 20
-512.0791388499
 10
1495.8259683545
 20
-511.4665819155
 10
1490.8899885114
 20
-510.5069173323
 10
1489.1010147031
 20
-510.0691808211
  0
LWPOLYLINE
  5
16C
330
1F
100
AcDbEntity
  8
0
  6
Continuous
 62
     7
370
    25
100
AcDbPolyline
 90
       22
 70
   128
 43
0.0
 10
1534.4601493771
 20
-340.7868040549
 10
1538.67634353
 20
-342.0984042632
 10
1543.3717590268
 20
-343.905915116
 10
1547.9374748166
 20
-346.0410428988
 10
1552.3550134595
 20
-348.4951449382
 10
1556.6067319806
 20
-351.2583566653
 10
1560.6754642423
 20
-354.319561814
 10
1564.5448785718
 20
-357.6664520251
 10
1568.199239343
 20
-361.2854970442
 10
1571.6238838132
 20
-365.1621533381
 10
1574.8052221234
 20
-369.2808044898
 10
1577.7301412518
 20
-373.624880408
 10
1580.3870778973
 20
-378.1768871295
 10
1582.7653032239
 20
-382.918496226
 10
1584.855161279
 20
-387.8305746066
 10
1586.6483074124
 20
-392.8934229361
 10
1588.1373506482
 20
-398.0865670191
 10
1589.3165689404
 20
-403.38914523
 10
1590.1810747083
 20
-408.7798191058
 10
1590.7274108823
 20
-414.2368329512
 10
1590.953312486
 20
-419.738252257
 10
1590.8579450543
 20
-425.2619040953
  0
ELLIPSE
  5
16D
330
1F
100
AcDbEntity
  8
0
  6
Continuous
 62
     7
370
    25
100
AcDbEllipse
 10
1732.6662100883
 20
-682.1621380964
 30
0.0
 11
13.26867368123635
 21
50.06558247574662
 31
0.0
210
0.0
220
0.0
230
1.0
 40
0.9054539127
 41
3.152804139032459
 42
6.267030944340755
  0
ELLIPSE
  5
16E
330
1F
100
AcDbEntity
  8
0
  6
Continuous
 62
     7
370
    25
100
AcDbEllipse
 10
1891.6647472228
 20
-200.6842405335
 30
0.0
 11
17.61829434905234
 21
56.94355522518779
 31
0.0
210
0.0
220
0.0
230
1.0
 40
0.5549780406
 41
3.182220875202185
 42
6.285036267620542
  0
LINE
  5
16F
330
1F
100
AcDbEntity
  8
0
  6
Continuous
 62
     7
370
    25
100
AcDbLine
 10
1752.731285661
 20
-931.1316801058
 30
0.0
 11
1749.1014820035
 21
-927.5018168437
 31
0.0
  0
LINE
  5
170
330
1F
100
AcDbEntity
  8
0
  6
Continuous
 62
     7
370
    25
100
AcDbLine
 10
1752.731285661
 20
-931.1316801058
 30
0.0
 11
381.1491501029
 21
-139.2483381378
 31
0.0
  0
LINE
  5
171
330
1F
100
AcDbEntity
  8
0
  6
Continuous
 62
     7
370
    25
100
AcDbLine
 10
238.3366265777
 20
-55.9068928296
 30
0.0
 11
237.6295199129
 21
-55.1997861648
 31
0.0
  0
LINE
  5
172
330
1F
100
AcDbEntity
  8
0
  6
Continuous
 62
     7
370
    25
100
AcDbLine
 10
1749.1014820035
 20
-927.5018168437
 30
0.0
 11
1673.7973314221
 21
-884.024937247
 31
0.0
  0
LINE
  5
173
330
1F
100
AcDbEntity
  8
0
  6
Continuous
 62
     7
370
    25
100
AcDbLine
 10
1671.0506301816
 20
-882.4391556727
 30
0.0
 11
1130.2169781621
 21
-570.1887203204
 31
0.0
  0
LINE
  5
174
330
1F
100
AcDbEntity
  8
0
  6
Continuous
 62
     7
370
    25
100
AcDbLine
 10
238.7214327674
 20
-55.4835112589
 30
0.0
 11
237.8407841525
 21
-54.975068505
 31
0.0
  0
LINE
  5
175
330
1F
100
AcDbEntity
  8
0
  6
Continuous
 62
     7
370
    25
100
AcDbLine
 10
321.6780718859
 20
-198.7194163548
 30
0.0
 11
1113.5614138539
 21
-1570.3015519129
 31
0.0
  0
LINE
  5
176
330
1F
100
AcDbEntity
  8
0
  6
Continuous
 62
     7
370
    25
100
AcDbLine
 10
1113.5614138539
 20
-1570.3015519129
 30
0.0
 11
1109.9315505917
 21
-1566.6717482554
 31
0.0
  0
LINE
  5
177
330
1F
100
AcDbEntity
  8
0
  6
Continuous
 62
     7
370
    25
100
AcDbLine
 10
237.404802253
 20
-55.4110504045
 30
0.0
 11
237.913245007
 21
-56.2916990193
 31
0.0
  0
LINE
  5
178
330
1F
100
AcDbEntity
  8
0
  6
Continuous
 62
     7
370
    25
100
AcDbLine
 10
1066.6129809316
 20
-1491.6416598307
 30
0.0
 11
1109.9315505917
 21
-1566.6717482554
 31
0.0
  0
ELLIPSE
  5
179
330
1F
100
AcDbEntity
  8
0
  6
Continuous
 62
     7
370
    25
100
AcDbEllipse
 10
456.4534054357
 20
-274.0236716876
 30
0.0
 11
1237.436867076478
 21
1237.436867076438
 31
0.0
210
0.0
220
0.0
230
1.0
 40
0.8170043765
 41
4.451164548460858
 42
4.973613412308545
  0
ELLIPSE
  5
17A
330
1F
100
AcDbEntity
  8
0
  6
Continuous
 62
     7
370
    25
100
AcDbEllipse
 10
774.7356028205
 20
-758.888983116
 30
0.0
 11
34.58189801939295
 21
26.45519900589568
 31
0.0
210
0.0
220
0.0
230
1.0
 40
0.8286366207
 41
0.0
 42
6.283185307179586
  0
ELLIPSE
  5
17B
330
1F
100
AcDbEntity
  8
0
  6
Continuous
 62
     7
370
    25
100
AcDbEllipse
 10
737.1122247325
 20
-512.0623991158
 30
0.0
 11
87.79313794643258
 21
-27.90303644042399
 31
0.0
210
0.0
220
0.0
230
1.0
 40
0.5030075575
 41
0.0
 42
6.283185307179586
  0
ELLIPSE
  5
17C
330
1F
100
AcDbEntity
  8
0
  6
Continuous
 62
     7
370
    25
100
AcDbEllipse
 10
1542.6122755127
 20
-960.1252016066
 30
0.0
 11
-48.05215178126991
 21
90.27828802609748
 31
0.0
210
0.0
220
0.0
230
1.0
 40
0.7294169998
 41
0.0
 42
6.283185307179586
  0
ELLIPSE
  5
17D
330
1F
100
AcDbEntity
  8
0
  6
Continuous
 62
     7
370
    25
100
AcDbEllipse
 10
1114.5226529275
 20
-1003.239312072
 30
0.0
 11
105.9148823354206
 21
103.8947443195077
 31
0.0
210
0.0
220
0.0
230
1.0
 40
0.6839254498
 41
0.0
 42
6.283185307179586
  0
ELLIPSE
  5
17E
330
1F
100
AcDbEntity
  8
0
  6
Continuous
 62
     7
370
    25
100
AcDbEllipse
 10
1062.5520107116
 20
-748.2692163138
 30
0.0
 11
96.60304493780906
 21
46.82747275720659
 31
0.0
210
0.0
220
0.0
230
1.0
 40
0.4981490317
 41
0.0
 42
6.283185307179586
  0
ELLIPSE
  5
17F
330
1F
100
AcDbEntity
  8
0
  6
Continuous
 62
     7
370
    25
100
AcDbEllipse
 10
736.204766576
 20
-511.1549409593
 30
0.0
 11
87.79313794643247
 21
-27.90303644042399
 31
0.0
210
0.0
220
0.0
230
1.0
 40
0.5030075575
 41
3.92152242163725
 42
7.045362045743497
  0
ELLIPSE
  5
180
330
1F
100
AcDbEntity
  8
0
  6
Continuous
 62
     7
370
    25
100
AcDbEllipse
 10
773.828144664
 20
-757.9815249595
 30
0.0
 11
34.58189801939295
 21
26.45519900589568
 31
0.0
210
0.0
220
0.0
230
1.0
 40
0.8286366207
 41
3.269213203173904
 42
6.375331282005519
  0
ELLIPSE
  5
181
330
1F
100
AcDbEntity
  8
0
  6
Continuous
 62
     7
370
    25
100
AcDbEllipse
 10
1061.644552555
 20
-747.3617581573
 30
0.0
 11
96.60304493780905
 21
46.82747275720669
 31
0.0
210
0.0
220
0.0
230
1.0
 40
0.4981490317
 41
3.324280277023964
 42
6.442865207844251
  0
ELLIPSE
  5
182
330
1F
100
AcDbEntity
  8
0
  6
Continuous
 62
     7
370
    25
100
AcDbEllipse
 10
1113.615194771
 20
-1002.3318539155
 30
0.0
 11
105.914882335421
 21
103.8947443195077
 31
0.0
210
0.0
220
0.0
230
1.0
 40
0.6839254498
 41
3.154501287282947
 42
6.283446746326447
  0
ELLIPSE
  5
183
330
1F
100
AcDbEntity
  8
0
  6
Continuous
 62
     7
370
    25
100
AcDbEllipse
 10
1541.7048173562
 20
-959.2177434501
 30
0.0
 11
-48.05215178126991
 21
90.27828802609748
 31
0.0
210
0.0
220
0.0
230
1.0
 40
0.7294169998
 41
1.973647453619325
 42
5.102229599680909
  0
LINE
  5
184
330
1F
100
AcDbEntity
  8
0
  6
Continuous
 62
     7
370
    25
100
AcDbLine
 10
235.6469003926
 20
-57.4598075645
 30
0.0
 11
235.3880813089
 21
-56.4938816997
 31
0.0
  0
LINE
  5
185
330
1F
100
AcDbEntity
  8
0
  6
Continuous
 62
     7
370
    25
100
AcDbLine
 10
236.4164489764
 20
-222.8098107325
 30
0.0
 11
236.4164489764
 21
-1806.5763903605
 31
0.0
  0
LINE
  5
186
330
1F
100
AcDbEntity
  8
0
  6
Continuous
 62
     7
370
    25
100
AcDbLine
 10
236.4164489764
 20
-1806.5763903605
 30
0.0
 11
235.0878380449
 21
-1801.6179991709
 31
0.0
  0
LINE
  5
187
330
1F
100
AcDbEntity
  8
0
  6
Continuous
 62
     7
370
    25
100
AcDbLine
 10
235.0878380449
 20
-56.5644829357
 30
0.0
 11
235.0878380449
 21
-57.5813679779
 31
0.0
  0
LINE
  5
188
330
1F
100
AcDbEntity
  8
0
  6
Continuous
 62
     7
370
    25
100
AcDbLine
 10
235.0878380449
 20
-1086.9916869151
 30
0.0
 11
235.0878380449
 21
-1711.492676829
 31
0.0
  0
LINE
  5
189
330
1F
100
AcDbEntity
  8
0
  6
Continuous
 62
     7
370
    25
100
AcDbLine
 10
235.0878380449
 20
-1714.6642399775
 30
0.0
 11
235.0878380449
 21
-1801.6179991709
 31
0.0
  0
LINE
  5
18A
330
1F
100
AcDbEntity
  8
0
  6
Continuous
 62
     7
370
    25
100
AcDbLine
 10
1109.5387559827
 20
-1572.623987292
 30
0.0
 11
317.6554512675
 21
-201.0418815362
 31
0.0
  0
ELLIPSE
  5
18B
330
1F
100
AcDbEntity
  8
0
  6
Continuous
 62
     7
370
    25
100
AcDbEllipse
 10
315.4831823624
 20
-355.4128679267
 30
0.0
 11
1690.370196005877
 21
452.9333289293828
 31
0.0
210
0.0
220
0.0
230
1.0
 40
0.8170043765
 41
4.451164548460858
 42
4.973613412308545
  0
ELLIPSE
  5
18C
330
1F
100
AcDbEntity
  8
0
  6
Continuous
 62
     7
370
    25
100
AcDbEllipse
 10
340.7947261301
 20
-726.4899541429
 30
0.0
 11
41.14257236304155
 21
37.8073790772513
 31
0.0
210
0.0
220
0.0
230
1.0
 40
0.8698055472
 41
0.0
 42
6.283185307179586
  0
ELLIPSE
  5
18D
330
1F
100
AcDbEntity
  8
0
  6
Continuous
 62
     7
370
    25
100
AcDbEllipse
 10
340.7947261301
 20
-325.4819622752
 30
0.0
 11
-39.31243714860216
 21
48.99879603023226
 31
0.0
210
0.0
220
0.0
230
1.0
 40
0.4832500225
 41
0.0
 42
6.283185307179586
  0
ELLIPSE
  5
18E
330
1F
100
AcDbEntity
  8
0
  6
Continuous
 62
     7
370
    25
100
AcDbEllipse
 10
810.2941092751
 20
-1483.7748129701
 30
0.0
 11
128.7385715905139
 21
59.01212342632152
 31
0.0
210
0.0
220
0.0
230
1.0
 40
0.903041426
 41
0.0
 42
6.283185307179586
  0
ELLIPSE
  5
18F
330
1F
100
AcDbEntity
  8
0
  6
Continuous
 62
     7
370
    25
100
AcDbEllipse
 10
423.1034266367
 20
-1357.6196600456
 30
0.0
 11
-37.83816646658869
 21
107.6462754292268
 31
0.0
210
0.0
220
0.0
230
1.0
 40
0.7684424205
 41
0.0
 42
6.283185307179586
  0
ELLIPSE
  5
190
330
1F
100
AcDbEntity
  8
0
  6
Continuous
 62
     7
370
    25
100
AcDbEllipse
 10
588.3425309794
 20
-982.5455949196
 30
0.0
 11
101.8154632309811
 21
-25.88376584870412
 31
0.0
210
0.0
220
0.0
230
1.0
 40
0.6682963054
 41
0.0
 42
6.283185307179586
  0
LINE
  5
191
330
1F
100
AcDbEntity
  8
0
  6
Continuous
 62
     7
370
    25
100
AcDbLine
 10
1109.5387559827
 20
-1572.623987292
 30
0.0
 11
1108.2101684506
 21
-1567.6655961024
 31
0.0
  0
LINE
  5
192
330
1F
100
AcDbEntity
  8
0
  6
Continuous
 62
     7
370
    25
100
AcDbLine
 10
1108.2101684506
 20
-1567.6655961024
 30
0.0
 11
1064.8915391858
 21
-1492.6355076777
 31
0.0
  0
LINE
  5
193
330
1F
100
AcDbEntity
  8
0
  6
Continuous
 62
     7
370
    25
100
AcDbLine
 10
236.1918430752
 20
-57.2855510572
 30
0.0
 11
235.6834003213
 21
-56.4049022096
 31
0.0
  0
ELLIPSE
  5
194
330
1F
100
AcDbEntity
  8
0
  6
Continuous
 62
     7
370
    25
100
AcDbEllipse
 10
340.462573392
 20
-324.2423513806
 30
0.0
 11
-39.3124371486021
 21
48.99879603023221
 31
0.0
210
0.0
220
0.0
230
1.0
 40
0.4832500225
 41
0.8450626931244933
 42
3.961369293759825
  0
ELLIPSE
  5
195
330
1F
100
AcDbEntity
  8
0
  6
Continuous
 62
     7
370
    25
100
AcDbEllipse
 10
340.462573392
 20
-725.2503432483
 30
0.0
 11
41.14257236304161
 21
37.80737907725133
 31
0.0
210
0.0
220
0.0
230
1.0
 40
0.8698055472
 41
2.72797588315162
 42
5.843860502165639
  0
ELLIPSE
  5
196
330
1F
100
AcDbEntity
  8
0
  6
Continuous
 62
     7
370
    25
100
AcDbEllipse
 10
588.0103782413
 20
-981.305984025
 30
0.0
 11
101.8154632309811
 21
-25.88376584870412
 31
0.0
210
0.0
220
0.0
230
1.0
 40
0.6682963054
 41
3.508416132152771
 42
6.632980672564957
  0
ELLIPSE
  5
197
330
1F
100
AcDbEntity
  8
0
  6
Continuous
 62
     7
370
    25
100
AcDbEllipse
 10
422.7712738985
 20
-1356.380049151
 30
0.0
 11
-37.83816646658863
 21
107.646275429227
 31
0.0
210
0.0
220
0.0
230
1.0
 40
0.7684424205
 41
1.477382491758686
 42
4.607705276018072
  0
ELLIPSE
  5
198
330
1F
100
AcDbEntity
  8
0
  6
Continuous
 62
     7
370
    25
100
AcDbEllipse
 10
809.961956537
 20
-1482.5352020754
 30
0.0
 11
128.7385715905139
 21
59.0121234263213
 31
0.0
210
0.0
220
0.0
230
1.0
 40
0.903041426
 41
2.994616710724354
 42
6.126200384914245
  0
LINE
  5
199
330
1F
100
AcDbEntity
  8
0
  6
Continuous
 62
     7
370
    25
100
AcDbLine
 10
232.5410718541
 20
-57.4598075645
 30
0.0
 11
232.7998909378
 21
-56.4938816997
 31
0.0
  0
LINE
  5
19A
330
1F
100
AcDbEntity
  8
0
  6
Continuous
 62
     7
370
    25
100
AcDbLine
 10
150.5325209792
 20
-201.0418815362
 30
0.0
 11
-641.350783736
 21
-1572.623987292
 31
0.0
  0
LINE
  5
19B
330
1F
100
AcDbEntity
  8
0
  6
Continuous
 62
     7
370
    25
100
AcDbLine
 10
-641.350783736
 20
-1572.623987292
 30
0.0
 11
-640.0221962039
 21
-1567.6655961024
 31
0.0
  0
LINE
  5
19C
330
1F
100
AcDbEntity
  8
0
  6
Continuous
 62
     7
370
    25
100
AcDbLine
 10
232.5045719254
 20
-56.4049022096
 30
0.0
 11
231.9961291715
 21
-57.2855510572
 31
0.0
  0
LINE
  5
19D
330
1F
100
AcDbEntity
  8
0
  6
Continuous
 62
     7
370
    25
100
AcDbLine
 10
-596.7035669391
 20
-1492.6355076777
 30
0.0
 11
-640.0221962039
 21
-1567.6655961024
 31
0.0
  0
LINE
  5
19E
330
1F
100
AcDbEntity
  8
0
  6
Continuous
 62
     7
370
    25
100
AcDbLine
 10
231.7715232703
 20
-1806.5763903605
 30
0.0
 11
231.7715232703
 21
-222.8098107325
 31
0.0
  0
ELLIPSE
  5
19F
330
1F
100
AcDbEntity
  8
0
  6
Continuous
 62
     7
370
    25
100
AcDbEllipse
 10
152.7047898843
 20
-355.4128679267
 30
0.0
 11
1690.370196005862
 21
-452.9333289294427
 31
0.0
210
0.0
220
0.0
230
1.0
 40
0.8170043765
 41
4.451164548460858
 42
4.973613412308545
  0
ELLIPSE
  5
1A0
330
1F
100
AcDbEntity
  8
0
  6
Continuous
 62
     7
370
    25
100
AcDbEllipse
 10
127.3932461166
 20
-325.4819622752
 30
0.0
 11
39.31243714860213
 21
48.99879603023226
 31
0.0
210
0.0
220
0.0
230
1.0
 40
0.4832500225
 41
0.0
 42
6.283185307179586
  0
ELLIPSE
  5
1A1
330
1F
100
AcDbEntity
  8
0
  6
Continuous
 62
     7
370
    25
100
AcDbEllipse
 10
-342.1061370284
 20
-1483.7748129701
 30
0.0
 11
128.7385715905139
 21
-59.0121234263213
 31
0.0
210
0.0
220
0.0
230
1.0
 40
0.903041426
 41
0.0
 42
6.283185307179586
  0
ELLIPSE
  5
1A2
330
1F
100
AcDbEntity
  8
0
  6
Continuous
 62
     7
370
    25
100
AcDbEllipse
 10
45.08454561
 20
-1357.6196600456
 30
0.0
 11
37.83816646658864
 21
107.6462754292267
 31
0.0
210
0.0
220
0.0
230
1.0
 40
0.7684424205
 41
0.0
 42
6.283185307179586
  0
ELLIPSE
  5
1A3
330
1F
100
AcDbEntity
  8
0
  6
Continuous
 62
     7
370
    25
100
AcDbEllipse
 10
-120.1545587327
 20
-982.5455949196
 30
0.0
 11
101.8154632309811
 21
25.88376584870412
 31
0.0
210
0.0
220
0.0
230
1.0
 40
0.6682963054
 41
0.0
 42
6.283185307179586
  0
ELLIPSE
  5
1A4
330
1F
100
AcDbEntity
  8
0
  6
Continuous
 62
     7
370
    25
100
AcDbEllipse
 10
127.3932461166
 20
-726.4899541429
 30
0.0
 11
41.14257236304161
 21
-37.80737907725133
 31
0.0
210
0.0
220
0.0
230
1.0
 40
0.8698055472
 41
0.0
 42
6.283185307179586
  0
LINE
  5
1A5
330
1F
100
AcDbEntity
  8
0
  6
Continuous
 62
     7
370
    25
100
AcDbLine
 10
231.7715232703
 20
-1806.5763903605
 30
0.0
 11
233.1001342018
 21
-1801.6179991709
 31
0.0
  0
LINE
  5
1A6
330
1F
100
AcDbEntity
  8
0
  6
Continuous
 62
     7
370
    25
100
AcDbLine
 10
233.1001342018
 20
-1801.6179991709
 30
0.0
 11
233.1001342018
 21
-1714.6642399775
 31
0.0
  0
LINE
  5
1A7
330
1F
100
AcDbEntity
  8
0
  6
Continuous
 62
     7
370
    25
100
AcDbLine
 10
233.1001342018
 20
-1711.492676829
 30
0.0
 11
233.1001342018
 21
-1086.9916869151
 31
0.0
  0
LINE
  5
1A8
330
1F
100
AcDbEntity
  8
0
  6
Continuous
 62
     7
370
    25
100
AcDbLine
 10
233.1001342018
 20
-57.5813679779
 30
0.0
 11
233.1001342018
 21
-56.5644829357
 31
0.0
  0
ELLIPSE
  5
1A9
330
1F
100
AcDbEntity
  8
0
  6
Continuous
 62
     7
370
    25
100
AcDbEllipse
 10
127.7253988548
 20
-324.2423513806
 30
0.0
 11
39.31243714860212
 21
48.99879603023221
 31
0.0
210
0.0
220
0.0
230
1.0
 40
0.4832500225
 41
2.321816013238126
 42
5.438122614086472
  0
ELLIPSE
  5
1AA
330
1F
100
AcDbEntity
  8
0
  6
Continuous
 62
     7
370
    25
100
AcDbEllipse
 10
127.7253988548
 20
-725.2503432483
 30
0.0
 11
41.14257236304163
 21
-37.80737907725121
 31
0.0
210
0.0
220
0.0
230
1.0
 40
0.8698055472
 41
3.580917458603496
 42
6.696802077617853
  0
ELLIPSE
  5
1AB
330
1F
100
AcDbEntity
  8
0
  6
Continuous
 62
     7
370
    25
100
AcDbEllipse
 10
-119.8224059945
 20
-981.305984025
 30
0.0
 11
101.8154632309811
 21
25.88376584870412
 31
0.0
210
0.0
220
0.0
230
1.0
 40
0.6682963054
 41
2.791797288204639
 42
5.916361828616525
  0
ELLIPSE
  5
1AC
330
1F
100
AcDbEntity
  8
0
  6
Continuous
 62
     7
370
    25
100
AcDbEllipse
 10
45.4166983482
 20
-1356.380049151
 30
0.0
 11
37.83816646658863
 21
107.646275429227
 31
0.0
210
0.0
220
0.0
230
1.0
 40
0.7684424205
 41
1.675480031161525
 42
4.805802815420911
  0
ELLIPSE
  5
1AD
330
1F
100
AcDbEntity
  8
0
  6
Continuous
 62
     7
370
    25
100
AcDbEllipse
 10
-341.7739842903
 20
-1482.5352020754
 30
0.0
 11
128.7385715905138
 21
-59.01212342632153
 31
0.0
210
0.0
220
0.0
230
1.0
 40
0.903041426
 41
3.298577575855167
 42
6.430161250045027
  0
LINE
  5
1AE
330
1F
100
AcDbEntity
  8
0
  6
Continuous
 62
     7
370
    25
100
AcDbLine
 10
229.851345669
 20
-55.9068928296
 30
0.0
 11
230.5584523338
 21
-55.1997861648
 31
0.0
  0
LINE
  5
1AF
330
1F
100
AcDbEntity
  8
0
  6
Continuous
 62
     7
370
    25
100
AcDbLine
 10
87.0388221438
 20
-139.2483381378
 30
0.0
 11
-1284.5433134143
 21
-931.1316801058
 31
0.0
  0
LINE
  5
1B0
330
1F
100
AcDbEntity
  8
0
  6
Continuous
 62
     7
370
    25
100
AcDbLine
 10
-1284.5433134143
 20
-931.1316801058
 30
0.0
 11
-1280.9135097568
 21
-927.5018168437
 31
0.0
  0
LINE
  5
1B1
330
1F
100
AcDbEntity
  8
0
  6
Continuous
 62
     7
370
    25
100
AcDbLine
 10
230.3471880942
 20
-54.975068505
 30
0.0
 11
229.4665394793
 21
-55.4835112589
 31
0.0
  0
LINE
  5
1B2
330
1F
100
AcDbEntity
  8
0
  6
Continuous
 62
     7
370
    25
100
AcDbLine
 10
-662.0290059154
 20
-570.1887203204
 30
0.0
 11
-1202.8626579349
 21
-882.4391556727
 31
0.0
  0
LINE
  5
1B3
330
1F
100
AcDbEntity
  8
0
  6
Continuous
 62
     7
370
    25
100
AcDbLine
 10
-1205.6093591754
 20
-884.024937247
 30
0.0
 11
-1280.9135097568
 21
-927.5018168437
 31
0.0
  0
LINE
  5
1B4
330
1F
100
AcDbEntity
  8
0
  6
Continuous
 62
     7
370
    25
100
AcDbLine
 10
-645.3734416072
 20
-1570.3015519129
 30
0.0
 11
-641.743578345
 21
-1566.6717482554
 31
0.0
  0
LINE
  5
1B5
330
1F
100
AcDbEntity
  8
0
  6
Continuous
 62
     7
370
    25
100
AcDbLine
 10
-645.3734416072
 20
-1570.3015519129
 30
0.0
 11
146.5099003609
 21
-198.7194163548
 31
0.0
  0
LINE
  5
1B6
330
1F
100
AcDbEntity
  8
0
  6
Continuous
 62
     7
370
    25
100
AcDbLine
 10
-641.743578345
 20
-1566.6717482554
 30
0.0
 11
-598.4250086848
 21
-1491.6416598307
 31
0.0
  0
LINE
  5
1B7
330
1F
100
AcDbEntity
  8
0
  6
Continuous
 62
     7
370
    25
100
AcDbLine
 10
230.2747272398
 20
-56.2916990193
 30
0.0
 11
230.7831699937
 21
-55.4110504045
 31
0.0
  0
ELLIPSE
  5
1B8
330
1F
100
AcDbEntity
  8
0
  6
Continuous
 62
     7
370
    25
100
AcDbEllipse
 10
11.734566811
 20
-274.0236716876
 30
0.0
 11
-1237.436867076435
 21
1237.436867076482
 31
0.0
210
0.0
220
0.0
230
1.0
 40
0.8170043765
 41
1.309571894871053
 42
1.83202075871874
  0
ELLIPSE
  5
1B9
330
1F
100
AcDbEntity
  8
0
  6
Continuous
 62
     7
370
    25
100
AcDbEllipse
 10
-268.9242524858
 20
-512.0623991158
 30
0.0
 11
87.79313794643252
 21
27.90303644042416
 31
0.0
210
0.0
220
0.0
230
1.0
 40
0.5030075575
 41
0.0
 42
6.283185307179586
  0
ELLIPSE
  5
1BA
330
1F
100
AcDbEntity
  8
0
  6
Continuous
 62
     7
370
    25
100
AcDbEllipse
 10
-1074.424303266
 20
-960.1252016066
 30
0.0
 11
48.05215178126991
 21
90.27828802609748
 31
0.0
210
0.0
220
0.0
230
1.0
 40
0.7294169998
 41
0.0
 42
6.283185307179586
  0
ELLIPSE
  5
1BB
330
1F
100
AcDbEntity
  8
0
  6
Continuous
 62
     7
370
    25
100
AcDbEllipse
 10
-646.3346806808
 20
-1003.239312072
 30
0.0
 11
105.9148823354208
 21
-103.8947443195077
 31
0.0
210
0.0
220
0.0
230
1.0
 40
0.6839254498
 41
0.0
 42
6.283185307179586
  0
ELLIPSE
  5
1BC
330
1F
100
AcDbEntity
  8
0
  6
Continuous
 62
     7
370
    25
100
AcDbEllipse
 10
-594.3640384648
 20
-748.2692163138
 30
0.0
 11
96.60304493780905
 21
-46.82747275720669
 31
0.0
210
0.0
220
0.0
230
1.0
 40
0.4981490317
 41
0.0
 42
6.283185307179586
  0
ELLIPSE
  5
1BD
330
1F
100
AcDbEntity
  8
0
  6
Continuous
 62
     7
370
    25
100
AcDbEllipse
 10
-306.5476305738
 20
-758.888983116
 30
0.0
 11
34.5818980193929
 21
-26.45519900589557
 31
0.0
210
0.0
220
0.0
230
1.0
 40
0.8286366207
 41
0.0
 42
6.283185307179586
  0
ELLIPSE
  5
1BE
330
1F
100
AcDbEntity
  8
0
  6
Continuous
 62
     7
370
    25
100
AcDbEllipse
 10
-268.0167943293
 20
-511.1549409593
 30
0.0
 11
87.79313794643249
 21
27.90303644042422
 31
0.0
210
0.0
220
0.0
230
1.0
 40
0.5030075575
 41
2.37941591502588
 42
5.503255539132163
  0
ELLIPSE
  5
1BF
330
1F
100
AcDbEntity
  8
0
  6
Continuous
 62
     7
370
    25
100
AcDbEllipse
 10
-305.6401724173
 20
-757.9815249595
 30
0.0
 11
34.5818980193929
 21
-26.45519900589568
 31
0.0
210
0.0
220
0.0
230
1.0
 40
0.8286366207
 41
3.049446678763861
 42
6.155564755959695
  0
ELLIPSE
  5
1C0
330
1F
100
AcDbEntity
  8
0
  6
Continuous
 62
     7
370
    25
100
AcDbEllipse
 10
-593.4565803083
 20
-747.3617581573
 30
0.0
 11
96.60304493780899
 21
-46.82747275720692
 31
0.0
210
0.0
220
0.0
230
1.0
 40
0.4981490317
 41
2.981912752925134
 42
6.100497683745473
  0
ELLIPSE
  5
1C1
330
1F
100
AcDbEntity
  8
0
  6
Continuous
 62
     7
370
    25
100
AcDbEllipse
 10
-645.4272225243
 20
-1002.3318539155
 30
0.0
 11
105.9148823354208
 21
-103.8947443195078
 31
0.0
210
0.0
220
0.0
230
1.0
 40
0.6839254498
 41
3.141331214442935
 42
6.270276673486477
  0
ELLIPSE
  5
1C2
330
1F
100
AcDbEntity
  8
0
  6
Continuous
 62
     7
370
    25
100
AcDbEllipse
 10
-1073.5168451095
 20
-959.2177434501
 30
0.0
 11
48.05215178127014
 21
90.27828802609747
 31
0.0
210
0.0
220
0.0
230
1.0
 40
0.7294169998
 41
1.180955707498692
 42
4.309537853560276
  0
LINE
  5
1C3
330
1F
100
AcDbEntity
  8
0
  6
Continuous
 62
     7
370
    25
100
AcDbLine
 10
-1429.2226213519
 20
-52.8196609402
 30
0.0
 11
-1429.2226213519
 21
-50.5088438103
 31
0.0
  0
ELLIPSE
  5
1C4
330
1F
100
AcDbEntity
  8
0
  6
Continuous
 62
     7
370
    25
100
AcDbEllipse
 10
-1385.472565992
 20
-51.6642523753
 30
0.0
 11
40.52821270905815
 21
4.973799150320700E-13
 31
0.0
210
0.0
220
0.0
230
1.0
 40
0.4157597603
 41
3.082576091728725
 42
3.200609215447996
  0
LINE
  5
1C5
330
1F
100
AcDbEntity
  8
0
  6
Continuous
 62
     7
370
    25
100
AcDbLine
 10
-1205.535926253
 20
-884.1521931636
 30
0.0
 11
-1206.6766399448
 21
-882.1763587939
 31
0.0
  0
ELLIPSE
  5
1C6
330
1F
100
AcDbEntity
  8
0
  6
Continuous
 62
     7
370
    25
100
AcDbEllipse
 10
-1168.2248596807
 20
-861.2934154899
 30
0.0
 11
-35.09293677605729
 21
-20.26091649431055
 31
0.0
210
0.0
220
0.0
230
1.0
 40
0.4158252171
 41
6.224168745320668
 42
6.342201869038504
  0
LINE
  5
1C7
330
1F
100
AcDbEntity
  8
0
  6
Continuous
 62
     7
370
    25
100
AcDbLine
 10
-1206.6766399448
 20
778.8478540433
 30
0.0
 11
-1205.535926253
 21
780.823688413
 31
0.0
  0
LINE
  5
1C8
330
1F
100
AcDbEntity
  8
0
  6
Continuous
 62
     7
370
    25
100
AcDbLine
 10
232.9532391369
 20
1611.3357352269
 30
0.0
 11
235.2347331098
 21
1611.3357352269
 31
0.0
  0
LINE
  5
1C9
330
1F
100
AcDbEntity
  8
0
  6
Continuous
 62
     7
370
    25
100
AcDbLine
 10
1673.7238984998
 20
780.823688413
 30
0.0
 11
1674.8646121915
 21
778.8478540433
 31
0.0
  0
LINE
  5
1CA
330
1F
100
AcDbEntity
  8
0
  6
Continuous
 62
     7
370
    25
100
AcDbLine
 10
1674.8646121915
 20
-882.1763587939
 30
0.0
 11
1673.7238984998
 21
-884.1521931636
 31
0.0
  0
LINE
  5
1CB
330
1F
100
AcDbEntity
  8
0
  6
Continuous
 62
     7
370
    25
100
AcDbLine
 10
235.2347331098
 20
-1714.6642399775
 30
0.0
 11
232.9532391369
 21
-1714.6642399775
 31
0.0
  0
ELLIPSE
  5
1CC
330
1F
100
AcDbEntity
  8
0
  6
Continuous
 62
     7
370
    25
100
AcDbEllipse
 10
-1168.2248596807
 20
757.9649107394
 30
0.0
 11
-35.09293677605683
 21
20.26091649431157
 31
0.0
210
0.0
220
0.0
230
1.0
 40
0.4158252171
 41
6.224168745320663
 42
6.342201869039876
  0
ELLIPSE
  5
1CD
330
1F
100
AcDbEntity
  8
0
  6
Continuous
 62
     7
370
    25
100
AcDbEllipse
 10
234.0939861234
 20
1567.594073854
 30
0.0
 11
7.105427357601002E-13
 21
40.52183298862224
 31
0.0
210
0.0
220
0.0
230
1.0
 40
0.4158252171
 41
6.224168745320693
 42
6.342201869039893
  0
ELLIPSE
  5
1CE
330
1F
100
AcDbEntity
  8
0
  6
Continuous
 62
     7
370
    25
100
AcDbEllipse
 10
1636.4128319274
 20
757.9649107394
 30
0.0
 11
35.09293677605729
 21
20.26091649431055
 31
0.0
210
0.0
220
0.0
230
1.0
 40
0.4158252171
 41
6.224168745320691
 42
6.3422018690392
  0
ELLIPSE
  5
1CF
330
1F
100
AcDbEntity
  8
0
  6
Continuous
 62
     7
370
    25
100
AcDbEllipse
 10
1636.4128319274
 20
-861.29341549
 30
0.0
 11
35.09293677605682
 21
-20.26091649431192
 31
0.0
210
0.0
220
0.0
230
1.0
 40
0.4158252171
 41
6.224168745320737
 42
6.342201869039918
  0
ELLIPSE
  5
1D0
330
1F
100
AcDbEntity
  8
0
  6
Continuous
 62
     7
370
    25
100
AcDbEllipse
 10
234.0939861233
 20
-1670.9225786046
 30
0.0
 11
-9.947598300641403E-13
 21
-40.52183298862224
 31
0.0
210
0.0
220
0.0
230
1.0
 40
0.4158252171
 41
6.224168745320702
 42
6.342201869039905
  0
ELLIPSE
  5
1D1
330
1F
100
AcDbEntity
  8
0
  6
Continuous
 62
     7
370
    25
100
AcDbEllipse
 10
-575.6892899343
 20
1350.9215248762
 30
0.0
 11
20.26410635452874
 21
-35.09846177602344
 31
0.0
210
0.0
220
0.0
230
1.0
 40
0.4157597603
 41
3.082576091729472
 42
3.20060921544872
  0
ELLIPSE
  5
1D2
330
1F
100
AcDbEntity
  8
0
  6
Continuous
 62
     7
370
    25
100
AcDbEllipse
 10
1043.877262181
 20
1350.9215248762
 30
0.0
 11
-20.26410635452896
 21
-35.09846177602321
 31
0.0
210
0.0
220
0.0
230
1.0
 40
0.4157597603
 41
3.082576091729464
 42
3.200609215448742
  0
ELLIPSE
  5
1D3
330
1F
100
AcDbEntity
  8
0
  6
Continuous
 62
     7
370
    25
100
AcDbEllipse
 10
1853.6605382387
 20
-51.6642523753
 30
0.0
 11
-40.52821270905793
 21
0.0
 31
0.0
210
0.0
220
0.0
230
1.0
 40
0.4157597603
 41
3.082576091728802
 42
3.200609215448762
  0
ELLIPSE
  5
1D4
330
1F
100
AcDbEntity
  8
0
  6
Continuous
 62
     7
370
    25
100
AcDbEllipse
 10
1043.877262181
 20
-1454.2500296267
 30
0.0
 11
-20.26410635452874
 21
35.09846177602367
 31
0.0
210
0.0
220
0.0
230
1.0
 40
0.4157597603
 41
3.082576091729474
 42
3.200609215448746
  0
ELLIPSE
  5
1D5
330
1F
100
AcDbEntity
  8
0
  6
Continuous
 62
     7
370
    25
100
AcDbEllipse
 10
-575.6892899343
 20
-1454.2500296267
 30
0.0
 11
20.26410635452919
 21
35.09846177602299
 31
0.0
210
0.0
220
0.0
230
1.0
 40
0.4157597603
 41
3.082576091729465
 42
3.200609215448736
  0
LINE
  5
1D6
330
1F
100
AcDbEntity
  8
0
  6
Continuous
 62
     7
370
    25
100
AcDbLine
 10
-598.5649007861
 20
1388.2324503911
 30
0.0
 11
-596.5636748378
 21
1389.3878268255
 31
0.0
  0
LINE
  5
1D7
330
1F
100
AcDbEntity
  8
0
  6
Continuous
 62
     7
370
    25
100
AcDbLine
 10
1064.7516470845
 20
1389.3878268255
 30
0.0
 11
1066.7528730328
 21
1388.2324503911
 31
0.0
  0
LINE
  5
1D8
330
1F
100
AcDbEntity
  8
0
  6
Continuous
 62
     7
370
    25
100
AcDbLine
 10
1897.4105935986
 20
-50.5088438103
 30
0.0
 11
1897.4105935986
 21
-52.8196609402
 31
0.0
  0
LINE
  5
1D9
330
1F
100
AcDbEntity
  8
0
  6
Continuous
 62
     7
370
    25
100
AcDbLine
 10
1066.7528730328
 20
-1491.5609551417
 30
0.0
 11
1064.7516470845
 21
-1492.716331576
 31
0.0
  0
LINE
  5
1DA
330
1F
100
AcDbEntity
  8
0
  6
Continuous
 62
     7
370
    25
100
AcDbLine
 10
-596.5636748378
 20
-1492.716331576
 30
0.0
 11
-598.5649007861
 21
-1491.5609551417
 31
0.0
  0
CIRCLE
  5
1DB
330
1F
100
AcDbEntity
  8
0
  6
Continuous
 62
     7
370
    25
100
AcDbCircle
 10
234.0939861234
 20
-51.6642523753
 30
0.0
 40
5.000000000000007
  0
LINE
  5
1DC
330
1F
100
AcDbEntity
  8
0
  6
Continuous
 62
     7
370
    25
100
AcDbLine
 10
1900.8886438306
 20
-51.6642523753
 30
0.0
 11
1897.4105935986
 21
-51.6642523753
 31
0.0
  0
LINE
  5
1DD
330
1F
100
AcDbEntity
  8
0
  6
Continuous
 62
     7
370
    25
100
AcDbLine
 10
234.0939861234
 20
-1718.4589100825
 30
0.0
 11
234.0939861234
 21
-1714.6642399775
 31
0.0
  0
LINE
  5
1DE
330
1F
100
AcDbEntity
  8
0
  6
Continuous
 62
     7
370
    25
100
AcDbLine
 10
1904.5977216657
 20
-52.6581042968
 30
0.0
 11
1900.8886438306
 21
-51.6642523753
 31
0.0
  0
LINE
  5
1DF
330
1F
100
AcDbEntity
  8
0
  6
Continuous
 62
     7
370
    25
100
AcDbLine
 10
1900.8886438306
 20
-51.6642523753
 30
0.0
 11
1900.6223302777
 21
-52.6581042968
 31
0.0
  0
LINE
  5
1E0
330
1F
100
AcDbEntity
  8
0
  6
Continuous
 62
     7
370
    25
100
AcDbLine
 10
1677.8467517789
 20
-884.0677333819
 30
0.0
 11
1677.580438226
 21
-885.0615812289
 31
0.0
  0
LINE
  5
1E1
330
1F
100
AcDbEntity
  8
0
  6
Continuous
 62
     7
370
    25
100
AcDbLine
 10
1681.2896352704
 20
-886.0554290759
 30
0.0
 11
1677.580438226
 21
-885.0615812289
 31
0.0
  0
LINE
  5
1E2
330
1F
100
AcDbEntity
  8
0
  6
Continuous
 62
     7
370
    25
100
AcDbLine
 10
1681.2896352704
 20
782.7269243253
 30
0.0
 11
1677.580438226
 21
781.7330764783
 31
0.0
  0
LINE
  5
1E3
330
1F
100
AcDbEntity
  8
0
  6
Continuous
 62
     7
370
    25
100
AcDbLine
 10
1904.5977216657
 20
-50.6704004538
 30
0.0
 11
1900.8886438306
 21
-51.6642523753
 31
0.0
  0
LINE
  5
1E4
330
1F
100
AcDbEntity
  8
0
  6
Continuous
 62
     7
370
    25
100
AcDbLine
 10
1677.580438226
 20
781.7330764783
 30
0.0
 11
1677.8467517789
 21
780.7392286313
 31
0.0
  0
LINE
  5
1E5
330
1F
100
AcDbEntity
  8
0
  6
Continuous
 62
     7
370
    25
100
AcDbLine
 10
1900.6223302777
 20
-50.6704004538
 30
0.0
 11
1900.8886438306
 21
-51.6642523753
 31
0.0
  0
LINE
  5
1E6
330
1F
100
AcDbEntity
  8
0
  6
Continuous
 62
     7
370
    25
100
AcDbLine
 10
1070.2065449651
 20
1394.5375489248
 30
0.0
 11
1067.491314977
 21
1391.8221997274
 31
0.0
  0
LINE
  5
1E7
330
1F
100
AcDbEntity
  8
0
  6
Continuous
 62
     7
370
    25
100
AcDbLine
 10
1680.2957874234
 20
784.4483064664
 30
0.0
 11
1677.580438226
 21
781.7330764783
 31
0.0
  0
LINE
  5
1E8
330
1F
100
AcDbEntity
  8
0
  6
Continuous
 62
     7
370
    25
100
AcDbLine
 10
1067.491314977
 20
1391.8221997274
 30
0.0
 11
1068.2188492711
 21
1391.0946654332
 31
0.0
  0
LINE
  5
1E9
330
1F
100
AcDbEntity
  8
0
  6
Continuous
 62
     7
370
    25
100
AcDbLine
 10
1676.8529039319
 20
782.4606107724
 30
0.0
 11
1677.580438226
 21
781.7330764783
 31
0.0
  0
LINE
  5
1EA
330
1F
100
AcDbEntity
  8
0
  6
Continuous
 62
     7
370
    25
100
AcDbLine
 10
235.0878380449
 20
1618.839483167
 30
0.0
 11
234.0939861233
 21
1615.1304053319
 31
0.0
  0
LINE
  5
1EB
330
1F
100
AcDbEntity
  8
0
  6
Continuous
 62
     7
370
    25
100
AcDbLine
 10
1068.4851628239
 20
1395.5313967717
 30
0.0
 11
1067.491314977
 21
1391.8221997274
 31
0.0
  0
LINE
  5
1EC
330
1F
100
AcDbEntity
  8
0
  6
Continuous
 62
     7
370
    25
100
AcDbLine
 10
234.0939861233
 20
1615.1304053319
 30
0.0
 11
235.0878380449
 21
1614.8640917791
 31
0.0
  0
LINE
  5
1ED
330
1F
100
AcDbEntity
  8
0
  6
Continuous
 62
     7
370
    25
100
AcDbLine
 10
1066.49746713
 20
1392.0885132802
 30
0.0
 11
1067.491314977
 21
1391.8221997274
 31
0.0
  0
LINE
  5
1EE
330
1F
100
AcDbEntity
  8
0
  6
Continuous
 62
     7
370
    25
100
AcDbLine
 10
-600.2971905772
 20
1395.5313967717
 30
0.0
 11
-599.3033427303
 21
1391.8221997274
 31
0.0
  0
LINE
  5
1EF
330
1F
100
AcDbEntity
  8
0
  6
Continuous
 62
     7
370
    25
100
AcDbLine
 10
233.1001342018
 20
1618.839483167
 30
0.0
 11
234.0939861233
 21
1615.1304053319
 31
0.0
  0
LINE
  5
1F0
330
1F
100
AcDbEntity
  8
0
  6
Continuous
 62
     7
370
    25
100
AcDbLine
 10
-599.3033427303
 20
1391.8221997274
 30
0.0
 11
-598.3094948833
 21
1392.0885132802
 31
0.0
  0
LINE
  5
1F1
330
1F
100
AcDbEntity
  8
0
  6
Continuous
 62
     7
370
    25
100
AcDbLine
 10
233.1001342018
 20
1614.8640917791
 30
0.0
 11
234.0939861233
 21
1615.1304053319
 31
0.0
  0
LINE
  5
1F2
330
1F
100
AcDbEntity
  8
0
  6
Continuous
 62
     7
370
    25
100
AcDbLine
 10
-1212.1078151767
 20
784.4483064664
 30
0.0
 11
-1209.3924659793
 21
781.7330764783
 31
0.0
  0
LINE
  5
1F3
330
1F
100
AcDbEntity
  8
0
  6
Continuous
 62
     7
370
    25
100
AcDbLine
 10
-602.0185727183
 20
1394.5375489248
 30
0.0
 11
-599.3033427303
 21
1391.8221997274
 31
0.0
  0
LINE
  5
1F4
330
1F
100
AcDbEntity
  8
0
  6
Continuous
 62
     7
370
    25
100
AcDbLine
 10
-1209.3924659793
 20
781.7330764783
 30
0.0
 11
-1208.6649316852
 21
782.4606107724
 31
0.0
  0
LINE
  5
1F5
330
1F
100
AcDbEntity
  8
0
  6
Continuous
 62
     7
370
    25
100
AcDbLine
 10
-600.0308770244
 20
1391.0946654332
 30
0.0
 11
-599.3033427303
 21
1391.8221997274
 31
0.0
  0
LINE
  5
1F6
330
1F
100
AcDbEntity
  8
0
  6
Continuous
 62
     7
370
    25
100
AcDbLine
 10
-1213.1016630237
 20
782.7269243253
 30
0.0
 11
-1209.3924659793
 21
781.7330764783
 31
0.0
  0
LINE
  5
1F7
330
1F
100
AcDbEntity
  8
0
  6
Continuous
 62
     7
370
    25
100
AcDbLine
 10
-1436.4097494189
 20
-50.6704004538
 30
0.0
 11
-1432.7006715839
 21
-51.6642523753
 31
0.0
  0
LINE
  5
1F8
330
1F
100
AcDbEntity
  8
0
  6
Continuous
 62
     7
370
    25
100
AcDbLine
 10
-1432.7006715839
 20
-51.6642523753
 30
0.0
 11
-1432.434358031
 21
-50.6704004538
 31
0.0
  0
LINE
  5
1F9
330
1F
100
AcDbEntity
  8
0
  6
Continuous
 62
     7
370
    25
100
AcDbLine
 10
-1209.6587795322
 20
780.7392286313
 30
0.0
 11
-1209.3924659793
 21
781.7330764783
 31
0.0
  0
LINE
  5
1FA
330
1F
100
AcDbEntity
  8
0
  6
Continuous
 62
     7
370
    25
100
AcDbLine
 10
-1436.4097494189
 20
-52.6581042968
 30
0.0
 11
-1432.7006715839
 21
-51.6642523753
 31
0.0
  0
LINE
  5
1FB
330
1F
100
AcDbEntity
  8
0
  6
Continuous
 62
     7
370
    25
100
AcDbLine
 10
-1209.3924659793
 20
-885.0615812289
 30
0.0
 11
-1209.6587795322
 21
-884.0677333819
 31
0.0
  0
LINE
  5
1FC
330
1F
100
AcDbEntity
  8
0
  6
Continuous
 62
     7
370
    25
100
AcDbLine
 10
-1432.434358031
 20
-52.6581042968
 30
0.0
 11
-1432.7006715839
 21
-51.6642523753
 31
0.0
  0
LINE
  5
1FD
330
1F
100
AcDbEntity
  8
0
  6
Continuous
 62
     7
370
    25
100
AcDbLine
 10
-1213.1016630237
 20
-886.0554290759
 30
0.0
 11
-1209.3924659793
 21
-885.0615812289
 31
0.0
  0
LINE
  5
1FE
330
1F
100
AcDbEntity
  8
0
  6
Continuous
 62
     7
370
    25
100
AcDbLine
 10
-1212.1078151767
 20
-887.776811217
 30
0.0
 11
-1209.3924659793
 21
-885.0615812289
 31
0.0
  0
LINE
  5
1FF
330
1F
100
AcDbEntity
  8
0
  6
Continuous
 62
     7
370
    25
100
AcDbLine
 10
-599.3033427303
 20
-1495.150704478
 30
0.0
 11
-600.0308770244
 21
-1494.4231701838
 31
0.0
  0
LINE
  5
200
330
1F
100
AcDbEntity
  8
0
  6
Continuous
 62
     7
370
    25
100
AcDbLine
 10
-1208.6649316852
 20
-885.789115523
 30
0.0
 11
-1209.3924659793
 21
-885.0615812289
 31
0.0
  0
LINE
  5
201
330
1F
100
AcDbEntity
  8
0
  6
Continuous
 62
     7
370
    25
100
AcDbLine
 10
-602.0185727183
 20
-1497.8660536753
 30
0.0
 11
-599.3033427303
 21
-1495.150704478
 31
0.0
  0
LINE
  5
202
330
1F
100
AcDbEntity
  8
0
  6
Continuous
 62
     7
370
    25
100
AcDbLine
 10
233.1001342018
 20
-1722.1679879176
 30
0.0
 11
234.0939861234
 21
-1718.4589100825
 31
0.0
  0
LINE
  5
203
330
1F
100
AcDbEntity
  8
0
  6
Continuous
 62
     7
370
    25
100
AcDbLine
 10
-600.2971905772
 20
-1498.8599015223
 30
0.0
 11
-599.3033427303
 21
-1495.150704478
 31
0.0
  0
LINE
  5
204
330
1F
100
AcDbEntity
  8
0
  6
Continuous
 62
     7
370
    25
100
AcDbLine
 10
234.0939861234
 20
-1718.4589100825
 30
0.0
 11
233.1001342018
 21
-1718.1925965296
 31
0.0
  0
LINE
  5
205
330
1F
100
AcDbEntity
  8
0
  6
Continuous
 62
     7
370
    25
100
AcDbLine
 10
-598.3094948833
 20
-1495.4170180308
 30
0.0
 11
-599.3033427303
 21
-1495.150704478
 31
0.0
  0
LINE
  5
206
330
1F
100
AcDbEntity
  8
0
  6
Continuous
 62
     7
370
    25
100
AcDbLine
 10
235.0878380449
 20
-1722.1679879176
 30
0.0
 11
234.0939861234
 21
-1718.4589100825
 31
0.0
  0
LINE
  5
207
330
1F
100
AcDbEntity
  8
0
  6
Continuous
 62
     7
370
    25
100
AcDbLine
 10
1067.491314977
 20
-1495.150704478
 30
0.0
 11
1066.49746713
 21
-1495.4170180308
 31
0.0
  0
LINE
  5
208
330
1F
100
AcDbEntity
  8
0
  6
Continuous
 62
     7
370
    25
100
AcDbLine
 10
235.0878380449
 20
-1718.1925965296
 30
0.0
 11
234.0939861234
 21
-1718.4589100825
 31
0.0
  0
LINE
  5
209
330
1F
100
AcDbEntity
  8
0
  6
Continuous
 62
     7
370
    25
100
AcDbLine
 10
1068.4851628239
 20
-1498.8599015223
 30
0.0
 11
1067.491314977
 21
-1495.150704478
 31
0.0
  0
LINE
  5
20A
330
1F
100
AcDbEntity
  8
0
  6
Continuous
 62
     7
370
    25
100
AcDbLine
 10
1070.2065449651
 20
-1497.8660536753
 30
0.0
 11
1067.491314977
 21
-1495.150704478
 31
0.0
  0
LINE
  5
20B
330
1F
100
AcDbEntity
  8
0
  6
Continuous
 62
     7
370
    25
100
AcDbLine
 10
1677.580438226
 20
-885.0615812289
 30
0.0
 11
1676.8529039319
 21
-885.789115523
 31
0.0
  0
LINE
  5
20C
330
1F
100
AcDbEntity
  8
0
  6
Continuous
 62
     7
370
    25
100
AcDbLine
 10
1068.2188492711
 20
-1494.4231701838
 30
0.0
 11
1067.491314977
 21
-1495.150704478
 31
0.0
  0
LINE
  5
20D
330
1F
100
AcDbEntity
  8
0
  6
Continuous
 62
     7
370
    25
100
AcDbLine
 10
1680.2957874234
 20
-887.776811217
 30
0.0
 11
1677.580438226
 21
-885.0615812289
 31
0.0
  0
LINE
  5
20E
330
1F
100
AcDbEntity
  8
0
  6
Continuous
 62
     7
370
    25
100
AcDbLine
 10
-1432.7006715839
 20
-51.6642523753
 30
0.0
 11
-1429.2226213519
 21
-51.6642523753
 31
0.0
  0
LINE
  5
20F
330
1F
100
AcDbEntity
  8
0
  6
Continuous
 62
     7
370
    25
100
AcDbLine
 10
234.0939861233
 20
1615.1304053319
 30
0.0
 11
234.0939861233
 21
1611.3357352269
 31
0.0
  0
ENDSEC
  0
SECTION
  2
OBJECTS
  0
DICTIONARY
  5
C
330
0
100
AcDbDictionary
281
     1
  3
ACAD_DETAILVIEWSTYLE
350
218
  3
ACAD_GROUP
350
D
  3
ACAD_LAYOUT
350
1A
  3
ACAD_MATERIAL
350
43
  3
ACAD_MLEADERSTYLE
350
6B
  3
ACAD_MLINESTYLE
350
17
  3
ACAD_PLOTSETTINGS
350
19
  3
ACAD_PLOTSTYLENAME
350
E
  3
ACAD_SCALELIST
350
47
  3
ACAD_SECTIONVIEWSTYLE
350
219
  3
ACAD_TABLESTYLE
350
69
  3
ACAD_VISUALSTYLE
350
2A
  3
ACDB_RECOMPOSE_DATA
350
215
  3
AcDbVariableDictionary
350
210
  0
SUN
  5
6D
330
29
100
AcDbSun
 90
        1
290
     0
 63
     7
421
 16777215
 40
1.0
291
     1
 91
  2455826
 92
 54000000
292
     0
 70
     2
 71
   256
280
     1
  0
DICTIONARY
  5
218
102
{ACAD_REACTORS
330
C
102
}
330
C
100
AcDbDictionary
281
     1
  0
DICTIONARY
  5
D
102
{ACAD_REACTORS
330
C
102
}
330
C
100
AcDbDictionary
281
     1
  0
DICTIONARY
  5
1A
102
{ACAD_REACTORS
330
C
102
}
330
C
100
AcDbDictionary
281
     1
  3
Layout1
350
1E
  3
Layout2
350
26
  3
Model
350
22
  0
DICTIONARY
  5
43
102
{ACAD_REACTORS
330
C
102
}
330
C
100
AcDbDictionary
281
     1
  3
ByBlock
350
45
  3
ByLayer
350
44
  3
Global
350
46
  0
DICTIONARY
  5
6B
102
{ACAD_REACTORS
330
C
102
}
330
C
100
AcDbDictionary
281
     1
  3
Standard
350
6C
  0
DICTIONARY
  5
17
102
{ACAD_REACTORS
330
C
102
}
330
C
100
AcDbDictionary
281
     1
  3
Standard
350
18
  0
DICTIONARY
  5
19
102
{ACAD_REACTORS
330
C
102
}
330
C
100
AcDbDictionary
281
     1
  0
ACDBDICTIONARYWDFLT
  5
E
102
{ACAD_REACTORS
330
C
102
}
330
C
100
AcDbDictionary
281
     1
  3
Normal
350
F
100
AcDbDictionaryWithDefault
340
F
  0
DICTIONARY
  5
47
102
{ACAD_REACTORS
330
C
102
}
330
C
100
AcDbDictionary
281
     1
  3
A0
350
48
  3
A1
350
49
  3
A2
350
4A
  3
A3
350
4B
  3
A4
350
4C
  3
A5
350
4D
  3
A6
350
4E
  3
A7
350
4F
  3
A8
350
50
  3
A9
350
51
  3
B0
350
52
  3
B1
350
53
  3
B2
350
54
  3
B3
350
55
  3
B4
350
56
  3
B5
350
57
  3
B6
350
58
  3
B7
350
59
  3
B8
350
5A
  3
B9
350
5B
  3
C0
350
5C
  3
C1
350
5D
  3
C2
350
5E
  3
C3
350
5F
  3
C4
350
60
  3
C5
350
61
  3
C6
350
62
  3
C7
350
63
  3
C8
350
64
  3
C9
350
65
  3
D0
350
66
  3
D1
350
67
  3
D2
350
68
  0
DICTIONARY
  5
219
102
{ACAD_REACTORS
330
C
102
}
330
C
100
AcDbDictionary
281
     1
  0
DICTIONARY
  5
69
102
{ACAD_REACTORS
330
C
102
}
330
C
100
AcDbDictionary
281
     1
  3
Standard
350
6A
  0
DICTIONARY
  5
2A
102
{ACAD_REACTORS
330
C
102
}
330
C
100
AcDbDictionary
281
     1
  3
2dWireframe
350
2F
  3
Basic
350
32
  3
Brighten
350
36
  3
ColorChange
350
3A
  3
Conceptual
350
34
  3
Dim
350
35
  3
EdgeColorOff
350
3D
  3
Facepattern
350
39
  3
Flat
350
2B
  3
FlatWithEdges
350
2C
  3
Gouraud
350
2D
  3
GouraudWithEdges
350
2E
  3
Hidden
350
31
  3
JitterOff
350
3B
  3
Linepattern
350
38
  3
OverhangOff
350
3C
  3
Realistic
350
33
  3
Shaded
350
42
  3
Shaded with edges
350
41
  3
Shades of Gray
350
3E
  3
Sketchy
350
3F
  3
Thicken
350
37
  3
Wireframe
350
30
  3
X-Ray
350
40
  0
XRECORD
  5
215
102
{ACAD_REACTORS
330
C
102
}
330
C
100
AcDbXrecord
280
     1
 90
        1
330
6A
  0
DICTIONARY
  5
210
102
{ACAD_REACTORS
330
C
102
}
330
C
100
AcDbDictionary
281
     1
  3
CANNOSCALE
350
211
  3
CMLEADERSTYLE
350
217
  3
CTABLESTYLE
350
216
  0
LAYOUT
  5
1E
102
{ACAD_REACTORS
330
1A
102
}
330
1A
100
AcDbPlotSettings
  1

  2
none_device
  4

  6

 40
0.0
 41
0.0
 42
0.0
 43
0.0
 44
0.0
 45
0.0
 46
0.0
 47
0.0
 48
0.0
 49
0.0
140
0.0
141
0.0
142
1.0
143
1.0
 70
   688
 72
     1
 73
     0
 74
     5
  7

 75
    16
 76
     0
 77
     2
 78
   300
147
1.0
148
0.0
149
0.0
100
AcDbLayout
  1
Layout1
 70
     1
 71
     1
 10
0.0
 20
0.0
 11
420.0
 21
297.0
 12
0.0
 22
0.0
 32
0.0
 14
1.0000000000E+20
 24
1.0000000000E+20
 34
1.0000000000E+20
 15
-1.0000000000E+20
 25
-1.0000000000E+20
 35
-1.0000000000E+20
146
0.0
 13
0.0
 23
0.0
 33
0.0
 16
1.0
 26
0.0
 36
0.0
 17
0.0
 27
1.0
 37
0.0
 76
     0
330
1B
  0
LAYOUT
  5
26
102
{ACAD_REACTORS
330
1A
102
}
330
1A
100
AcDbPlotSettings
  1

  2
none_device
  4

  6

 40
0.0
 41
0.0
 42
0.0
 43
0.0
 44
0.0
 45
0.0
 46
0.0
 47
0.0
 48
0.0
 49
0.0
140
0.0
141
0.0
142
1.0
143
1.0
 70
   688
 72
     1
 73
     0
 74
     5
  7

 75
    16
 76
     0
 77
     2
 78
   300
147
1.0
148
0.0
149
0.0
100
AcDbLayout
  1
Layout2
 70
     1
 71
     2
 10
0.0
 20
0.0
 11
0.0
 21
0.0
 12
0.0
 22
0.0
 32
0.0
 14
0.0
 24
0.0
 34
0.0
 15
0.0
 25
0.0
 35
0.0
146
0.0
 13
0.0
 23
0.0
 33
0.0
 16
1.0
 26
0.0
 36
0.0
 17
0.0
 27
1.0
 37
0.0
 76
     0
330
23
  0
LAYOUT
  5
22
102
{ACAD_REACTORS
330
1A
102
}
330
1A
100
AcDbPlotSettings
  1

  2
none_device
  4
Letter_(8.50_x_11.00_Inches)
  6

 40
6.35
 41
6.35
 42
6.35000508
 43
6.35000508
 44
215.9
 45
279.4
 46
0.0
 47
0.0
 48
0.0
 49
0.0
140
0.0
141
0.0
142
1.0
143
1.0
 70
  1712
 72
     1
 73
     0
 74
     0
  7

 75
     0
 76
     0
 77
     2
 78
   300
147
1.0
148
0.0
149
0.0
100
AcDbLayout
  1
Model
 70
     1
 71
     0
 10
0.0
 20
0.0
 11
210.0
 21
297.0
 12
0.0
 22
0.0
 32
0.0
 14
0.0
 24
0.0
 34
0.0
 15
210.0
 25
297.0
 35
0.0
146
0.0
 13
0.0
 23
0.0
 33
0.0
 16
1.0
 26
0.0
 36
0.0
 17
0.0
 27
1.0
 37
0.0
 76
     0
330
1F
331
29
  0
MATERIAL
  5
45
102
{ACAD_REACTORS
330
43
102
}
330
43
100
AcDbMaterial
  1
ByBlock
 72
     1
 94
      127
  0
MATERIAL
  5
44
102
{ACAD_REACTORS
330
43
102
}
330
43
100
AcDbMaterial
  1
ByLayer
 72
     1
 94
      127
  0
MATERIAL
  5
46
102
{ACAD_REACTORS
330
43
102
}
330
43
100
AcDbMaterial
  1
Global
 72
     1
 94
      127
  0
MLEADERSTYLE
  5
6C
102
{ACAD_REACTORS
330
6B
102
}
330
6B
100
AcDbMLeaderStyle
170
     2
171
     1
172
     0
 90
        2
 40
0.0
 41
0.0
173
     1
 91
-1056964608
340
14
 92
       -2
290
     1
 42
2.0
291
     1
 43
8.0
  3
Standard
341
0
 44
4.0
300

342
11
174
     1
178
     6
175
     1
176
     0
 93
-1056964608
 45
4.0
292
     0
297
     0
 46
4.0
343
0
 94
-1056964608
 47
1.0
 49
1.0
140
1.0
293
     1
141
0.0
294
     1
177
     0
142
1.0
295
     0
296
     0
143
3.75
1001
ACAD_MLEADERVER
1070
     2
  0
MLINESTYLE
  5
18
102
{ACAD_REACTORS
330
17
102
}
330
17
100
AcDbMlineStyle
  2
Standard
 70
     0
  3

 62
   256
 51
90.0
 52
90.0
 71
     2
 49
0.5
 62
   256
  6
BYLAYER
 49
-0.5
 62
   256
  6
BYLAYER
  0
ACDBPLACEHOLDER
  5
F
102
{ACAD_REACTORS
330
E
102
}
330
E
  0
SCALE
  5
48
102
{ACAD_REACTORS
330
47
102
}
330
47
100
AcDbScale
 70
     0
300
1:1
140
1.0
141
1.0
290
     1
  0
SCALE
  5
49
102
{ACAD_REACTORS
330
47
102
}
330
47
100
AcDbScale
 70
     0
300
1:2
140
1.0
141
2.0
290
     0
  0
SCALE
  5
4A
102
{ACAD_REACTORS
330
47
102
}
330
47
100
AcDbScale
 70
     0
300
1:4
140
1.0
141
4.0
290
     0
  0
SCALE
  5
4B
102
{ACAD_REACTORS
330
47
102
}
330
47
100
AcDbScale
 70
     0
300
1:5
140
1.0
141
5.0
290
     0
  0
SCALE
  5
4C
102
{ACAD_REACTORS
330
47
102
}
330
47
100
AcDbScale
 70
     0
300
1:8
140
1.0
141
8.0
290
     0
  0
SCALE
  5
4D
102
{ACAD_REACTORS
330
47
102
}
330
47
100
AcDbScale
 70
     0
300
1:10
140
1.0
141
10.0
290
     0
  0
SCALE
  5
4E
102
{ACAD_REACTORS
330
47
102
}
330
47
100
AcDbScale
 70
     0
300
1:16
140
1.0
141
16.0
290
     0
  0
SCALE
  5
4F
102
{ACAD_REACTORS
330
47
102
}
330
47
100
AcDbScale
 70
     0
300
1:20
140
1.0
141
20.0
290
     0
  0
SCALE
  5
50
102
{ACAD_REACTORS
330
47
102
}
330
47
100
AcDbScale
 70
     0
300
1:30
140
1.0
141
30.0
290
     0
  0
SCALE
  5
51
102
{ACAD_REACTORS
330
47
102
}
330
47
100
AcDbScale
 70
     0
300
1:40
140
1.0
141
40.0
290
     0
  0
SCALE
  5
52
102
{ACAD_REACTORS
330
47
102
}
330
47
100
AcDbScale
 70
     0
300
1:50
140
1.0
141
50.0
290
     0
  0
SCALE
  5
53
102
{ACAD_REACTORS
330
47
102
}
330
47
100
AcDbScale
 70
     0
300
1:100
140
1.0
141
100.0
290
     0
  0
SCALE
  5
54
102
{ACAD_REACTORS
330
47
102
}
330
47
100
AcDbScale
 70
     0
300
2:1
140
2.0
141
1.0
290
     0
  0
SCALE
  5
55
102
{ACAD_REACTORS
330
47
102
}
330
47
100
AcDbScale
 70
     0
300
4:1
140
4.0
141
1.0
290
     0
  0
SCALE
  5
56
102
{ACAD_REACTORS
330
47
102
}
330
47
100
AcDbScale
 70
     0
300
8:1
140
8.0
141
1.0
290
     0
  0
SCALE
  5
57
102
{ACAD_REACTORS
330
47
102
}
330
47
100
AcDbScale
 70
     0
300
10:1
140
10.0
141
1.0
290
     0
  0
SCALE
  5
58
102
{ACAD_REACTORS
330
47
102
}
330
47
100
AcDbScale
 70
     0
300
100:1
140
100.0
141
1.0
290
     0
  0
SCALE
  5
59
102
{ACAD_REACTORS
330
47
102
}
330
47
100
AcDbScale
 70
     0
300
1/128" = 1'-0"
140
0.0078125
141
12.0
290
     0
  0
SCALE
  5
5A
102
{ACAD_REACTORS
330
47
102
}
330
47
100
AcDbScale
 70
     0
300
1/64" = 1'-0"
140
0.015625
141
12.0
290
     0
  0
SCALE
  5
5B
102
{ACAD_REACTORS
330
47
102
}
330
47
100
AcDbScale
 70
     0
300
1/32" = 1'-0"
140
0.03125
141
12.0
290
     0
  0
SCALE
  5
5C
102
{ACAD_REACTORS
330
47
102
}
330
47
100
AcDbScale
 70
     0
300
1/16" = 1'-0"
140
0.0625
141
12.0
290
     0
  0
SCALE
  5
5D
102
{ACAD_REACTORS
330
47
102
}
330
47
100
AcDbScale
 70
     0
300
3/32" = 1'-0"
140
0.09375
141
12.0
290
     0
  0
SCALE
  5
5E
102
{ACAD_REACTORS
330
47
102
}
330
47
100
AcDbScale
 70
     0
300
1/8" = 1'-0"
140
0.125
141
12.0
290
     0
  0
SCALE
  5
5F
102
{ACAD_REACTORS
330
47
102
}
330
47
100
AcDbScale
 70
     0
300
3/16" = 1'-0"
140
0.1875
141
12.0
290
     0
  0
SCALE
  5
60
102
{ACAD_REACTORS
330
47
102
}
330
47
100
AcDbScale
 70
     0
300
1/4" = 1'-0"
140
0.25
141
12.0
290
     0
  0
SCALE
  5
61
102
{ACAD_REACTORS
330
47
102
}
330
47
100
AcDbScale
 70
     0
300
3/8" = 1'-0"
140
0.375
141
12.0
290
     0
  0
SCALE
  5
62
102
{ACAD_REACTORS
330
47
102
}
330
47
100
AcDbScale
 70
     0
300
1/2" = 1'-0"
140
0.5
141
12.0
290
     0
  0
SCALE
  5
63
102
{ACAD_REACTORS
330
47
102
}
330
47
100
AcDbScale
 70
     0
300
3/4" = 1'-0"
140
0.75
141
12.0
290
     0
  0
SCALE
  5
64
102
{ACAD_REACTORS
330
47
102
}
330
47
100
AcDbScale
 70
     0
300
1" = 1'-0"
140
1.0
141
12.0
290
     0
  0
SCALE
  5
65
102
{ACAD_REACTORS
330
47
102
}
330
47
100
AcDbScale
 70
     0
300
1-1/2" = 1'-0"
140
1.5
141
12.0
290
     0
  0
SCALE
  5
66
102
{ACAD_REACTORS
330
47
102
}
330
47
100
AcDbScale
 70
     0
300
3" = 1'-0"
140
3.0
141
12.0
290
     0
  0
SCALE
  5
67
102
{ACAD_REACTORS
330
47
102
}
330
47
100
AcDbScale
 70
     0
300
6" = 1'-0"
140
6.0
141
12.0
290
     0
  0
SCALE
  5
68
102
{ACAD_REACTORS
330
47
102
}
330
47
100
AcDbScale
 70
     0
300
1'-0" = 1'-0"
140
12.0
141
12.0
290
     0
  0
TABLESTYLE
  5
6A
102
{ACAD_REACTORS
330
69
102
}
102
{ACAD_XDICTIONARY
360
212
102
}
330
69
100
AcDbTableStyle
  3
Standard
 70
     0
 71
     0
 40
0.06
 41
0.06
280
     0
281
     0
  7
Standard
140
4.5
170
     2
 62
     0
 63
   257
283
     0
 90
        4
 91
        0
  1

274
    -2
284
     1
 64
     0
275
    -2
285
     1
 65
     0
276
    -2
286
     1
 66
     0
277
    -2
287
     1
 67
     0
278
    -2
288
     1
 68
     0
279
    -2
289
     1
 69
     0
  7
Standard
140
6.0
170
     5
 62
     0
 63
   257
283
     0
 90
        4
 91
        0
  1

274
    -2
284
     1
 64
     0
275
    -2
285
     1
 65
     0
276
    -2
286
     1
 66
     0
277
    -2
287
     1
 67
     0
278
    -2
288
     1
 68
     0
279
    -2
289
     1
 69
     0
  7
Standard
140
4.5
170
     5
 62
     0
 63
   257
283
     0
 90
        4
 91
        0
  1

274
    -2
284
     1
 64
     0
275
    -2
285
     1
 65
     0
276
    -2
286
     1
 66
     0
277
    -2
287
     1
 67
     0
278
    -2
288
     1
 68
     0
279
    -2
289
     1
 69
     0
  0
VISUALSTYLE
  5
2F
102
{ACAD_REACTORS
330
2A
102
}
330
2A
100
AcDbVisualStyle
  2
2dWireframe
 70
     4
 71
     0
 72
     2
 73
     0
 90
        0
 40
0.6
 41
30.0
 62
     5
 63
     7
421
 16777215
 74
     1
 91
        4
 64
     7
 65
   257
 75
     1
175
     1
 42
1.0
 92
        0
 66
   257
 43
1.0
 76
     1
 77
     6
 78
     2
 67
     7
 79
     5
170
     0
171
     0
290
     0
174
     0
 93
        1
 44
0.0
173
     0
291
     0
 45
0.0
  0
VISUALSTYLE
  5
32
102
{ACAD_REACTORS
330
2A
102
}
330
2A
100
AcDbVisualStyle
  2
Basic
 70
     7
 71
     1
 72
     0
 73
     1
 90
        0
 40
0.6
 41
30.0
 62
     5
 63
     7
421
 16777215
 74
     0
 91
        4
 64
     7
 65
   257
 75
     1
175
     1
 42
1.0
 92
        8
 66
     7
 43
1.0
 76
     1
 77
     6
 78
     2
 67
     7
 79
     5
170
     0
171
     0
290
     0
174
     0
 93
        1
 44
0.0
173
     0
291
     1
 45
0.0
  0
VISUALSTYLE
  5
36
102
{ACAD_REACTORS
330
2A
102
}
330
2A
100
AcDbVisualStyle
  2
Brighten
 70
    12
 71
     2
 72
     2
 73
     0
 90
        0
 40
0.6
 41
30.0
 62
     5
 63
     7
421
 16777215
 74
     1
 91
        4
 64
     7
 65
   257
 75
     1
175
     1
 42
1.0
 92
        8
 66
     7
 43
1.0
 76
     1
 77
     6
 78
     2
 67
     7
 79
     5
170
     0
171
     0
290
     0
174
     0
 93
        1
 44
50.0
173
     0
291
     1
 45
0.0
  0
VISUALSTYLE
  5
3A
102
{ACAD_REACTORS
330
2A
102
}
330
2A
100
AcDbVisualStyle
  2
ColorChange
 70
    16
 71
     2
 72
     2
 73
     3
 90
        0
 40
0.6
 41
30.0
 62
     5
 63
     8
421
  8421504
 74
     1
 91
        4
 64
     7
 65
   257
 75
     1
175
     1
 42
1.0
 92
        8
 66
     8
424
  8421504
 43
1.0
 76
     1
 77
     6
 78
     2
 67
     7
 79
     5
170
     0
171
     0
290
     0
174
     0
 93
        1
 44
0.0
173
     0
291
     1
 45
0.0
  0
VISUALSTYLE
  5
34
102
{ACAD_REACTORS
330
2A
102
}
330
2A
100
AcDbVisualStyle
  2
Conceptual
 70
     9
 71
     3
 72
     2
 73
     0
 90
        0
 40
0.6
 41
30.0
 62
     5
 63
     7
421
 16777215
 74
     2
 91
        2
 64
     7
 65
   257
 75
     1
175
     1
 42
179.0
 92
        8
 66
     7
 43
1.0
 76
     1
 77
     6
 78
     2
 67
     7
 79
     3
170
     0
171
     0
290
     0
174
     0
 93
        1
 44
0.0
173
     0
291
     0
 45
0.0
  0
VISUALSTYLE
  5
35
102
{ACAD_REACTORS
330
2A
102
}
330
2A
100
AcDbVisualStyle
  2
Dim
 70
    11
 71
     2
 72
     2
 73
     0
 90
        0
 40
0.6
 41
30.0
 62
     5
 63
     7
421
 16777215
 74
     1
 91
        4
 64
     7
 65
   257
 75
     1
175
     1
 42
1.0
 92
        8
 66
     7
 43
1.0
 76
     1
 77
     6
 78
     2
 67
     7
 79
     5
170
     0
171
     0
290
     0
174
     0
 93
        1
 44
-50.0
173
     0
291
     1
 45
0.0
  0
VISUALSTYLE
  5
3D
102
{ACAD_REACTORS
330
2A
102
}
330
2A
100
AcDbVisualStyle
  2
EdgeColorOff
 70
    22
 71
     2
 72
     2
 73
     0
 90
        0
 40
0.6
 41
30.0
 62
     5
 63
     7
421
 16777215
 74
     1
 91
        4
 64
     7
 65
   257
 75
     1
175
     1
 42
1.0
 92
        8
 66
     7
 43
1.0
 76
     1
 77
     6
 78
     2
 67
     7
 79
     5
170
     0
171
     0
290
     0
174
     0
 93
        1
 44
0.0
173
     0
291
     1
 45
0.0
  0
VISUALSTYLE
  5
39
102
{ACAD_REACTORS
330
2A
102
}
330
2A
100
AcDbVisualStyle
  2
Facepattern
 70
    15
 71
     2
 72
     2
 73
     0
 90
        0
 40
0.6
 41
30.0
 62
     5
 63
     7
421
 16777215
 74
     1
 91
        4
 64
     7
 65
   257
 75
     1
175
     1
 42
1.0
 92
        8
 66
     7
 43
1.0
 76
     1
 77
     6
 78
     2
 67
     7
 79
     5
170
     0
171
     0
290
     0
174
     0
 93
        1
 44
0.0
173
     0
291
     1
 45
0.0
  0
VISUALSTYLE
  5
2B
102
{ACAD_REACTORS
330
2A
102
}
330
2A
100
AcDbVisualStyle
  2
Flat
 70
     0
 71
     2
 72
     1
 73
     1
 90
        2
 40
0.6
 41
30.0
 62
     5
 63
     7
421
 16777215
 74
     0
 91
        0
 64
     7
 65
   257
 75
     1
175
     1
 42
1.0
 92
        8
 66
     7
 43
1.0
 76
     1
 77
     6
 78
     2
 67
     7
 79
     5
170
     0
171
     0
290
     0
174
     0
 93
       13
 44
0.0
173
     0
291
     1
 45
0.0
  0
VISUALSTYLE
  5
2C
102
{ACAD_REACTORS
330
2A
102
}
330
2A
100
AcDbVisualStyle
  2
FlatWithEdges
 70
     1
 71
     2
 72
     1
 73
     1
 90
        2
 40
0.6
 41
30.0
 62
     5
 63
     7
421
 16777215
 74
     1
 91
        0
 64
     7
 65
   257
 75
     1
175
     1
 42
1.0
 92
        0
 66
   257
 43
1.0
 76
     1
 77
     6
 78
     2
 67
     7
 79
     5
170
     0
171
     0
290
     0
174
     0
 93
       13
 44
0.0
173
     0
291
     1
 45
0.0
  0
VISUALSTYLE
  5
2D
102
{ACAD_REACTORS
330
2A
102
}
330
2A
100
AcDbVisualStyle
  2
Gouraud
 70
     2
 71
     2
 72
     2
 73
     1
 90
        2
 40
0.6
 41
30.0
 62
     5
 63
     7
421
 16777215
 74
     0
 91
        0
 64
     7
 65
   257
 75
     1
175
     1
 42
1.0
 92
        0
 66
     7
 43
1.0
 76
     1
 77
     6
 78
     2
 67
     7
 79
     5
170
     0
171
     0
290
     0
174
     0
 93
       13
 44
0.0
173
     0
291
     1
 45
0.0
  0
VISUALSTYLE
  5
2E
102
{ACAD_REACTORS
330
2A
102
}
330
2A
100
AcDbVisualStyle
  2
GouraudWithEdges
 70
     3
 71
     2
 72
     2
 73
     1
 90
        2
 40
0.6
 41
30.0
 62
     5
 63
     7
421
 16777215
 74
     1
 91
        0
 64
     7
 65
   257
 75
     1
175
     1
 42
1.0
 92
        0
 66
   257
 43
1.0
 76
     1
 77
     6
 78
     2
 67
     7
 79
     5
170
     0
171
     0
290
     0
174
     0
 93
       13
 44
0.0
173
     0
291
     1
 45
0.0
  0
VISUALSTYLE
  5
31
102
{ACAD_REACTORS
330
2A
102
}
330
2A
100
AcDbVisualStyle
  2
Hidden
 70
     6
 71
     1
 72
     2
 73
     2
 90
        0
 40
0.6
 41
30.0
 62
     5
 63
     7
421
 16777215
 74
     2
 91
        2
 64
     7
 65
   257
 75
     2
175
     1
 42
40.0
 92
        0
 66
   257
 43
1.0
 76
     1
 77
     6
 78
     2
 67
     7
 79
     3
170
     0
171
     0
290
     0
174
     0
 93
        1
 44
0.0
173
     0
291
     0
 45
0.0
  0
VISUALSTYLE
  5
3B
102
{ACAD_REACTORS
330
2A
102
}
330
2A
100
AcDbVisualStyle
  2
JitterOff
 70
    20
 71
     2
 72
     2
 73
     0
 90
        0
 40
0.6
 41
30.0
 62
     5
 63
     7
421
 16777215
 74
     1
 91
        4
 64
     7
 65
   257
 75
     1
175
     1
 42
1.0
 92
       10
 66
     7
 43
1.0
 76
     1
 77
     6
 78
     2
 67
     7
 79
     5
170
     0
171
     0
290
     0
174
     0
 93
        1
 44
0.0
173
     0
291
     1
 45
0.0
  0
VISUALSTYLE
  5
38
102
{ACAD_REACTORS
330
2A
102
}
330
2A
100
AcDbVisualStyle
  2
Linepattern
 70
    14
 71
     2
 72
     2
 73
     0
 90
        0
 40
0.6
 41
30.0
 62
     5
 63
     7
421
 16777215
 74
     1
 91
        4
 64
     7
 65
   257
 75
     7
175
     7
 42
1.0
 92
        8
 66
     7
 43
1.0
 76
     1
 77
     6
 78
     2
 67
     7
 79
     5
170
     0
171
     0
290
     0
174
     0
 93
        1
 44
0.0
173
     0
291
     1
 45
0.0
  0
VISUALSTYLE
  5
3C
102
{ACAD_REACTORS
330
2A
102
}
330
2A
100
AcDbVisualStyle
  2
OverhangOff
 70
    21
 71
     2
 72
     2
 73
     0
 90
        0
 40
0.6
 41
30.0
 62
     5
 63
     7
421
 16777215
 74
     1
 91
        4
 64
     7
 65
   257
 75
     1
175
     1
 42
1.0
 92
        9
 66
     7
 43
1.0
 76
     1
 77
     6
 78
     2
 67
     7
 79
     5
170
     0
171
     0
290
     0
174
     0
 93
        1
 44
0.0
173
     0
291
     1
 45
0.0
  0
VISUALSTYLE
  5
33
102
{ACAD_REACTORS
330
2A
102
}
330
2A
100
AcDbVisualStyle
  2
Realistic
 70
     8
 71
     2
 72
     3
 73
     0
 90
        2
 40
0.6
 41
30.0
 62
     5
 63
     7
421
 16777215
 74
     0
 91
        0
 64
     7
 65
   257
 75
     1
175
     1
 42
1.0
 92
        8
 66
   257
 43
1.0
 76
     1
 77
     6
 78
     2
 67
     7
 79
     3
170
     0
171
     0
290
     0
174
     0
 93
       13
 44
0.0
173
     0
291
     0
 45
0.0
  0
VISUALSTYLE
  5
42
102
{ACAD_REACTORS
330
2A
102
}
330
2A
100
AcDbVisualStyle
  2
Shaded
 70
    27
 71
     2
 72
     2
 73
     1
 90
        2
 40
0.6
 41
30.0
 62
     5
 63
     7
421
 16777215
 74
     0
 91
        4
 64
     7
 65
   257
 75
     1
175
     1
 42
1.0
 92
        8
 66
   257
 43
1.0
 76
     1
 77
     6
 78
     2
 67
     8
425
  7895160
 79
     3
170
     0
171
     0
290
     0
174
     0
 93
        5
 44
0.0
173
     0
291
     0
 45
0.0
  0
VISUALSTYLE
  5
41
102
{ACAD_REACTORS
330
2A
102
}
330
2A
100
AcDbVisualStyle
  2
Shaded with edges
 70
    26
 71
     2
 72
     2
 73
     1
 90
        2
 40
0.6
 41
30.0
 62
     5
 63
     7
421
 16777215
 74
     1
 91
       10
 64
     7
 65
   257
 75
     2
175
     1
 42
1.0
 92
        8
 66
   257
 43
1.0
 76
     1
 77
     6
 78
     2
 67
     7
 79
     3
170
     0
171
     0
290
     0
174
     0
 93
        5
 44
0.0
173
     0
291
     0
 45
0.0
  0
VISUALSTYLE
  5
3E
102
{ACAD_REACTORS
330
2A
102
}
330
2A
100
AcDbVisualStyle
  2
Shades of Gray
 70
    23
 71
     2
 72
     2
 73
     3
 90
        0
 40
0.6
 41
30.0
 62
     5
 63
     7
421
 16777215
 74
     2
 91
        2
 64
     7
 65
     7
 75
     1
175
     1
 42
40.0
 92
        8
 66
     7
 43
1.0
 76
     1
 77
     6
 78
     2
 67
     7
 79
     3
170
     0
171
     0
290
     0
174
     0
 93
        1
 44
0.0
173
     0
291
     0
 45
0.0
  0
VISUALSTYLE
  5
3F
102
{ACAD_REACTORS
330
2A
102
}
330
2A
100
AcDbVisualStyle
  2
Sketchy
 70
    24
 71
     1
 72
     2
 73
     2
 90
        0
 40
0.6
 41
30.0
 62
     5
 63
     7
421
 16777215
 74
     2
 91
        2
 64
     7
 65
     7
 75
     1
175
     1
 42
40.0
 92
       11
 66
     7
 43
1.0
 76
     1
 77
     6
 78
     2
 67
     7
 79
     6
170
     0
171
     0
290
     0
174
     0
 93
        1
 44
0.0
173
     0
291
     0
 45
0.0
  0
VISUALSTYLE
  5
37
102
{ACAD_REACTORS
330
2A
102
}
330
2A
100
AcDbVisualStyle
  2
Thicken
 70
    13
 71
     2
 72
     2
 73
     0
 90
        0
 40
0.6
 41
30.0
 62
     5
 63
     7
421
 16777215
 74
     1
 91
        4
 64
     7
 65
   257
 75
     1
175
     1
 42
1.0
 92
       12
 66
     7
 43
1.0
 76
     1
 77
     6
 78
     2
 67
     7
 79
     5
170
     0
171
     0
290
     0
174
     0
 93
        1
 44
0.0
173
     0
291
     1
 45
0.0
  0
VISUALSTYLE
  5
30
102
{ACAD_REACTORS
330
2A
102
}
330
2A
100
AcDbVisualStyle
  2
Wireframe
 70
     5
 71
     0
 72
     2
 73
     0
 90
        0
 40
0.6
 41
30.0
 62
     5
 63
     7
421
 16777215
 74
     1
 91
        4
 64
     7
 65
   257
 75
     1
175
     1
 42
1.0
 92
        0
 66
   257
 43
1.0
 76
     1
 77
     6
 78
     2
 67
     7
 79
     3
170
     0
171
     0
290
     0
174
     0
 93
        1
 44
0.0
173
     0
291
     0
 45
0.0
  0
VISUALSTYLE
  5
40
102
{ACAD_REACTORS
330
2A
102
}
330
2A
100
AcDbVisualStyle
  2
X-Ray
 70
    25
 71
     2
 72
     2
 73
     1
 90
        1
 40
0.5
 41
30.0
 62
     5
 63
     7
421
 16777215
 74
     1
 91
        0
 64
     7
 65
   257
 75
     1
175
     1
 42
1.0
 92
        8
 66
     7
 43
1.0
 76
     1
 77
     6
 78
     2
 67
     7
 79
     3
170
     0
171
     0
290
     0
174
     0
 93
       13
 44
0.0
173
     0
291
     0
 45
0.0
  0
DICTIONARYVAR
  5
211
102
{ACAD_REACTORS
330
210
102
}
330
210
100
DictionaryVariables
280
     0
  1
1:1
  0
DICTIONARYVAR
  5
217
102
{ACAD_REACTORS
330
210
102
}
330
210
100
DictionaryVariables
280
     0
  1
Standard
  0
DICTIONARYVAR
  5
216
102
{ACAD_REACTORS
330
210
102
}
330
210
100
DictionaryVariables
280
     0
  1
Standard
  0
DICTIONARY
  5
212
330
6A
100
AcDbDictionary
280
     1
281
     1
  3
ACAD_ROUNDTRIP_2008_TABLESTYLE_CELLSTYLEMAP
360
213
  0
CELLSTYLEMAP
  5
213
102
{ACAD_REACTORS
330
212
102
}
330
212
100
AcDbCellStyleMap
 90
        3
300
CELLSTYLE
  1
TABLEFORMAT_BEGIN
 90
        5
170
     1
 91
        0
 92
    32768
 62
   257
 93
        1
300
CONTENTFORMAT
  1
CONTENTFORMAT_BEGIN
 90
        0
 91
        0
 92
        4
 93
        0
300

 40
0.0
140
1.0
 94
        5
 62
     0
340
11
144
6.0
309
CONTENTFORMAT_END
171
     1
301
MARGIN
  1
CELLMARGIN_BEGIN
 40
1.5
 40
1.5
 40
1.5
 40
1.5
 40
1.5
 40
1.5
309
CELLMARGIN_END
 94
        6
 95
        1
302
GRIDFORMAT
  1
GRIDFORMAT_BEGIN
 90
        0
 91
        1
 62
     0
 92
       -2
340
14
 93
        0
 40
0.045
309
GRIDFORMAT_END
 95
        2
302
GRIDFORMAT
  1
GRIDFORMAT_BEGIN
 90
        0
 91
        1
 62
     0
 92
       -2
340
14
 93
        0
 40
0.045
309
GRIDFORMAT_END
 95
        4
302
GRIDFORMAT
  1
GRIDFORMAT_BEGIN
 90
        0
 91
        1
 62
     0
 92
       -2
340
14
 93
        0
 40
0.045
309
GRIDFORMAT_END
 95
        8
302
GRIDFORMAT
  1
GRIDFORMAT_BEGIN
 90
        0
 91
        1
 62
     0
 92
       -2
340
14
 93
        0
 40
0.045
309
GRIDFORMAT_END
 95
       16
302
GRIDFORMAT
  1
GRIDFORMAT_BEGIN
 90
        0
 91
        1
 62
     0
 92
       -2
340
14
 93
        0
 40
0.045
309
GRIDFORMAT_END
 95
       32
302
GRIDFORMAT
  1
GRIDFORMAT_BEGIN
 90
        0
 91
        1
 62
     0
 92
       -2
340
14
 93
        0
 40
0.045
309
GRIDFORMAT_END
309
TABLEFORMAT_END
  1
CELLSTYLE_BEGIN
 90
        1
 91
        1
300
_TITLE
309
CELLSTYLE_END
300
CELLSTYLE
  1
TABLEFORMAT_BEGIN
 90
        5
170
     1
 91
        0
 92
        0
 62
   257
 93
        1
300
CONTENTFORMAT
  1
CONTENTFORMAT_BEGIN
 90
        0
 91
        0
 92
        4
 93
        0
300

 40
0.0
140
1.0
 94
        5
 62
     0
340
11
144
4.5
309
CONTENTFORMAT_END
171
     1
301
MARGIN
  1
CELLMARGIN_BEGIN
 40
1.5
 40
1.5
 40
1.5
 40
1.5
 40
1.5
 40
1.5
309
CELLMARGIN_END
 94
        6
 95
        1
302
GRIDFORMAT
  1
GRIDFORMAT_BEGIN
 90
        0
 91
        1
 62
     0
 92
       -2
340
14
 93
        0
 40
0.045
309
GRIDFORMAT_END
 95
        2
302
GRIDFORMAT
  1
GRIDFORMAT_BEGIN
 90
        0
 91
        1
 62
     0
 92
       -2
340
14
 93
        0
 40
0.045
309
GRIDFORMAT_END
 95
        4
302
GRIDFORMAT
  1
GRIDFORMAT_BEGIN
 90
        0
 91
        1
 62
     0
 92
       -2
340
14
 93
        0
 40
0.045
309
GRIDFORMAT_END
 95
        8
302
GRIDFORMAT
  1
GRIDFORMAT_BEGIN
 90
        0
 91
        1
 62
     0
 92
       -2
340
14
 93
        0
 40
0.045
309
GRIDFORMAT_END
 95
       16
302
GRIDFORMAT
  1
GRIDFORMAT_BEGIN
 90
        0
 91
        1
 62
     0
 92
       -2
340
14
 93
        0
 40
0.045
309
GRIDFORMAT_END
 95
       32
302
GRIDFORMAT
  1
GRIDFORMAT_BEGIN
 90
        0
 91
        1
 62
     0
 92
       -2
340
14
 93
        0
 40
0.045
309
GRIDFORMAT_END
309
TABLEFORMAT_END
  1
CELLSTYLE_BEGIN
 90
        2
 91
        1
300
_HEADER
309
CELLSTYLE_END
300
CELLSTYLE
  1
TABLEFORMAT_BEGIN
 90
        5
170
     1
 91
        0
 92
        0
 62
   257
 93
        1
300
CONTENTFORMAT
  1
CONTENTFORMAT_BEGIN
 90
        0
 91
        0
 92
        4
 93
        0
300

 40
0.0
140
1.0
 94
        2
 62
     0
340
11
144
4.5
309
CONTENTFORMAT_END
171
     1
301
MARGIN
  1
CELLMARGIN_BEGIN
 40
1.5
 40
1.5
 40
1.5
 40
1.5
 40
1.5
 40
1.5
309
CELLMARGIN_END
 94
        6
 95
        1
302
GRIDFORMAT
  1
GRIDFORMAT_BEGIN
 90
        0
 91
        1
 62
     0
 92
       -2
340
14
 93
        0
 40
0.045
309
GRIDFORMAT_END
 95
        2
302
GRIDFORMAT
  1
GRIDFORMAT_BEGIN
 90
        0
 91
        1
 62
     0
 92
       -2
340
14
 93
        0
 40
0.045
309
GRIDFORMAT_END
 95
        4
302
GRIDFORMAT
  1
GRIDFORMAT_BEGIN
 90
        0
 91
        1
 62
     0
 92
       -2
340
14
 93
        0
 40
0.045
309
GRIDFORMAT_END
 95
        8
302
GRIDFORMAT
  1
GRIDFORMAT_BEGIN
 90
        0
 91
        1
 62
     0
 92
       -2
340
14
 93
        0
 40
0.045
309
GRIDFORMAT_END
 95
       16
302
GRIDFORMAT
  1
GRIDFORMAT_BEGIN
 90
        0
 91
        1
 62
     0
 92
       -2
340
14
 93
        0
 40
0.045
309
GRIDFORMAT_END
 95
       32
302
GRIDFORMAT
  1
GRIDFORMAT_BEGIN
 90
        0
 91
        1
 62
     0
 92
       -2
340
14
 93
        0
 40
0.045
309
GRIDFORMAT_END
309
TABLEFORMAT_END
  1
CELLSTYLE_BEGIN
 90
        3
 91
        2
300
_DATA
309
CELLSTYLE_END
  0
ENDSEC
  0
EOF
