  0
SECTION
  2
HEADER
  9
$ACADVER
  1
AC1021
  9
$ACADMAINTVER
 70
    25
  9
$DWGCODEPAGE
  3
ANSI_1250
  9
$INSBASE
 10
0.0
 20
0.0
 30
0.0
  9
$EXTMIN
 10
0.0
 20
0.0
 30
0.0
  9
$EXTMAX
 10
0.21
 20
0.297
 30
0.0
  9
$LIMMIN
 10
0.0
 20
0.0
  9
$LIMMAX
 10
0.21
 20
0.297
  9
$ORTHOMODE
 70
     0
  9
$REGENMODE
 70
     1
  9
$FILLMODE
 70
     1
  9
$QTEXTMODE
 70
     0
  9
$MIRRTEXT
 70
     1
  9
$LTSCALE
 40
1.0
  9
$ATTMODE
 70
     1
  9
$TEXTSIZE
 40
0.0035
  9
$TRACEWID
 40
1.0
  9
$TEXTSTYLE
  7
Standard
  9
$CLAYER
  8
0
  9
$CELTYPE
  6
ByLayer
  9
$CECOLOR
 62
   256
  9
$CELTSCALE
 40
1.0
  9
$DISPSILH
 70
     0
  9
$DIMSCALE
 40
1.0
  9
$DIMASZ
 40
0.003302
  9
$DIMEXO
 40
0.001
  9
$DIMDLI
 40
3.75
  9
$DIMRND
 40
0.0
  9
$DIMDLE
 40
0.0
  9
$DIMEXE
 40
0.001
  9
$DIMTP
 40
0.0
  9
$DIMTM
 40
0.0
  9
$DIMTXT
 40
0.0035
  9
$DIMCEN
 40
2.5
  9
$DIMTSZ
 40
0.0
  9
$DIMTOL
 70
     0
  9
$DIMLIM
 70
     0
  9
$DIMTIH
 70
     1
  9
$DIMTOH
 70
     1
  9
$DIMSE1
 70
     0
  9
$DIMSE2
 70
     0
  9
$DIMTAD
 70
     1
  9
$DIMZIN
 70
     0
  9
$DIMBLK
  1

  9
$DIMASO
 70
     1
  9
$DIMSHO
 70
     1
  9
$DIMPOST
  1

  9
$DIMAPOST
  1

  9
$DIMALT
 70
     0
  9
$DIMALTD
 70
     3
  9
$DIMALTF
 40
39.3700787402
  9
$DIMLFAC
 40
50.0
  9
$DIMTOFL
 70
     1
  9
$DIMTVP
 40
0.0
  9
$DIMTIX
 70
     0
  9
$DIMSOXD
 70
     0
  9
$DIMSAH
 70
     0
  9
$DIMBLK1
  1

  9
$DIMBLK2
  1

  9
$DIMSTYLE
  2
ISO-25
  9
$DIMCLRD
 70
     0
  9
$DIMCLRE
 70
     0
  9
$DIMCLRT
 70
     0
  9
$DIMTFAC
 40
1.0
  9
$DIMGAP
 40
0.001524
  9
$DIMJUST
 70
     0
  9
$DIMSD1
 70
     0
  9
$DIMSD2
 70
     0
  9
$DIMTOLJ
 70
     0
  9
$DIMTZIN
 70
     0
  9
$DIMALTZ
 70
     0
  9
$DIMALTTZ
 70
     0
  9
$DIMUPT
 70
     0
  9
$DIMDEC
 70
     2
  9
$DIMTDEC
 70
     2
  9
$DIMALTU
 70
     2
  9
$DIMALTTD
 70
     3
  9
$DIMTXSTY
  7
Standard
  9
$DIMAUNIT
 70
     0
  9
$DIMADEC
 70
     2
  9
$DIMALTRND
 40
0.0
  9
$DIMAZIN
 70
     0
  9
$DIMDSEP
 70
    44
  9
$DIMATFIT
 70
     3
  9
$DIMFRAC
 70
     0
  9
$DIMLDRBLK
  1

  9
$DIMLUNIT
 70
     2
  9
$DIMLWD
 70
    -2
  9
$DIMLWE
 70
    -2
  9
$DIMTMOVE
 70
     0
  9
$DIMFXL
 40
1.0
  9
$DIMFXLON
 70
     0
  9
$DIMJOGANG
 40
0.7853981634
  9
$DIMTFILL
 70
     0
  9
$DIMTFILLCLR
 70
     0
  9
$DIMARCSYM
 70
     0
  9
$DIMLTYPE
  6

  9
$DIMLTEX1
  6

  9
$DIMLTEX2
  6

  9
$LUNITS
 70
     2
  9
$LUPREC
 70
     2
  9
$SKETCHINC
 40
1.0
  9
$FILLETRAD
 40
10.0
  9
$AUNITS
 70
     0
  9
$AUPREC
 70
     2
  9
$MENU
  1
.
  9
$ELEVATION
 40
0.0
  9
$PELEVATION
 40
0.0
  9
$THICKNESS
 40
0.0
  9
$LIMCHECK
 70
     0
  9
$CHAMFERA
 40
0.0
  9
$CHAMFERB
 40
0.0
  9
$CHAMFERC
 40
0.0
  9
$CHAMFERD
 40
0.0
  9
$SKPOLY
 70
     0
  9
$TDCREATE
 40
2458074.498622593
  9
$TDUCREATE
 40
2458074.456955926
  9
$TDUPDATE
 40
2458074.498622755
  9
$TDUUPDATE
 40
2458074.456956088
  9
$TDINDWG
 40
0.0000000116
  9
$TDUSRTIMER
 40
0.0000000116
  9
$USRTIMER
 70
     1
  9
$ANGBASE
 50
0.0
  9
$ANGDIR
 70
     0
  9
$PDMODE
 70
     0
  9
$PDSIZE
 40
-1.0
  9
$PLINEWID
 40
0.0
  9
$SPLFRAME
 70
     0
  9
$SPLINETYPE
 70
     6
  9
$SPLINESEGS
 70
     8
  9
$HANDSEED
  5
147
  9
$SURFTAB1
 70
     6
  9
$SURFTAB2
 70
     6
  9
$SURFTYPE
 70
     6
  9
$SURFU
 70
     6
  9
$SURFV
 70
     6
  9
$UCSBASE
  2

  9
$UCSNAME
  2

  9
$UCSORG
 10
0.0
 20
0.0
 30
0.0
  9
$UCSXDIR
 10
1.0
 20
0.0
 30
0.0
  9
$UCSYDIR
 10
0.0
 20
1.0
 30
0.0
  9
$UCSORTHOREF
  2

  9
$UCSORTHOVIEW
 70
     0
  9
$UCSORGTOP
 10
0.0
 20
0.0
 30
0.0
  9
$UCSORGBOTTOM
 10
0.0
 20
0.0
 30
0.0
  9
$UCSORGLEFT
 10
0.0
 20
0.0
 30
0.0
  9
$UCSORGRIGHT
 10
0.0
 20
0.0
 30
0.0
  9
$UCSORGFRONT
 10
0.0
 20
0.0
 30
0.0
  9
$UCSORGBACK
 10
0.0
 20
0.0
 30
0.0
  9
$PUCSBASE
  2

  9
$PUCSNAME
  2

  9
$PUCSORG
 10
0.0
 20
0.0
 30
0.0
  9
$PUCSXDIR
 10
1.0
 20
0.0
 30
0.0
  9
$PUCSYDIR
 10
0.0
 20
1.0
 30
0.0
  9
$PUCSORTHOREF
  2

  9
$PUCSORTHOVIEW
 70
     0
  9
$PUCSORGTOP
 10
0.0
 20
0.0
 30
0.0
  9
$PUCSORGBOTTOM
 10
0.0
 20
0.0
 30
0.0
  9
$PUCSORGLEFT
 10
0.0
 20
0.0
 30
0.0
  9
$PUCSORGRIGHT
 10
0.0
 20
0.0
 30
0.0
  9
$PUCSORGFRONT
 10
0.0
 20
0.0
 30
0.0
  9
$PUCSORGBACK
 10
0.0
 20
0.0
 30
0.0
  9
$USERI1
 70
     0
  9
$USERI2
 70
     0
  9
$USERI3
 70
     0
  9
$USERI4
 70
     0
  9
$USERI5
 70
     0
  9
$USERR1
 40
0.0
  9
$USERR2
 40
0.0
  9
$USERR3
 40
0.0
  9
$USERR4
 40
0.0
  9
$USERR5
 40
0.0
  9
$WORLDVIEW
 70
     1
  9
$SHADEDGE
 70
     3
  9
$SHADEDIF
 70
    70
  9
$TILEMODE
 70
     1
  9
$MAXACTVP
 70
    64
  9
$PINSBASE
 10
0.0
 20
0.0
 30
0.0
  9
$PLIMCHECK
 70
     0
  9
$PEXTMIN
 10
1.0000000000E+20
 20
1.0000000000E+20
 30
1.0000000000E+20
  9
$PEXTMAX
 10
-1.0000000000E+20
 20
-1.0000000000E+20
 30
-1.0000000000E+20
  9
$PLIMMIN
 10
0.0
 20
0.0
  9
$PLIMMAX
 10
420.0
 20
297.0
  9
$UNITMODE
 70
     0
  9
$VISRETAIN
 70
     1
  9
$PLINEGEN
 70
     0
  9
$PSLTSCALE
 70
     1
  9
$TREEDEPTH
 70
  3020
  9
$CMLSTYLE
  2
Standard
  9
$CMLJUST
 70
     0
  9
$CMLSCALE
 40
20.0
  9
$PROXYGRAPHICS
 70
     1
  9
$MEASUREMENT
 70
     1
  9
$CELWEIGHT
370
    -1
  9
$ENDCAPS
280
     0
  9
$JOINSTYLE
280
     0
  9
$LWDISPLAY
290
     1
  9
$INSUNITS
 70
     4
  9
$HYPERLINKBASE
  1

  9
$STYLESHEET
  1

  9
$XEDIT
290
     1
  9
$CEPSNTYPE
380
     0
  9
$PSTYLEMODE
290
     1
  9
$FINGERPRINTGUID
  2
{C1AB2A1F-8B3E-4499-99C3-21700F09F28E}
  9
$VERSIONGUID
  2
{FAEB1C32-E019-11D5-929B-00C0DF256EC4}
  9
$EXTNAMES
290
     1
  9
$PSVPSCALE
 40
0.0
  9
$OLESTARTUP
290
     0
  9
$SORTENTS
280
   127
  9
$INDEXCTL
280
     0
  9
$HIDETEXT
280
     1
  9
$XCLIPFRAME
290
     0
  9
$HALOGAP
280
     0
  9
$OBSCOLOR
 70
   257
  9
$OBSLTYPE
280
     0
  9
$INTERSECTIONDISPLAY
280
     0
  9
$INTERSECTIONCOLOR
 70
   257
  9
$DIMASSOC
280
     2
  9
$PROJECTNAME
  1

  9
$CAMERADISPLAY
290
     0
  9
$LENSLENGTH
 40
50.0
  9
$CAMERAHEIGHT
 40
0.0
  9
$STEPSPERSEC
 40
2.0
  9
$STEPSIZE
 40
6.0
  9
$3DDWFPREC
 40
2.0
  9
$PSOLWIDTH
 40
5.0
  9
$PSOLHEIGHT
 40
80.0
  9
$LOFTANG1
 40
1.5707963268
  9
$LOFTANG2
 40
1.5707963268
  9
$LOFTMAG1
 40
0.0
  9
$LOFTMAG2
 40
0.0
  9
$LOFTPARAM
 70
     7
  9
$LOFTNORMALS
280
     1
  9
$LATITUDE
 40
37.795
  9
$LONGITUDE
 40
-122.394
  9
$NORTHDIRECTION
 40
0.0
  9
$TIMEZONE
 70
 -8000
  9
$LIGHTGLYPHDISPLAY
280
     1
  9
$TILEMODELIGHTSYNCH
280
     1
  9
$CMATERIAL
347
44
  9
$SOLIDHIST
280
     0
  9
$SHOWHIST
280
     1
  9
$DWFFRAME
280
     2
  9
$DGNFRAME
280
     2
  9
$REALWORLDSCALE
290
     1
  9
$INTERFERECOLOR
 62
   256
  9
$CSHADOW
280
     0
  9
$SHADOWPLANELOCATION
 40
0.0
  0
ENDSEC
  0
SECTION
  2
CLASSES
  0
CLASS
  1
ACDBDICTIONARYWDFLT
  2
AcDbDictionaryWithDefault
  3
ObjectDBX Classes
 90
        0
 91
        4
280
     0
281
     0
  0
CLASS
  1
VISUALSTYLE
  2
AcDbVisualStyle
  3
ObjectDBX Classes
 90
     4095
 91
        4
280
     0
281
     0
  0
CLASS
  1
MATERIAL
  2
AcDbMaterial
  3
ObjectDBX Classes
 90
     1153
 91
        4
280
     0
281
     0
  0
CLASS
  1
SCALE
  2
AcDbScale
  3
ObjectDBX Classes
 90
     1153
 91
        4
280
     0
281
     0
  0
CLASS
  1
TABLESTYLE
  2
AcDbTableStyle
  3
ObjectDBX Classes
 90
     4095
 91
        4
280
     0
281
     0
  0
CLASS
  1
MLEADERSTYLE
  2
AcDbMLeaderStyle
  3
ACDB_MLEADERSTYLE_CLASS
 90
     4095
 91
        4
280
     0
281
     0
  0
CLASS
  1
SUN
  2
AcDbSun
  3
SCENEOE
 90
     1153
 91
        4
280
     0
281
     0
  0
CLASS
  1
DICTIONARYVAR
  2
AcDbDictionaryVar
  3
ObjectDBX Classes
 90
        0
 91
        4
280
     0
281
     0
  0
CLASS
  1
CELLSTYLEMAP
  2
AcDbCellStyleMap
  3
ObjectDBX Classes
 90
     1152
 91
        4
280
     0
281
     0
  0
ENDSEC
  0
SECTION
  2
TABLES
  0
TABLE
  2
VPORT
  5
8
330
0
100
AcDbSymbolTable
 70
     1
  0
VPORT
  5
29
330
8
100
AcDbSymbolTableRecord
100
AcDbViewportTableRecord
  2
*Active
 70
     0
 10
0.0
 20
0.0
 11
1.0
 21
1.0
 12
0.105
 22
0.1485
 13
0.0
 23
0.0
 14
10.0
 24
10.0
 15
10.0
 25
10.0
 16
0.0
 26
0.0
 36
1.0
 17
0.0
 27
0.0
 37
0.0
 40
0.297
 41
0.7070707071
 42
50.0
 43
0.0
 44
0.0
 50
0.0
 51
0.0
 71
     0
 72
  2000
 73
     1
 74
     3
 75
     0
 76
     0
 77
     0
 78
     0
281
     0
 65
     1
110
0.0
120
0.0
130
0.0
111
1.0
121
0.0
131
0.0
112
0.0
122
1.0
132
0.0
 79
     0
146
0.0
 60
     3
 61
     5
292
     1
282
     1
141
0.0
142
0.0
 63
   250
361
6D
  0
ENDTAB
  0
TABLE
  2
LTYPE
  5
5
330
0
100
AcDbSymbolTable
 70
     6
  0
LTYPE
  5
14
330
5
100
AcDbSymbolTableRecord
100
AcDbLinetypeTableRecord
  2
ByBlock
 70
     0
  3

 72
    65
 73
     0
 40
0.0
  0
LTYPE
  5
15
330
5
100
AcDbSymbolTableRecord
100
AcDbLinetypeTableRecord
  2
ByLayer
 70
     0
  3

 72
    65
 73
     0
 40
0.0
  0
LTYPE
  5
16
330
5
100
AcDbSymbolTableRecord
100
AcDbLinetypeTableRecord
  2
Continuous
 70
     0
  3
Solid line
 72
    65
 73
     0
 40
0.0
  0
LTYPE
  5
6E
330
5
100
AcDbSymbolTableRecord
100
AcDbLinetypeTableRecord
  2
HIDDEN
 70
     0
  3
Hidden __ __ __ __ __ __ __ __ __ __ __ __ __ __
 72
    65
 73
     2
 40
0.001905
 49
0.00127
 74
     0
 49
-0.000635
 74
     0
  0
LTYPE
  5
6F
330
5
100
AcDbSymbolTableRecord
100
AcDbLinetypeTableRecord
  2
PHANTOM
 70
     0
  3
Phantom ______  __  __  ______  __  __  ______
 72
    65
 73
     6
 40
0.0127
 49
0.00635
 74
     0
 49
-0.00127
 74
     0
 49
0.00127
 74
     0
 49
-0.00127
 74
     0
 49
0.00127
 74
     0
 49
-0.00127
 74
     0
  0
LTYPE
  5
70
330
5
100
AcDbSymbolTableRecord
100
AcDbLinetypeTableRecord
  2
CENTER
 70
     0
  3
Center ____ _ ____ _ ____ _ ____ _ ____ _ ____
 72
    65
 73
     4
 40
0.01016
 49
0.00635
 74
     0
 49
-0.00127
 74
     0
 49
0.00127
 74
     0
 49
-0.00127
 74
     0
  0
LTYPE
  5
71
330
5
100
AcDbSymbolTableRecord
100
AcDbLinetypeTableRecord
  2
CENTERX2
 70
     0
  3
Center (2x) ________  __  ________  __  _____
 72
    65
 73
     4
 40
0.02032
 49
0.0127
 74
     0
 49
-0.00254
 74
     0
 49
0.00254
 74
     0
 49
-0.00254
 74
     0
  0
LTYPE
  5
72
330
5
100
AcDbSymbolTableRecord
100
AcDbLinetypeTableRecord
  2
DOT2
 70
     0
  3
Dot (.5x) ........................................
 72
    65
 73
     2
 40
0.000635
 49
0.0
 74
     0
 49
-0.000635
 74
     0
  0
ENDTAB
  0
TABLE
  2
LAYER
  5
2
330
0
100
AcDbSymbolTable
 70
     2
  0
LAYER
  5
10
330
2
100
AcDbSymbolTableRecord
100
AcDbLayerTableRecord
  2
0
 70
     0
 62
     7
  6
Continuous
370
    -3
390
F
347
46
  0
LAYER
  5
73
330
2
100
AcDbSymbolTableRecord
100
AcDbLayerTableRecord
  2
FORMAT
 70
     0
 62
     7
  6
Continuous
370
    -3
390
F
347
46
  0
ENDTAB
  0
TABLE
  2
STYLE
  5
3
330
0
100
AcDbSymbolTable
 70
     1
  0
STYLE
  5
11
330
3
100
AcDbSymbolTableRecord
100
AcDbTextStyleTableRecord
  2
Standard
 70
     0
 40
0.0
 41
1.0
 50
0.0
 71
     0
 42
0.0035
  3
txt
  4

  0
ENDTAB
  0
TABLE
  2
VIEW
  5
6
330
0
100
AcDbSymbolTable
 70
     0
  0
ENDTAB
  0
TABLE
  2
UCS
  5
7
330
0
100
AcDbSymbolTable
 70
     0
  0
ENDTAB
  0
TABLE
  2
APPID
  5
9
330
0
100
AcDbSymbolTable
 70
     2
  0
APPID
  5
12
330
9
100
AcDbSymbolTableRecord
100
AcDbRegAppTableRecord
  2
ACAD
 70
     0
  0
APPID
  5
141
330
9
100
AcDbSymbolTableRecord
100
AcDbRegAppTableRecord
  2
ACAD_MLEADERVER
 70
     0
  0
ENDTAB
  0
TABLE
  2
DIMSTYLE
  5
A
330
0
100
AcDbSymbolTable
 70
     1
100
AcDbDimStyleTable
  0
DIMSTYLE
105
27
330
A
100
AcDbSymbolTableRecord
100
AcDbDimStyleTableRecord
  2
ISO-25
 70
     0
 41
2.5
 42
0.625
 43
3.75
 44
1.25
 73
     0
 74
     0
 77
     1
 78
     8
140
2.5
141
2.5
143
0.0393700787
147
0.625
171
     3
172
     1
178
     0
271
     2
272
     2
274
     3
278
    44
283
     0
284
     8
340
11
  0
ENDTAB
  0
TABLE
  2
BLOCK_RECORD
  5
1
330
0
100
AcDbSymbolTable
 70
     1
  0
BLOCK_RECORD
  5
1F
330
1
100
AcDbSymbolTableRecord
100
AcDbBlockTableRecord
  2
*Model_Space
340
22
 70
     0
280
     1
281
     0
  0
BLOCK_RECORD
  5
1B
330
1
100
AcDbSymbolTableRecord
100
AcDbBlockTableRecord
  2
*Paper_Space
340
1E
 70
     0
280
     1
281
     0
  0
BLOCK_RECORD
  5
23
330
1
100
AcDbSymbolTableRecord
100
AcDbBlockTableRecord
  2
*Paper_Space0
340
26
 70
     0
280
     1
281
     0
  0
ENDTAB
  0
ENDSEC
  0
SECTION
  2
BLOCKS
  0
BLOCK
  5
20
330
1F
100
AcDbEntity
  8
0
100
AcDbBlockBegin
  2
*Model_Space
 70
     0
 10
0.0
 20
0.0
 30
0.0
  3
*Model_Space
  1

  0
ENDBLK
  5
21
330
1F
100
AcDbEntity
  8
0
100
AcDbBlockEnd
  0
BLOCK
  5
1C
330
1B
100
AcDbEntity
 67
     1
  8
0
100
AcDbBlockBegin
  2
*Paper_Space
 70
     0
 10
0.0
 20
0.0
 30
0.0
  3
*Paper_Space
  1

  0
ENDBLK
  5
1D
330
1B
100
AcDbEntity
 67
     1
  8
0
100
AcDbBlockEnd
  0
BLOCK
  5
24
330
23
100
AcDbEntity
  8
0
100
AcDbBlockBegin
  2
*Paper_Space0
 70
     0
 10
0.0
 20
0.0
 30
0.0
  3
*Paper_Space0
  1

  0
ENDBLK
  5
25
330
23
100
AcDbEntity
  8
0
100
AcDbBlockEnd
  0
ENDSEC
  0
SECTION
  2
ENTITIES
  0
LINE
  5
74
330
1F
100
AcDbEntity
  8
0
  6
Continuous
 62
     7
370
    25
100
AcDbLine
 10
0.1173357839
 20
0.1686370053
 30
0.0
 11
0.1173357839
 21
0.1686294093
 31
0.0
  0
LINE
  5
75
330
1F
100
AcDbEntity
  8
0
  6
Continuous
 62
     7
370
    25
100
AcDbLine
 10
0.1176157839
 20
0.1686294093
 30
0.0
 11
0.1176157839
 21
0.1686370053
 31
0.0
  0
ARC
  5
76
330
1F
100
AcDbEntity
  8
0
  6
Continuous
 62
     7
370
    25
100
AcDbCircle
 10
0.1174757841
 20
0.1685857897
 30
0.0
 40
0.0001490747274042
100
AcDbArc
 50
118.00594401
 51
159.9053469508
  0
ARC
  5
77
330
1F
100
AcDbEntity
  8
0
  6
Continuous
 62
     7
370
    25
100
AcDbCircle
 10
0.1174757841
 20
0.1685857897
 30
0.0
 40
0.0001490747274042
100
AcDbArc
 50
20.0946530492
 51
61.99405599
  0
LINE
  5
78
330
1F
100
AcDbEntity
  8
0
  6
Continuous
 62
     7
370
    25
100
AcDbLine
 10
0.0943137694
 20
0.1686370053
 30
0.0
 11
0.0943137694
 21
0.1686294093
 31
0.0
  0
LINE
  5
79
330
1F
100
AcDbEntity
  8
0
  6
Continuous
 62
     7
370
    25
100
AcDbLine
 10
0.0945937706
 20
0.1686294093
 30
0.0
 11
0.0945937706
 21
0.1686370053
 31
0.0
  0
ARC
  5
7A
330
1F
100
AcDbEntity
  8
0
  6
Continuous
 62
     7
370
    25
100
AcDbCircle
 10
0.09445377
 20
0.1685857897
 30
0.0
 40
0.0001490747274042
100
AcDbArc
 50
118.00594401
 51
159.9053469508
  0
ARC
  5
7B
330
1F
100
AcDbEntity
  8
0
  6
Continuous
 62
     7
370
    25
100
AcDbCircle
 10
0.09445377
 20
0.1685857897
 30
0.0
 40
0.0001490747274042
100
AcDbArc
 50
20.0946530492
 51
61.99405599
  0
LWPOLYLINE
  5
7C
330
1F
100
AcDbEntity
  8
0
  6
Continuous
 62
     7
370
    25
100
AcDbPolyline
 90
       34
 70
   128
 43
0.0
 10
0.0954017032
 20
0.16815941
 10
0.0954900826
 20
0.1680533567
 10
0.0955662752
 20
0.1679509893
 10
0.0956308068
 20
0.1678627029
 10
0.0956831861
 20
0.1677931419
 10
0.0957281281
 20
0.1677364936
 10
0.0957726706
 20
0.1676840415
 10
0.0958168496
 20
0.167636291
 10
0.0958610428
 20
0.1675932136
 10
0.0959247042
 20
0.167539927
 10
0.0959954144
 20
0.1674932065
 10
0.096073047
 20
0.1674568906
 10
0.0961144627
 20
0.1674437633
 10
0.0961577977
 20
0.1674345222
 10
0.0962008334
 20
0.1674296203
 10
0.0962296368
 20
0.1674282851
 10
0.0962553192
 20
0.1674281421
 10
0.0962781609
 20
0.1674286904
 10
0.0962987388
 20
0.1674295631
 10
0.0963243021
 20
0.1674307695
 10
0.0963513506
 20
0.1674316707
 10
0.096384914
 20
0.1674322
 10
0.0964140607
 20
0.1674322906
 10
0.0964451374
 20
0.1674320951
 10
0.0964759494
 20
0.1674316278
 10
0.0965047444
 20
0.1674309173
 10
0.0965307809
 20
0.1674300447
 10
0.0965427364
 20
0.1674295821
 10
0.096554066
 20
0.1674291291
 10
0.0965755166
 20
0.1674282184
 10
0.09658422
 20
0.1674277988
 10
0.0965902258
 20
0.1674275031
 10
0.096595496
 20
0.1674274316
 10
0.0965952636
 20
0.1674276795
  0
LWPOLYLINE
  5
7D
330
1F
100
AcDbEntity
  8
0
  6
Continuous
 62
     7
370
    25
100
AcDbPolyline
 90
       16
 70
   128
 43
0.0
 10
0.0965946794
 20
0.1674288001
 10
0.0965946437
 20
0.1674292674
 10
0.096603346
 20
0.1674285855
 10
0.0966185833
 20
0.1674257817
 10
0.0966386522
 20
0.167420341
 10
0.0966620899
 20
0.1674116197
 10
0.0966868354
 20
0.167399365
 10
0.0967383731
 20
0.1673639646
 10
0.0967923761
 20
0.1673163476
 10
0.0968300558
 20
0.1672807756
 10
0.0968701709
 20
0.1672446551
 10
0.0969138957
 20
0.1672108235
 10
0.0969496382
 20
0.1671893182
 10
0.0969898249
 20
0.1671727767
 10
0.0970367659
 20
0.1671625724
 10
0.097090906
 20
0.1671594062
  0
LWPOLYLINE
  5
7E
330
1F
100
AcDbEntity
  8
0
  6
Continuous
 62
     7
370
    25
100
AcDbPolyline
 90
       26
 70
   128
 43
0.0
 10
0.0975208415
 20
0.1671594062
 10
0.097578416
 20
0.1671631732
 10
0.0976292039
 20
0.167172257
 10
0.0976740695
 20
0.1671852508
 10
0.0977137555
 20
0.167200953
 10
0.097780012
 20
0.1672366824
 10
0.0978318847
 20
0.1672733226
 10
0.0978956414
 20
0.1673285403
 10
0.0979502345
 20
0.1673834004
 10
0.0980032171
 20
0.1674409976
 10
0.0980562604
 20
0.1674998965
 10
0.0981122674
 20
0.1675597587
 10
0.0981730033
 20
0.1676181665
 10
0.0982399739
 20
0.1676715818
 10
0.0983265615
 20
0.1677217593
 10
0.0984217525
 20
0.1677589097
 10
0.0985203672
 20
0.1677899661
 10
0.0986164845
 20
0.1678225913
 10
0.0987041749
 20
0.1678643909
 10
0.098772924
 20
0.1679175963
 10
0.0987992717
 20
0.1679481855
 10
0.0988254417
 20
0.1679900899
 10
0.0988388098
 20
0.1680195966
 10
0.0988511075
 20
0.1680564799
 10
0.0988610984
 20
0.1681024041
 10
0.0988672651
 20
0.16815941
  0
LWPOLYLINE
  5
7F
330
1F
100
AcDbEntity
  8
0
  6
Continuous
 62
     7
370
    25
100
AcDbPolyline
 90
       34
 70
   128
 43
0.0
 10
0.1058681411
 20
0.1685494056
 10
0.1057797618
 20
0.1686554589
 10
0.1057035686
 20
0.1687578263
 10
0.1056390373
 20
0.1688461127
 10
0.1055866576
 20
0.1689156737
 10
0.1055417157
 20
0.168972322
 10
0.1054971738
 20
0.1690247741
 10
0.1054529939
 20
0.1690725246
 10
0.1054088012
 20
0.169115602
 10
0.1053451405
 20
0.1691688886
 10
0.1052744291
 20
0.1692156091
 10
0.1051967967
 20
0.169251925
 10
0.1051553811
 20
0.1692650523
 10
0.1051120464
 20
0.1692742934
 10
0.1050690104
 20
0.1692791953
 10
0.1050402073
 20
0.1692805305
 10
0.1050145249
 20
0.1692806687
 10
0.1049916829
 20
0.1692801251
 10
0.1049711056
 20
0.1692792525
 10
0.1049455417
 20
0.1692780461
 10
0.1049184937
 20
0.1692771449
 10
0.1048849306
 20
0.1692766156
 10
0.1048557831
 20
0.169276525
 10
0.1048247064
 20
0.1692767205
 10
0.1047938947
 20
0.1692771878
 10
0.1047650994
 20
0.1692778983
 10
0.1047390638
 20
0.1692787709
 10
0.1047271071
 20
0.1692792335
 10
0.1047157783
 20
0.1692796865
 10
0.1046943278
 20
0.1692805972
 10
0.1046856243
 20
0.1692810168
 10
0.104679618
 20
0.1692813125
 10
0.1046743483
 20
0.169281384
 10
0.1046745805
 20
0.169281136
  0
LWPOLYLINE
  5
80
330
1F
100
AcDbEntity
  8
0
  6
Continuous
 62
     7
370
    25
100
AcDbPolyline
 90
       16
 70
   128
 43
0.0
 10
0.1046751649
 20
0.1692800155
 10
0.1046752001
 20
0.1692795482
 10
0.1046664975
 20
0.1692802301
 10
0.1046512614
 20
0.1692830291
 10
0.1046311922
 20
0.1692884746
 10
0.1046077544
 20
0.1692971959
 10
0.1045830087
 20
0.1693094506
 10
0.1045314706
 20
0.169344851
 10
0.1044774682
 20
0.169392468
 10
0.1044397889
 20
0.16942804
 10
0.1043996731
 20
0.1694641605
 10
0.1043559487
 20
0.169497992
 10
0.1043202055
 20
0.1695194974
 10
0.1042800195
 20
0.1695360389
 10
0.1042330785
 20
0.1695462432
 10
0.1041789378
 20
0.1695494094
  0
LWPOLYLINE
  5
81
330
1F
100
AcDbEntity
  8
0
  6
Continuous
 62
     7
370
    25
100
AcDbPolyline
 90
       26
 70
   128
 43
0.0
 10
0.1037490029
 20
0.1695494094
 10
0.1036914278
 20
0.1695456424
 10
0.1036406399
 20
0.1695365586
 10
0.1035957743
 20
0.1695235648
 10
0.1035560895
 20
0.1695078626
 10
0.1034898318
 20
0.1694721332
 10
0.1034379596
 20
0.169435493
 10
0.1033742029
 20
0.1693802753
 10
0.1033196105
 20
0.1693254151
 10
0.1032666273
 20
0.169267818
 10
0.1032135839
 20
0.1692089191
 10
0.103157577
 20
0.1691490569
 10
0.1030968405
 20
0.1690906491
 10
0.1030298699
 20
0.1690372338
 10
0.1029432828
 20
0.1689870563
 10
0.1028480912
 20
0.1689499059
 10
0.1027494771
 20
0.1689188495
 10
0.1026533599
 20
0.1688862243
 10
0.1025656689
 20
0.1688444247
 10
0.1024969209
 20
0.1687912192
 10
0.1024705721
 20
0.1687606301
 10
0.1024444027
 20
0.1687187257
 10
0.1024310339
 20
0.168689219
 10
0.1024187369
 20
0.1686523357
 10
0.102408746
 20
0.1686064115
 10
0.1024025793
 20
0.1685494056
  0
ARC
  5
82
330
1F
100
AcDbEntity
  8
0
  6
Continuous
 62
     7
370
    25
100
AcDbCircle
 10
0.1135842754
 20
0.1651019543
 30
0.0
 40
0.0023304123927208
100
AcDbArc
 50
88.9378804389
 51
91.6715584197
  0
LWPOLYLINE
  5
83
330
1F
100
AcDbEntity
  8
0
  6
Continuous
 62
     7
370
    25
100
AcDbPolyline
 90
       26
 70
   128
 43
0.0
 10
0.1146947099
 20
0.1671594062
 10
0.114752285
 20
0.1671631732
 10
0.1148030729
 20
0.167172257
 10
0.1148479379
 20
0.1671852508
 10
0.1148876233
 20
0.167200953
 10
0.114953881
 20
0.1672366824
 10
0.1150057525
 20
0.1672733226
 10
0.1150695092
 20
0.1673285403
 10
0.1151241023
 20
0.1673834004
 10
0.1151770855
 20
0.1674409976
 10
0.1152301289
 20
0.1674998965
 10
0.1152861358
 20
0.1675597587
 10
0.1153468717
 20
0.1676181665
 10
0.1154138423
 20
0.1676715818
 10
0.11550043
 20
0.1677217593
 10
0.1155956216
 20
0.1677589097
 10
0.1156942357
 20
0.1677899661
 10
0.1157903523
 20
0.1678225913
 10
0.1158780439
 20
0.1678643909
 10
0.1159467919
 20
0.1679175963
 10
0.1159731401
 20
0.1679481855
 10
0.1159993101
 20
0.1679900899
 10
0.1160126788
 20
0.1680195966
 10
0.1160249759
 20
0.1680564799
 10
0.1160349662
 20
0.1681024041
 10
0.1160411329
 20
0.16815941
  0
ARC
  5
84
330
1F
100
AcDbEntity
  8
0
  6
Continuous
 62
     7
370
    25
100
AcDbCircle
 10
0.0981115473
 20
0.1645910452
 30
0.0
 40
0.0028412846674716
100
AcDbArc
 50
87.8972363242
 51
90.8413248678
  0
LWPOLYLINE
  5
85
330
1F
100
AcDbEntity
  8
0
  6
Continuous
 62
     7
370
    25
100
AcDbPolyline
 90
       26
 70
   128
 43
0.0
 10
0.0992170228
 20
0.1671594062
 10
0.0992745973
 20
0.1671631732
 10
0.0993253858
 20
0.167172257
 10
0.0993702508
 20
0.1671852508
 10
0.0994099362
 20
0.167200953
 10
0.0994761933
 20
0.1672366824
 10
0.0995280654
 20
0.1672733226
 10
0.0995918221
 20
0.1673285403
 10
0.0996464152
 20
0.1673834004
 10
0.0996993984
 20
0.1674409976
 10
0.0997524411
 20
0.1674998965
 10
0.0998084486
 20
0.1675597587
 10
0.0998691846
 20
0.1676181665
 10
0.0999361552
 20
0.1676715818
 10
0.1000227428
 20
0.1677217593
 10
0.1001179338
 20
0.1677589097
 10
0.1002165485
 20
0.1677899661
 10
0.1003126652
 20
0.1678225913
 10
0.1004003561
 20
0.1678643909
 10
0.1004691047
 20
0.1679175963
 10
0.100495453
 20
0.1679481855
 10
0.100521623
 20
0.1679900899
 10
0.1005349911
 20
0.1680195966
 10
0.1005472888
 20
0.1680564799
 10
0.1005572791
 20
0.1681024041
 10
0.1005619038
 20
0.1681451526
  0
LWPOLYLINE
  5
86
330
1F
100
AcDbEntity
  8
0
  6
Continuous
 62
     7
370
    25
100
AcDbPolyline
 90
       34
 70
   128
 43
0.0
 10
0.1030435885
 20
0.16815941
 10
0.1031319679
 20
0.1680533567
 10
0.1032081611
 20
0.1679509893
 10
0.1032726921
 20
0.1678627029
 10
0.103325072
 20
0.1677931419
 10
0.1033700139
 20
0.1677364936
 10
0.1034145559
 20
0.1676840415
 10
0.1034587354
 20
0.167636291
 10
0.1035029281
 20
0.1675932136
 10
0.1035665889
 20
0.167539927
 10
0.1036373002
 20
0.1674932065
 10
0.1037149329
 20
0.1674568906
 10
0.1037563486
 20
0.1674437633
 10
0.1037996829
 20
0.1674345222
 10
0.1038427193
 20
0.1674296203
 10
0.1038715226
 20
0.1674282851
 10
0.1038972045
 20
0.1674281421
 10
0.1039200468
 20
0.1674286904
 10
0.1039406241
 20
0.1674295631
 10
0.1039661879
 20
0.1674307695
 10
0.1039932359
 20
0.1674316707
 10
0.104026799
 20
0.1674322
 10
0.1040559466
 20
0.1674322906
 10
0.1040870232
 20
0.1674320951
 10
0.104117835
 20
0.1674316278
 10
0.1041466303
 20
0.1674309173
 10
0.1041726659
 20
0.1674300447
 10
0.1041846223
 20
0.1674295821
 10
0.1041959513
 20
0.1674291291
 10
0.1042174018
 20
0.1674282184
 10
0.1042261053
 20
0.1674277988
 10
0.1042321117
 20
0.1674275031
 10
0.1042373813
 20
0.1674274316
 10
0.1042371492
 20
0.1674276795
  0
LWPOLYLINE
  5
87
330
1F
100
AcDbEntity
  8
0
  6
Continuous
 62
     7
370
    25
100
AcDbPolyline
 90
       16
 70
   128
 43
0.0
 10
0.1042365647
 20
0.1674288001
 10
0.1042365296
 20
0.1674292674
 10
0.1042452318
 20
0.1674285855
 10
0.1042604683
 20
0.1674257817
 10
0.1042805375
 20
0.167420341
 10
0.1043039752
 20
0.1674116197
 10
0.104328721
 20
0.167399365
 10
0.104380259
 20
0.1673639646
 10
0.1044342614
 20
0.1673163476
 10
0.1044719408
 20
0.1672807756
 10
0.1045120565
 20
0.1672446551
 10
0.104555781
 20
0.1672108235
 10
0.1045915238
 20
0.1671893182
 10
0.1046317101
 20
0.1671727767
 10
0.1046786512
 20
0.1671625724
 10
0.1047327919
 20
0.1671594062
  0
ARC
  5
88
330
1F
100
AcDbEntity
  8
0
  6
Continuous
 62
     7
370
    25
100
AcDbCircle
 10
0.1004135619
 20
0.1763666368
 30
0.0
 40
0.0103599065752908
100
AcDbArc
 50
297.2850554452
 51
304.6529763651
  0
LWPOLYLINE
  5
89
330
1F
100
AcDbEntity
  8
0
  6
Continuous
 62
     7
370
    25
100
AcDbPolyline
 90
       34
 70
   128
 43
0.0
 10
0.1012846846
 20
0.1685494056
 10
0.1011963053
 20
0.1686554589
 10
0.101120112
 20
0.1687578263
 10
0.1010555805
 20
0.1688461127
 10
0.1010032011
 20
0.1689156737
 10
0.1009582592
 20
0.168972322
 10
0.1009137172
 20
0.1690247741
 10
0.1008695371
 20
0.1690725246
 10
0.1008253444
 20
0.169115602
 10
0.1007616837
 20
0.1691688886
 10
0.1006909723
 20
0.1692156091
 10
0.1006133402
 20
0.169251925
 10
0.1005719245
 20
0.1692650523
 10
0.1005285896
 20
0.1692742934
 10
0.1004855538
 20
0.1692791953
 10
0.1004567505
 20
0.1692805305
 10
0.100431068
 20
0.1692806687
 10
0.1004082263
 20
0.1692801251
 10
0.1003876484
 20
0.1692792525
 10
0.1003620852
 20
0.1692780461
 10
0.1003350366
 20
0.1692771449
 10
0.1003014738
 20
0.1692766156
 10
0.1002723266
 20
0.169276525
 10
0.1002412499
 20
0.1692767205
 10
0.1002104379
 20
0.1692771878
 10
0.1001816429
 20
0.1692778983
 10
0.100155607
 20
0.1692787709
 10
0.1001436503
 20
0.1692792335
 10
0.1001323218
 20
0.1692796865
 10
0.1001108713
 20
0.1692805972
 10
0.1001021678
 20
0.1692810168
 10
0.1000961615
 20
0.1692813125
 10
0.1000908912
 20
0.169281384
 10
0.1000911237
 20
0.169281136
  0
LWPOLYLINE
  5
8A
330
1F
100
AcDbEntity
  8
0
  6
Continuous
 62
     7
370
    25
100
AcDbPolyline
 90
       16
 70
   128
 43
0.0
 10
0.1000917084
 20
0.1692800155
 10
0.100091743
 20
0.1692795482
 10
0.1000830407
 20
0.1692802301
 10
0.1000678046
 20
0.1692830291
 10
0.1000477351
 20
0.1692884746
 10
0.1000242979
 20
0.1692971959
 10
0.0999995519
 20
0.1693094506
 10
0.0999480135
 20
0.169344851
 10
0.0998940111
 20
0.169392468
 10
0.099856332
 20
0.16942804
 10
0.0998162163
 20
0.1694641605
 10
0.0997724921
 20
0.169497992
 10
0.099736749
 20
0.1695194974
 10
0.0996965624
 20
0.1695360389
 10
0.0996496219
 20
0.1695462432
 10
0.0995954813
 20
0.1695494094
  0
ARC
  5
8B
330
1F
100
AcDbEntity
  8
0
  6
Continuous
 62
     7
370
    25
100
AcDbCircle
 10
0.0992185918
 20
0.1689096828
 30
0.0
 40
0.0006419221438762
100
AcDbArc
 50
94.7401123471
 51
144.8314529587
  0
LWPOLYLINE
  5
8C
330
1F
100
AcDbEntity
  8
0
  6
Continuous
 62
     7
370
    25
100
AcDbPolyline
 90
       34
 70
   128
 43
0.0
 10
0.1098923982
 20
0.16815941
 10
0.1099807775
 20
0.1680533567
 10
0.1100569708
 20
0.1679509893
 10
0.1101215021
 20
0.1678627029
 10
0.1101738817
 20
0.1677931419
 10
0.1102188236
 20
0.1677364936
 10
0.1102633655
 20
0.1676840415
 10
0.1103075453
 20
0.167636291
 10
0.110351738
 20
0.1675932136
 10
0.1104153987
 20
0.167539927
 10
0.1104861101
 20
0.1674932065
 10
0.1105637425
 20
0.1674568906
 10
0.1106051583
 20
0.1674437633
 10
0.1106484928
 20
0.1674345222
 10
0.1106915289
 20
0.1674296203
 10
0.1107203321
 20
0.1674282851
 10
0.1107460145
 20
0.1674281421
 10
0.1107688564
 20
0.1674286904
 10
0.1107894338
 20
0.1674295631
 10
0.1108149976
 20
0.1674307695
 10
0.1108420458
 20
0.1674316707
 10
0.1108756087
 20
0.1674322
 10
0.1109047561
 20
0.1674322906
 10
0.1109358328
 20
0.1674320951
 10
0.1109666445
 20
0.1674316278
 10
0.1109954398
 20
0.1674309173
 10
0.1110214756
 20
0.1674300447
 10
0.1110334321
 20
0.1674295821
 10
0.111044761
 20
0.1674291291
 10
0.1110662116
 20
0.1674282184
 10
0.111074915
 20
0.1674277988
 10
0.1110809214
 20
0.1674275031
 10
0.1110861912
 20
0.1674274316
 10
0.1110859589
 20
0.1674276795
  0
LWPOLYLINE
  5
8D
330
1F
100
AcDbEntity
  8
0
  6
Continuous
 62
     7
370
    25
100
AcDbPolyline
 90
       16
 70
   128
 43
0.0
 10
0.1110853744
 20
0.1674288001
 10
0.1110853394
 20
0.1674292674
 10
0.1110940417
 20
0.1674285855
 10
0.111109278
 20
0.1674257817
 10
0.1111293473
 20
0.167420341
 10
0.1111527849
 20
0.1674116197
 10
0.1111775307
 20
0.167399365
 10
0.1112290689
 20
0.1673639646
 10
0.1112830711
 20
0.1673163476
 10
0.1113207505
 20
0.1672807756
 10
0.1113608664
 20
0.1672446551
 10
0.1114045907
 20
0.1672108235
 10
0.1114403337
 20
0.1671893182
 10
0.11148052
 20
0.1671727767
 10
0.1115274609
 20
0.1671625724
 10
0.1115816016
 20
0.1671594062
  0
ARC
  5
8E
330
1F
100
AcDbEntity
  8
0
  6
Continuous
 62
     7
370
    25
100
AcDbCircle
 10
0.1120133694
 20
0.1676115254
 30
0.0
 40
0.0004521229050244
100
AcDbArc
 50
269.7677548266
 51
292.4134064186
  0
LWPOLYLINE
  5
8F
330
1F
100
AcDbEntity
  8
0
  6
Continuous
 62
     7
370
    25
100
AcDbPolyline
 90
       34
 70
   128
 43
0.0
 10
0.1106448697
 20
0.16815941
 10
0.110733249
 20
0.1680533567
 10
0.1108094423
 20
0.1679509893
 10
0.1108739736
 20
0.1678627029
 10
0.1109263533
 20
0.1677931419
 10
0.1109712952
 20
0.1677364936
 10
0.111015837
 20
0.1676840415
 10
0.1110600168
 20
0.167636291
 10
0.1111042095
 20
0.1675932136
 10
0.1111678703
 20
0.167539927
 10
0.1112385816
 20
0.1674932065
 10
0.111316214
 20
0.1674568906
 10
0.1113576298
 20
0.1674437633
 10
0.1114009644
 20
0.1674345222
 10
0.1114440004
 20
0.1674296203
 10
0.1114728036
 20
0.1674282851
 10
0.1114984859
 20
0.1674281421
 10
0.1115213279
 20
0.1674286904
 10
0.1115419055
 20
0.1674295631
 10
0.111567469
 20
0.1674307695
 10
0.1115945173
 20
0.1674316707
 10
0.1116280804
 20
0.1674322
 10
0.1116572277
 20
0.1674322906
 10
0.1116883043
 20
0.1674320951
 10
0.1117191161
 20
0.1674316278
 10
0.1117479114
 20
0.1674309173
 10
0.111773947
 20
0.1674300447
 10
0.1117859037
 20
0.1674295821
 10
0.1117972327
 20
0.1674291291
 10
0.1118186832
 20
0.1674282184
 10
0.1118273864
 20
0.1674277988
 10
0.1118333928
 20
0.1674275031
 10
0.1118386627
 20
0.1674274316
 10
0.1118384306
 20
0.1674276795
  0
LWPOLYLINE
  5
90
330
1F
100
AcDbEntity
  8
0
  6
Continuous
 62
     7
370
    25
100
AcDbPolyline
 90
       16
 70
   128
 43
0.0
 10
0.1118378461
 20
0.1674288001
 10
0.111837811
 20
0.1674292674
 10
0.1118465132
 20
0.1674285855
 10
0.1118617494
 20
0.1674257817
 10
0.1118818189
 20
0.167420341
 10
0.1119052566
 20
0.1674116197
 10
0.1119300024
 20
0.167399365
 10
0.1119815404
 20
0.1673639646
 10
0.1120355428
 20
0.1673163476
 10
0.1120732222
 20
0.1672807756
 10
0.1121133379
 20
0.1672446551
 10
0.1121570624
 20
0.1672108235
 10
0.1121928052
 20
0.1671893182
 10
0.1122329916
 20
0.1671727767
 10
0.1122799326
 20
0.1671625724
 10
0.112334073
 20
0.1671594062
  0
ARC
  5
91
330
1F
100
AcDbEntity
  8
0
  6
Continuous
 62
     7
370
    25
100
AcDbCircle
 10
0.1127109606
 20
0.1677991367
 30
0.0
 40
0.0006419261073159
100
AcDbArc
 50
274.7402209559
 51
324.8312819225
  0
LWPOLYLINE
  5
92
330
1F
100
AcDbEntity
  8
0
  6
Continuous
 62
     7
370
    25
100
AcDbPolyline
 90
       34
 70
   128
 43
0.0
 10
0.1020371557
 20
0.1685494056
 10
0.1019487769
 20
0.1686554589
 10
0.1018725831
 20
0.1687578263
 10
0.1018080522
 20
0.1688461127
 10
0.1017556722
 20
0.1689156737
 10
0.1017107303
 20
0.168972322
 10
0.1016661889
 20
0.1690247741
 10
0.1016220088
 20
0.1690725246
 10
0.1015778161
 20
0.169115602
 10
0.1015141554
 20
0.1691688886
 10
0.101443444
 20
0.1692156091
 10
0.1013658113
 20
0.169251925
 10
0.1013243956
 20
0.1692650523
 10
0.1012810613
 20
0.1692742934
 10
0.1012380249
 20
0.1692791953
 10
0.1012092222
 20
0.1692805305
 10
0.1011835397
 20
0.1692806687
 10
0.101160698
 20
0.1692801251
 10
0.1011401201
 20
0.1692792525
 10
0.1011145563
 20
0.1692780461
 10
0.1010875083
 20
0.1692771449
 10
0.1010539455
 20
0.1692766156
 10
0.1010247982
 20
0.169276525
 10
0.1009937216
 20
0.1692767205
 10
0.1009629096
 20
0.1692771878
 10
0.100934114
 20
0.1692778983
 10
0.1009080786
 20
0.1692787709
 10
0.100896122
 20
0.1692792335
 10
0.1008847929
 20
0.1692796865
 10
0.1008633424
 20
0.1692805972
 10
0.1008546389
 20
0.1692810168
 10
0.1008486325
 20
0.1692813125
 10
0.1008433629
 20
0.169281384
 10
0.1008435954
 20
0.169281136
  0
LWPOLYLINE
  5
93
330
1F
100
AcDbEntity
  8
0
  6
Continuous
 62
     7
370
    25
100
AcDbPolyline
 90
       16
 70
   128
 43
0.0
 10
0.1008441795
 20
0.1692800155
 10
0.1008442147
 20
0.1692795482
 10
0.1008355124
 20
0.1692802301
 10
0.1008202762
 20
0.1692830291
 10
0.1008002068
 20
0.1692884746
 10
0.100776769
 20
0.1692971959
 10
0.1007520236
 20
0.1693094506
 10
0.1007004852
 20
0.169344851
 10
0.1006464828
 20
0.169392468
 10
0.1006088037
 20
0.16942804
 10
0.100568688
 20
0.1694641605
 10
0.1005249632
 20
0.169497992
 10
0.1004892207
 20
0.1695194974
 10
0.1004490341
 20
0.1695360389
 10
0.100402093
 20
0.1695462432
 10
0.1003479523
 20
0.1695494094
  0
ARC
  5
94
330
1F
100
AcDbEntity
  8
0
  6
Continuous
 62
     7
370
    25
100
AcDbCircle
 10
0.0999161836
 20
0.1690972978
 30
0.0
 40
0.0004521153110232
100
AcDbArc
 50
89.7675995268
 51
112.4135987209
  0
LWPOLYLINE
  5
95
330
1F
100
AcDbEntity
  8
0
  6
Continuous
 62
     7
370
    25
100
AcDbPolyline
 90
       34
 70
   128
 43
0.0
 10
0.1060614131
 20
0.16815941
 10
0.1061497922
 20
0.1680533567
 10
0.1062259857
 20
0.1679509893
 10
0.1062905169
 20
0.1678627029
 10
0.1063428966
 20
0.1677931419
 10
0.1063878382
 20
0.1677364936
 10
0.1064323802
 20
0.1676840415
 10
0.10647656
 20
0.167636291
 10
0.1065207529
 20
0.1675932136
 10
0.1065844136
 20
0.167539927
 10
0.1066551248
 20
0.1674932065
 10
0.1067327573
 20
0.1674568906
 10
0.1067741732
 20
0.1674437633
 10
0.1068175077
 20
0.1674345222
 10
0.1068605437
 20
0.1674296203
 10
0.1068893469
 20
0.1674282851
 10
0.1069150292
 20
0.1674281421
 10
0.1069378712
 20
0.1674286904
 10
0.1069584487
 20
0.1674295631
 10
0.1069840124
 20
0.1674307695
 10
0.1070110605
 20
0.1674316707
 10
0.1070446236
 20
0.1674322
 10
0.107073771
 20
0.1674322906
 10
0.1071048477
 20
0.1674320951
 10
0.1071356594
 20
0.1674316278
 10
0.1071644547
 20
0.1674309173
 10
0.1071904903
 20
0.1674300447
 10
0.107202447
 20
0.1674295821
 10
0.1072137759
 20
0.1674291291
 10
0.1072352264
 20
0.1674282184
 10
0.1072439297
 20
0.1674277988
 10
0.1072499361
 20
0.1674275031
 10
0.1072552059
 20
0.1674274316
 10
0.1072549737
 20
0.1674276795
  0
LWPOLYLINE
  5
96
330
1F
100
AcDbEntity
  8
0
  6
Continuous
 62
     7
370
    25
100
AcDbPolyline
 90
       16
 70
   128
 43
0.0
 10
0.1072543893
 20
0.1674288001
 10
0.1072543542
 20
0.1674292674
 10
0.1072630564
 20
0.1674285855
 10
0.1072782927
 20
0.1674257817
 10
0.1072983621
 20
0.167420341
 10
0.1073217998
 20
0.1674116197
 10
0.1073465454
 20
0.167399365
 10
0.1073980836
 20
0.1673639646
 10
0.107452086
 20
0.1673163476
 10
0.1074897654
 20
0.1672807756
 10
0.1075298811
 20
0.1672446551
 10
0.1075736056
 20
0.1672108235
 10
0.1076093484
 20
0.1671893182
 10
0.1076495347
 20
0.1671727767
 10
0.1076964756
 20
0.1671625724
 10
0.1077506163
 20
0.1671594062
  0
LWPOLYLINE
  5
97
330
1F
100
AcDbEntity
  8
0
  6
Continuous
 62
     7
370
    25
100
AcDbPolyline
 90
       26
 70
   128
 43
0.0
 10
0.1081805515
 20
0.1671594062
 10
0.1082381263
 20
0.1671631732
 10
0.1082889144
 20
0.167172257
 10
0.1083337796
 20
0.1671852508
 10
0.1083734649
 20
0.167200953
 10
0.1084397222
 20
0.1672366824
 10
0.1084915943
 20
0.1672733226
 10
0.108555351
 20
0.1673285403
 10
0.1086099439
 20
0.1673834004
 10
0.108662927
 20
0.1674409976
 10
0.1087159701
 20
0.1674998965
 10
0.1087719773
 20
0.1675597587
 10
0.1088327135
 20
0.1676181665
 10
0.108899684
 20
0.1676715818
 10
0.1089862714
 20
0.1677217593
 10
0.1090814628
 20
0.1677589097
 10
0.1091800773
 20
0.1677899661
 10
0.109276194
 20
0.1678225913
 10
0.1093638851
 20
0.1678643909
 10
0.1094326335
 20
0.1679175963
 10
0.1094589818
 20
0.1679481855
 10
0.1094851516
 20
0.1679900899
 10
0.10949852
 20
0.1680195966
 10
0.1095108175
 20
0.1680564799
 10
0.109520808
 20
0.1681024041
 10
0.1095269746
 20
0.16815941
  0
ARC
  5
98
330
1F
100
AcDbEntity
  8
0
  6
Continuous
 62
     7
370
    25
100
AcDbCircle
 10
0.1138180927
 20
0.1721340698
 30
0.0
 40
0.0028575810297085
100
AcDbArc
 50
267.9075015434
 51
270.8348076246
  0
LWPOLYLINE
  5
99
330
1F
100
AcDbEntity
  8
0
  6
Continuous
 62
     7
370
    25
100
AcDbPolyline
 90
       26
 70
   128
 43
0.0
 10
0.1127125315
 20
0.1695494094
 10
0.1126549567
 20
0.1695456424
 10
0.1126041684
 20
0.1695365586
 10
0.1125593031
 20
0.1695235648
 10
0.1125196181
 20
0.1695078626
 10
0.1124533607
 20
0.1694721332
 10
0.1124014885
 20
0.169435493
 10
0.1123377318
 20
0.1693802753
 10
0.112283139
 20
0.1693254151
 10
0.1122301559
 20
0.169267818
 10
0.1121771128
 20
0.1692089191
 10
0.1121211056
 20
0.1691490569
 10
0.1120603693
 20
0.1690906491
 10
0.1119933988
 20
0.1690372338
 10
0.1119068114
 20
0.1689870563
 10
0.1118116201
 20
0.1689499059
 10
0.1117130057
 20
0.1689188495
 10
0.1116168887
 20
0.1688862243
 10
0.1115291978
 20
0.1688444247
 10
0.1114604493
 20
0.1687912192
 10
0.1114341011
 20
0.1687606301
 10
0.1114079312
 20
0.1687187257
 10
0.1113945628
 20
0.168689219
 10
0.1113822653
 20
0.1686523357
 10
0.111372275
 20
0.1686064115
 10
0.1113676501
 20
0.168563663
  0
ARC
  5
9A
330
1F
100
AcDbEntity
  8
0
  6
Continuous
 62
     7
370
    25
100
AcDbCircle
 10
0.0983452781
 20
0.1716068781
 30
0.0
 40
0.0023304291838156
100
AcDbArc
 50
268.9378902891
 51
271.6715485696
  0
LWPOLYLINE
  5
9B
330
1F
100
AcDbEntity
  8
0
  6
Continuous
 62
     7
370
    25
100
AcDbPolyline
 90
       26
 70
   128
 43
0.0
 10
0.0972348441
 20
0.1695494094
 10
0.0971772696
 20
0.1695456424
 10
0.0971264816
 20
0.1695365586
 10
0.097081616
 20
0.1695235648
 10
0.0970419312
 20
0.1695078626
 10
0.0969756735
 20
0.1694721332
 10
0.0969238008
 20
0.169435493
 10
0.0968600441
 20
0.1693802753
 10
0.0968054522
 20
0.1693254151
 10
0.0967524684
 20
0.169267818
 10
0.0966994251
 20
0.1692089191
 10
0.0966434182
 20
0.1691490569
 10
0.0965826822
 20
0.1690906491
 10
0.0965157116
 20
0.1690372338
 10
0.096429124
 20
0.1689870563
 10
0.096333933
 20
0.1689499059
 10
0.0962353183
 20
0.1689188495
 10
0.096139201
 20
0.1688862243
 10
0.0960515107
 20
0.1688444247
 10
0.0959827627
 20
0.1687912192
 10
0.0959564138
 20
0.1687606301
 10
0.0959302438
 20
0.1687187257
 10
0.0959168757
 20
0.168689219
 10
0.0959045781
 20
0.1686523357
 10
0.0958945871
 20
0.1686064115
 10
0.0958884204
 20
0.1685494056
  0
LWPOLYLINE
  5
9C
330
1F
100
AcDbEntity
  8
0
  6
Continuous
 62
     7
370
    25
100
AcDbPolyline
 90
       34
 70
   128
 43
0.0
 10
0.1165278513
 20
0.1685494056
 10
0.1164394719
 20
0.1686554589
 10
0.1163632787
 20
0.1687578263
 10
0.1162987472
 20
0.1688461127
 10
0.1162463678
 20
0.1689156737
 10
0.1162014259
 20
0.168972322
 10
0.1161568839
 20
0.1690247741
 10
0.1161127038
 20
0.1690725246
 10
0.1160685111
 20
0.169115602
 10
0.1160048504
 20
0.1691688886
 10
0.115934139
 20
0.1692156091
 10
0.1158565069
 20
0.169251925
 10
0.1158150912
 20
0.1692650523
 10
0.1157717563
 20
0.1692742934
 10
0.1157287205
 20
0.1692791953
 10
0.1156999172
 20
0.1692805305
 10
0.1156742347
 20
0.1692806687
 10
0.115651393
 20
0.1692801251
 10
0.1156308157
 20
0.1692792525
 10
0.1156052519
 20
0.1692780461
 10
0.1155782033
 20
0.1692771449
 10
0.1155446405
 20
0.1692766156
 10
0.1155154932
 20
0.169276525
 10
0.1154844166
 20
0.1692767205
 10
0.1154536046
 20
0.1692771878
 10
0.1154248096
 20
0.1692778983
 10
0.1153987736
 20
0.1692787709
 10
0.115386817
 20
0.1692792335
 10
0.1153754885
 20
0.1692796865
 10
0.115354038
 20
0.1692805972
 10
0.1153453345
 20
0.1692810168
 10
0.1153393281
 20
0.1692813125
 10
0.1153340579
 20
0.169281384
 10
0.1153342904
 20
0.169281136
  0
LWPOLYLINE
  5
9D
330
1F
100
AcDbEntity
  8
0
  6
Continuous
 62
     7
370
    25
100
AcDbPolyline
 90
       16
 70
   128
 43
0.0
 10
0.1153348751
 20
0.1692800155
 10
0.1153349097
 20
0.1692795482
 10
0.1153262074
 20
0.1692802301
 10
0.1153109712
 20
0.1692830291
 10
0.1152909018
 20
0.1692884746
 10
0.1152674646
 20
0.1692971959
 10
0.1152427186
 20
0.1693094506
 10
0.1151911802
 20
0.169344851
 10
0.1151371784
 20
0.169392468
 10
0.1150994987
 20
0.16942804
 10
0.115059383
 20
0.1694641605
 10
0.1150156588
 20
0.169497992
 10
0.1149799157
 20
0.1695194974
 10
0.1149397291
 20
0.1695360389
 10
0.1148927886
 20
0.1695462432
 10
0.1148386479
 20
0.1695494094
  0
LWPOLYLINE
  5
9E
330
1F
100
AcDbEntity
  8
0
  6
Continuous
 62
     7
370
    25
100
AcDbPolyline
 90
       26
 70
   128
 43
0.0
 10
0.1144087125
 20
0.1695494094
 10
0.114351138
 20
0.1695456424
 10
0.1143003494
 20
0.1695365586
 10
0.1142554844
 20
0.1695235648
 10
0.1142157991
 20
0.1695078626
 10
0.1141495419
 20
0.1694721332
 10
0.1140976698
 20
0.169435493
 10
0.1140339131
 20
0.1693802753
 10
0.1139793203
 20
0.1693254151
 10
0.1139263372
 20
0.169267818
 10
0.1138732941
 20
0.1692089191
 10
0.1138172869
 20
0.1691490569
 10
0.1137565506
 20
0.1690906491
 10
0.1136895801
 20
0.1690372338
 10
0.1136029927
 20
0.1689870563
 10
0.1135078014
 20
0.1689499059
 10
0.1134091867
 20
0.1689188495
 10
0.11331307
 20
0.1688862243
 10
0.1132253791
 20
0.1688444247
 10
0.1131566305
 20
0.1687912192
 10
0.1131302823
 20
0.1687606301
 10
0.1131041125
 20
0.1687187257
 10
0.1130907441
 20
0.168689219
 10
0.1130784465
 20
0.1686523357
 10
0.1130684561
 20
0.1686064115
 10
0.1130622895
 20
0.1685494056
  0
LWPOLYLINE
  5
9F
330
1F
100
AcDbEntity
  8
0
  6
Continuous
 62
     7
370
    25
100
AcDbPolyline
 90
       34
 70
   128
 43
0.0
 10
0.1124317504
 20
0.16815941
 10
0.1125201295
 20
0.1680533567
 10
0.112596323
 20
0.1679509893
 10
0.112660854
 20
0.1678627029
 10
0.1127132339
 20
0.1677931419
 10
0.1127581755
 20
0.1677364936
 10
0.1128027175
 20
0.1676840415
 10
0.1128468973
 20
0.167636291
 10
0.11289109
 20
0.1675932136
 10
0.1129547508
 20
0.167539927
 10
0.1130254621
 20
0.1674932065
 10
0.1131030945
 20
0.1674568906
 10
0.1131445105
 20
0.1674437633
 10
0.1131878448
 20
0.1674345222
 10
0.1132308809
 20
0.1674296203
 10
0.1132596842
 20
0.1674282851
 10
0.1132853664
 20
0.1674281421
 10
0.1133082084
 20
0.1674286904
 10
0.113328786
 20
0.1674295631
 10
0.1133543498
 20
0.1674307695
 10
0.1133813978
 20
0.1674316707
 10
0.1134149609
 20
0.1674322
 10
0.1134441082
 20
0.1674322906
 10
0.1134751848
 20
0.1674320951
 10
0.1135059966
 20
0.1674316278
 10
0.1135347919
 20
0.1674309173
 10
0.1135608278
 20
0.1674300447
 10
0.1135727842
 20
0.1674295821
 10
0.1135841132
 20
0.1674291291
 10
0.1136055637
 20
0.1674282184
 10
0.1136142669
 20
0.1674277988
 10
0.1136202733
 20
0.1674275031
 10
0.1136255432
 20
0.1674274316
 10
0.1136253111
 20
0.1674276795
  0
LWPOLYLINE
  5
A0
330
1F
100
AcDbEntity
  8
0
  6
Continuous
 62
     7
370
    25
100
AcDbPolyline
 90
       16
 70
   128
 43
0.0
 10
0.1136247266
 20
0.1674288001
 10
0.1136246915
 20
0.1674292674
 10
0.1136333937
 20
0.1674285855
 10
0.1136486299
 20
0.1674257817
 10
0.1136686994
 20
0.167420341
 10
0.1136921371
 20
0.1674116197
 10
0.1137168829
 20
0.167399365
 10
0.1137684209
 20
0.1673639646
 10
0.1138224233
 20
0.1673163476
 10
0.1138601027
 20
0.1672807756
 10
0.1139002184
 20
0.1672446551
 10
0.1139439429
 20
0.1672108235
 10
0.1139796857
 20
0.1671893182
 10
0.114019872
 20
0.1671727767
 10
0.1140668131
 20
0.1671625724
 10
0.1141209538
 20
0.1671594062
  0
LWPOLYLINE
  5
A1
330
1F
100
AcDbEntity
  8
0
  6
Continuous
 62
     7
370
    25
100
AcDbPolyline
 90
       26
 70
   128
 43
0.0
 10
0.1145508886
 20
0.1671594062
 10
0.1146084637
 20
0.1671631732
 10
0.1146592517
 20
0.167172257
 10
0.1147041167
 20
0.1671852508
 10
0.114743802
 20
0.167200953
 10
0.1148100598
 20
0.1672366824
 10
0.1148619313
 20
0.1672733226
 10
0.114925688
 20
0.1673285403
 10
0.1149802811
 20
0.1673834004
 10
0.1150332643
 20
0.1674409976
 10
0.1150863076
 20
0.1674998965
 10
0.1151423145
 20
0.1675597587
 10
0.1152030505
 20
0.1676181665
 10
0.1152700211
 20
0.1676715818
 10
0.1153566087
 20
0.1677217593
 10
0.1154518003
 20
0.1677589097
 10
0.1155504144
 20
0.1677899661
 10
0.1156465311
 20
0.1678225913
 10
0.1157342226
 20
0.1678643909
 10
0.1158029706
 20
0.1679175963
 10
0.1158293189
 20
0.1679481855
 10
0.1158554889
 20
0.1679900899
 10
0.115868857
 20
0.1680195966
 10
0.1158811546
 20
0.1680564799
 10
0.115891145
 20
0.1681024041
 10
0.1158973117
 20
0.16815941
  0
LWPOLYLINE
  5
A2
330
1F
100
AcDbEntity
  8
0
  6
Continuous
 62
     7
370
    25
100
AcDbPolyline
 90
       34
 70
   128
 43
0.0
 10
0.111379528
 20
0.1685494056
 10
0.1112911488
 20
0.1686554589
 10
0.1112149554
 20
0.1687578263
 10
0.1111504243
 20
0.1688461127
 10
0.1110980445
 20
0.1689156737
 10
0.1110531027
 20
0.168972322
 10
0.1110085608
 20
0.1690247741
 10
0.1109643809
 20
0.1690725246
 10
0.1109201882
 20
0.169115602
 10
0.1108565275
 20
0.1691688886
 10
0.1107858161
 20
0.1692156091
 10
0.1107081837
 20
0.169251925
 10
0.1106667679
 20
0.1692650523
 10
0.1106234334
 20
0.1692742934
 10
0.1105803973
 20
0.1692791953
 10
0.1105515941
 20
0.1692805305
 10
0.1105259118
 20
0.1692806687
 10
0.1105030699
 20
0.1692801251
 10
0.1104824924
 20
0.1692792525
 10
0.1104569287
 20
0.1692780461
 10
0.1104298806
 20
0.1692771449
 10
0.1103963175
 20
0.1692766156
 10
0.1103671701
 20
0.169276525
 10
0.1103360934
 20
0.1692767205
 10
0.1103052817
 20
0.1692771878
 10
0.1102764864
 20
0.1692778983
 10
0.1102504508
 20
0.1692787709
 10
0.1102384941
 20
0.1692792335
 10
0.1102271652
 20
0.1692796865
 10
0.1102057146
 20
0.1692805972
 10
0.1101970113
 20
0.1692810168
 10
0.110191005
 20
0.1692813125
 10
0.1101857351
 20
0.169281384
 10
0.1101859673
 20
0.169281136
  0
LWPOLYLINE
  5
A3
330
1F
100
AcDbEntity
  8
0
  6
Continuous
 62
     7
370
    25
100
AcDbPolyline
 90
       16
 70
   128
 43
0.0
 10
0.1101865518
 20
0.1692800155
 10
0.1101865868
 20
0.1692795482
 10
0.1101778846
 20
0.1692802301
 10
0.1101626484
 20
0.1692830291
 10
0.1101425789
 20
0.1692884746
 10
0.1101191413
 20
0.1692971959
 10
0.1100943956
 20
0.1693094506
 10
0.1100428574
 20
0.169344851
 10
0.1099888551
 20
0.169392468
 10
0.1099511757
 20
0.16942804
 10
0.1099110599
 20
0.1694641605
 10
0.1098673355
 20
0.169497992
 10
0.1098315926
 20
0.1695194974
 10
0.1097914063
 20
0.1695360389
 10
0.1097444654
 20
0.1695462432
 10
0.1096903248
 20
0.1695494094
  0
ARC
  5
A4
330
1F
100
AcDbEntity
  8
0
  6
Continuous
 62
     7
370
    25
100
AcDbCircle
 10
0.1101883261
 20
0.1674497304
 30
0.0
 40
0.0022955865975365
100
AcDbArc
 50
113.8426523821
 51
136.7398348195
  0
LWPOLYLINE
  5
A5
330
1F
100
AcDbEntity
  8
0
  6
Continuous
 62
     7
370
    25
100
AcDbPolyline
 90
       14
 70
   128
 43
0.0
 10
0.113934573
 20
0.1692767682
 10
0.1139248312
 20
0.1692766156
 10
0.113895684
 20
0.169276525
 10
0.1138646073
 20
0.1692767205
 10
0.1138337956
 20
0.1692771878
 10
0.1138050003
 20
0.1692778983
 10
0.1137789647
 20
0.1692787709
 10
0.113767008
 20
0.1692792335
 10
0.1137556792
 20
0.1692796865
 10
0.1137342287
 20
0.1692805972
 10
0.1137255252
 20
0.1692810168
 10
0.1137195189
 20
0.1692813125
 10
0.1137142489
 20
0.169281384
 10
0.1137144814
 20
0.169281136
  0
LWPOLYLINE
  5
A6
330
1F
100
AcDbEntity
  8
0
  6
Continuous
 62
     7
370
    25
100
AcDbPolyline
 90
       16
 70
   128
 43
0.0
 10
0.1137150658
 20
0.1692800155
 10
0.1137151007
 20
0.1692795482
 10
0.1137063984
 20
0.1692802301
 10
0.1136911623
 20
0.1692830291
 10
0.1136710928
 20
0.1692884746
 10
0.1136476553
 20
0.1692971959
 10
0.1136229096
 20
0.1693094506
 10
0.1135713712
 20
0.169344851
 10
0.1135173688
 20
0.169392468
 10
0.1134796895
 20
0.16942804
 10
0.1134395737
 20
0.1694641605
 10
0.1133958493
 20
0.169497992
 10
0.1133601064
 20
0.1695194974
 10
0.1133199201
 20
0.1695360389
 10
0.1132729794
 20
0.1695462432
 10
0.1132188387
 20
0.1695494094
  0
LWPOLYLINE
  5
A7
330
1F
100
AcDbEntity
  8
0
  6
Continuous
 62
     7
370
    25
100
AcDbPolyline
 90
       26
 70
   128
 43
0.0
 10
0.1127889035
 20
0.1695494094
 10
0.1127313287
 20
0.1695456424
 10
0.1126805405
 20
0.1695365586
 10
0.1126356752
 20
0.1695235648
 10
0.1125959901
 20
0.1695078626
 10
0.1125297327
 20
0.1694721332
 10
0.1124778605
 20
0.169435493
 10
0.1124141038
 20
0.1693802753
 10
0.1123595111
 20
0.1693254151
 10
0.1123065279
 20
0.169267818
 10
0.1122534848
 20
0.1692089191
 10
0.1121974776
 20
0.1691490569
 10
0.1121367414
 20
0.1690906491
 10
0.1120697711
 20
0.1690372338
 10
0.1119831834
 20
0.1689870563
 10
0.1118879921
 20
0.1689499059
 10
0.1117893777
 20
0.1689188495
 10
0.1116932608
 20
0.1688862243
 10
0.1116055698
 20
0.1688444247
 10
0.1115368215
 20
0.1687912192
 10
0.111510473
 20
0.1687606301
 10
0.1114843033
 20
0.1687187257
 10
0.1114709348
 20
0.168689219
 10
0.1114586375
 20
0.1686523357
 10
0.111448647
 20
0.1686064115
 10
0.1114424803
 20
0.1685494056
  0
LWPOLYLINE
  5
A8
330
1F
100
AcDbEntity
  8
0
  6
Continuous
 62
     7
370
    25
100
AcDbPolyline
 90
       34
 70
   128
 43
0.0
 10
0.0994978035
 20
0.1685494056
 10
0.0994094248
 20
0.1686554589
 10
0.0993332315
 20
0.1687578263
 10
0.0992687
 20
0.1688461127
 10
0.0992163206
 20
0.1689156737
 10
0.0991713787
 20
0.168972322
 10
0.0991268368
 20
0.1690247741
 10
0.0990826566
 20
0.1690725246
 10
0.0990384639
 20
0.169115602
 10
0.0989748038
 20
0.1691688886
 10
0.0989040924
 20
0.1692156091
 10
0.0988264597
 20
0.169251925
 10
0.098785044
 20
0.1692650523
 10
0.0987417091
 20
0.1692742934
 10
0.0986986733
 20
0.1692791953
 10
0.09866987
 20
0.1692805305
 10
0.0986441875
 20
0.1692806687
 10
0.0986213459
 20
0.1692801251
 10
0.0986007679
 20
0.1692792525
 10
0.0985752047
 20
0.1692780461
 10
0.0985481561
 20
0.1692771449
 10
0.0985145927
 20
0.1692766156
 10
0.0984854461
 20
0.169276525
 10
0.0984543694
 20
0.1692767205
 10
0.0984235574
 20
0.1692771878
 10
0.0983947624
 20
0.1692778983
 10
0.0983687271
 20
0.1692787709
 10
0.0983567704
 20
0.1692792335
 10
0.0983454407
 20
0.1692796865
 10
0.0983239902
 20
0.1692805972
 10
0.0983152867
 20
0.1692810168
 10
0.098309281
 20
0.1692813125
 10
0.0983040107
 20
0.169281384
 10
0.0983042432
 20
0.169281136
  0
LWPOLYLINE
  5
A9
330
1F
100
AcDbEntity
  8
0
  6
Continuous
 62
     7
370
    25
100
AcDbPolyline
 90
       16
 70
   128
 43
0.0
 10
0.0983048273
 20
0.1692800155
 10
0.0983048631
 20
0.1692795482
 10
0.0982961608
 20
0.1692802301
 10
0.0982809247
 20
0.1692830291
 10
0.0982608546
 20
0.1692884746
 10
0.0982374168
 20
0.1692971959
 10
0.0982126714
 20
0.1693094506
 10
0.0981611336
 20
0.169344851
 10
0.0981071306
 20
0.169392468
 10
0.0980694509
 20
0.16942804
 10
0.0980293358
 20
0.1694641605
 10
0.0979856111
 20
0.169497992
 10
0.0979498685
 20
0.1695194974
 10
0.0979096819
 20
0.1695360389
 10
0.0978627408
 20
0.1695462432
 10
0.0978086008
 20
0.1695494094
  0
LWPOLYLINE
  5
AA
330
1F
100
AcDbEntity
  8
0
  6
Continuous
 62
     7
370
    25
100
AcDbPolyline
 90
       26
 70
   128
 43
0.0
 10
0.0973786653
 20
0.1695494094
 10
0.0973210908
 20
0.1695456424
 10
0.0972703029
 20
0.1695365586
 10
0.0972254373
 20
0.1695235648
 10
0.0971857525
 20
0.1695078626
 10
0.0971194948
 20
0.1694721332
 10
0.097067622
 20
0.169435493
 10
0.0970038653
 20
0.1693802753
 10
0.0969492734
 20
0.1693254151
 10
0.0968962897
 20
0.169267818
 10
0.0968432463
 20
0.1692089191
 10
0.0967872394
 20
0.1691490569
 10
0.0967265035
 20
0.1690906491
 10
0.0966595329
 20
0.1690372338
 10
0.0965729452
 20
0.1689870563
 10
0.0964777542
 20
0.1689499059
 10
0.0963791395
 20
0.1689188495
 10
0.0962830223
 20
0.1688862243
 10
0.0961953319
 20
0.1688444247
 10
0.0961265839
 20
0.1687912192
 10
0.0961002351
 20
0.1687606301
 10
0.0960740651
 20
0.1687187257
 10
0.0960606969
 20
0.168689219
 10
0.0960483993
 20
0.1686523357
 10
0.0960384084
 20
0.1686064115
 10
0.0960322417
 20
0.1685494056
  0
LWPOLYLINE
  5
AB
330
1F
100
AcDbEntity
  8
0
  6
Continuous
 62
     7
370
    25
100
AcDbPolyline
 90
       34
 70
   128
 43
0.0
 10
0.1005500264
 20
0.16815941
 10
0.1006384052
 20
0.1680533567
 10
0.1007145984
 20
0.1679509893
 10
0.10077913
 20
0.1678627029
 10
0.1008315099
 20
0.1677931419
 10
0.1008764512
 20
0.1677364936
 10
0.1009209932
 20
0.1676840415
 10
0.1009651733
 20
0.167636291
 10
0.101009366
 20
0.1675932136
 10
0.1010730268
 20
0.167539927
 10
0.1011437381
 20
0.1674932065
 10
0.1012213702
 20
0.1674568906
 10
0.1012627865
 20
0.1674437633
 10
0.1013061208
 20
0.1674345222
 10
0.1013491566
 20
0.1674296203
 10
0.1013779599
 20
0.1674282851
 10
0.1014036424
 20
0.1674281421
 10
0.1014264841
 20
0.1674286904
 10
0.101447062
 20
0.1674295631
 10
0.1014726252
 20
0.1674307695
 10
0.1014996738
 20
0.1674316707
 10
0.1015332366
 20
0.1674322
 10
0.1015623839
 20
0.1674322906
 10
0.1015934605
 20
0.1674320951
 10
0.1016242726
 20
0.1674316278
 10
0.1016530676
 20
0.1674309173
 10
0.1016791035
 20
0.1674300447
 10
0.1016910602
 20
0.1674295821
 10
0.1017023892
 20
0.1674291291
 10
0.1017238397
 20
0.1674282184
 10
0.1017325426
 20
0.1674277988
 10
0.101738549
 20
0.1674275031
 10
0.1017438192
 20
0.1674274316
 10
0.1017435868
 20
0.1674276795
  0
LWPOLYLINE
  5
AC
330
1F
100
AcDbEntity
  8
0
  6
Continuous
 62
     7
370
    25
100
AcDbPolyline
 90
       16
 70
   128
 43
0.0
 10
0.1017430026
 20
0.1674288001
 10
0.1017429675
 20
0.1674292674
 10
0.1017516697
 20
0.1674285855
 10
0.1017669059
 20
0.1674257817
 10
0.1017869754
 20
0.167420341
 10
0.1018104131
 20
0.1674116197
 10
0.1018351586
 20
0.167399365
 10
0.1018866969
 20
0.1673639646
 10
0.1019406993
 20
0.1673163476
 10
0.1019783784
 20
0.1672807756
 10
0.1020184941
 20
0.1672446551
 10
0.1020622189
 20
0.1672108235
 10
0.1020979614
 20
0.1671893182
 10
0.102138148
 20
0.1671727767
 10
0.1021850885
 20
0.1671625724
 10
0.1022392292
 20
0.1671594062
  0
ARC
  5
AD
330
1F
100
AcDbEntity
  8
0
  6
Continuous
 62
     7
370
    25
100
AcDbCircle
 10
0.1017412319
 20
0.1692590798
 30
0.0
 40
0.0022955801473176
100
AcDbArc
 50
293.8426206485
 51
316.7398679063
  0
LWPOLYLINE
  5
AE
330
1F
100
AcDbEntity
  8
0
  6
Continuous
 62
     7
370
    25
100
AcDbPolyline
 90
       14
 70
   128
 43
0.0
 10
0.0979949809
 20
0.1674320474
 10
0.0980047227
 20
0.1674322
 10
0.0980338706
 20
0.1674322906
 10
0.0980649472
 20
0.1674320951
 10
0.0980957581
 20
0.1674316278
 10
0.0981245543
 20
0.1674309173
 10
0.0981505896
 20
0.1674300447
 10
0.0981625463
 20
0.1674295821
 10
0.0981738747
 20
0.1674291291
 10
0.0981953252
 20
0.1674282184
 10
0.0982040287
 20
0.1674277988
 10
0.0982100357
 20
0.1674275031
 10
0.0982153047
 20
0.1674274316
 10
0.0982150734
 20
0.1674276795
  0
LWPOLYLINE
  5
AF
330
1F
100
AcDbEntity
  8
0
  6
Continuous
 62
     7
370
    25
100
AcDbPolyline
 90
       16
 70
   128
 43
0.0
 10
0.0982144881
 20
0.1674288001
 10
0.0982144536
 20
0.1674292674
 10
0.0982231558
 20
0.1674285855
 10
0.098238392
 20
0.1674257817
 10
0.0982584609
 20
0.167420341
 10
0.0982818986
 20
0.1674116197
 10
0.0983066452
 20
0.167399365
 10
0.098358183
 20
0.1673639646
 10
0.0984121848
 20
0.1673163476
 10
0.0984498645
 20
0.1672807756
 10
0.0984899808
 20
0.1672446551
 10
0.0985337044
 20
0.1672108235
 10
0.0985694481
 20
0.1671893182
 10
0.0986096335
 20
0.1671727767
 10
0.0986565746
 20
0.1671625724
 10
0.0987107159
 20
0.1671594062
  0
LWPOLYLINE
  5
B0
330
1F
100
AcDbEntity
  8
0
  6
Continuous
 62
     7
370
    25
100
AcDbPolyline
 90
       26
 70
   128
 43
0.0
 10
0.0991406507
 20
0.1671594062
 10
0.0991982252
 20
0.1671631732
 10
0.0992490138
 20
0.167172257
 10
0.0992938788
 20
0.1671852508
 10
0.0993335641
 20
0.167200953
 10
0.0993998213
 20
0.1672366824
 10
0.0994516934
 20
0.1672733226
 10
0.0995154501
 20
0.1673285403
 10
0.0995700432
 20
0.1673834004
 10
0.0996230263
 20
0.1674409976
 10
0.0996760691
 20
0.1674998965
 10
0.0997320766
 20
0.1675597587
 10
0.0997928126
 20
0.1676181665
 10
0.0998597831
 20
0.1676715818
 10
0.0999463708
 20
0.1677217593
 10
0.1000415618
 20
0.1677589097
 10
0.1001401765
 20
0.1677899661
 10
0.1002362932
 20
0.1678225913
 10
0.1003239841
 20
0.1678643909
 10
0.1003927327
 20
0.1679175963
 10
0.1004190809
 20
0.1679481855
 10
0.100445251
 20
0.1679900899
 10
0.1004586191
 20
0.1680195966
 10
0.1004709167
 20
0.1680564799
 10
0.1004809071
 20
0.1681024041
 10
0.1004870738
 20
0.16815941
  0
LWPOLYLINE
  5
B1
330
1F
100
AcDbEntity
  8
0
  6
Continuous
 62
     7
370
    25
100
AcDbPolyline
 90
       34
 70
   128
 43
0.0
 10
0.1088859656
 20
0.1685494056
 10
0.1087975864
 20
0.1686554589
 10
0.1087213931
 20
0.1687578263
 10
0.1086568618
 20
0.1688461127
 10
0.1086044821
 20
0.1689156737
 10
0.1085595403
 20
0.168972322
 10
0.1085149984
 20
0.1690247741
 10
0.1084708186
 20
0.1690725246
 10
0.1084266259
 20
0.169115602
 10
0.1083629651
 20
0.1691688886
 10
0.1082922538
 20
0.1692156091
 10
0.1082146213
 20
0.169251925
 10
0.1081732056
 20
0.1692650523
 10
0.1081298711
 20
0.1692742934
 10
0.1080868349
 20
0.1692791953
 10
0.1080580317
 20
0.1692805305
 10
0.1080323494
 20
0.1692806687
 10
0.1080095075
 20
0.1692801251
 10
0.10798893
 20
0.1692792525
 10
0.1079633662
 20
0.1692780461
 10
0.1079363182
 20
0.1692771449
 10
0.1079027551
 20
0.1692766156
 10
0.1078736077
 20
0.169276525
 10
0.1078425311
 20
0.1692767205
 10
0.1078117193
 20
0.1692771878
 10
0.107782924
 20
0.1692778983
 10
0.1077568883
 20
0.1692787709
 10
0.1077449317
 20
0.1692792335
 10
0.1077336028
 20
0.1692796865
 10
0.1077121522
 20
0.1692805972
 10
0.1077034489
 20
0.1692810168
 10
0.1076974426
 20
0.1692813125
 10
0.1076921728
 20
0.169281384
 10
0.1076924049
 20
0.169281136
  0
LWPOLYLINE
  5
B2
330
1F
100
AcDbEntity
  8
0
  6
Continuous
 62
     7
370
    25
100
AcDbPolyline
 90
       16
 70
   128
 43
0.0
 10
0.1076929894
 20
0.1692800155
 10
0.1076930245
 20
0.1692795482
 10
0.1076843222
 20
0.1692802301
 10
0.107669086
 20
0.1692830291
 10
0.1076490166
 20
0.1692884746
 10
0.1076255789
 20
0.1692971959
 10
0.1076008333
 20
0.1693094506
 10
0.1075492951
 20
0.169344851
 10
0.1074952927
 20
0.169392468
 10
0.1074576133
 20
0.16942804
 10
0.1074174976
 20
0.1694641605
 10
0.1073737731
 20
0.169497992
 10
0.1073380303
 20
0.1695194974
 10
0.1072978439
 20
0.1695360389
 10
0.107250903
 20
0.1695462432
 10
0.1071967624
 20
0.1695494094
  0
ARC
  5
B3
330
1F
100
AcDbEntity
  8
0
  6
Continuous
 62
     7
370
    25
100
AcDbCircle
 10
0.1115158691
 20
0.1603423842
 30
0.0
 40
0.0103596676091177
100
AcDbArc
 50
117.28497035
 51
124.6530614602
  0
CIRCLE
  5
B4
330
1F
100
AcDbEntity
  8
0
  6
Continuous
 62
     7
370
    25
100
AcDbCircle
 10
0.0919650777
 20
0.1685893488
 30
0.0
 40
0.0008813829953435
  0
LINE
  5
B5
330
1F
100
AcDbEntity
  8
0
  6
Continuous
 62
     7
370
    25
100
AcDbLine
 10
0.1169757844
 20
0.1686294093
 30
0.0
 11
0.1169757844
 21
0.1685494056
 31
0.0
  0
LINE
  5
B6
330
1F
100
AcDbEntity
  8
0
  6
Continuous
 62
     7
370
    25
100
AcDbLine
 10
0.0949537695
 20
0.1685494056
 30
0.0
 11
0.0949537695
 21
0.1686294093
 31
0.0
  0
LINE
  5
B7
330
1F
100
AcDbEntity
  8
0
  6
Continuous
 62
     7
370
    25
100
AcDbLine
 10
0.1172757841
 20
0.1681534066
 30
0.0
 11
0.1172757841
 21
0.1681417003
 31
0.0
  0
LINE
  5
B8
330
1F
100
AcDbEntity
  8
0
  6
Continuous
 62
     7
370
    25
100
AcDbLine
 10
0.1176757843
 20
0.1681417003
 30
0.0
 11
0.1176757843
 21
0.1681534066
 31
0.0
  0
ARC
  5
B9
330
1F
100
AcDbEntity
  8
0
  6
Continuous
 62
     7
370
    25
100
AcDbCircle
 10
0.1176697841
 20
0.1681534076
 30
0.0
 40
0.000006
100
AcDbArc
 50
0.0
 51
90.0
  0
ARC
  5
BA
330
1F
100
AcDbEntity
  8
0
  6
Continuous
 62
     7
370
    25
100
AcDbCircle
 10
0.1172817841
 20
0.1681534076
 30
0.0
 40
0.000006
100
AcDbArc
 50
90.0
 51
180.0
  0
ARC
  5
BB
330
1F
100
AcDbEntity
  8
0
  6
Continuous
 62
     7
370
    25
100
AcDbCircle
 10
0.1172817841
 20
0.1681416983
 30
0.0
 40
0.000006
100
AcDbArc
 50
180.0
 51
222.0412668331
  0
ARC
  5
BC
330
1F
100
AcDbEntity
  8
0
  6
Continuous
 62
     7
370
    25
100
AcDbCircle
 10
0.1176697841
 20
0.1681416983
 30
0.0
 40
0.000006
100
AcDbArc
 50
317.9587331668
 51
0.0
  0
ARC
  5
BD
330
1F
100
AcDbEntity
  8
0
  6
Continuous
 62
     7
370
    25
100
AcDbCircle
 10
0.1174757841
 20
0.1683166299
 30
0.0
 40
0.0002672222222222
100
AcDbArc
 50
281.8117312768
 51
317.9587331667
  0
ARC
  5
BE
330
1F
100
AcDbEntity
  8
0
  6
Continuous
 62
     7
370
    25
100
AcDbCircle
 10
0.1174757841
 20
0.1683166299
 30
0.0
 40
0.0002672222222222
100
AcDbArc
 50
222.0412668333
 51
258.1882687232
  0
ARC
  5
BF
330
1F
100
AcDbEntity
  8
0
  6
Continuous
 62
     7
370
    25
100
AcDbCircle
 10
0.1037781847
 20
0.1681516983
 30
0.0
 40
0.000006
100
AcDbArc
 50
180.0
 51
222.0412668334
  0
ARC
  5
C0
330
1F
100
AcDbEntity
  8
0
  6
Continuous
 62
     7
370
    25
100
AcDbCircle
 10
0.1041661847
 20
0.1681516983
 30
0.0
 40
0.000006
100
AcDbArc
 50
317.9587331667
 51
0.0
  0
LINE
  5
C1
330
1F
100
AcDbEntity
  8
0
  6
Continuous
 62
     7
370
    25
100
AcDbLine
 10
0.1037721849
 20
0.16815941
 30
0.0
 11
0.1037721849
 21
0.1681516996
 31
0.0
  0
LINE
  5
C2
330
1F
100
AcDbEntity
  8
0
  6
Continuous
 62
     7
370
    25
100
AcDbLine
 10
0.1041721846
 20
0.1681516996
 30
0.0
 11
0.1041721846
 21
0.16815941
 31
0.0
  0
ARC
  5
C3
330
1F
100
AcDbEntity
  8
0
  6
Continuous
 62
     7
370
    25
100
AcDbCircle
 10
0.1039721847
 20
0.1683266299
 30
0.0
 40
0.0002672222222222
100
AcDbArc
 50
281.7724524283
 51
317.9587331667
  0
ARC
  5
C4
330
1F
100
AcDbEntity
  8
0
  6
Continuous
 62
     7
370
    25
100
AcDbCircle
 10
0.1039721847
 20
0.1683266299
 30
0.0
 40
0.0002672222222222
100
AcDbArc
 50
222.0412668333
 51
258.2275475717
  0
ARC
  5
C5
330
1F
100
AcDbEntity
  8
0
  6
Continuous
 62
     7
370
    25
100
AcDbCircle
 10
0.1096775716
 20
0.1681516983
 30
0.0
 40
0.000006
100
AcDbArc
 50
317.9587331667
 51
0.0
  0
LINE
  5
C6
330
1F
100
AcDbEntity
  8
0
  6
Continuous
 62
     7
370
    25
100
AcDbLine
 10
0.1096835716
 20
0.1681516996
 30
0.0
 11
0.1096835716
 21
0.16815941
 31
0.0
  0
ARC
  5
C7
330
1F
100
AcDbEntity
  8
0
  6
Continuous
 62
     7
370
    25
100
AcDbCircle
 10
0.1094835716
 20
0.1683266299
 30
0.0
 40
0.0002672222222222
100
AcDbArc
 50
281.7093794228
 51
317.9587331667
  0
LINE
  5
C8
330
1F
100
AcDbEntity
  8
0
  6
Continuous
 62
     7
370
    25
100
AcDbLine
 10
0.1022459824
 20
0.168557116
 30
0.0
 11
0.1022459824
 21
0.1685494056
 31
0.0
  0
ARC
  5
C9
330
1F
100
AcDbEntity
  8
0
  6
Continuous
 62
     7
370
    25
100
AcDbCircle
 10
0.1022519825
 20
0.168557117
 30
0.0
 40
0.000006
100
AcDbArc
 50
137.9587331667
 51
180.0
  0
ARC
  5
CA
330
1F
100
AcDbEntity
  8
0
  6
Continuous
 62
     7
370
    25
100
AcDbCircle
 10
0.1024459825
 20
0.1683821854
 30
0.0
 40
0.0002672222222222
100
AcDbArc
 50
101.7093794228
 51
137.9587331667
  0
ARC
  5
CB
330
1F
100
AcDbEntity
  8
0
  6
Continuous
 62
     7
370
    25
100
AcDbCircle
 10
0.1081513694
 20
0.168557117
 30
0.0
 40
0.000006
100
AcDbArc
 50
0.0
 51
42.0412668333
  0
ARC
  5
CC
330
1F
100
AcDbEntity
  8
0
  6
Continuous
 62
     7
370
    25
100
AcDbCircle
 10
0.1077633694
 20
0.168557117
 30
0.0
 40
0.000006
100
AcDbArc
 50
137.9587331667
 51
180.0
  0
LINE
  5
CD
330
1F
100
AcDbEntity
  8
0
  6
Continuous
 62
     7
370
    25
100
AcDbLine
 10
0.1081573694
 20
0.1685494056
 30
0.0
 11
0.1081573694
 21
0.168557116
 31
0.0
  0
LINE
  5
CE
330
1F
100
AcDbEntity
  8
0
  6
Continuous
 62
     7
370
    25
100
AcDbLine
 10
0.1077573694
 20
0.168557116
 30
0.0
 11
0.1077573694
 21
0.1685494056
 31
0.0
  0
ARC
  5
CF
330
1F
100
AcDbEntity
  8
0
  6
Continuous
 62
     7
370
    25
100
AcDbCircle
 10
0.1079573694
 20
0.1683821854
 30
0.0
 40
0.0002672222222222
100
AcDbArc
 50
101.7724524283
 51
137.9587331667
  0
ARC
  5
D0
330
1F
100
AcDbEntity
  8
0
  6
Continuous
 62
     7
370
    25
100
AcDbCircle
 10
0.1079573694
 20
0.1683821854
 30
0.0
 40
0.0002672222222222
100
AcDbArc
 50
42.0412668333
 51
78.2275475717
  0
LINE
  5
D1
330
1F
100
AcDbEntity
  8
0
  6
Continuous
 62
     7
370
    25
100
AcDbLine
 10
0.0942537702
 20
0.1681534066
 30
0.0
 11
0.0942537702
 21
0.1681417003
 31
0.0
  0
LINE
  5
D2
330
1F
100
AcDbEntity
  8
0
  6
Continuous
 62
     7
370
    25
100
AcDbLine
 10
0.0946537698
 20
0.1681417003
 30
0.0
 11
0.0946537698
 21
0.1681534066
 31
0.0
  0
ARC
  5
D3
330
1F
100
AcDbEntity
  8
0
  6
Continuous
 62
     7
370
    25
100
AcDbCircle
 10
0.09464777
 20
0.1681534076
 30
0.0
 40
0.000006
100
AcDbArc
 50
0.0
 51
90.0
  0
ARC
  5
D4
330
1F
100
AcDbEntity
  8
0
  6
Continuous
 62
     7
370
    25
100
AcDbCircle
 10
0.09425977
 20
0.1681534076
 30
0.0
 40
0.000006
100
AcDbArc
 50
90.0
 51
180.0
  0
ARC
  5
D5
330
1F
100
AcDbEntity
  8
0
  6
Continuous
 62
     7
370
    25
100
AcDbCircle
 10
0.09425977
 20
0.1681416983
 30
0.0
 40
0.000006
100
AcDbArc
 50
180.0
 51
222.0412668333
  0
ARC
  5
D6
330
1F
100
AcDbEntity
  8
0
  6
Continuous
 62
     7
370
    25
100
AcDbCircle
 10
0.09464777
 20
0.1681416983
 30
0.0
 40
0.000006
100
AcDbArc
 50
317.9587331667
 51
0.0
  0
ARC
  5
D7
330
1F
100
AcDbEntity
  8
0
  6
Continuous
 62
     7
370
    25
100
AcDbCircle
 10
0.09445377
 20
0.1683166299
 30
0.0
 40
0.0002672222222222
100
AcDbArc
 50
281.7657405475
 51
317.9587331667
  0
ARC
  5
D8
330
1F
100
AcDbEntity
  8
0
  6
Continuous
 62
     7
370
    25
100
AcDbCircle
 10
0.09445377
 20
0.1683166299
 30
0.0
 40
0.0002672222222222
100
AcDbArc
 50
222.0412668333
 51
258.2342594525
  0
LINE
  5
D9
330
1F
100
AcDbEntity
  8
0
  6
Continuous
 62
     7
370
    25
100
AcDbLine
 10
0.1173357839
 20
0.1686370053
 30
0.0
 11
0.1176157839
 21
0.1686370053
 31
0.0
  0
LINE
  5
DA
330
1F
100
AcDbEntity
  8
0
  6
Continuous
 62
     7
370
    25
100
AcDbLine
 10
0.1174057842
 20
0.1687174096
 30
0.0
 11
0.1175457842
 21
0.1687174096
 31
0.0
  0
LINE
  5
DB
330
1F
100
AcDbEntity
  8
0
  6
Continuous
 62
     7
370
    25
100
AcDbLine
 10
0.0943137694
 20
0.1686370053
 30
0.0
 11
0.0945937706
 21
0.1686370053
 31
0.0
  0
LINE
  5
DC
330
1F
100
AcDbEntity
  8
0
  6
Continuous
 62
     7
370
    25
100
AcDbLine
 10
0.0943837703
 20
0.1687174096
 30
0.0
 11
0.0945237697
 21
0.1687174096
 31
0.0
  0
LINE
  5
DD
330
1F
100
AcDbEntity
  8
0
  6
Continuous
 62
     7
370
    25
100
AcDbLine
 10
0.0975213076
 20
0.1671594062
 30
0.0
 11
0.0970740105
 21
0.1671594062
 31
0.0
  0
LINE
  5
DE
330
1F
100
AcDbEntity
  8
0
  6
Continuous
 62
     7
370
    25
100
AcDbLine
 10
0.1037485362
 20
0.1695494094
 30
0.0
 11
0.104195833
 21
0.1695494094
 31
0.0
  0
LINE
  5
DF
330
1F
100
AcDbEntity
  8
0
  6
Continuous
 62
     7
370
    25
100
AcDbLine
 10
0.1146951766
 20
0.1671594062
 30
0.0
 11
0.1145583553
 21
0.1671594062
 31
0.0
  0
LINE
  5
E0
330
1F
100
AcDbEntity
  8
0
  6
Continuous
 62
     7
370
    25
100
AcDbLine
 10
0.114252177
 20
0.1671594062
 30
0.0
 11
0.1142649038
 21
0.1671594062
 31
0.0
  0
LINE
  5
E1
330
1F
100
AcDbEntity
  8
0
  6
Continuous
 62
     7
370
    25
100
AcDbLine
 10
0.0992174895
 20
0.1671594062
 30
0.0
 11
0.0991481174
 21
0.1671594062
 31
0.0
  0
LINE
  5
E2
330
1F
100
AcDbEntity
  8
0
  6
Continuous
 62
     7
370
    25
100
AcDbLine
 10
0.0987744893
 20
0.1671594062
 30
0.0
 11
0.098787216
 21
0.1671594062
 31
0.0
  0
LINE
  5
E3
330
1F
100
AcDbEntity
  8
0
  6
Continuous
 62
     7
370
    25
100
AcDbLine
 10
0.1051631934
 20
0.1671594062
 30
0.0
 11
0.1047158963
 21
0.1671594062
 31
0.0
  0
LINE
  5
E4
330
1F
100
AcDbEntity
  8
0
  6
Continuous
 62
     7
370
    25
100
AcDbLine
 10
0.0991650797
 20
0.1695494094
 30
0.0
 11
0.0996123762
 21
0.1695494094
 31
0.0
  0
LINE
  5
E5
330
1F
100
AcDbEntity
  8
0
  6
Continuous
 62
     7
370
    25
100
AcDbLine
 10
0.1120120032
 20
0.1671594062
 30
0.0
 11
0.1115647061
 21
0.1671594062
 31
0.0
  0
LINE
  5
E6
330
1F
100
AcDbEntity
  8
0
  6
Continuous
 62
     7
370
    25
100
AcDbLine
 10
0.1127644745
 20
0.1671594062
 30
0.0
 11
0.1123171777
 21
0.1671594062
 31
0.0
  0
LINE
  5
E7
330
1F
100
AcDbEntity
  8
0
  6
Continuous
 62
     7
370
    25
100
AcDbLine
 10
0.0999175508
 20
0.1695494094
 30
0.0
 11
0.1003648479
 21
0.1695494094
 31
0.0
  0
LINE
  5
E8
330
1F
100
AcDbEntity
  8
0
  6
Continuous
 62
     7
370
    25
100
AcDbLine
 10
0.1081810179
 20
0.1671594062
 30
0.0
 11
0.1077337209
 21
0.1671594062
 31
0.0
  0
LINE
  5
E9
330
1F
100
AcDbEntity
  8
0
  6
Continuous
 62
     7
370
    25
100
AcDbLine
 10
0.1127120651
 20
0.1695494094
 30
0.0
 11
0.1127814371
 21
0.1695494094
 31
0.0
  0
LINE
  5
EA
330
1F
100
AcDbEntity
  8
0
  6
Continuous
 62
     7
370
    25
100
AcDbLine
 10
0.1131550647
 20
0.1695494094
 30
0.0
 11
0.1131423376
 21
0.1695494094
 31
0.0
  0
LINE
  5
EB
330
1F
100
AcDbEntity
  8
0
  6
Continuous
 62
     7
370
    25
100
AcDbLine
 10
0.097234378
 20
0.1695494094
 30
0.0
 11
0.0973711992
 21
0.1695494094
 31
0.0
  0
LINE
  5
EC
330
1F
100
AcDbEntity
  8
0
  6
Continuous
 62
     7
370
    25
100
AcDbLine
 10
0.0976773776
 20
0.1695494094
 30
0.0
 11
0.0976646508
 21
0.1695494094
 31
0.0
  0
LINE
  5
ED
330
1F
100
AcDbEntity
  8
0
  6
Continuous
 62
     7
370
    25
100
AcDbLine
 10
0.1144082464
 20
0.1695494094
 30
0.0
 11
0.1148555429
 21
0.1695494094
 31
0.0
  0
LINE
  5
EE
330
1F
100
AcDbEntity
  8
0
  6
Continuous
 62
     7
370
    25
100
AcDbLine
 10
0.1145513553
 20
0.1671594062
 30
0.0
 11
0.1141040582
 21
0.1671594062
 31
0.0
  0
LINE
  5
EF
330
1F
100
AcDbEntity
  8
0
  6
Continuous
 62
     7
370
    25
100
AcDbLine
 10
0.1092599232
 20
0.1695494094
 30
0.0
 11
0.1097072201
 21
0.1695494094
 31
0.0
  0
LINE
  5
F0
330
1F
100
AcDbEntity
  8
0
  6
Continuous
 62
     7
370
    25
100
AcDbLine
 10
0.1127884371
 20
0.1695494094
 30
0.0
 11
0.1132357339
 21
0.1695494094
 31
0.0
  0
LINE
  5
F1
330
1F
100
AcDbEntity
  8
0
  6
Continuous
 62
     7
370
    25
100
AcDbLine
 10
0.0973781992
 20
0.1695494094
 30
0.0
 11
0.0978254963
 21
0.1695494094
 31
0.0
  0
LINE
  5
F2
330
1F
100
AcDbEntity
  8
0
  6
Continuous
 62
     7
370
    25
100
AcDbLine
 10
0.1026696307
 20
0.1671594062
 30
0.0
 11
0.1022223342
 21
0.1671594062
 31
0.0
  0
LINE
  5
F3
330
1F
100
AcDbEntity
  8
0
  6
Continuous
 62
     7
370
    25
100
AcDbLine
 10
0.0991411168
 20
0.1671594062
 30
0.0
 11
0.0986938203
 21
0.1671594062
 31
0.0
  0
LINE
  5
F4
330
1F
100
AcDbEntity
  8
0
  6
Continuous
 62
     7
370
    25
100
AcDbLine
 10
0.1067663608
 20
0.1695494094
 30
0.0
 11
0.1072136577
 21
0.1695494094
 31
0.0
  0
LINE
  5
F5
330
1F
100
AcDbEntity
  8
0
  6
Continuous
 62
     7
370
    25
100
AcDbLine
 10
0.1182347769
 20
0.16815941
 30
0.0
 11
0.0936947776
 21
0.16815941
 31
0.0
  0
LINE
  5
F6
330
1F
100
AcDbEntity
  8
0
  6
Continuous
 62
     7
370
    25
100
AcDbLine
 10
0.0936947776
 20
0.16815941
 30
0.0
 11
0.0934547771
 21
0.16815941
 31
0.0
  0
ARC
  5
F7
330
1F
100
AcDbEntity
  8
0
  6
Continuous
 62
     7
370
    25
100
AcDbCircle
 10
0.0934547771
 20
0.1682194076
 30
0.0
 40
0.00006
100
AcDbArc
 50
180.0
 51
270.0
  0
LINE
  5
F8
330
1F
100
AcDbEntity
  8
0
  6
Continuous
 62
     7
370
    25
100
AcDbLine
 10
0.0933947767
 20
0.1682194057
 30
0.0
 11
0.0933947767
 21
0.1684794059
 31
0.0
  0
LINE
  5
F9
330
1F
100
AcDbEntity
  8
0
  6
Continuous
 62
     7
370
    25
100
AcDbLine
 10
0.1184747768
 20
0.16815941
 30
0.0
 11
0.1182347769
 21
0.16815941
 31
0.0
  0
ARC
  5
FA
330
1F
100
AcDbEntity
  8
0
  6
Continuous
 62
     7
370
    25
100
AcDbCircle
 10
0.1184747771
 20
0.1682194076
 30
0.0
 40
0.00006
100
AcDbArc
 50
270.0
 51
0.0
  0
LINE
  5
FB
330
1F
100
AcDbEntity
  8
0
  6
Continuous
 62
     7
370
    25
100
AcDbLine
 10
0.1185347773
 20
0.1682194057
 30
0.0
 11
0.1185347773
 21
0.1684794059
 31
0.0
  0
LINE
  5
FC
330
1F
100
AcDbEntity
  8
0
  6
Continuous
 62
     7
370
    25
100
AcDbLine
 10
0.1182347769
 20
0.1685494056
 30
0.0
 11
0.1184747768
 21
0.1685494056
 31
0.0
  0
ARC
  5
FD
330
1F
100
AcDbEntity
  8
0
  6
Continuous
 62
     7
370
    25
100
AcDbCircle
 10
0.1184747771
 20
0.1684894076
 30
0.0
 40
0.00006
100
AcDbArc
 50
0.0
 51
90.0
  0
LINE
  5
FE
330
1F
100
AcDbEntity
  8
0
  6
Continuous
 62
     7
370
    25
100
AcDbLine
 10
0.1185347773
 20
0.1684894099
 30
0.0
 11
0.1185347773
 21
0.1682294097
 31
0.0
  0
LINE
  5
FF
330
1F
100
AcDbEntity
  8
0
  6
Continuous
 62
     7
370
    25
100
AcDbLine
 10
0.0934547771
 20
0.1685494056
 30
0.0
 11
0.0936947776
 21
0.1685494056
 31
0.0
  0
ARC
  5
100
330
1F
100
AcDbEntity
  8
0
  6
Continuous
 62
     7
370
    25
100
AcDbCircle
 10
0.0934547771
 20
0.1684894076
 30
0.0
 40
0.00006
100
AcDbArc
 50
90.0
 51
180.0
  0
LINE
  5
101
330
1F
100
AcDbEntity
  8
0
  6
Continuous
 62
     7
370
    25
100
AcDbLine
 10
0.0936947776
 20
0.1685494056
 30
0.0
 11
0.1182347769
 21
0.1685494056
 31
0.0
  0
LINE
  5
102
330
1F
100
AcDbEntity
  8
0
  6
Continuous
 62
     7
370
    25
100
AcDbLine
 10
0.0933947767
 20
0.1684894099
 30
0.0
 11
0.0933947767
 21
0.1682294097
 31
0.0
  0
CIRCLE
  5
103
330
1F
100
AcDbEntity
  8
0
  6
Continuous
 62
     7
370
    25
100
AcDbCircle
 10
0.0919647771
 20
0.1685894076
 30
0.0
 40
0.000889
  0
CIRCLE
  5
104
330
1F
100
AcDbEntity
  8
0
  6
Continuous
 62
     7
370
    25
100
AcDbCircle
 10
0.1199647771
 20
0.1685894076
 30
0.0
 40
0.000889
  0
CIRCLE
  5
105
330
1F
100
AcDbEntity
  8
0
  6
Continuous
 62
     7
370
    25
100
AcDbCircle
 10
0.091964712
 20
0.1685894042
 30
0.0
 40
0.0008849969852551
  0
CIRCLE
  5
106
330
1F
100
AcDbEntity
  8
0
  6
Continuous
 62
     7
370
    25
100
AcDbCircle
 10
0.1199647116
 20
0.1685894046
 30
0.0
 40
0.0008849973583219
  0
LINE
  5
107
330
1F
100
AcDbEntity
  8
0
  6
Continuous
 62
     7
370
    25
100
AcDbLine
 10
0.1190757776
 20
0.1685494056
 30
0.0
 11
0.1190757776
 21
0.1686294093
 31
0.0
  0
LINE
  5
108
330
1F
100
AcDbEntity
  8
0
  6
Continuous
 62
     7
370
    25
100
AcDbLine
 10
0.1190757776
 20
0.1685494056
 30
0.0
 11
0.1184747768
 21
0.1685494056
 31
0.0
  0
LINE
  5
109
330
1F
100
AcDbEntity
  8
0
  6
Continuous
 62
     7
370
    25
100
AcDbLine
 10
0.1190757776
 20
0.1686294093
 30
0.0
 11
0.1174757774
 21
0.1686294093
 31
0.0
  0
LINE
  5
10A
330
1F
100
AcDbEntity
  8
0
  6
Continuous
 62
     7
370
    25
100
AcDbLine
 10
0.1190757907
 20
0.1685494056
 30
0.0
 11
0.1190757907
 21
0.1685844007
 31
0.0
  0
LINE
  5
10B
330
1F
100
AcDbEntity
  8
0
  6
Continuous
 62
     7
370
    25
100
AcDbLine
 10
0.1190757907
 20
0.1685944142
 30
0.0
 11
0.1190757907
 21
0.1686294093
 31
0.0
  0
LINE
  5
10C
330
1F
100
AcDbEntity
  8
0
  6
Continuous
 62
     7
370
    25
100
AcDbLine
 10
0.1190757907
 20
0.1686294093
 30
0.0
 11
0.1190757776
 21
0.1686294093
 31
0.0
  0
LINE
  5
10D
330
1F
100
AcDbEntity
  8
0
  6
Continuous
 62
     7
370
    25
100
AcDbLine
 10
0.1190757907
 20
0.1685494056
 30
0.0
 11
0.1190757776
 21
0.1685494056
 31
0.0
  0
LINE
  5
10E
330
1F
100
AcDbEntity
  8
0
  6
Continuous
 62
     7
370
    25
100
AcDbLine
 10
0.1174757774
 20
0.1686294093
 30
0.0
 11
0.1169757844
 21
0.1686294093
 31
0.0
  0
LINE
  5
10F
330
1F
100
AcDbEntity
  8
0
  6
Continuous
 62
     7
370
    25
100
AcDbLine
 10
0.0928537775
 20
0.1685494056
 30
0.0
 11
0.0928537775
 21
0.1686294093
 31
0.0
  0
LINE
  5
110
330
1F
100
AcDbEntity
  8
0
  6
Continuous
 62
     7
370
    25
100
AcDbLine
 10
0.0928537775
 20
0.1686294093
 30
0.0
 11
0.0944537772
 21
0.1686294093
 31
0.0
  0
LINE
  5
111
330
1F
100
AcDbEntity
  8
0
  6
Continuous
 62
     7
370
    25
100
AcDbLine
 10
0.0928537775
 20
0.1685494056
 30
0.0
 11
0.0934547771
 21
0.1685494056
 31
0.0
  0
LINE
  5
112
330
1F
100
AcDbEntity
  8
0
  6
Continuous
 62
     7
370
    25
100
AcDbLine
 10
0.0928537632
 20
0.1685494056
 30
0.0
 11
0.0928537632
 21
0.1685844007
 31
0.0
  0
LINE
  5
113
330
1F
100
AcDbEntity
  8
0
  6
Continuous
 62
     7
370
    25
100
AcDbLine
 10
0.0928537632
 20
0.1685944142
 30
0.0
 11
0.0928537632
 21
0.1686294093
 31
0.0
  0
LINE
  5
114
330
1F
100
AcDbEntity
  8
0
  6
Continuous
 62
     7
370
    25
100
AcDbLine
 10
0.0928537632
 20
0.1686294093
 30
0.0
 11
0.0928537775
 21
0.1686294093
 31
0.0
  0
LINE
  5
115
330
1F
100
AcDbEntity
  8
0
  6
Continuous
 62
     7
370
    25
100
AcDbLine
 10
0.0928537632
 20
0.1685494056
 30
0.0
 11
0.0928537775
 21
0.1685494056
 31
0.0
  0
LINE
  5
116
330
1F
100
AcDbEntity
  8
0
  6
Continuous
 62
     7
370
    25
100
AcDbLine
 10
0.0944537772
 20
0.1686294093
 30
0.0
 11
0.0949537695
 21
0.1686294093
 31
0.0
  0
ARC
  5
117
330
1F
100
AcDbEntity
  8
0
  6
Continuous
 62
     7
370
    25
100
AcDbCircle
 10
0.1174244192
 20
0.1680717103
 30
0.0
 40
0.0000169764328254
100
AcDbArc
 50
243.5679638346
 51
282.5580823071
  0
ARC
  5
118
330
1F
100
AcDbEntity
  8
0
  6
Continuous
 62
     7
370
    25
100
AcDbCircle
 10
0.1174614362
 20
0.1682993005
 30
0.0
 40
0.0002445825595004
100
AcDbArc
 50
266.9527636598
 51
272.7138153548
  0
ARC
  5
119
330
1F
100
AcDbEntity
  8
0
  6
Continuous
 62
     7
370
    25
100
AcDbCircle
 10
0.1175127905
 20
0.1681896996
 30
0.0
 40
0.0001349817570623
100
AcDbArc
 50
265.8976305891
 51
274.5325436389
  0
ARC
  5
11A
330
1F
100
AcDbEntity
  8
0
  6
Continuous
 62
     7
370
    25
100
AcDbCircle
 10
0.1175271427
 20
0.1680717715
 30
0.0
 40
0.0000170385292412
100
AcDbArc
 50
243.6101123078
 51
281.3080127023
  0
ARC
  5
11B
330
1F
100
AcDbEntity
  8
0
  6
Continuous
 62
     7
370
    25
100
AcDbCircle
 10
0.1174901087
 20
0.1682976239
 30
0.0
 40
0.0002429085663998
100
AcDbArc
 50
263.0338203785
 51
276.9661796215
  0
ARC
  5
11C
330
1F
100
AcDbEntity
  8
0
  6
Continuous
 62
     7
370
    25
100
AcDbCircle
 10
0.1174387551
 20
0.168189325
 30
0.0
 40
0.0001346087490678
100
AcDbArc
 50
260.639827156
 51
279.360172844
  0
ARC
  5
11D
330
1F
100
AcDbEntity
  8
0
  6
Continuous
 62
     7
370
    25
100
AcDbCircle
 10
0.1039356605
 20
0.1682027653
 30
0.0
 40
0.0001380497681678
100
AcDbArc
 50
260.7572528148
 51
279.2427471852
  0
ARC
  5
11E
330
1F
100
AcDbEntity
  8
0
  6
Continuous
 62
     7
370
    25
100
AcDbCircle
 10
0.1039206141
 20
0.1680797965
 30
0.0
 40
0.0000150791643911
100
AcDbArc
 50
241.7950317994
 51
284.263627092
  0
ARC
  5
11F
330
1F
100
AcDbEntity
  8
0
  6
Continuous
 62
     7
370
    25
100
AcDbCircle
 10
0.1039572127
 20
0.168305729
 30
0.0
 40
0.000241012838367
100
AcDbArc
 50
267.0774872245
 51
273.5637178672
  0
ARC
  5
120
330
1F
100
AcDbEntity
  8
0
  6
Continuous
 62
     7
370
    25
100
AcDbCircle
 10
0.1040087471
 20
0.1682008646
 30
0.0
 40
0.0001361515525374
100
AcDbArc
 50
266.9901504501
 51
274.7578180948
  0
ARC
  5
121
330
1F
100
AcDbEntity
  8
0
  6
Continuous
 62
     7
370
    25
100
AcDbCircle
 10
0.1040237004
 20
0.1680800992
 30
0.0
 40
0.0000153661463538
100
AcDbArc
 50
242.1901831833
 51
281.2752453587
  0
ARC
  5
122
330
1F
100
AcDbEntity
  8
0
  6
Continuous
 62
     7
370
    25
100
AcDbCircle
 10
0.1039871826
 20
0.1683057902
 30
0.0
 40
0.0002410755244895
100
AcDbArc
 50
263.007383648
 51
276.992616352
  0
ARC
  5
123
330
1F
100
AcDbEntity
  8
0
  6
Continuous
 62
     7
370
    25
100
AcDbCircle
 10
0.1095191012
 20
0.1682117127
 30
0.0
 40
0.0001469915338971
100
AcDbArc
 50
267.6158580357
 51
274.9438169936
  0
ARC
  5
124
330
1F
100
AcDbEntity
  8
0
  6
Continuous
 62
     7
370
    25
100
AcDbCircle
 10
0.1095353772
 20
0.168077522
 30
0.0
 40
0.0000127867421133
100
AcDbArc
 50
239.4715889592
 51
280.9392269044
  0
ARC
  5
125
330
1F
100
AcDbEntity
  8
0
  6
Continuous
 62
     7
370
    25
100
AcDbCircle
 10
0.1094998053
 20
0.1683018058
 30
0.0
 40
0.0002370877045677
100
AcDbArc
 50
273.1960809226
 51
277.0445354056
  0
ARC
  5
126
330
1F
100
AcDbEntity
  8
0
  6
Continuous
 62
     7
370
    25
100
AcDbCircle
 10
0.1024103551
 20
0.1685012909
 30
0.0
 40
0.0001428109168668
100
AcDbArc
 50
86.5832942402
 51
95.0495443964
  0
ARC
  5
127
330
1F
100
AcDbEntity
  8
0
  6
Continuous
 62
     7
370
    25
100
AcDbCircle
 10
0.1023941787
 20
0.1686313389
 30
0.0
 40
0.000012742591981
100
AcDbArc
 50
59.364879626
 51
100.9862272633
  0
ARC
  5
128
330
1F
100
AcDbEntity
  8
0
  6
Continuous
 62
     7
370
    25
100
AcDbCircle
 10
0.1024296596
 20
0.168408833
 30
0.0
 40
0.0002352626651569
100
AcDbArc
 50
92.6295209651
 51
97.0776211777
  0
ARC
  5
129
330
1F
100
AcDbEntity
  8
0
  6
Continuous
 62
     7
370
    25
100
AcDbCircle
 10
0.1079938936
 20
0.168506488
 30
0.0
 40
0.0001376131113252
100
AcDbArc
 50
80.7275722616
 51
99.2724277384
  0
ARC
  5
12A
330
1F
100
AcDbEntity
  8
0
  6
Continuous
 62
     7
370
    25
100
AcDbCircle
 10
0.1080089398
 20
0.1686290635
 30
0.0
 40
0.0000150360283321
100
AcDbArc
 50
61.705136867
 51
104.3038693351
  0
ARC
  5
12B
330
1F
100
AcDbEntity
  8
0
  6
Continuous
 62
     7
370
    25
100
AcDbCircle
 10
0.1079723313
 20
0.1684057863
 30
0.0
 40
0.0002383172019203
100
AcDbArc
 50
87.0419653761
 51
93.5994535174
  0
ARC
  5
12C
330
1F
100
AcDbEntity
  8
0
  6
Continuous
 62
     7
370
    25
100
AcDbCircle
 10
0.1079208068
 20
0.168507967
 30
0.0
 40
0.0001361355580751
100
AcDbArc
 50
86.9896934411
 51
94.7582751038
  0
ARC
  5
12D
330
1F
100
AcDbEntity
  8
0
  6
Continuous
 62
     7
370
    25
100
AcDbCircle
 10
0.1079058551
 20
0.1686287698
 30
0.0
 40
0.0000153140433363
100
AcDbArc
 50
62.0934853758
 51
101.3191070154
  0
ARC
  5
12E
330
1F
100
AcDbEntity
  8
0
  6
Continuous
 62
     7
370
    25
100
AcDbCircle
 10
0.1079423713
 20
0.1684038024
 30
0.0
 40
0.0002402995944012
100
AcDbArc
 50
82.984708982
 51
97.015291018
  0
ARC
  5
12F
330
1F
100
AcDbEntity
  8
0
  6
Continuous
 62
     7
370
    25
100
AcDbCircle
 10
0.0944165079
 20
0.1681884415
 30
0.0
 40
0.0001337259727715
100
AcDbArc
 50
265.016222017
 51
270.4901971562
  0
ARC
  5
130
330
1F
100
AcDbEntity
  8
0
  6
Continuous
 62
     7
370
    25
100
AcDbCircle
 10
0.0944677776
 20
0.1683014546
 30
0.0
 40
0.0002467391287445
100
AcDbArc
 50
266.3314782501
 51
270.3614152794
  0
ARC
  5
131
330
1F
100
AcDbEntity
  8
0
  6
Continuous
 62
     7
370
    25
100
AcDbCircle
 10
0.0945050609
 20
0.1680723607
 30
0.0
 40
0.0000176445857634
100
AcDbArc
 50
256.2587731852
 51
271.2702861953
  0
ARC
  5
132
330
1F
100
AcDbEntity
  8
0
  6
Continuous
 62
     7
370
    25
100
AcDbCircle
 10
0.0944173481
 20
0.168194118
 30
0.0
 40
0.0001394000147268
100
AcDbArc
 50
264.9270289062
 51
273.4347391955
  0
ARC
  5
133
330
1F
100
AcDbEntity
  8
0
  6
Continuous
 62
     7
370
    25
100
AcDbCircle
 10
0.0944688961
 20
0.1682937034
 30
0.0
 40
0.0002389897247193
100
AcDbArc
 50
266.0942724838
 51
272.6452111839
  0
ARC
  5
134
330
1F
100
AcDbEntity
  8
0
  6
Continuous
 62
     7
370
    25
100
AcDbCircle
 10
0.0945053352
 20
0.1680698214
 30
0.0
 40
0.0000150839343101
100
AcDbArc
 50
254.8167078266
 51
298.0442287298
  0
ARC
  5
135
330
1F
100
AcDbEntity
  8
0
  6
Continuous
 62
     7
370
    25
100
AcDbCircle
 10
0.094490204
 20
0.1681933828
 30
0.0
 40
0.0001386665524816
100
AcDbArc
 50
260.7778890394
 51
279.2221109606
  0
ARC
  5
136
330
1F
100
AcDbEntity
  8
0
  6
Continuous
 62
     7
370
    25
100
AcDbCircle
 10
0.0944386525
 20
0.1682954554
 30
0.0
 40
0.0002407399762232
100
AcDbArc
 50
263.0024835455
 51
276.9975164545
  0
ARC
  5
137
330
1F
100
AcDbEntity
  8
0
  6
Continuous
 62
     7
370
    25
100
AcDbCircle
 10
0.0944022129
 20
0.1680698702
 30
0.0
 40
0.0000151361650548
100
AcDbArc
 50
258.8298539043
 51
298.0221123912
  0
ARC
  5
138
330
1F
100
AcDbEntity
  8
0
  6
Continuous
 62
     7
370
    25
100
AcDbCircle
 10
0.0944190574
 20
0.1682009718
 30
0.0
 40
0.0001462543818139
100
AcDbArc
 50
269.6334241872
 51
273.0210977035
  0
LINE
  5
139
330
1F
100
AcDbEntity
  8
FORMAT
 62
     7
100
AcDbLine
 10
0.0919647771
 20
0.2060894076
 30
0.0
 11
0.1199647771
 21
0.2060894076
 31
0.0
  0
LINE
  5
13A
330
1F
100
AcDbEntity
  8
FORMAT
 62
     7
100
AcDbLine
 10
0.0919647771
 20
0.1310894076
 30
0.0
 11
0.1199647771
 21
0.1310894076
 31
0.0
  0
ARC
  5
13B
330
1F
100
AcDbEntity
  8
FORMAT
 62
     7
100
AcDbCircle
 10
0.0919647771
 20
0.1685894076
 30
0.0
 40
0.0375
100
AcDbArc
 50
90.0
 51
270.0
  0
ARC
  5
13C
330
1F
100
AcDbEntity
  8
FORMAT
 62
     7
100
AcDbCircle
 10
0.1199647771
 20
0.1685894076
 30
0.0
 40
0.0375
100
AcDbArc
 50
270.0
 51
90.0
  0
ENDSEC
  0
SECTION
  2
OBJECTS
  0
DICTIONARY
  5
C
330
0
100
AcDbDictionary
281
     1
  3
ACAD_DETAILVIEWSTYLE
350
145
  3
ACAD_GROUP
350
D
  3
ACAD_LAYOUT
350
1A
  3
ACAD_MATERIAL
350
43
  3
ACAD_MLEADERSTYLE
350
6B
  3
ACAD_MLINESTYLE
350
17
  3
ACAD_PLOTSETTINGS
350
19
  3
ACAD_PLOTSTYLENAME
350
E
  3
ACAD_SCALELIST
350
47
  3
ACAD_SECTIONVIEWSTYLE
350
146
  3
ACAD_TABLESTYLE
350
69
  3
ACAD_VISUALSTYLE
350
2A
  3
ACDB_RECOMPOSE_DATA
350
142
  3
AcDbVariableDictionary
350
13D
  0
SUN
  5
6D
330
29
100
AcDbSun
 90
        1
290
     0
 63
     7
421
 16777215
 40
1.0
291
     1
 91
  2455826
 92
 54000000
292
     0
 70
     2
 71
   256
280
     1
  0
DICTIONARY
  5
145
102
{ACAD_REACTORS
330
C
102
}
330
C
100
AcDbDictionary
281
     1
  0
DICTIONARY
  5
D
102
{ACAD_REACTORS
330
C
102
}
330
C
100
AcDbDictionary
281
     1
  0
DICTIONARY
  5
1A
102
{ACAD_REACTORS
330
C
102
}
330
C
100
AcDbDictionary
281
     1
  3
Layout1
350
1E
  3
Layout2
350
26
  3
Model
350
22
  0
DICTIONARY
  5
43
102
{ACAD_REACTORS
330
C
102
}
330
C
100
AcDbDictionary
281
     1
  3
ByBlock
350
45
  3
ByLayer
350
44
  3
Global
350
46
  0
DICTIONARY
  5
6B
102
{ACAD_REACTORS
330
C
102
}
330
C
100
AcDbDictionary
281
     1
  3
Standard
350
6C
  0
DICTIONARY
  5
17
102
{ACAD_REACTORS
330
C
102
}
330
C
100
AcDbDictionary
281
     1
  3
Standard
350
18
  0
DICTIONARY
  5
19
102
{ACAD_REACTORS
330
C
102
}
330
C
100
AcDbDictionary
281
     1
  0
ACDBDICTIONARYWDFLT
  5
E
102
{ACAD_REACTORS
330
C
102
}
330
C
100
AcDbDictionary
281
     1
  3
Normal
350
F
100
AcDbDictionaryWithDefault
340
F
  0
DICTIONARY
  5
47
102
{ACAD_REACTORS
330
C
102
}
330
C
100
AcDbDictionary
281
     1
  3
A0
350
48
  3
A1
350
49
  3
A2
350
4A
  3
A3
350
4B
  3
A4
350
4C
  3
A5
350
4D
  3
A6
350
4E
  3
A7
350
4F
  3
A8
350
50
  3
A9
350
51
  3
B0
350
52
  3
B1
350
53
  3
B2
350
54
  3
B3
350
55
  3
B4
350
56
  3
B5
350
57
  3
B6
350
58
  3
B7
350
59
  3
B8
350
5A
  3
B9
350
5B
  3
C0
350
5C
  3
C1
350
5D
  3
C2
350
5E
  3
C3
350
5F
  3
C4
350
60
  3
C5
350
61
  3
C6
350
62
  3
C7
350
63
  3
C8
350
64
  3
C9
350
65
  3
D0
350
66
  3
D1
350
67
  3
D2
350
68
  0
DICTIONARY
  5
146
102
{ACAD_REACTORS
330
C
102
}
330
C
100
AcDbDictionary
281
     1
  0
DICTIONARY
  5
69
102
{ACAD_REACTORS
330
C
102
}
330
C
100
AcDbDictionary
281
     1
  3
Standard
350
6A
  0
DICTIONARY
  5
2A
102
{ACAD_REACTORS
330
C
102
}
330
C
100
AcDbDictionary
281
     1
  3
2dWireframe
350
2F
  3
Basic
350
32
  3
Brighten
350
36
  3
ColorChange
350
3A
  3
Conceptual
350
34
  3
Dim
350
35
  3
EdgeColorOff
350
3D
  3
Facepattern
350
39
  3
Flat
350
2B
  3
FlatWithEdges
350
2C
  3
Gouraud
350
2D
  3
GouraudWithEdges
350
2E
  3
Hidden
350
31
  3
JitterOff
350
3B
  3
Linepattern
350
38
  3
OverhangOff
350
3C
  3
Realistic
350
33
  3
Shaded
350
42
  3
Shaded with edges
350
41
  3
Shades of Gray
350
3E
  3
Sketchy
350
3F
  3
Thicken
350
37
  3
Wireframe
350
30
  3
X-Ray
350
40
  0
XRECORD
  5
142
102
{ACAD_REACTORS
330
C
102
}
330
C
100
AcDbXrecord
280
     1
 90
        1
330
6A
  0
DICTIONARY
  5
13D
102
{ACAD_REACTORS
330
C
102
}
330
C
100
AcDbDictionary
281
     1
  3
CANNOSCALE
350
13E
  3
CMLEADERSTYLE
350
144
  3
CTABLESTYLE
350
143
  0
LAYOUT
  5
1E
102
{ACAD_REACTORS
330
1A
102
}
330
1A
100
AcDbPlotSettings
  1

  2
none_device
  4

  6

 40
0.0
 41
0.0
 42
0.0
 43
0.0
 44
0.0
 45
0.0
 46
0.0
 47
0.0
 48
0.0
 49
0.0
140
0.0
141
0.0
142
1.0
143
1.0
 70
   688
 72
     1
 73
     0
 74
     5
  7

 75
    16
 76
     0
 77
     2
 78
   300
147
1.0
148
0.0
149
0.0
100
AcDbLayout
  1
Layout1
 70
     1
 71
     1
 10
0.0
 20
0.0
 11
420.0
 21
297.0
 12
0.0
 22
0.0
 32
0.0
 14
1.0000000000E+20
 24
1.0000000000E+20
 34
1.0000000000E+20
 15
-1.0000000000E+20
 25
-1.0000000000E+20
 35
-1.0000000000E+20
146
0.0
 13
0.0
 23
0.0
 33
0.0
 16
1.0
 26
0.0
 36
0.0
 17
0.0
 27
1.0
 37
0.0
 76
     0
330
1B
  0
LAYOUT
  5
26
102
{ACAD_REACTORS
330
1A
102
}
330
1A
100
AcDbPlotSettings
  1

  2
none_device
  4

  6

 40
0.0
 41
0.0
 42
0.0
 43
0.0
 44
0.0
 45
0.0
 46
0.0
 47
0.0
 48
0.0
 49
0.0
140
0.0
141
0.0
142
1.0
143
1.0
 70
   688
 72
     1
 73
     0
 74
     5
  7

 75
    16
 76
     0
 77
     2
 78
   300
147
1.0
148
0.0
149
0.0
100
AcDbLayout
  1
Layout2
 70
     1
 71
     2
 10
0.0
 20
0.0
 11
0.0
 21
0.0
 12
0.0
 22
0.0
 32
0.0
 14
0.0
 24
0.0
 34
0.0
 15
0.0
 25
0.0
 35
0.0
146
0.0
 13
0.0
 23
0.0
 33
0.0
 16
1.0
 26
0.0
 36
0.0
 17
0.0
 27
1.0
 37
0.0
 76
     0
330
23
  0
LAYOUT
  5
22
102
{ACAD_REACTORS
330
1A
102
}
330
1A
100
AcDbPlotSettings
  1

  2
none_device
  4
Letter_(8.50_x_11.00_Inches)
  6

 40
6.35
 41
6.35
 42
6.35000508
 43
6.35000508
 44
215.9
 45
279.4
 46
0.0
 47
0.0
 48
0.0
 49
0.0
140
0.0
141
0.0
142
1.0
143
1.0
 70
  1712
 72
     1
 73
     0
 74
     0
  7

 75
     0
 76
     0
 77
     2
 78
   300
147
1.0
148
0.0
149
0.0
100
AcDbLayout
  1
Model
 70
     1
 71
     0
 10
0.0
 20
0.0
 11
0.21
 21
0.297
 12
0.0
 22
0.0
 32
0.0
 14
0.0
 24
0.0
 34
0.0
 15
0.21
 25
0.297
 35
0.0
146
0.0
 13
0.0
 23
0.0
 33
0.0
 16
1.0
 26
0.0
 36
0.0
 17
0.0
 27
1.0
 37
0.0
 76
     0
330
1F
331
29
  0
MATERIAL
  5
45
102
{ACAD_REACTORS
330
43
102
}
330
43
100
AcDbMaterial
  1
ByBlock
 72
     1
 94
      127
  0
MATERIAL
  5
44
102
{ACAD_REACTORS
330
43
102
}
330
43
100
AcDbMaterial
  1
ByLayer
 72
     1
 94
      127
  0
MATERIAL
  5
46
102
{ACAD_REACTORS
330
43
102
}
330
43
100
AcDbMaterial
  1
Global
 72
     1
 94
      127
  0
MLEADERSTYLE
  5
6C
102
{ACAD_REACTORS
330
6B
102
}
330
6B
100
AcDbMLeaderStyle
170
     2
171
     1
172
     0
 90
        2
 40
0.0
 41
0.0
173
     1
 91
-1056964608
340
14
 92
       -2
290
     1
 42
2.0
291
     1
 43
8.0
  3
Standard
341
0
 44
4.0
300

342
11
174
     1
178
     6
175
     1
176
     0
 93
-1056964608
 45
4.0
292
     0
297
     0
 46
4.0
343
0
 94
-1056964608
 47
1.0
 49
1.0
140
1.0
293
     1
141
0.0
294
     1
177
     0
142
1.0
295
     0
296
     0
143
3.75
1001
ACAD_MLEADERVER
1070
     2
  0
MLINESTYLE
  5
18
102
{ACAD_REACTORS
330
17
102
}
330
17
100
AcDbMlineStyle
  2
Standard
 70
     0
  3

 62
   256
 51
90.0
 52
90.0
 71
     2
 49
0.5
 62
   256
  6
BYLAYER
 49
-0.5
 62
   256
  6
BYLAYER
  0
ACDBPLACEHOLDER
  5
F
102
{ACAD_REACTORS
330
E
102
}
330
E
  0
SCALE
  5
48
102
{ACAD_REACTORS
330
47
102
}
330
47
100
AcDbScale
 70
     0
300
1:1
140
1.0
141
1.0
290
     1
  0
SCALE
  5
49
102
{ACAD_REACTORS
330
47
102
}
330
47
100
AcDbScale
 70
     0
300
1:2
140
1.0
141
2.0
290
     0
  0
SCALE
  5
4A
102
{ACAD_REACTORS
330
47
102
}
330
47
100
AcDbScale
 70
     0
300
1:4
140
1.0
141
4.0
290
     0
  0
SCALE
  5
4B
102
{ACAD_REACTORS
330
47
102
}
330
47
100
AcDbScale
 70
     0
300
1:5
140
1.0
141
5.0
290
     0
  0
SCALE
  5
4C
102
{ACAD_REACTORS
330
47
102
}
330
47
100
AcDbScale
 70
     0
300
1:8
140
1.0
141
8.0
290
     0
  0
SCALE
  5
4D
102
{ACAD_REACTORS
330
47
102
}
330
47
100
AcDbScale
 70
     0
300
1:10
140
1.0
141
10.0
290
     0
  0
SCALE
  5
4E
102
{ACAD_REACTORS
330
47
102
}
330
47
100
AcDbScale
 70
     0
300
1:16
140
1.0
141
16.0
290
     0
  0
SCALE
  5
4F
102
{ACAD_REACTORS
330
47
102
}
330
47
100
AcDbScale
 70
     0
300
1:20
140
1.0
141
20.0
290
     0
  0
SCALE
  5
50
102
{ACAD_REACTORS
330
47
102
}
330
47
100
AcDbScale
 70
     0
300
1:30
140
1.0
141
30.0
290
     0
  0
SCALE
  5
51
102
{ACAD_REACTORS
330
47
102
}
330
47
100
AcDbScale
 70
     0
300
1:40
140
1.0
141
40.0
290
     0
  0
SCALE
  5
52
102
{ACAD_REACTORS
330
47
102
}
330
47
100
AcDbScale
 70
     0
300
1:50
140
1.0
141
50.0
290
     0
  0
SCALE
  5
53
102
{ACAD_REACTORS
330
47
102
}
330
47
100
AcDbScale
 70
     0
300
1:100
140
1.0
141
100.0
290
     0
  0
SCALE
  5
54
102
{ACAD_REACTORS
330
47
102
}
330
47
100
AcDbScale
 70
     0
300
2:1
140
2.0
141
1.0
290
     0
  0
SCALE
  5
55
102
{ACAD_REACTORS
330
47
102
}
330
47
100
AcDbScale
 70
     0
300
4:1
140
4.0
141
1.0
290
     0
  0
SCALE
  5
56
102
{ACAD_REACTORS
330
47
102
}
330
47
100
AcDbScale
 70
     0
300
8:1
140
8.0
141
1.0
290
     0
  0
SCALE
  5
57
102
{ACAD_REACTORS
330
47
102
}
330
47
100
AcDbScale
 70
     0
300
10:1
140
10.0
141
1.0
290
     0
  0
SCALE
  5
58
102
{ACAD_REACTORS
330
47
102
}
330
47
100
AcDbScale
 70
     0
300
100:1
140
100.0
141
1.0
290
     0
  0
SCALE
  5
59
102
{ACAD_REACTORS
330
47
102
}
330
47
100
AcDbScale
 70
     0
300
1/128" = 1'-0"
140
0.0078125
141
12.0
290
     0
  0
SCALE
  5
5A
102
{ACAD_REACTORS
330
47
102
}
330
47
100
AcDbScale
 70
     0
300
1/64" = 1'-0"
140
0.015625
141
12.0
290
     0
  0
SCALE
  5
5B
102
{ACAD_REACTORS
330
47
102
}
330
47
100
AcDbScale
 70
     0
300
1/32" = 1'-0"
140
0.03125
141
12.0
290
     0
  0
SCALE
  5
5C
102
{ACAD_REACTORS
330
47
102
}
330
47
100
AcDbScale
 70
     0
300
1/16" = 1'-0"
140
0.0625
141
12.0
290
     0
  0
SCALE
  5
5D
102
{ACAD_REACTORS
330
47
102
}
330
47
100
AcDbScale
 70
     0
300
3/32" = 1'-0"
140
0.09375
141
12.0
290
     0
  0
SCALE
  5
5E
102
{ACAD_REACTORS
330
47
102
}
330
47
100
AcDbScale
 70
     0
300
1/8" = 1'-0"
140
0.125
141
12.0
290
     0
  0
SCALE
  5
5F
102
{ACAD_REACTORS
330
47
102
}
330
47
100
AcDbScale
 70
     0
300
3/16" = 1'-0"
140
0.1875
141
12.0
290
     0
  0
SCALE
  5
60
102
{ACAD_REACTORS
330
47
102
}
330
47
100
AcDbScale
 70
     0
300
1/4" = 1'-0"
140
0.25
141
12.0
290
     0
  0
SCALE
  5
61
102
{ACAD_REACTORS
330
47
102
}
330
47
100
AcDbScale
 70
     0
300
3/8" = 1'-0"
140
0.375
141
12.0
290
     0
  0
SCALE
  5
62
102
{ACAD_REACTORS
330
47
102
}
330
47
100
AcDbScale
 70
     0
300
1/2" = 1'-0"
140
0.5
141
12.0
290
     0
  0
SCALE
  5
63
102
{ACAD_REACTORS
330
47
102
}
330
47
100
AcDbScale
 70
     0
300
3/4" = 1'-0"
140
0.75
141
12.0
290
     0
  0
SCALE
  5
64
102
{ACAD_REACTORS
330
47
102
}
330
47
100
AcDbScale
 70
     0
300
1" = 1'-0"
140
1.0
141
12.0
290
     0
  0
SCALE
  5
65
102
{ACAD_REACTORS
330
47
102
}
330
47
100
AcDbScale
 70
     0
300
1-1/2" = 1'-0"
140
1.5
141
12.0
290
     0
  0
SCALE
  5
66
102
{ACAD_REACTORS
330
47
102
}
330
47
100
AcDbScale
 70
     0
300
3" = 1'-0"
140
3.0
141
12.0
290
     0
  0
SCALE
  5
67
102
{ACAD_REACTORS
330
47
102
}
330
47
100
AcDbScale
 70
     0
300
6" = 1'-0"
140
6.0
141
12.0
290
     0
  0
SCALE
  5
68
102
{ACAD_REACTORS
330
47
102
}
330
47
100
AcDbScale
 70
     0
300
1'-0" = 1'-0"
140
12.0
141
12.0
290
     0
  0
TABLESTYLE
  5
6A
102
{ACAD_REACTORS
330
69
102
}
102
{ACAD_XDICTIONARY
360
13F
102
}
330
69
100
AcDbTableStyle
  3
Standard
 70
     0
 71
     0
 40
0.06
 41
0.06
280
     0
281
     0
  7
Standard
140
4.5
170
     2
 62
     0
 63
   257
283
     0
 90
        4
 91
        0
  1

274
    -2
284
     1
 64
     0
275
    -2
285
     1
 65
     0
276
    -2
286
     1
 66
     0
277
    -2
287
     1
 67
     0
278
    -2
288
     1
 68
     0
279
    -2
289
     1
 69
     0
  7
Standard
140
6.0
170
     5
 62
     0
 63
   257
283
     0
 90
        4
 91
        0
  1

274
    -2
284
     1
 64
     0
275
    -2
285
     1
 65
     0
276
    -2
286
     1
 66
     0
277
    -2
287
     1
 67
     0
278
    -2
288
     1
 68
     0
279
    -2
289
     1
 69
     0
  7
Standard
140
4.5
170
     5
 62
     0
 63
   257
283
     0
 90
        4
 91
        0
  1

274
    -2
284
     1
 64
     0
275
    -2
285
     1
 65
     0
276
    -2
286
     1
 66
     0
277
    -2
287
     1
 67
     0
278
    -2
288
     1
 68
     0
279
    -2
289
     1
 69
     0
  0
VISUALSTYLE
  5
2F
102
{ACAD_REACTORS
330
2A
102
}
330
2A
100
AcDbVisualStyle
  2
2dWireframe
 70
     4
 71
     0
 72
     2
 73
     0
 90
        0
 40
0.6
 41
30.0
 62
     5
 63
     7
421
 16777215
 74
     1
 91
        4
 64
     7
 65
   257
 75
     1
175
     1
 42
1.0
 92
        0
 66
   257
 43
1.0
 76
     1
 77
     6
 78
     2
 67
     7
 79
     5
170
     0
171
     0
290
     0
174
     0
 93
        1
 44
0.0
173
     0
291
     0
 45
0.0
  0
VISUALSTYLE
  5
32
102
{ACAD_REACTORS
330
2A
102
}
330
2A
100
AcDbVisualStyle
  2
Basic
 70
     7
 71
     1
 72
     0
 73
     1
 90
        0
 40
0.6
 41
30.0
 62
     5
 63
     7
421
 16777215
 74
     0
 91
        4
 64
     7
 65
   257
 75
     1
175
     1
 42
1.0
 92
        8
 66
     7
 43
1.0
 76
     1
 77
     6
 78
     2
 67
     7
 79
     5
170
     0
171
     0
290
     0
174
     0
 93
        1
 44
0.0
173
     0
291
     1
 45
0.0
  0
VISUALSTYLE
  5
36
102
{ACAD_REACTORS
330
2A
102
}
330
2A
100
AcDbVisualStyle
  2
Brighten
 70
    12
 71
     2
 72
     2
 73
     0
 90
        0
 40
0.6
 41
30.0
 62
     5
 63
     7
421
 16777215
 74
     1
 91
        4
 64
     7
 65
   257
 75
     1
175
     1
 42
1.0
 92
        8
 66
     7
 43
1.0
 76
     1
 77
     6
 78
     2
 67
     7
 79
     5
170
     0
171
     0
290
     0
174
     0
 93
        1
 44
50.0
173
     0
291
     1
 45
0.0
  0
VISUALSTYLE
  5
3A
102
{ACAD_REACTORS
330
2A
102
}
330
2A
100
AcDbVisualStyle
  2
ColorChange
 70
    16
 71
     2
 72
     2
 73
     3
 90
        0
 40
0.6
 41
30.0
 62
     5
 63
     8
421
  8421504
 74
     1
 91
        4
 64
     7
 65
   257
 75
     1
175
     1
 42
1.0
 92
        8
 66
     8
424
  8421504
 43
1.0
 76
     1
 77
     6
 78
     2
 67
     7
 79
     5
170
     0
171
     0
290
     0
174
     0
 93
        1
 44
0.0
173
     0
291
     1
 45
0.0
  0
VISUALSTYLE
  5
34
102
{ACAD_REACTORS
330
2A
102
}
330
2A
100
AcDbVisualStyle
  2
Conceptual
 70
     9
 71
     3
 72
     2
 73
     0
 90
        0
 40
0.6
 41
30.0
 62
     5
 63
     7
421
 16777215
 74
     2
 91
        2
 64
     7
 65
   257
 75
     1
175
     1
 42
179.0
 92
        8
 66
     7
 43
1.0
 76
     1
 77
     6
 78
     2
 67
     7
 79
     3
170
     0
171
     0
290
     0
174
     0
 93
        1
 44
0.0
173
     0
291
     0
 45
0.0
  0
VISUALSTYLE
  5
35
102
{ACAD_REACTORS
330
2A
102
}
330
2A
100
AcDbVisualStyle
  2
Dim
 70
    11
 71
     2
 72
     2
 73
     0
 90
        0
 40
0.6
 41
30.0
 62
     5
 63
     7
421
 16777215
 74
     1
 91
        4
 64
     7
 65
   257
 75
     1
175
     1
 42
1.0
 92
        8
 66
     7
 43
1.0
 76
     1
 77
     6
 78
     2
 67
     7
 79
     5
170
     0
171
     0
290
     0
174
     0
 93
        1
 44
-50.0
173
     0
291
     1
 45
0.0
  0
VISUALSTYLE
  5
3D
102
{ACAD_REACTORS
330
2A
102
}
330
2A
100
AcDbVisualStyle
  2
EdgeColorOff
 70
    22
 71
     2
 72
     2
 73
     0
 90
        0
 40
0.6
 41
30.0
 62
     5
 63
     7
421
 16777215
 74
     1
 91
        4
 64
     7
 65
   257
 75
     1
175
     1
 42
1.0
 92
        8
 66
     7
 43
1.0
 76
     1
 77
     6
 78
     2
 67
     7
 79
     5
170
     0
171
     0
290
     0
174
     0
 93
        1
 44
0.0
173
     0
291
     1
 45
0.0
  0
VISUALSTYLE
  5
39
102
{ACAD_REACTORS
330
2A
102
}
330
2A
100
AcDbVisualStyle
  2
Facepattern
 70
    15
 71
     2
 72
     2
 73
     0
 90
        0
 40
0.6
 41
30.0
 62
     5
 63
     7
421
 16777215
 74
     1
 91
        4
 64
     7
 65
   257
 75
     1
175
     1
 42
1.0
 92
        8
 66
     7
 43
1.0
 76
     1
 77
     6
 78
     2
 67
     7
 79
     5
170
     0
171
     0
290
     0
174
     0
 93
        1
 44
0.0
173
     0
291
     1
 45
0.0
  0
VISUALSTYLE
  5
2B
102
{ACAD_REACTORS
330
2A
102
}
330
2A
100
AcDbVisualStyle
  2
Flat
 70
     0
 71
     2
 72
     1
 73
     1
 90
        2
 40
0.6
 41
30.0
 62
     5
 63
     7
421
 16777215
 74
     0
 91
        0
 64
     7
 65
   257
 75
     1
175
     1
 42
1.0
 92
        8
 66
     7
 43
1.0
 76
     1
 77
     6
 78
     2
 67
     7
 79
     5
170
     0
171
     0
290
     0
174
     0
 93
       13
 44
0.0
173
     0
291
     1
 45
0.0
  0
VISUALSTYLE
  5
2C
102
{ACAD_REACTORS
330
2A
102
}
330
2A
100
AcDbVisualStyle
  2
FlatWithEdges
 70
     1
 71
     2
 72
     1
 73
     1
 90
        2
 40
0.6
 41
30.0
 62
     5
 63
     7
421
 16777215
 74
     1
 91
        0
 64
     7
 65
   257
 75
     1
175
     1
 42
1.0
 92
        0
 66
   257
 43
1.0
 76
     1
 77
     6
 78
     2
 67
     7
 79
     5
170
     0
171
     0
290
     0
174
     0
 93
       13
 44
0.0
173
     0
291
     1
 45
0.0
  0
VISUALSTYLE
  5
2D
102
{ACAD_REACTORS
330
2A
102
}
330
2A
100
AcDbVisualStyle
  2
Gouraud
 70
     2
 71
     2
 72
     2
 73
     1
 90
        2
 40
0.6
 41
30.0
 62
     5
 63
     7
421
 16777215
 74
     0
 91
        0
 64
     7
 65
   257
 75
     1
175
     1
 42
1.0
 92
        0
 66
     7
 43
1.0
 76
     1
 77
     6
 78
     2
 67
     7
 79
     5
170
     0
171
     0
290
     0
174
     0
 93
       13
 44
0.0
173
     0
291
     1
 45
0.0
  0
VISUALSTYLE
  5
2E
102
{ACAD_REACTORS
330
2A
102
}
330
2A
100
AcDbVisualStyle
  2
GouraudWithEdges
 70
     3
 71
     2
 72
     2
 73
     1
 90
        2
 40
0.6
 41
30.0
 62
     5
 63
     7
421
 16777215
 74
     1
 91
        0
 64
     7
 65
   257
 75
     1
175
     1
 42
1.0
 92
        0
 66
   257
 43
1.0
 76
     1
 77
     6
 78
     2
 67
     7
 79
     5
170
     0
171
     0
290
     0
174
     0
 93
       13
 44
0.0
173
     0
291
     1
 45
0.0
  0
VISUALSTYLE
  5
31
102
{ACAD_REACTORS
330
2A
102
}
330
2A
100
AcDbVisualStyle
  2
Hidden
 70
     6
 71
     1
 72
     2
 73
     2
 90
        0
 40
0.6
 41
30.0
 62
     5
 63
     7
421
 16777215
 74
     2
 91
        2
 64
     7
 65
   257
 75
     2
175
     1
 42
40.0
 92
        0
 66
   257
 43
1.0
 76
     1
 77
     6
 78
     2
 67
     7
 79
     3
170
     0
171
     0
290
     0
174
     0
 93
        1
 44
0.0
173
     0
291
     0
 45
0.0
  0
VISUALSTYLE
  5
3B
102
{ACAD_REACTORS
330
2A
102
}
330
2A
100
AcDbVisualStyle
  2
JitterOff
 70
    20
 71
     2
 72
     2
 73
     0
 90
        0
 40
0.6
 41
30.0
 62
     5
 63
     7
421
 16777215
 74
     1
 91
        4
 64
     7
 65
   257
 75
     1
175
     1
 42
1.0
 92
       10
 66
     7
 43
1.0
 76
     1
 77
     6
 78
     2
 67
     7
 79
     5
170
     0
171
     0
290
     0
174
     0
 93
        1
 44
0.0
173
     0
291
     1
 45
0.0
  0
VISUALSTYLE
  5
38
102
{ACAD_REACTORS
330
2A
102
}
330
2A
100
AcDbVisualStyle
  2
Linepattern
 70
    14
 71
     2
 72
     2
 73
     0
 90
        0
 40
0.6
 41
30.0
 62
     5
 63
     7
421
 16777215
 74
     1
 91
        4
 64
     7
 65
   257
 75
     7
175
     7
 42
1.0
 92
        8
 66
     7
 43
1.0
 76
     1
 77
     6
 78
     2
 67
     7
 79
     5
170
     0
171
     0
290
     0
174
     0
 93
        1
 44
0.0
173
     0
291
     1
 45
0.0
  0
VISUALSTYLE
  5
3C
102
{ACAD_REACTORS
330
2A
102
}
330
2A
100
AcDbVisualStyle
  2
OverhangOff
 70
    21
 71
     2
 72
     2
 73
     0
 90
        0
 40
0.6
 41
30.0
 62
     5
 63
     7
421
 16777215
 74
     1
 91
        4
 64
     7
 65
   257
 75
     1
175
     1
 42
1.0
 92
        9
 66
     7
 43
1.0
 76
     1
 77
     6
 78
     2
 67
     7
 79
     5
170
     0
171
     0
290
     0
174
     0
 93
        1
 44
0.0
173
     0
291
     1
 45
0.0
  0
VISUALSTYLE
  5
33
102
{ACAD_REACTORS
330
2A
102
}
330
2A
100
AcDbVisualStyle
  2
Realistic
 70
     8
 71
     2
 72
     3
 73
     0
 90
        2
 40
0.6
 41
30.0
 62
     5
 63
     7
421
 16777215
 74
     0
 91
        0
 64
     7
 65
   257
 75
     1
175
     1
 42
1.0
 92
        8
 66
   257
 43
1.0
 76
     1
 77
     6
 78
     2
 67
     7
 79
     3
170
     0
171
     0
290
     0
174
     0
 93
       13
 44
0.0
173
     0
291
     0
 45
0.0
  0
VISUALSTYLE
  5
42
102
{ACAD_REACTORS
330
2A
102
}
330
2A
100
AcDbVisualStyle
  2
Shaded
 70
    27
 71
     2
 72
     2
 73
     1
 90
        2
 40
0.6
 41
30.0
 62
     5
 63
     7
421
 16777215
 74
     0
 91
        4
 64
     7
 65
   257
 75
     1
175
     1
 42
1.0
 92
        8
 66
   257
 43
1.0
 76
     1
 77
     6
 78
     2
 67
     8
425
  7895160
 79
     3
170
     0
171
     0
290
     0
174
     0
 93
        5
 44
0.0
173
     0
291
     0
 45
0.0
  0
VISUALSTYLE
  5
41
102
{ACAD_REACTORS
330
2A
102
}
330
2A
100
AcDbVisualStyle
  2
Shaded with edges
 70
    26
 71
     2
 72
     2
 73
     1
 90
        2
 40
0.6
 41
30.0
 62
     5
 63
     7
421
 16777215
 74
     1
 91
       10
 64
     7
 65
   257
 75
     2
175
     1
 42
1.0
 92
        8
 66
   257
 43
1.0
 76
     1
 77
     6
 78
     2
 67
     7
 79
     3
170
     0
171
     0
290
     0
174
     0
 93
        5
 44
0.0
173
     0
291
     0
 45
0.0
  0
VISUALSTYLE
  5
3E
102
{ACAD_REACTORS
330
2A
102
}
330
2A
100
AcDbVisualStyle
  2
Shades of Gray
 70
    23
 71
     2
 72
     2
 73
     3
 90
        0
 40
0.6
 41
30.0
 62
     5
 63
     7
421
 16777215
 74
     2
 91
        2
 64
     7
 65
     7
 75
     1
175
     1
 42
40.0
 92
        8
 66
     7
 43
1.0
 76
     1
 77
     6
 78
     2
 67
     7
 79
     3
170
     0
171
     0
290
     0
174
     0
 93
        1
 44
0.0
173
     0
291
     0
 45
0.0
  0
VISUALSTYLE
  5
3F
102
{ACAD_REACTORS
330
2A
102
}
330
2A
100
AcDbVisualStyle
  2
Sketchy
 70
    24
 71
     1
 72
     2
 73
     2
 90
        0
 40
0.6
 41
30.0
 62
     5
 63
     7
421
 16777215
 74
     2
 91
        2
 64
     7
 65
     7
 75
     1
175
     1
 42
40.0
 92
       11
 66
     7
 43
1.0
 76
     1
 77
     6
 78
     2
 67
     7
 79
     6
170
     0
171
     0
290
     0
174
     0
 93
        1
 44
0.0
173
     0
291
     0
 45
0.0
  0
VISUALSTYLE
  5
37
102
{ACAD_REACTORS
330
2A
102
}
330
2A
100
AcDbVisualStyle
  2
Thicken
 70
    13
 71
     2
 72
     2
 73
     0
 90
        0
 40
0.6
 41
30.0
 62
     5
 63
     7
421
 16777215
 74
     1
 91
        4
 64
     7
 65
   257
 75
     1
175
     1
 42
1.0
 92
       12
 66
     7
 43
1.0
 76
     1
 77
     6
 78
     2
 67
     7
 79
     5
170
     0
171
     0
290
     0
174
     0
 93
        1
 44
0.0
173
     0
291
     1
 45
0.0
  0
VISUALSTYLE
  5
30
102
{ACAD_REACTORS
330
2A
102
}
330
2A
100
AcDbVisualStyle
  2
Wireframe
 70
     5
 71
     0
 72
     2
 73
     0
 90
        0
 40
0.6
 41
30.0
 62
     5
 63
     7
421
 16777215
 74
     1
 91
        4
 64
     7
 65
   257
 75
     1
175
     1
 42
1.0
 92
        0
 66
   257
 43
1.0
 76
     1
 77
     6
 78
     2
 67
     7
 79
     3
170
     0
171
     0
290
     0
174
     0
 93
        1
 44
0.0
173
     0
291
     0
 45
0.0
  0
VISUALSTYLE
  5
40
102
{ACAD_REACTORS
330
2A
102
}
330
2A
100
AcDbVisualStyle
  2
X-Ray
 70
    25
 71
     2
 72
     2
 73
     1
 90
        1
 40
0.5
 41
30.0
 62
     5
 63
     7
421
 16777215
 74
     1
 91
        0
 64
     7
 65
   257
 75
     1
175
     1
 42
1.0
 92
        8
 66
     7
 43
1.0
 76
     1
 77
     6
 78
     2
 67
     7
 79
     3
170
     0
171
     0
290
     0
174
     0
 93
       13
 44
0.0
173
     0
291
     0
 45
0.0
  0
DICTIONARYVAR
  5
13E
102
{ACAD_REACTORS
330
13D
102
}
330
13D
100
DictionaryVariables
280
     0
  1
1:1
  0
DICTIONARYVAR
  5
144
102
{ACAD_REACTORS
330
13D
102
}
330
13D
100
DictionaryVariables
280
     0
  1
Standard
  0
DICTIONARYVAR
  5
143
102
{ACAD_REACTORS
330
13D
102
}
330
13D
100
DictionaryVariables
280
     0
  1
Standard
  0
DICTIONARY
  5
13F
330
6A
100
AcDbDictionary
280
     1
281
     1
  3
ACAD_ROUNDTRIP_2008_TABLESTYLE_CELLSTYLEMAP
360
140
  0
CELLSTYLEMAP
  5
140
102
{ACAD_REACTORS
330
13F
102
}
330
13F
100
AcDbCellStyleMap
 90
        3
300
CELLSTYLE
  1
TABLEFORMAT_BEGIN
 90
        5
170
     1
 91
        0
 92
    32768
 62
   257
 93
        1
300
CONTENTFORMAT
  1
CONTENTFORMAT_BEGIN
 90
        0
 91
        0
 92
        4
 93
        0
300

 40
0.0
140
1.0
 94
        5
 62
     0
340
11
144
6.0
309
CONTENTFORMAT_END
171
     1
301
MARGIN
  1
CELLMARGIN_BEGIN
 40
1.5
 40
1.5
 40
1.5
 40
1.5
 40
1.5
 40
1.5
309
CELLMARGIN_END
 94
        6
 95
        1
302
GRIDFORMAT
  1
GRIDFORMAT_BEGIN
 90
        0
 91
        1
 62
     0
 92
       -2
340
14
 93
        0
 40
0.045
309
GRIDFORMAT_END
 95
        2
302
GRIDFORMAT
  1
GRIDFORMAT_BEGIN
 90
        0
 91
        1
 62
     0
 92
       -2
340
14
 93
        0
 40
0.045
309
GRIDFORMAT_END
 95
        4
302
GRIDFORMAT
  1
GRIDFORMAT_BEGIN
 90
        0
 91
        1
 62
     0
 92
       -2
340
14
 93
        0
 40
0.045
309
GRIDFORMAT_END
 95
        8
302
GRIDFORMAT
  1
GRIDFORMAT_BEGIN
 90
        0
 91
        1
 62
     0
 92
       -2
340
14
 93
        0
 40
0.045
309
GRIDFORMAT_END
 95
       16
302
GRIDFORMAT
  1
GRIDFORMAT_BEGIN
 90
        0
 91
        1
 62
     0
 92
       -2
340
14
 93
        0
 40
0.045
309
GRIDFORMAT_END
 95
       32
302
GRIDFORMAT
  1
GRIDFORMAT_BEGIN
 90
        0
 91
        1
 62
     0
 92
       -2
340
14
 93
        0
 40
0.045
309
GRIDFORMAT_END
309
TABLEFORMAT_END
  1
CELLSTYLE_BEGIN
 90
        1
 91
        1
300
_TITLE
309
CELLSTYLE_END
300
CELLSTYLE
  1
TABLEFORMAT_BEGIN
 90
        5
170
     1
 91
        0
 92
        0
 62
   257
 93
        1
300
CONTENTFORMAT
  1
CONTENTFORMAT_BEGIN
 90
        0
 91
        0
 92
        4
 93
        0
300

 40
0.0
140
1.0
 94
        5
 62
     0
340
11
144
4.5
309
CONTENTFORMAT_END
171
     1
301
MARGIN
  1
CELLMARGIN_BEGIN
 40
1.5
 40
1.5
 40
1.5
 40
1.5
 40
1.5
 40
1.5
309
CELLMARGIN_END
 94
        6
 95
        1
302
GRIDFORMAT
  1
GRIDFORMAT_BEGIN
 90
        0
 91
        1
 62
     0
 92
       -2
340
14
 93
        0
 40
0.045
309
GRIDFORMAT_END
 95
        2
302
GRIDFORMAT
  1
GRIDFORMAT_BEGIN
 90
        0
 91
        1
 62
     0
 92
       -2
340
14
 93
        0
 40
0.045
309
GRIDFORMAT_END
 95
        4
302
GRIDFORMAT
  1
GRIDFORMAT_BEGIN
 90
        0
 91
        1
 62
     0
 92
       -2
340
14
 93
        0
 40
0.045
309
GRIDFORMAT_END
 95
        8
302
GRIDFORMAT
  1
GRIDFORMAT_BEGIN
 90
        0
 91
        1
 62
     0
 92
       -2
340
14
 93
        0
 40
0.045
309
GRIDFORMAT_END
 95
       16
302
GRIDFORMAT
  1
GRIDFORMAT_BEGIN
 90
        0
 91
        1
 62
     0
 92
       -2
340
14
 93
        0
 40
0.045
309
GRIDFORMAT_END
 95
       32
302
GRIDFORMAT
  1
GRIDFORMAT_BEGIN
 90
        0
 91
        1
 62
     0
 92
       -2
340
14
 93
        0
 40
0.045
309
GRIDFORMAT_END
309
TABLEFORMAT_END
  1
CELLSTYLE_BEGIN
 90
        2
 91
        1
300
_HEADER
309
CELLSTYLE_END
300
CELLSTYLE
  1
TABLEFORMAT_BEGIN
 90
        5
170
     1
 91
        0
 92
        0
 62
   257
 93
        1
300
CONTENTFORMAT
  1
CONTENTFORMAT_BEGIN
 90
        0
 91
        0
 92
        4
 93
        0
300

 40
0.0
140
1.0
 94
        2
 62
     0
340
11
144
4.5
309
CONTENTFORMAT_END
171
     1
301
MARGIN
  1
CELLMARGIN_BEGIN
 40
1.5
 40
1.5
 40
1.5
 40
1.5
 40
1.5
 40
1.5
309
CELLMARGIN_END
 94
        6
 95
        1
302
GRIDFORMAT
  1
GRIDFORMAT_BEGIN
 90
        0
 91
        1
 62
     0
 92
       -2
340
14
 93
        0
 40
0.045
309
GRIDFORMAT_END
 95
        2
302
GRIDFORMAT
  1
GRIDFORMAT_BEGIN
 90
        0
 91
        1
 62
     0
 92
       -2
340
14
 93
        0
 40
0.045
309
GRIDFORMAT_END
 95
        4
302
GRIDFORMAT
  1
GRIDFORMAT_BEGIN
 90
        0
 91
        1
 62
     0
 92
       -2
340
14
 93
        0
 40
0.045
309
GRIDFORMAT_END
 95
        8
302
GRIDFORMAT
  1
GRIDFORMAT_BEGIN
 90
        0
 91
        1
 62
     0
 92
       -2
340
14
 93
        0
 40
0.045
309
GRIDFORMAT_END
 95
       16
302
GRIDFORMAT
  1
GRIDFORMAT_BEGIN
 90
        0
 91
        1
 62
     0
 92
       -2
340
14
 93
        0
 40
0.045
309
GRIDFORMAT_END
 95
       32
302
GRIDFORMAT
  1
GRIDFORMAT_BEGIN
 90
        0
 91
        1
 62
     0
 92
       -2
340
14
 93
        0
 40
0.045
309
GRIDFORMAT_END
309
TABLEFORMAT_END
  1
CELLSTYLE_BEGIN
 90
        3
 91
        2
300
_DATA
309
CELLSTYLE_END
  0
ENDSEC
  0
EOF
