  0
SECTION
  2
HEADER
  9
$ACADVER
  1
AC1021
  9
$ACADMAINTVER
 70
    25
  9
$DWGCODEPAGE
  3
ANSI_1250
  9
$INSBASE
 10
0.0
 20
0.0
 30
0.0
  9
$EXTMIN
 10
0.0
 20
0.0
 30
0.0
  9
$EXTMAX
 10
0.21
 20
0.297
 30
0.0
  9
$LIMMIN
 10
0.0
 20
0.0
  9
$LIMMAX
 10
0.21
 20
0.297
  9
$ORTHOMODE
 70
     0
  9
$REGENMODE
 70
     1
  9
$FILLMODE
 70
     1
  9
$QTEXTMODE
 70
     0
  9
$MIRRTEXT
 70
     1
  9
$LTSCALE
 40
1.0
  9
$ATTMODE
 70
     1
  9
$TEXTSIZE
 40
0.0035
  9
$TRACEWID
 40
1.0
  9
$TEXTSTYLE
  7
Standard
  9
$CLAYER
  8
0
  9
$CELTYPE
  6
ByLayer
  9
$CECOLOR
 62
   256
  9
$CELTSCALE
 40
1.0
  9
$DISPSILH
 70
     0
  9
$DIMSCALE
 40
1.0
  9
$DIMASZ
 40
0.003302
  9
$DIMEXO
 40
0.001
  9
$DIMDLI
 40
3.75
  9
$DIMRND
 40
0.0
  9
$DIMDLE
 40
0.0
  9
$DIMEXE
 40
0.001
  9
$DIMTP
 40
0.0
  9
$DIMTM
 40
0.0
  9
$DIMTXT
 40
0.0035
  9
$DIMCEN
 40
2.5
  9
$DIMTSZ
 40
0.0
  9
$DIMTOL
 70
     0
  9
$DIMLIM
 70
     0
  9
$DIMTIH
 70
     1
  9
$DIMTOH
 70
     1
  9
$DIMSE1
 70
     0
  9
$DIMSE2
 70
     0
  9
$DIMTAD
 70
     1
  9
$DIMZIN
 70
     0
  9
$DIMBLK
  1

  9
$DIMASO
 70
     1
  9
$DIMSHO
 70
     1
  9
$DIMPOST
  1

  9
$DIMAPOST
  1

  9
$DIMALT
 70
     0
  9
$DIMALTD
 70
     3
  9
$DIMALTF
 40
39.3700787402
  9
$DIMLFAC
 40
50.0
  9
$DIMTOFL
 70
     1
  9
$DIMTVP
 40
0.0
  9
$DIMTIX
 70
     0
  9
$DIMSOXD
 70
     0
  9
$DIMSAH
 70
     0
  9
$DIMBLK1
  1

  9
$DIMBLK2
  1

  9
$DIMSTYLE
  2
ISO-25
  9
$DIMCLRD
 70
     0
  9
$DIMCLRE
 70
     0
  9
$DIMCLRT
 70
     0
  9
$DIMTFAC
 40
1.0
  9
$DIMGAP
 40
0.001524
  9
$DIMJUST
 70
     0
  9
$DIMSD1
 70
     0
  9
$DIMSD2
 70
     0
  9
$DIMTOLJ
 70
     0
  9
$DIMTZIN
 70
     0
  9
$DIMALTZ
 70
     0
  9
$DIMALTTZ
 70
     0
  9
$DIMUPT
 70
     0
  9
$DIMDEC
 70
     2
  9
$DIMTDEC
 70
     2
  9
$DIMALTU
 70
     2
  9
$DIMALTTD
 70
     3
  9
$DIMTXSTY
  7
Standard
  9
$DIMAUNIT
 70
     0
  9
$DIMADEC
 70
     2
  9
$DIMALTRND
 40
0.0
  9
$DIMAZIN
 70
     0
  9
$DIMDSEP
 70
    44
  9
$DIMATFIT
 70
     3
  9
$DIMFRAC
 70
     0
  9
$DIMLDRBLK
  1

  9
$DIMLUNIT
 70
     2
  9
$DIMLWD
 70
    -2
  9
$DIMLWE
 70
    -2
  9
$DIMTMOVE
 70
     0
  9
$DIMFXL
 40
1.0
  9
$DIMFXLON
 70
     0
  9
$DIMJOGANG
 40
0.7853981634
  9
$DIMTFILL
 70
     0
  9
$DIMTFILLCLR
 70
     0
  9
$DIMARCSYM
 70
     0
  9
$DIMLTYPE
  6

  9
$DIMLTEX1
  6

  9
$DIMLTEX2
  6

  9
$LUNITS
 70
     2
  9
$LUPREC
 70
     2
  9
$SKETCHINC
 40
1.0
  9
$FILLETRAD
 40
10.0
  9
$AUNITS
 70
     0
  9
$AUPREC
 70
     2
  9
$MENU
  1
.
  9
$ELEVATION
 40
0.0
  9
$PELEVATION
 40
0.0
  9
$THICKNESS
 40
0.0
  9
$LIMCHECK
 70
     0
  9
$CHAMFERA
 40
0.0
  9
$CHAMFERB
 40
0.0
  9
$CHAMFERC
 40
0.0
  9
$CHAMFERD
 40
0.0
  9
$SKPOLY
 70
     0
  9
$TDCREATE
 40
2458074.514751794
  9
$TDUCREATE
 40
2458074.473085127
  9
$TDUPDATE
 40
2458074.514752303
  9
$TDUUPDATE
 40
2458074.473085637
  9
$TDINDWG
 40
0.0000000116
  9
$TDUSRTIMER
 40
0.0000000116
  9
$USRTIMER
 70
     1
  9
$ANGBASE
 50
0.0
  9
$ANGDIR
 70
     0
  9
$PDMODE
 70
     0
  9
$PDSIZE
 40
-1.0
  9
$PLINEWID
 40
0.0
  9
$SPLFRAME
 70
     0
  9
$SPLINETYPE
 70
     6
  9
$SPLINESEGS
 70
     8
  9
$HANDSEED
  5
461
  9
$SURFTAB1
 70
     6
  9
$SURFTAB2
 70
     6
  9
$SURFTYPE
 70
     6
  9
$SURFU
 70
     6
  9
$SURFV
 70
     6
  9
$UCSBASE
  2

  9
$UCSNAME
  2

  9
$UCSORG
 10
0.0
 20
0.0
 30
0.0
  9
$UCSXDIR
 10
1.0
 20
0.0
 30
0.0
  9
$UCSYDIR
 10
0.0
 20
1.0
 30
0.0
  9
$UCSORTHOREF
  2

  9
$UCSORTHOVIEW
 70
     0
  9
$UCSORGTOP
 10
0.0
 20
0.0
 30
0.0
  9
$UCSORGBOTTOM
 10
0.0
 20
0.0
 30
0.0
  9
$UCSORGLEFT
 10
0.0
 20
0.0
 30
0.0
  9
$UCSORGRIGHT
 10
0.0
 20
0.0
 30
0.0
  9
$UCSORGFRONT
 10
0.0
 20
0.0
 30
0.0
  9
$UCSORGBACK
 10
0.0
 20
0.0
 30
0.0
  9
$PUCSBASE
  2

  9
$PUCSNAME
  2

  9
$PUCSORG
 10
0.0
 20
0.0
 30
0.0
  9
$PUCSXDIR
 10
1.0
 20
0.0
 30
0.0
  9
$PUCSYDIR
 10
0.0
 20
1.0
 30
0.0
  9
$PUCSORTHOREF
  2

  9
$PUCSORTHOVIEW
 70
     0
  9
$PUCSORGTOP
 10
0.0
 20
0.0
 30
0.0
  9
$PUCSORGBOTTOM
 10
0.0
 20
0.0
 30
0.0
  9
$PUCSORGLEFT
 10
0.0
 20
0.0
 30
0.0
  9
$PUCSORGRIGHT
 10
0.0
 20
0.0
 30
0.0
  9
$PUCSORGFRONT
 10
0.0
 20
0.0
 30
0.0
  9
$PUCSORGBACK
 10
0.0
 20
0.0
 30
0.0
  9
$USERI1
 70
     0
  9
$USERI2
 70
     0
  9
$USERI3
 70
     0
  9
$USERI4
 70
     0
  9
$USERI5
 70
     0
  9
$USERR1
 40
0.0
  9
$USERR2
 40
0.0
  9
$USERR3
 40
0.0
  9
$USERR4
 40
0.0
  9
$USERR5
 40
0.0
  9
$WORLDVIEW
 70
     1
  9
$SHADEDGE
 70
     3
  9
$SHADEDIF
 70
    70
  9
$TILEMODE
 70
     1
  9
$MAXACTVP
 70
    64
  9
$PINSBASE
 10
0.0
 20
0.0
 30
0.0
  9
$PLIMCHECK
 70
     0
  9
$PEXTMIN
 10
1.0000000000E+20
 20
1.0000000000E+20
 30
1.0000000000E+20
  9
$PEXTMAX
 10
-1.0000000000E+20
 20
-1.0000000000E+20
 30
-1.0000000000E+20
  9
$PLIMMIN
 10
0.0
 20
0.0
  9
$PLIMMAX
 10
420.0
 20
297.0
  9
$UNITMODE
 70
     0
  9
$VISRETAIN
 70
     1
  9
$PLINEGEN
 70
     0
  9
$PSLTSCALE
 70
     1
  9
$TREEDEPTH
 70
  3020
  9
$CMLSTYLE
  2
Standard
  9
$CMLJUST
 70
     0
  9
$CMLSCALE
 40
20.0
  9
$PROXYGRAPHICS
 70
     1
  9
$MEASUREMENT
 70
     1
  9
$CELWEIGHT
370
    -1
  9
$ENDCAPS
280
     0
  9
$JOINSTYLE
280
     0
  9
$LWDISPLAY
290
     1
  9
$INSUNITS
 70
     4
  9
$HYPERLINKBASE
  1

  9
$STYLESHEET
  1

  9
$XEDIT
290
     1
  9
$CEPSNTYPE
380
     0
  9
$PSTYLEMODE
290
     1
  9
$FINGERPRINTGUID
  2
{D75FA41D-6273-437F-A542-60BDE8BAA7B6}
  9
$VERSIONGUID
  2
{FAEB1C32-E019-11D5-929B-00C0DF256EC4}
  9
$EXTNAMES
290
     1
  9
$PSVPSCALE
 40
0.0
  9
$OLESTARTUP
290
     0
  9
$SORTENTS
280
   127
  9
$INDEXCTL
280
     0
  9
$HIDETEXT
280
     1
  9
$XCLIPFRAME
290
     0
  9
$HALOGAP
280
     0
  9
$OBSCOLOR
 70
   257
  9
$OBSLTYPE
280
     0
  9
$INTERSECTIONDISPLAY
280
     0
  9
$INTERSECTIONCOLOR
 70
   257
  9
$DIMASSOC
280
     2
  9
$PROJECTNAME
  1

  9
$CAMERADISPLAY
290
     0
  9
$LENSLENGTH
 40
50.0
  9
$CAMERAHEIGHT
 40
0.0
  9
$STEPSPERSEC
 40
2.0
  9
$STEPSIZE
 40
6.0
  9
$3DDWFPREC
 40
2.0
  9
$PSOLWIDTH
 40
5.0
  9
$PSOLHEIGHT
 40
80.0
  9
$LOFTANG1
 40
1.5707963268
  9
$LOFTANG2
 40
1.5707963268
  9
$LOFTMAG1
 40
0.0
  9
$LOFTMAG2
 40
0.0
  9
$LOFTPARAM
 70
     7
  9
$LOFTNORMALS
280
     1
  9
$LATITUDE
 40
37.795
  9
$LONGITUDE
 40
-122.394
  9
$NORTHDIRECTION
 40
0.0
  9
$TIMEZONE
 70
 -8000
  9
$LIGHTGLYPHDISPLAY
280
     1
  9
$TILEMODELIGHTSYNCH
280
     1
  9
$CMATERIAL
347
44
  9
$SOLIDHIST
280
     0
  9
$SHOWHIST
280
     1
  9
$DWFFRAME
280
     2
  9
$DGNFRAME
280
     2
  9
$REALWORLDSCALE
290
     1
  9
$INTERFERECOLOR
 62
   256
  9
$CSHADOW
280
     0
  9
$SHADOWPLANELOCATION
 40
0.0
  0
ENDSEC
  0
SECTION
  2
CLASSES
  0
CLASS
  1
ACDBDICTIONARYWDFLT
  2
AcDbDictionaryWithDefault
  3
ObjectDBX Classes
 90
        0
 91
        4
280
     0
281
     0
  0
CLASS
  1
VISUALSTYLE
  2
AcDbVisualStyle
  3
ObjectDBX Classes
 90
     4095
 91
        4
280
     0
281
     0
  0
CLASS
  1
MATERIAL
  2
AcDbMaterial
  3
ObjectDBX Classes
 90
     1153
 91
        4
280
     0
281
     0
  0
CLASS
  1
SCALE
  2
AcDbScale
  3
ObjectDBX Classes
 90
     1153
 91
        4
280
     0
281
     0
  0
CLASS
  1
TABLESTYLE
  2
AcDbTableStyle
  3
ObjectDBX Classes
 90
     4095
 91
        4
280
     0
281
     0
  0
CLASS
  1
MLEADERSTYLE
  2
AcDbMLeaderStyle
  3
ACDB_MLEADERSTYLE_CLASS
 90
     4095
 91
        4
280
     0
281
     0
  0
CLASS
  1
SUN
  2
AcDbSun
  3
SCENEOE
 90
     1153
 91
        4
280
     0
281
     0
  0
CLASS
  1
DICTIONARYVAR
  2
AcDbDictionaryVar
  3
ObjectDBX Classes
 90
        0
 91
        4
280
     0
281
     0
  0
CLASS
  1
CELLSTYLEMAP
  2
AcDbCellStyleMap
  3
ObjectDBX Classes
 90
     1152
 91
        4
280
     0
281
     0
  0
ENDSEC
  0
SECTION
  2
TABLES
  0
TABLE
  2
VPORT
  5
8
330
0
100
AcDbSymbolTable
 70
     1
  0
VPORT
  5
29
330
8
100
AcDbSymbolTableRecord
100
AcDbViewportTableRecord
  2
*Active
 70
     0
 10
0.0
 20
0.0
 11
1.0
 21
1.0
 12
0.105
 22
0.1485
 13
0.0
 23
0.0
 14
10.0
 24
10.0
 15
10.0
 25
10.0
 16
0.0
 26
0.0
 36
1.0
 17
0.0
 27
0.0
 37
0.0
 40
0.297
 41
0.7070707071
 42
50.0
 43
0.0
 44
0.0
 50
0.0
 51
0.0
 71
     0
 72
  2000
 73
     1
 74
     3
 75
     0
 76
     0
 77
     0
 78
     0
281
     0
 65
     1
110
0.0
120
0.0
130
0.0
111
1.0
121
0.0
131
0.0
112
0.0
122
1.0
132
0.0
 79
     0
146
0.0
 60
     3
 61
     5
292
     1
282
     1
141
0.0
142
0.0
 63
   250
361
6D
  0
ENDTAB
  0
TABLE
  2
LTYPE
  5
5
330
0
100
AcDbSymbolTable
 70
     6
  0
LTYPE
  5
14
330
5
100
AcDbSymbolTableRecord
100
AcDbLinetypeTableRecord
  2
ByBlock
 70
     0
  3

 72
    65
 73
     0
 40
0.0
  0
LTYPE
  5
15
330
5
100
AcDbSymbolTableRecord
100
AcDbLinetypeTableRecord
  2
ByLayer
 70
     0
  3

 72
    65
 73
     0
 40
0.0
  0
LTYPE
  5
16
330
5
100
AcDbSymbolTableRecord
100
AcDbLinetypeTableRecord
  2
Continuous
 70
     0
  3
Solid line
 72
    65
 73
     0
 40
0.0
  0
LTYPE
  5
6E
330
5
100
AcDbSymbolTableRecord
100
AcDbLinetypeTableRecord
  2
HIDDEN
 70
     0
  3
Hidden __ __ __ __ __ __ __ __ __ __ __ __ __ __
 72
    65
 73
     2
 40
0.001905
 49
0.00127
 74
     0
 49
-0.000635
 74
     0
  0
LTYPE
  5
6F
330
5
100
AcDbSymbolTableRecord
100
AcDbLinetypeTableRecord
  2
PHANTOM
 70
     0
  3
Phantom ______  __  __  ______  __  __  ______
 72
    65
 73
     6
 40
0.0127
 49
0.00635
 74
     0
 49
-0.00127
 74
     0
 49
0.00127
 74
     0
 49
-0.00127
 74
     0
 49
0.00127
 74
     0
 49
-0.00127
 74
     0
  0
LTYPE
  5
70
330
5
100
AcDbSymbolTableRecord
100
AcDbLinetypeTableRecord
  2
CENTER
 70
     0
  3
Center ____ _ ____ _ ____ _ ____ _ ____ _ ____
 72
    65
 73
     4
 40
0.01016
 49
0.00635
 74
     0
 49
-0.00127
 74
     0
 49
0.00127
 74
     0
 49
-0.00127
 74
     0
  0
LTYPE
  5
71
330
5
100
AcDbSymbolTableRecord
100
AcDbLinetypeTableRecord
  2
CENTERX2
 70
     0
  3
Center (2x) ________  __  ________  __  _____
 72
    65
 73
     4
 40
0.02032
 49
0.0127
 74
     0
 49
-0.00254
 74
     0
 49
0.00254
 74
     0
 49
-0.00254
 74
     0
  0
LTYPE
  5
72
330
5
100
AcDbSymbolTableRecord
100
AcDbLinetypeTableRecord
  2
DOT2
 70
     0
  3
Dot (.5x) ........................................
 72
    65
 73
     2
 40
0.000635
 49
0.0
 74
     0
 49
-0.000635
 74
     0
  0
ENDTAB
  0
TABLE
  2
LAYER
  5
2
330
0
100
AcDbSymbolTable
 70
     1
  0
LAYER
  5
10
330
2
100
AcDbSymbolTableRecord
100
AcDbLayerTableRecord
  2
0
 70
     0
 62
     7
  6
Continuous
370
    -3
390
F
347
46
  0
ENDTAB
  0
TABLE
  2
STYLE
  5
3
330
0
100
AcDbSymbolTable
 70
     1
  0
STYLE
  5
11
330
3
100
AcDbSymbolTableRecord
100
AcDbTextStyleTableRecord
  2
Standard
 70
     0
 40
0.0
 41
1.0
 50
0.0
 71
     0
 42
0.0035
  3
txt
  4

  0
ENDTAB
  0
TABLE
  2
VIEW
  5
6
330
0
100
AcDbSymbolTable
 70
     0
  0
ENDTAB
  0
TABLE
  2
UCS
  5
7
330
0
100
AcDbSymbolTable
 70
     0
  0
ENDTAB
  0
TABLE
  2
APPID
  5
9
330
0
100
AcDbSymbolTable
 70
     2
  0
APPID
  5
12
330
9
100
AcDbSymbolTableRecord
100
AcDbRegAppTableRecord
  2
ACAD
 70
     0
  0
APPID
  5
45B
330
9
100
AcDbSymbolTableRecord
100
AcDbRegAppTableRecord
  2
ACAD_MLEADERVER
 70
     0
  0
ENDTAB
  0
TABLE
  2
DIMSTYLE
  5
A
330
0
100
AcDbSymbolTable
 70
     1
100
AcDbDimStyleTable
  0
DIMSTYLE
105
27
330
A
100
AcDbSymbolTableRecord
100
AcDbDimStyleTableRecord
  2
ISO-25
 70
     0
 41
2.5
 42
0.625
 43
3.75
 44
1.25
 73
     0
 74
     0
 77
     1
 78
     8
140
2.5
141
2.5
143
0.0393700787
147
0.625
171
     3
172
     1
178
     0
271
     2
272
     2
274
     3
278
    44
283
     0
284
     8
340
11
  0
ENDTAB
  0
TABLE
  2
BLOCK_RECORD
  5
1
330
0
100
AcDbSymbolTable
 70
     1
  0
BLOCK_RECORD
  5
1F
330
1
100
AcDbSymbolTableRecord
100
AcDbBlockTableRecord
  2
*Model_Space
340
22
 70
     0
280
     1
281
     0
  0
BLOCK_RECORD
  5
1B
330
1
100
AcDbSymbolTableRecord
100
AcDbBlockTableRecord
  2
*Paper_Space
340
1E
 70
     0
280
     1
281
     0
  0
BLOCK_RECORD
  5
23
330
1
100
AcDbSymbolTableRecord
100
AcDbBlockTableRecord
  2
*Paper_Space0
340
26
 70
     0
280
     1
281
     0
  0
ENDTAB
  0
ENDSEC
  0
SECTION
  2
BLOCKS
  0
BLOCK
  5
20
330
1F
100
AcDbEntity
  8
0
100
AcDbBlockBegin
  2
*Model_Space
 70
     0
 10
0.0
 20
0.0
 30
0.0
  3
*Model_Space
  1

  0
ENDBLK
  5
21
330
1F
100
AcDbEntity
  8
0
100
AcDbBlockEnd
  0
BLOCK
  5
1C
330
1B
100
AcDbEntity
 67
     1
  8
0
100
AcDbBlockBegin
  2
*Paper_Space
 70
     0
 10
0.0
 20
0.0
 30
0.0
  3
*Paper_Space
  1

  0
ENDBLK
  5
1D
330
1B
100
AcDbEntity
 67
     1
  8
0
100
AcDbBlockEnd
  0
BLOCK
  5
24
330
23
100
AcDbEntity
  8
0
100
AcDbBlockBegin
  2
*Paper_Space0
 70
     0
 10
0.0
 20
0.0
 30
0.0
  3
*Paper_Space0
  1

  0
ENDBLK
  5
25
330
23
100
AcDbEntity
  8
0
100
AcDbBlockEnd
  0
ENDSEC
  0
SECTION
  2
ENTITIES
  0
LINE
  5
73
330
1F
100
AcDbEntity
  8
0
  6
Continuous
 62
     7
370
    25
100
AcDbLine
 10
0.0756485008
 20
0.2043377643
 30
0.0
 11
0.0626542353
 21
0.1819768911
 31
0.0
  0
ARC
  5
74
330
1F
100
AcDbEntity
  8
0
  6
Continuous
 62
     7
370
    25
100
AcDbCircle
 10
0.1015868633
 20
0.1892645639
 30
0.0
 40
0.03
100
AcDbArc
 50
89.8384373249
 51
149.8384373249
  0
LINE
  5
75
330
1F
100
AcDbEntity
  8
0
  6
Continuous
 62
     7
370
    25
100
AcDbLine
 10
0.1275336729
 20
0.2191915183
 30
0.0
 11
0.1016714572
 21
0.2192644458
 31
0.0
  0
ARC
  5
76
330
1F
100
AcDbEntity
  8
0
  6
Continuous
 62
     7
370
    25
100
AcDbCircle
 10
0.1274490796
 20
0.1891916374
 30
0.0
 40
0.03
100
AcDbArc
 50
29.8384373249
 51
89.8384373249
  0
LINE
  5
77
330
1F
100
AcDbEntity
  8
0
  6
Continuous
 62
     7
370
    25
100
AcDbLine
 10
0.0625696444
 20
0.1519770115
 30
0.0
 11
0.0754375957
 21
0.129543212
 31
0.0
  0
ARC
  5
78
330
1F
100
AcDbEntity
  8
0
  6
Continuous
 62
     7
370
    25
100
AcDbCircle
 10
0.088592599
 20
0.1669036908
 30
0.0
 40
0.03
100
AcDbArc
 50
149.8384373249
 51
209.8384373249
  0
ARC
  5
79
330
1F
100
AcDbEntity
  8
0
  6
Continuous
 62
     7
370
    25
100
AcDbCircle
 10
0.1273227672
 20
0.1443969648
 30
0.0
 40
0.03
100
AcDbArc
 50
269.8384373249
 51
329.8384373249
  0
LINE
  5
7A
330
1F
100
AcDbEntity
  8
0
  6
Continuous
 62
     7
370
    25
100
AcDbLine
 10
0.1532611298
 20
0.1293237644
 30
0.0
 11
0.1662553953
 21
0.1516846376
 31
0.0
  0
LINE
  5
7B
330
1F
100
AcDbEntity
  8
0
  6
Continuous
 62
     7
370
    25
100
AcDbLine
 10
0.1663399862
 20
0.1816845172
 30
0.0
 11
0.1534720348
 21
0.2041183167
 31
0.0
  0
ARC
  5
7C
330
1F
100
AcDbEntity
  8
0
  6
Continuous
 62
     7
370
    25
100
AcDbCircle
 10
0.1014605509
 20
0.1444698913
 30
0.0
 40
0.03
100
AcDbArc
 50
209.8384373249
 51
269.8384373249
  0
LINE
  5
7D
330
1F
100
AcDbEntity
  8
0
  6
Continuous
 62
     7
370
    25
100
AcDbLine
 10
0.1013759576
 20
0.1144700103
 30
0.0
 11
0.1272381734
 21
0.1143970828
 31
0.0
  0
ARC
  5
7E
330
1F
100
AcDbEntity
  8
0
  6
Continuous
 62
     7
370
    25
100
AcDbCircle
 10
0.1403170316
 20
0.1667578378
 30
0.0
 40
0.03
100
AcDbArc
 50
329.8384373249
 51
29.8384373249
  0
LINE
  5
7F
330
1F
100
AcDbEntity
  8
0
  6
Continuous
 62
     7
370
    25
100
AcDbLine
 10
0.1042003821
 20
0.1866652816
 30
0.0
 11
0.1041943633
 21
0.1866607683
 31
0.0
  0
ARC
  5
80
330
1F
100
AcDbEntity
  8
0
  6
Continuous
 62
     7
370
    25
100
AcDbCircle
 10
0.1041817207
 20
0.1866242861
 30
0.0
 40
0.00003861
100
AcDbArc
 50
70.8870151715
 51
92.8527801202
  0
LINE
  5
81
330
1F
100
AcDbEntity
  8
0
  6
Continuous
 62
     7
370
    25
100
AcDbLine
 10
0.1041797995
 20
0.1866628485
 30
0.0
 11
0.104175285
 21
0.1866688674
 31
0.0
  0
ARC
  5
82
330
1F
100
AcDbEntity
  8
0
  6
Continuous
 62
     7
370
    25
100
AcDbCircle
 10
0.1041817207
 20
0.1866242861
 30
0.0
 40
0.0000450432666988
100
AcDbArc
 50
65.5251909041
 51
98.2146043876
  0
LINE
  5
83
330
1F
100
AcDbEntity
  8
0
  6
Continuous
 62
     7
370
    25
100
AcDbLine
 10
0.1041116404
 20
0.1866817265
 30
0.0
 11
0.1041462003
 21
0.1867076462
 31
0.0
  0
ARC
  5
84
330
1F
100
AcDbEntity
  8
0
  6
Continuous
 62
     7
370
    25
100
AcDbCircle
 10
0.1041817207
 20
0.1866242861
 30
0.0
 40
0.0000450432666988
100
AcDbArc
 50
155.5251909041
 51
188.2146043876
  0
LINE
  5
85
330
1F
100
AcDbEntity
  8
0
  6
Continuous
 62
     7
370
    25
100
AcDbLine
 10
0.1041242801
 20
0.1865542059
 30
0.0
 11
0.1040983604
 21
0.1865887659
 31
0.0
  0
ARC
  5
86
330
1F
100
AcDbEntity
  8
0
  6
Continuous
 62
     7
370
    25
100
AcDbCircle
 10
0.1041817207
 20
0.1866242861
 30
0.0
 40
0.0000450432666988
100
AcDbArc
 50
245.5251909041
 51
278.2146043876
  0
LINE
  5
87
330
1F
100
AcDbEntity
  8
0
  6
Continuous
 62
     7
370
    25
100
AcDbLine
 10
0.1042518007
 20
0.1865668457
 30
0.0
 11
0.1042172407
 21
0.186540926
 31
0.0
  0
ARC
  5
88
330
1F
100
AcDbEntity
  8
0
  6
Continuous
 62
     7
370
    25
100
AcDbCircle
 10
0.1041817207
 20
0.1866242861
 30
0.0
 40
0.0000450432666988
100
AcDbArc
 50
335.5251909041
 51
8.2146043875
  0
LINE
  5
89
330
1F
100
AcDbEntity
  8
0
  6
Continuous
 62
     7
370
    25
100
AcDbLine
 10
0.1042391609
 20
0.1866943663
 30
0.0
 11
0.1042650806
 21
0.1866598063
 31
0.0
  0
CIRCLE
  5
8A
330
1F
100
AcDbEntity
  8
0
  6
Continuous
 62
     7
370
    25
100
AcDbCircle
 10
0.1041817207
 20
0.1866242861
 30
0.0
 40
0.000158
  0
LINE
  5
8B
330
1F
100
AcDbEntity
  8
0
  6
Continuous
 62
     7
370
    25
100
AcDbLine
 10
0.104140725
 20
0.1866429477
 30
0.0
 11
0.1041116404
 21
0.1866817265
 31
0.0
  0
LINE
  5
8C
330
1F
100
AcDbEntity
  8
0
  6
Continuous
 62
     7
370
    25
100
AcDbLine
 10
0.1041462003
 20
0.1867076462
 30
0.0
 11
0.104175285
 21
0.1866688674
 31
0.0
  0
LINE
  5
8D
330
1F
100
AcDbEntity
  8
0
  6
Continuous
 62
     7
370
    25
100
AcDbLine
 10
0.104222716
 20
0.1866056245
 30
0.0
 11
0.1042518007
 21
0.1865668457
 31
0.0
  0
LINE
  5
8E
330
1F
100
AcDbEntity
  8
0
  6
Continuous
 62
     7
370
    25
100
AcDbLine
 10
0.1042172407
 20
0.186540926
 30
0.0
 11
0.104188156
 21
0.1865797048
 31
0.0
  0
LINE
  5
8F
330
1F
100
AcDbEntity
  8
0
  6
Continuous
 62
     7
370
    25
100
AcDbLine
 10
0.1041630601
 20
0.1865832906
 30
0.0
 11
0.1041242801
 21
0.1865542059
 31
0.0
  0
LINE
  5
90
330
1F
100
AcDbEntity
  8
0
  6
Continuous
 62
     7
370
    25
100
AcDbLine
 10
0.1042650806
 20
0.1866598063
 30
0.0
 11
0.1042263018
 21
0.1866307216
 31
0.0
  0
LINE
  5
91
330
1F
100
AcDbEntity
  8
0
  6
Continuous
 62
     7
370
    25
100
AcDbLine
 10
0.1040983604
 20
0.1865887659
 30
0.0
 11
0.1041371392
 21
0.1866178506
 31
0.0
  0
LINE
  5
92
330
1F
100
AcDbEntity
  8
0
  6
Continuous
 62
     7
370
    25
100
AcDbLine
 10
0.1042003821
 20
0.1866652816
 30
0.0
 11
0.1042391609
 21
0.1866943663
 31
0.0
  0
LINE
  5
93
330
1F
100
AcDbEntity
  8
0
  6
Continuous
 62
     7
370
    25
100
AcDbLine
 10
0.1042024647
 20
0.1866668444
 30
0.0
 11
0.1042283856
 21
0.1866322844
 31
0.0
  0
LINE
  5
94
330
1F
100
AcDbEntity
  8
0
  6
Continuous
 62
     7
370
    25
100
AcDbLine
 10
0.1041609763
 20
0.1865817278
 30
0.0
 11
0.1041350566
 21
0.1866162877
 31
0.0
  0
LINE
  5
95
330
1F
100
AcDbEntity
  8
0
  6
Continuous
 62
     7
370
    25
100
AcDbLine
 10
0.1042242788
 20
0.1866035419
 30
0.0
 11
0.1041897189
 21
0.1865776222
 31
0.0
  0
LINE
  5
96
330
1F
100
AcDbEntity
  8
0
  6
Continuous
 62
     7
370
    25
100
AcDbLine
 10
0.1041391622
 20
0.1866450303
 30
0.0
 11
0.1041737222
 21
0.18667095
 31
0.0
  0
ARC
  5
97
330
1F
100
AcDbEntity
  8
0
  6
Continuous
 62
     7
370
    25
100
AcDbCircle
 10
0.1041817207
 20
0.1866242861
 30
0.0
 40
0.00003861
100
AcDbArc
 50
160.8870151715
 51
182.8527801202
  0
LINE
  5
98
330
1F
100
AcDbEntity
  8
0
  6
Continuous
 62
     7
370
    25
100
AcDbLine
 10
0.104140725
 20
0.1866429477
 30
0.0
 11
0.1041452395
 21
0.1866369288
 31
0.0
  0
LINE
  5
99
330
1F
100
AcDbEntity
  8
0
  6
Continuous
 62
     7
370
    25
100
AcDbLine
 10
0.1041431581
 20
0.186622365
 30
0.0
 11
0.1041371392
 21
0.1866178506
 31
0.0
  0
ARC
  5
9A
330
1F
100
AcDbEntity
  8
0
  6
Continuous
 62
     7
370
    25
100
AcDbCircle
 10
0.1041817207
 20
0.1866242861
 30
0.0
 40
0.00003861
100
AcDbArc
 50
250.8870151715
 51
272.8527801202
  0
LINE
  5
9B
330
1F
100
AcDbEntity
  8
0
  6
Continuous
 62
     7
370
    25
100
AcDbLine
 10
0.1041836428
 20
0.1865857237
 30
0.0
 11
0.104188156
 21
0.1865797048
 31
0.0
  0
LINE
  5
9C
330
1F
100
AcDbEntity
  8
0
  6
Continuous
 62
     7
370
    25
100
AcDbLine
 10
0.1041630601
 20
0.1865832906
 30
0.0
 11
0.104169079
 21
0.1865878051
 31
0.0
  0
ARC
  5
9D
330
1F
100
AcDbEntity
  8
0
  6
Continuous
 62
     7
370
    25
100
AcDbCircle
 10
0.1041817207
 20
0.1866242861
 30
0.0
 40
0.00003861
100
AcDbArc
 50
340.8870151715
 51
2.8527801202
  0
LINE
  5
9E
330
1F
100
AcDbEntity
  8
0
  6
Continuous
 62
     7
370
    25
100
AcDbLine
 10
0.104222716
 20
0.1866056245
 30
0.0
 11
0.1042182027
 21
0.1866116445
 31
0.0
  0
LINE
  5
9F
330
1F
100
AcDbEntity
  8
0
  6
Continuous
 62
     7
370
    25
100
AcDbLine
 10
0.1042202829
 20
0.1866262072
 30
0.0
 11
0.1042263018
 21
0.1866307216
 31
0.0
  0
ARC
  5
A0
330
1F
100
AcDbEntity
  8
0
  6
Continuous
 62
     7
370
    25
100
AcDbCircle
 10
0.1041817207
 20
0.1866242861
 30
0.0
 40
0.00003861
100
AcDbArc
 50
92.8527801202
 51
160.8870151715
  0
ARC
  5
A1
330
1F
100
AcDbEntity
  8
0
  6
Continuous
 62
     7
370
    25
100
AcDbCircle
 10
0.1041817207
 20
0.1866242861
 30
0.0
 40
0.00003861
100
AcDbArc
 50
2.8527801202
 51
70.8870151715
  0
ARC
  5
A2
330
1F
100
AcDbEntity
  8
0
  6
Continuous
 62
     7
370
    25
100
AcDbCircle
 10
0.1041817207
 20
0.1866242861
 30
0.0
 40
0.00003861
100
AcDbArc
 50
272.8527801202
 51
340.8870151715
  0
ARC
  5
A3
330
1F
100
AcDbEntity
  8
0
  6
Continuous
 62
     7
370
    25
100
AcDbCircle
 10
0.1041817207
 20
0.1866242861
 30
0.0
 40
0.00003861
100
AcDbArc
 50
182.8527801202
 51
250.8870151715
  0
LINE
  5
A4
330
1F
100
AcDbEntity
  8
0
  6
Continuous
 62
     7
370
    25
100
AcDbLine
 10
0.1247704684
 20
0.1470164984
 30
0.0
 11
0.1247359084
 21
0.1469905787
 31
0.0
  0
LINE
  5
A5
330
1F
100
AcDbEntity
  8
0
  6
Continuous
 62
     7
370
    25
100
AcDbLine
 10
0.1247979902
 20
0.1469798022
 30
0.0
 11
0.1247634303
 21
0.1469538825
 31
0.0
  0
LINE
  5
A6
330
1F
100
AcDbEntity
  8
0
  6
Continuous
 62
     7
370
    25
100
AcDbLine
 10
0.1247092484
 20
0.1469962471
 30
0.0
 11
0.1247152673
 21
0.1470007604
 31
0.0
  0
ARC
  5
A7
330
1F
100
AcDbEntity
  8
0
  6
Continuous
 62
     7
370
    25
100
AcDbCircle
 10
0.1247279099
 20
0.1470372425
 30
0.0
 40
0.00003861
100
AcDbArc
 50
250.8870151715
 51
272.8527801202
  0
LINE
  5
A8
330
1F
100
AcDbEntity
  8
0
  6
Continuous
 62
     7
370
    25
100
AcDbLine
 10
0.1247298311
 20
0.1469986802
 30
0.0
 11
0.1247343456
 21
0.1469926613
 31
0.0
  0
ARC
  5
A9
330
1F
100
AcDbEntity
  8
0
  6
Continuous
 62
     7
370
    25
100
AcDbCircle
 10
0.1247279099
 20
0.1470372425
 30
0.0
 40
0.0000450432666988
100
AcDbArc
 50
245.5251909041
 51
278.2146043876
  0
LINE
  5
AA
330
1F
100
AcDbEntity
  8
0
  6
Continuous
 62
     7
370
    25
100
AcDbLine
 10
0.1247664725
 20
0.1470391636
 30
0.0
 11
0.1247724914
 21
0.1470436781
 31
0.0
  0
ARC
  5
AB
330
1F
100
AcDbEntity
  8
0
  6
Continuous
 62
     7
370
    25
100
AcDbCircle
 10
0.1247279099
 20
0.1470372425
 30
0.0
 40
0.0000450432666988
100
AcDbArc
 50
335.5251909041
 51
8.2146043875
  0
LINE
  5
AC
330
1F
100
AcDbEntity
  8
0
  6
Continuous
 62
     7
370
    25
100
AcDbLine
 10
0.1247689055
 20
0.147018581
 30
0.0
 11
0.1247643911
 21
0.1470245998
 31
0.0
  0
ARC
  5
AD
330
1F
100
AcDbEntity
  8
0
  6
Continuous
 62
     7
370
    25
100
AcDbCircle
 10
0.1247279099
 20
0.1470372425
 30
0.0
 40
0.00003861
100
AcDbArc
 50
340.8870151715
 51
2.8527801202
  0
LINE
  5
AE
330
1F
100
AcDbEntity
  8
0
  6
Continuous
 62
     7
370
    25
100
AcDbLine
 10
0.1247853505
 20
0.1471073227
 30
0.0
 11
0.1248112701
 21
0.1470727628
 31
0.0
  0
ARC
  5
AF
330
1F
100
AcDbEntity
  8
0
  6
Continuous
 62
     7
370
    25
100
AcDbCircle
 10
0.1247279099
 20
0.1470372425
 30
0.0
 40
0.0000450432666988
100
AcDbArc
 50
65.5251909041
 51
98.2146043876
  0
LINE
  5
B0
330
1F
100
AcDbEntity
  8
0
  6
Continuous
 62
     7
370
    25
100
AcDbLine
 10
0.1246578299
 20
0.147094683
 30
0.0
 11
0.1246923899
 21
0.1471206026
 31
0.0
  0
ARC
  5
B1
330
1F
100
AcDbEntity
  8
0
  6
Continuous
 62
     7
370
    25
100
AcDbCircle
 10
0.1247279099
 20
0.1470372425
 30
0.0
 40
0.0000450432666988
100
AcDbArc
 50
155.5251909041
 51
188.2146043876
  0
LINE
  5
B2
330
1F
100
AcDbEntity
  8
0
  6
Continuous
 62
     7
370
    25
100
AcDbLine
 10
0.1246704697
 20
0.1469671624
 30
0.0
 11
0.12464455
 21
0.1470017224
 31
0.0
  0
CIRCLE
  5
B3
330
1F
100
AcDbEntity
  8
0
  6
Continuous
 62
     7
370
    25
100
AcDbCircle
 10
0.1247279099
 20
0.1470372425
 30
0.0
 40
0.000158
  0
LINE
  5
B4
330
1F
100
AcDbEntity
  8
0
  6
Continuous
 62
     7
370
    25
100
AcDbLine
 10
0.1247689055
 20
0.147018581
 30
0.0
 11
0.1247979902
 21
0.1469798022
 31
0.0
  0
LINE
  5
B5
330
1F
100
AcDbEntity
  8
0
  6
Continuous
 62
     7
370
    25
100
AcDbLine
 10
0.1247634303
 20
0.1469538825
 30
0.0
 11
0.1247343456
 21
0.1469926613
 31
0.0
  0
LINE
  5
B6
330
1F
100
AcDbEntity
  8
0
  6
Continuous
 62
     7
370
    25
100
AcDbLine
 10
0.1246869146
 20
0.1470559042
 30
0.0
 11
0.1246578299
 21
0.147094683
 31
0.0
  0
LINE
  5
B7
330
1F
100
AcDbEntity
  8
0
  6
Continuous
 62
     7
370
    25
100
AcDbLine
 10
0.12464455
 20
0.1470017224
 30
0.0
 11
0.1246833288
 21
0.1470308071
 31
0.0
  0
LINE
  5
B8
330
1F
100
AcDbEntity
  8
0
  6
Continuous
 62
     7
370
    25
100
AcDbLine
 10
0.1248112701
 20
0.1470727628
 30
0.0
 11
0.1247724914
 21
0.1470436781
 31
0.0
  0
LINE
  5
B9
330
1F
100
AcDbEntity
  8
0
  6
Continuous
 62
     7
370
    25
100
AcDbLine
 10
0.1247092484
 20
0.1469962471
 30
0.0
 11
0.1246704697
 21
0.1469671624
 31
0.0
  0
LINE
  5
BA
330
1F
100
AcDbEntity
  8
0
  6
Continuous
 62
     7
370
    25
100
AcDbLine
 10
0.1246923899
 20
0.1471206026
 30
0.0
 11
0.1247214745
 21
0.1470818239
 31
0.0
  0
LINE
  5
BB
330
1F
100
AcDbEntity
  8
0
  6
Continuous
 62
     7
370
    25
100
AcDbLine
 10
0.1247465705
 20
0.147078238
 30
0.0
 11
0.1247853505
 21
0.1471073227
 31
0.0
  0
LINE
  5
BC
330
1F
100
AcDbEntity
  8
0
  6
Continuous
 62
     7
370
    25
100
AcDbLine
 10
0.1247071659
 20
0.1469946843
 30
0.0
 11
0.124681245
 21
0.1470292442
 31
0.0
  0
LINE
  5
BD
330
1F
100
AcDbEntity
  8
0
  6
Continuous
 62
     7
370
    25
100
AcDbLine
 10
0.1247486543
 20
0.1470798009
 30
0.0
 11
0.1247745739
 21
0.1470452409
 31
0.0
  0
LINE
  5
BE
330
1F
100
AcDbEntity
  8
0
  6
Continuous
 62
     7
370
    25
100
AcDbLine
 10
0.1246853517
 20
0.1470579868
 30
0.0
 11
0.1247199117
 21
0.1470839064
 31
0.0
  0
ARC
  5
BF
330
1F
100
AcDbEntity
  8
0
  6
Continuous
 62
     7
370
    25
100
AcDbCircle
 10
0.1247279099
 20
0.1470372425
 30
0.0
 40
0.00003861
100
AcDbArc
 50
70.8870151715
 51
92.8527801202
  0
LINE
  5
C0
330
1F
100
AcDbEntity
  8
0
  6
Continuous
 62
     7
370
    25
100
AcDbLine
 10
0.1247259878
 20
0.147075805
 30
0.0
 11
0.1247214745
 21
0.1470818239
 31
0.0
  0
LINE
  5
C1
330
1F
100
AcDbEntity
  8
0
  6
Continuous
 62
     7
370
    25
100
AcDbLine
 10
0.1247465705
 20
0.147078238
 30
0.0
 11
0.1247405516
 21
0.1470737236
 31
0.0
  0
ARC
  5
C2
330
1F
100
AcDbEntity
  8
0
  6
Continuous
 62
     7
370
    25
100
AcDbCircle
 10
0.1247279099
 20
0.1470372425
 30
0.0
 40
0.00003861
100
AcDbArc
 50
160.8870151715
 51
182.8527801202
  0
LINE
  5
C3
330
1F
100
AcDbEntity
  8
0
  6
Continuous
 62
     7
370
    25
100
AcDbLine
 10
0.1246869146
 20
0.1470559042
 30
0.0
 11
0.1246914278
 21
0.1470498841
 31
0.0
  0
LINE
  5
C4
330
1F
100
AcDbEntity
  8
0
  6
Continuous
 62
     7
370
    25
100
AcDbLine
 10
0.1246893476
 20
0.1470353215
 30
0.0
 11
0.1246833288
 21
0.1470308071
 31
0.0
  0
ARC
  5
C5
330
1F
100
AcDbEntity
  8
0
  6
Continuous
 62
     7
370
    25
100
AcDbCircle
 10
0.1247279099
 20
0.1470372425
 30
0.0
 40
0.00003861
100
AcDbArc
 50
272.8527801202
 51
340.8870151715
  0
ARC
  5
C6
330
1F
100
AcDbEntity
  8
0
  6
Continuous
 62
     7
370
    25
100
AcDbCircle
 10
0.1247279099
 20
0.1470372425
 30
0.0
 40
0.00003861
100
AcDbArc
 50
182.8527801202
 51
250.8870151715
  0
ARC
  5
C7
330
1F
100
AcDbEntity
  8
0
  6
Continuous
 62
     7
370
    25
100
AcDbCircle
 10
0.1247279099
 20
0.1470372425
 30
0.0
 40
0.00003861
100
AcDbArc
 50
92.8527801202
 51
160.8870151715
  0
ARC
  5
C8
330
1F
100
AcDbEntity
  8
0
  6
Continuous
 62
     7
370
    25
100
AcDbCircle
 10
0.1247279099
 20
0.1470372425
 30
0.0
 40
0.00003861
100
AcDbArc
 50
2.8527801202
 51
70.8870151715
  0
LINE
  5
C9
330
1F
100
AcDbEntity
  8
0
  6
Continuous
 62
     7
370
    25
100
AcDbLine
 10
0.1264815604
 20
0.1479951125
 30
0.0
 11
0.1264383601
 21
0.1479951125
 31
0.0
  0
LINE
  5
CA
330
1F
100
AcDbEntity
  8
0
  6
Continuous
 62
     7
370
    25
100
AcDbLine
 10
0.1264815604
 20
0.1479492431
 30
0.0
 11
0.1264383601
 21
0.1479492431
 31
0.0
  0
LINE
  5
CB
330
1F
100
AcDbEntity
  8
0
  6
Continuous
 62
     7
370
    25
100
AcDbLine
 10
0.1264204346
 20
0.1480156427
 30
0.0
 11
0.1264279579
 21
0.1480156427
 31
0.0
  0
ARC
  5
CC
330
1F
100
AcDbEntity
  8
0
  6
Continuous
 62
     7
370
    25
100
AcDbCircle
 10
0.1264599607
 20
0.1480372425
 30
0.0
 40
0.00003861
100
AcDbArc
 50
214.0171175256
 51
235.9828824744
  0
LINE
  5
CD
330
1F
100
AcDbEntity
  8
0
  6
Continuous
 62
     7
370
    25
100
AcDbLine
 10
0.1264383601
 20
0.1480052393
 30
0.0
 11
0.1264383601
 21
0.147997716
 31
0.0
  0
ARC
  5
CE
330
1F
100
AcDbEntity
  8
0
  6
Continuous
 62
     7
370
    25
100
AcDbCircle
 10
0.1264599607
 20
0.1480372425
 30
0.0
 40
0.0000450432666988
100
AcDbArc
 50
208.6552932583
 51
241.3447067417
  0
LINE
  5
CF
330
1F
100
AcDbEntity
  8
0
  6
Continuous
 62
     7
370
    25
100
AcDbLine
 10
0.1264919638
 20
0.1480156427
 30
0.0
 11
0.1264994871
 21
0.1480156427
 31
0.0
  0
ARC
  5
D0
330
1F
100
AcDbEntity
  8
0
  6
Continuous
 62
     7
370
    25
100
AcDbCircle
 10
0.1264599607
 20
0.1480372425
 30
0.0
 40
0.0000450432666988
100
AcDbArc
 50
298.6552932583
 51
331.3447067417
  0
LINE
  5
D1
330
1F
100
AcDbEntity
  8
0
  6
Continuous
 62
     7
370
    25
100
AcDbLine
 10
0.1264815604
 20
0.147997716
 30
0.0
 11
0.1264815604
 21
0.1480052393
 31
0.0
  0
ARC
  5
D2
330
1F
100
AcDbEntity
  8
0
  6
Continuous
 62
     7
370
    25
100
AcDbCircle
 10
0.1264599607
 20
0.1480372425
 30
0.0
 40
0.00003861
100
AcDbArc
 50
304.0171175256
 51
325.9828824743
  0
LINE
  5
D3
330
1F
100
AcDbEntity
  8
0
  6
Continuous
 62
     7
370
    25
100
AcDbLine
 10
0.1265479611
 20
0.1480588429
 30
0.0
 11
0.1265479611
 21
0.1480156427
 31
0.0
  0
ARC
  5
D4
330
1F
100
AcDbEntity
  8
0
  6
Continuous
 62
     7
370
    25
100
AcDbCircle
 10
0.1264599607
 20
0.1480372425
 30
0.0
 40
0.0000450432666988
100
AcDbArc
 50
28.6552932583
 51
61.3447067417
  0
LINE
  5
D5
330
1F
100
AcDbEntity
  8
0
  6
Continuous
 62
     7
370
    25
100
AcDbLine
 10
0.1264383601
 20
0.1481252425
 30
0.0
 11
0.1264815604
 21
0.1481252425
 31
0.0
  0
ARC
  5
D6
330
1F
100
AcDbEntity
  8
0
  6
Continuous
 62
     7
370
    25
100
AcDbCircle
 10
0.1264599607
 20
0.1480372425
 30
0.0
 40
0.0000450432666988
100
AcDbArc
 50
118.6552932583
 51
151.3447067417
  0
LINE
  5
D7
330
1F
100
AcDbEntity
  8
0
  6
Continuous
 62
     7
370
    25
100
AcDbLine
 10
0.1263719605
 20
0.1480156427
 30
0.0
 11
0.1263719605
 21
0.1480588429
 31
0.0
  0
CIRCLE
  5
D8
330
1F
100
AcDbEntity
  8
0
  6
Continuous
 62
     7
370
    25
100
AcDbCircle
 10
0.1264599607
 20
0.1480372425
 30
0.0
 40
0.000158
  0
LINE
  5
D9
330
1F
100
AcDbEntity
  8
0
  6
Continuous
 62
     7
370
    25
100
AcDbLine
 10
0.1264815604
 20
0.147997716
 30
0.0
 11
0.1264815604
 21
0.1479492431
 31
0.0
  0
LINE
  5
DA
330
1F
100
AcDbEntity
  8
0
  6
Continuous
 62
     7
370
    25
100
AcDbLine
 10
0.1264383601
 20
0.1479492431
 30
0.0
 11
0.1264383601
 21
0.147997716
 31
0.0
  0
LINE
  5
DB
330
1F
100
AcDbEntity
  8
0
  6
Continuous
 62
     7
370
    25
100
AcDbLine
 10
0.1264383601
 20
0.1480767684
 30
0.0
 11
0.1264383601
 21
0.1481252425
 31
0.0
  0
LINE
  5
DC
330
1F
100
AcDbEntity
  8
0
  6
Continuous
 62
     7
370
    25
100
AcDbLine
 10
0.1263719605
 20
0.1480588429
 30
0.0
 11
0.1264204346
 21
0.1480588429
 31
0.0
  0
LINE
  5
DD
330
1F
100
AcDbEntity
  8
0
  6
Continuous
 62
     7
370
    25
100
AcDbLine
 10
0.1265479611
 20
0.1480156427
 30
0.0
 11
0.1264994871
 21
0.1480156427
 31
0.0
  0
LINE
  5
DE
330
1F
100
AcDbEntity
  8
0
  6
Continuous
 62
     7
370
    25
100
AcDbLine
 10
0.1264204346
 20
0.1480156427
 30
0.0
 11
0.1263719605
 21
0.1480156427
 31
0.0
  0
LINE
  5
DF
330
1F
100
AcDbEntity
  8
0
  6
Continuous
 62
     7
370
    25
100
AcDbLine
 10
0.1264815604
 20
0.1481252425
 30
0.0
 11
0.1264815604
 21
0.1480767684
 31
0.0
  0
LINE
  5
E0
330
1F
100
AcDbEntity
  8
0
  6
Continuous
 62
     7
370
    25
100
AcDbLine
 10
0.1264994871
 20
0.1480588429
 30
0.0
 11
0.1265479611
 21
0.1480588429
 31
0.0
  0
LINE
  5
E1
330
1F
100
AcDbEntity
  8
0
  6
Continuous
 62
     7
370
    25
100
AcDbLine
 10
0.1264178299
 20
0.1480156427
 30
0.0
 11
0.1264178299
 21
0.1480588429
 31
0.0
  0
LINE
  5
E2
330
1F
100
AcDbEntity
  8
0
  6
Continuous
 62
     7
370
    25
100
AcDbLine
 10
0.1265020918
 20
0.1480588429
 30
0.0
 11
0.1265020918
 21
0.1480156427
 31
0.0
  0
LINE
  5
E3
330
1F
100
AcDbEntity
  8
0
  6
Continuous
 62
     7
370
    25
100
AcDbLine
 10
0.1264383601
 20
0.1480793732
 30
0.0
 11
0.1264815604
 21
0.1480793732
 31
0.0
  0
ARC
  5
E4
330
1F
100
AcDbEntity
  8
0
  6
Continuous
 62
     7
370
    25
100
AcDbCircle
 10
0.1264599607
 20
0.1480372425
 30
0.0
 40
0.00003861
100
AcDbArc
 50
34.0171175257
 51
55.9828824744
  0
LINE
  5
E5
330
1F
100
AcDbEntity
  8
0
  6
Continuous
 62
     7
370
    25
100
AcDbLine
 10
0.1264815604
 20
0.1480692451
 30
0.0
 11
0.1264815604
 21
0.1480767684
 31
0.0
  0
LINE
  5
E6
330
1F
100
AcDbEntity
  8
0
  6
Continuous
 62
     7
370
    25
100
AcDbLine
 10
0.1264994871
 20
0.1480588429
 30
0.0
 11
0.1264919638
 21
0.1480588429
 31
0.0
  0
ARC
  5
E7
330
1F
100
AcDbEntity
  8
0
  6
Continuous
 62
     7
370
    25
100
AcDbCircle
 10
0.1264599607
 20
0.1480372425
 30
0.0
 40
0.00003861
100
AcDbArc
 50
124.0171175257
 51
145.9828824744
  0
LINE
  5
E8
330
1F
100
AcDbEntity
  8
0
  6
Continuous
 62
     7
370
    25
100
AcDbLine
 10
0.1264383601
 20
0.1480767684
 30
0.0
 11
0.1264383601
 21
0.1480692451
 31
0.0
  0
LINE
  5
E9
330
1F
100
AcDbEntity
  8
0
  6
Continuous
 62
     7
370
    25
100
AcDbLine
 10
0.1264279579
 20
0.1480588429
 30
0.0
 11
0.1264204346
 21
0.1480588429
 31
0.0
  0
ARC
  5
EA
330
1F
100
AcDbEntity
  8
0
  6
Continuous
 62
     7
370
    25
100
AcDbCircle
 10
0.1264599607
 20
0.1480372425
 30
0.0
 40
0.00003861
100
AcDbArc
 50
145.9828824744
 51
214.0171175256
  0
ARC
  5
EB
330
1F
100
AcDbEntity
  8
0
  6
Continuous
 62
     7
370
    25
100
AcDbCircle
 10
0.1264599607
 20
0.1480372425
 30
0.0
 40
0.00003861
100
AcDbArc
 50
55.9828824744
 51
124.0171175257
  0
ARC
  5
EC
330
1F
100
AcDbEntity
  8
0
  6
Continuous
 62
     7
370
    25
100
AcDbCircle
 10
0.1264599607
 20
0.1480372425
 30
0.0
 40
0.00003861
100
AcDbArc
 50
235.9828824744
 51
304.0171175256
  0
ARC
  5
ED
330
1F
100
AcDbEntity
  8
0
  6
Continuous
 62
     7
370
    25
100
AcDbCircle
 10
0.1264599607
 20
0.1480372425
 30
0.0
 40
0.00003861
100
AcDbArc
 50
325.9828824743
 51
34.0171175257
  0
LINE
  5
EE
330
1F
100
AcDbEntity
  8
0
  6
Continuous
 62
     7
370
    25
100
AcDbLine
 10
0.1367803406
 20
0.1678284052
 30
0.0
 11
0.1367587422
 21
0.1677909929
 31
0.0
  0
LINE
  5
EF
330
1F
100
AcDbEntity
  8
0
  6
Continuous
 62
     7
370
    25
100
AcDbLine
 10
0.1368200659
 20
0.1678054704
 30
0.0
 11
0.1367984652
 21
0.1677680582
 31
0.0
  0
LINE
  5
F0
330
1F
100
AcDbEntity
  8
0
  6
Continuous
 62
     7
370
    25
100
AcDbLine
 10
0.1367319988
 20
0.1677857335
 30
0.0
 11
0.1367357611
 21
0.1677922492
 31
0.0
  0
ARC
  5
F1
330
1F
100
AcDbEntity
  8
0
  6
Continuous
 62
     7
370
    25
100
AcDbCircle
 10
0.1367330553
 20
0.1678307643
 30
0.0
 40
0.00003861
100
AcDbArc
 50
274.0171175257
 51
295.9828824744
  0
LINE
  5
F2
330
1F
100
AcDbEntity
  8
0
  6
Continuous
 62
     7
370
    25
100
AcDbLine
 10
0.1367499708
 20
0.1677960569
 30
0.0
 11
0.1367564868
 21
0.167792295
 31
0.0
  0
ARC
  5
F3
330
1F
100
AcDbEntity
  8
0
  6
Continuous
 62
     7
370
    25
100
AcDbCircle
 10
0.1367330553
 20
0.1678307643
 30
0.0
 40
0.0000450432666988
100
AcDbArc
 50
268.6552932583
 51
301.3447067417
  0
LINE
  5
F4
330
1F
100
AcDbEntity
  8
0
  6
Continuous
 62
     7
370
    25
100
AcDbLine
 10
0.1367677616
 20
0.1678476795
 30
0.0
 11
0.1367715239
 21
0.1678541952
 31
0.0
  0
ARC
  5
F5
330
1F
100
AcDbEntity
  8
0
  6
Continuous
 62
     7
370
    25
100
AcDbCircle
 10
0.1367330553
 20
0.1678307643
 30
0.0
 40
0.0000450432666988
100
AcDbArc
 50
358.6552932583
 51
31.3447067417
  0
LINE
  5
F6
330
1F
100
AcDbEntity
  8
0
  6
Continuous
 62
     7
370
    25
100
AcDbLine
 10
0.1367780851
 20
0.1678297073
 30
0.0
 11
0.1367715715
 21
0.1678334691
 31
0.0
  0
ARC
  5
F7
330
1F
100
AcDbEntity
  8
0
  6
Continuous
 62
     7
370
    25
100
AcDbCircle
 10
0.1367330553
 20
0.1678307643
 30
0.0
 40
0.00003861
100
AcDbArc
 50
4.0171175257
 51
25.9828824744
  0
LINE
  5
F8
330
1F
100
AcDbEntity
  8
0
  6
Continuous
 62
     7
370
    25
100
AcDbLine
 10
0.1367780851
 20
0.1678297073
 30
0.0
 11
0.1368200659
 21
0.1678054704
 31
0.0
  0
LINE
  5
F9
330
1F
100
AcDbEntity
  8
0
  6
Continuous
 62
     7
370
    25
100
AcDbLine
 10
0.1367957615
 20
0.1678961746
 30
0.0
 11
0.1367715239
 21
0.1678541952
 31
0.0
  0
LINE
  5
FA
330
1F
100
AcDbEntity
  8
0
  6
Continuous
 62
     7
370
    25
100
AcDbLine
 10
0.1367583488
 20
0.1679177745
 30
0.0
 11
0.1367957615
 21
0.1678961746
 31
0.0
  0
ARC
  5
FB
330
1F
100
AcDbEntity
  8
0
  6
Continuous
 62
     7
370
    25
100
AcDbCircle
 10
0.1367330553
 20
0.1678307643
 30
0.0
 40
0.0000450432666988
100
AcDbArc
 50
88.6552932583
 51
121.3447067417
  0
LINE
  5
FC
330
1F
100
AcDbEntity
  8
0
  6
Continuous
 62
     7
370
    25
100
AcDbLine
 10
0.1366460442
 20
0.1678560582
 30
0.0
 11
0.1366676449
 21
0.1678934704
 31
0.0
  0
LINE
  5
FD
330
1F
100
AcDbEntity
  8
0
  6
Continuous
 62
     7
370
    25
100
AcDbLine
 10
0.1366880249
 20
0.1678318214
 30
0.0
 11
0.1366460442
 21
0.1678560582
 31
0.0
  0
ARC
  5
FE
330
1F
100
AcDbEntity
  8
0
  6
Continuous
 62
     7
370
    25
100
AcDbCircle
 10
0.1367330553
 20
0.1678307643
 30
0.0
 40
0.0000450432666988
100
AcDbArc
 50
178.6552932583
 51
211.3447067417
  0
LINE
  5
FF
330
1F
100
AcDbEntity
  8
0
  6
Continuous
 62
     7
370
    25
100
AcDbLine
 10
0.1366703485
 20
0.1677653541
 30
0.0
 11
0.1366945862
 21
0.1678073335
 31
0.0
  0
LINE
  5
100
330
1F
100
AcDbEntity
  8
0
  6
Continuous
 62
     7
370
    25
100
AcDbLine
 10
0.1367077612
 20
0.1677437541
 30
0.0
 11
0.1366703485
 21
0.1677653541
 31
0.0
  0
LINE
  5
101
330
1F
100
AcDbEntity
  8
0
  6
Continuous
 62
     7
370
    25
100
AcDbLine
 10
0.1367319988
 20
0.1677857335
 30
0.0
 11
0.1367077612
 21
0.1677437541
 31
0.0
  0
LINE
  5
102
330
1F
100
AcDbEntity
  8
0
  6
Continuous
 62
     7
370
    25
100
AcDbLine
 10
0.1367984652
 20
0.1677680582
 30
0.0
 11
0.1367564868
 21
0.167792295
 31
0.0
  0
CIRCLE
  5
103
330
1F
100
AcDbEntity
  8
0
  6
Continuous
 62
     7
370
    25
100
AcDbCircle
 10
0.1367330553
 20
0.1678307643
 30
0.0
 40
0.000158
  0
LINE
  5
104
330
1F
100
AcDbEntity
  8
0
  6
Continuous
 62
     7
370
    25
100
AcDbLine
 10
0.1366676449
 20
0.1678934704
 30
0.0
 11
0.1367096232
 21
0.1678692337
 31
0.0
  0
LINE
  5
105
330
1F
100
AcDbEntity
  8
0
  6
Continuous
 62
     7
370
    25
100
AcDbLine
 10
0.1367341112
 20
0.1678757952
 30
0.0
 11
0.1367583488
 21
0.1679177745
 31
0.0
  0
LINE
  5
106
330
1F
100
AcDbEntity
  8
0
  6
Continuous
 62
     7
370
    25
100
AcDbLine
 10
0.1367306971
 20
0.1677834783
 30
0.0
 11
0.1366932844
 21
0.1678050782
 31
0.0
  0
LINE
  5
107
330
1F
100
AcDbEntity
  8
0
  6
Continuous
 62
     7
370
    25
100
AcDbLine
 10
0.1367354154
 20
0.1678780504
 30
0.0
 11
0.1367728256
 21
0.1678564504
 31
0.0
  0
LINE
  5
108
330
1F
100
AcDbEntity
  8
0
  6
Continuous
 62
     7
370
    25
100
AcDbLine
 10
0.1366857695
 20
0.1678331234
 30
0.0
 11
0.1367073702
 21
0.1678705357
 31
0.0
  0
ARC
  5
109
330
1F
100
AcDbEntity
  8
0
  6
Continuous
 62
     7
370
    25
100
AcDbCircle
 10
0.1367330553
 20
0.1678307643
 30
0.0
 40
0.00003861
100
AcDbArc
 50
94.0171175256
 51
115.9828824744
  0
LINE
  5
10A
330
1F
100
AcDbEntity
  8
0
  6
Continuous
 62
     7
370
    25
100
AcDbLine
 10
0.1367161392
 20
0.1678654718
 30
0.0
 11
0.1367096232
 21
0.1678692337
 31
0.0
  0
LINE
  5
10B
330
1F
100
AcDbEntity
  8
0
  6
Continuous
 62
     7
370
    25
100
AcDbLine
 10
0.1367341112
 20
0.1678757952
 30
0.0
 11
0.1367303513
 21
0.1678692795
 31
0.0
  0
ARC
  5
10C
330
1F
100
AcDbEntity
  8
0
  6
Continuous
 62
     7
370
    25
100
AcDbCircle
 10
0.1367330553
 20
0.1678307643
 30
0.0
 40
0.00003861
100
AcDbArc
 50
184.0171175256
 51
205.9828824744
  0
LINE
  5
10D
330
1F
100
AcDbEntity
  8
0
  6
Continuous
 62
     7
370
    25
100
AcDbLine
 10
0.1366880249
 20
0.1678318214
 30
0.0
 11
0.1366945409
 21
0.1678280596
 31
0.0
  0
LINE
  5
10E
330
1F
100
AcDbEntity
  8
0
  6
Continuous
 62
     7
370
    25
100
AcDbLine
 10
0.1366983484
 20
0.1678138492
 30
0.0
 11
0.1366945862
 21
0.1678073335
 31
0.0
  0
ARC
  5
10F
330
1F
100
AcDbEntity
  8
0
  6
Continuous
 62
     7
370
    25
100
AcDbCircle
 10
0.1367330553
 20
0.1678307643
 30
0.0
 40
0.00003861
100
AcDbArc
 50
205.9828824744
 51
274.0171175257
  0
ARC
  5
110
330
1F
100
AcDbEntity
  8
0
  6
Continuous
 62
     7
370
    25
100
AcDbCircle
 10
0.1367330553
 20
0.1678307643
 30
0.0
 40
0.00003861
100
AcDbArc
 50
115.9828824744
 51
184.0171175256
  0
ARC
  5
111
330
1F
100
AcDbEntity
  8
0
  6
Continuous
 62
     7
370
    25
100
AcDbCircle
 10
0.1367330553
 20
0.1678307643
 30
0.0
 40
0.00003861
100
AcDbArc
 50
25.9828824744
 51
94.0171175256
  0
ARC
  5
112
330
1F
100
AcDbEntity
  8
0
  6
Continuous
 62
     7
370
    25
100
AcDbCircle
 10
0.1367330553
 20
0.1678307643
 30
0.0
 40
0.00003861
100
AcDbArc
 50
295.9828824744
 51
4.0171175257
  0
LINE
  5
113
330
1F
100
AcDbEntity
  8
0
  6
Continuous
 62
     7
370
    25
100
AcDbLine
 10
0.1024280702
 20
0.1856664162
 30
0.0
 11
0.1024712705
 21
0.1856664162
 31
0.0
  0
LINE
  5
114
330
1F
100
AcDbEntity
  8
0
  6
Continuous
 62
     7
370
    25
100
AcDbLine
 10
0.1024280702
 20
0.1857122856
 30
0.0
 11
0.1024712705
 21
0.1857122856
 31
0.0
  0
LINE
  5
115
330
1F
100
AcDbEntity
  8
0
  6
Continuous
 62
     7
370
    25
100
AcDbLine
 10
0.102489196
 20
0.185645886
 30
0.0
 11
0.1024816727
 21
0.185645886
 31
0.0
  0
ARC
  5
116
330
1F
100
AcDbEntity
  8
0
  6
Continuous
 62
     7
370
    25
100
AcDbCircle
 10
0.1024496699
 20
0.1856242861
 30
0.0
 40
0.00003861
100
AcDbArc
 50
34.0171175257
 51
55.9828824744
  0
LINE
  5
117
330
1F
100
AcDbEntity
  8
0
  6
Continuous
 62
     7
370
    25
100
AcDbLine
 10
0.1024712705
 20
0.1856562894
 30
0.0
 11
0.1024712705
 21
0.1856638127
 31
0.0
  0
ARC
  5
118
330
1F
100
AcDbEntity
  8
0
  6
Continuous
 62
     7
370
    25
100
AcDbCircle
 10
0.1024496699
 20
0.1856242861
 30
0.0
 40
0.0000450432666988
100
AcDbArc
 50
28.6552932583
 51
61.3447067417
  0
LINE
  5
119
330
1F
100
AcDbEntity
  8
0
  6
Continuous
 62
     7
370
    25
100
AcDbLine
 10
0.1024176668
 20
0.185645886
 30
0.0
 11
0.1024101435
 21
0.185645886
 31
0.0
  0
ARC
  5
11A
330
1F
100
AcDbEntity
  8
0
  6
Continuous
 62
     7
370
    25
100
AcDbCircle
 10
0.1024496699
 20
0.1856242861
 30
0.0
 40
0.0000450432666988
100
AcDbArc
 50
118.6552932583
 51
151.3447067417
  0
LINE
  5
11B
330
1F
100
AcDbEntity
  8
0
  6
Continuous
 62
     7
370
    25
100
AcDbLine
 10
0.1024280702
 20
0.1856638127
 30
0.0
 11
0.1024280702
 21
0.1856562894
 31
0.0
  0
ARC
  5
11C
330
1F
100
AcDbEntity
  8
0
  6
Continuous
 62
     7
370
    25
100
AcDbCircle
 10
0.1024496699
 20
0.1856242861
 30
0.0
 40
0.00003861
100
AcDbArc
 50
124.0171175256
 51
145.9828824743
  0
LINE
  5
11D
330
1F
100
AcDbEntity
  8
0
  6
Continuous
 62
     7
370
    25
100
AcDbLine
 10
0.1023616694
 20
0.1856026857
 30
0.0
 11
0.1023616694
 21
0.185645886
 31
0.0
  0
ARC
  5
11E
330
1F
100
AcDbEntity
  8
0
  6
Continuous
 62
     7
370
    25
100
AcDbCircle
 10
0.1024496699
 20
0.1856242861
 30
0.0
 40
0.0000450432666988
100
AcDbArc
 50
208.6552932583
 51
241.3447067417
  0
LINE
  5
11F
330
1F
100
AcDbEntity
  8
0
  6
Continuous
 62
     7
370
    25
100
AcDbLine
 10
0.1024712705
 20
0.1855362862
 30
0.0
 11
0.1024280702
 21
0.1855362862
 31
0.0
  0
ARC
  5
120
330
1F
100
AcDbEntity
  8
0
  6
Continuous
 62
     7
370
    25
100
AcDbCircle
 10
0.1024496699
 20
0.1856242861
 30
0.0
 40
0.0000450432666988
100
AcDbArc
 50
298.6552932583
 51
331.3447067417
  0
LINE
  5
121
330
1F
100
AcDbEntity
  8
0
  6
Continuous
 62
     7
370
    25
100
AcDbLine
 10
0.10253767
 20
0.185645886
 30
0.0
 11
0.10253767
 21
0.1856026857
 31
0.0
  0
CIRCLE
  5
122
330
1F
100
AcDbEntity
  8
0
  6
Continuous
 62
     7
370
    25
100
AcDbCircle
 10
0.1024496699
 20
0.1856242861
 30
0.0
 40
0.000158
  0
LINE
  5
123
330
1F
100
AcDbEntity
  8
0
  6
Continuous
 62
     7
370
    25
100
AcDbLine
 10
0.1024712705
 20
0.1857122856
 30
0.0
 11
0.1024712705
 21
0.1856638127
 31
0.0
  0
LINE
  5
124
330
1F
100
AcDbEntity
  8
0
  6
Continuous
 62
     7
370
    25
100
AcDbLine
 10
0.1024712705
 20
0.1855847602
 30
0.0
 11
0.1024712705
 21
0.1855362862
 31
0.0
  0
LINE
  5
125
330
1F
100
AcDbEntity
  8
0
  6
Continuous
 62
     7
370
    25
100
AcDbLine
 10
0.10253767
 20
0.1856026857
 30
0.0
 11
0.102489196
 21
0.1856026857
 31
0.0
  0
LINE
  5
126
330
1F
100
AcDbEntity
  8
0
  6
Continuous
 62
     7
370
    25
100
AcDbLine
 10
0.1023616694
 20
0.185645886
 30
0.0
 11
0.1024101435
 21
0.185645886
 31
0.0
  0
LINE
  5
127
330
1F
100
AcDbEntity
  8
0
  6
Continuous
 62
     7
370
    25
100
AcDbLine
 10
0.1024280702
 20
0.1856638127
 30
0.0
 11
0.1024280702
 21
0.1857122856
 31
0.0
  0
LINE
  5
128
330
1F
100
AcDbEntity
  8
0
  6
Continuous
 62
     7
370
    25
100
AcDbLine
 10
0.102489196
 20
0.185645886
 30
0.0
 11
0.10253767
 21
0.185645886
 31
0.0
  0
LINE
  5
129
330
1F
100
AcDbEntity
  8
0
  6
Continuous
 62
     7
370
    25
100
AcDbLine
 10
0.1024280702
 20
0.1855362862
 30
0.0
 11
0.1024280702
 21
0.1855847602
 31
0.0
  0
LINE
  5
12A
330
1F
100
AcDbEntity
  8
0
  6
Continuous
 62
     7
370
    25
100
AcDbLine
 10
0.1024101435
 20
0.1856026857
 30
0.0
 11
0.1023616694
 21
0.1856026857
 31
0.0
  0
LINE
  5
12B
330
1F
100
AcDbEntity
  8
0
  6
Continuous
 62
     7
370
    25
100
AcDbLine
 10
0.1024918007
 20
0.185645886
 30
0.0
 11
0.1024918007
 21
0.1856026857
 31
0.0
  0
LINE
  5
12C
330
1F
100
AcDbEntity
  8
0
  6
Continuous
 62
     7
370
    25
100
AcDbLine
 10
0.1024075388
 20
0.1856026857
 30
0.0
 11
0.1024075388
 21
0.185645886
 31
0.0
  0
LINE
  5
12D
330
1F
100
AcDbEntity
  8
0
  6
Continuous
 62
     7
370
    25
100
AcDbLine
 10
0.1024712705
 20
0.1855821555
 30
0.0
 11
0.1024280702
 21
0.1855821555
 31
0.0
  0
ARC
  5
12E
330
1F
100
AcDbEntity
  8
0
  6
Continuous
 62
     7
370
    25
100
AcDbCircle
 10
0.1024496699
 20
0.1856242861
 30
0.0
 40
0.00003861
100
AcDbArc
 50
214.0171175256
 51
235.9828824744
  0
LINE
  5
12F
330
1F
100
AcDbEntity
  8
0
  6
Continuous
 62
     7
370
    25
100
AcDbLine
 10
0.1024280702
 20
0.1855922835
 30
0.0
 11
0.1024280702
 21
0.1855847602
 31
0.0
  0
LINE
  5
130
330
1F
100
AcDbEntity
  8
0
  6
Continuous
 62
     7
370
    25
100
AcDbLine
 10
0.1024101435
 20
0.1856026857
 30
0.0
 11
0.1024176668
 21
0.1856026857
 31
0.0
  0
ARC
  5
131
330
1F
100
AcDbEntity
  8
0
  6
Continuous
 62
     7
370
    25
100
AcDbCircle
 10
0.1024496699
 20
0.1856242861
 30
0.0
 40
0.00003861
100
AcDbArc
 50
304.0171175256
 51
325.9828824744
  0
LINE
  5
132
330
1F
100
AcDbEntity
  8
0
  6
Continuous
 62
     7
370
    25
100
AcDbLine
 10
0.1024712705
 20
0.1855847602
 30
0.0
 11
0.1024712705
 21
0.1855922835
 31
0.0
  0
LINE
  5
133
330
1F
100
AcDbEntity
  8
0
  6
Continuous
 62
     7
370
    25
100
AcDbLine
 10
0.1024816727
 20
0.1856026857
 30
0.0
 11
0.102489196
 21
0.1856026857
 31
0.0
  0
ARC
  5
134
330
1F
100
AcDbEntity
  8
0
  6
Continuous
 62
     7
370
    25
100
AcDbCircle
 10
0.1024496699
 20
0.1856242861
 30
0.0
 40
0.00003861
100
AcDbArc
 50
325.9828824744
 51
34.0171175257
  0
ARC
  5
135
330
1F
100
AcDbEntity
  8
0
  6
Continuous
 62
     7
370
    25
100
AcDbCircle
 10
0.1024496699
 20
0.1856242861
 30
0.0
 40
0.00003861
100
AcDbArc
 50
235.9828824744
 51
304.0171175256
  0
ARC
  5
136
330
1F
100
AcDbEntity
  8
0
  6
Continuous
 62
     7
370
    25
100
AcDbCircle
 10
0.1024496699
 20
0.1856242861
 30
0.0
 40
0.00003861
100
AcDbArc
 50
55.9828824744
 51
124.0171175256
  0
ARC
  5
137
330
1F
100
AcDbEntity
  8
0
  6
Continuous
 62
     7
370
    25
100
AcDbCircle
 10
0.1024496699
 20
0.1856242861
 30
0.0
 40
0.00003861
100
AcDbArc
 50
145.9828824743
 51
214.0171175256
  0
LINE
  5
138
330
1F
100
AcDbEntity
  8
0
  6
Continuous
 62
     7
370
    25
100
AcDbLine
 10
0.09212929
 20
0.1658331235
 30
0.0
 11
0.0921508883
 21
0.1658705357
 31
0.0
  0
LINE
  5
139
330
1F
100
AcDbEntity
  8
0
  6
Continuous
 62
     7
370
    25
100
AcDbLine
 10
0.0920895647
 20
0.1658560582
 30
0.0
 11
0.0921111654
 21
0.1658934705
 31
0.0
  0
LINE
  5
13A
330
1F
100
AcDbEntity
  8
0
  6
Continuous
 62
     7
370
    25
100
AcDbLine
 10
0.0921776318
 20
0.1658757952
 30
0.0
 11
0.0921738695
 21
0.1658692795
 31
0.0
  0
ARC
  5
13B
330
1F
100
AcDbEntity
  8
0
  6
Continuous
 62
     7
370
    25
100
AcDbCircle
 10
0.0921765753
 20
0.1658307643
 30
0.0
 40
0.00003861
100
AcDbArc
 50
94.0171175256
 51
115.9828824744
  0
LINE
  5
13C
330
1F
100
AcDbEntity
  8
0
  6
Continuous
 62
     7
370
    25
100
AcDbLine
 10
0.0921596598
 20
0.1658654718
 30
0.0
 11
0.0921531438
 21
0.1658692337
 31
0.0
  0
ARC
  5
13D
330
1F
100
AcDbEntity
  8
0
  6
Continuous
 62
     7
370
    25
100
AcDbCircle
 10
0.0921765753
 20
0.1658307643
 30
0.0
 40
0.0000450432666988
100
AcDbArc
 50
88.6552932583
 51
121.3447067417
  0
LINE
  5
13E
330
1F
100
AcDbEntity
  8
0
  6
Continuous
 62
     7
370
    25
100
AcDbLine
 10
0.092141869
 20
0.1658138492
 30
0.0
 11
0.0921381067
 21
0.1658073334
 31
0.0
  0
ARC
  5
13F
330
1F
100
AcDbEntity
  8
0
  6
Continuous
 62
     7
370
    25
100
AcDbCircle
 10
0.0921765753
 20
0.1658307643
 30
0.0
 40
0.0000450432666988
100
AcDbArc
 50
178.6552932583
 51
211.3447067417
  0
LINE
  5
140
330
1F
100
AcDbEntity
  8
0
  6
Continuous
 62
     7
370
    25
100
AcDbLine
 10
0.0921315454
 20
0.1658318214
 30
0.0
 11
0.092138059
 21
0.1658280595
 31
0.0
  0
ARC
  5
141
330
1F
100
AcDbEntity
  8
0
  6
Continuous
 62
     7
370
    25
100
AcDbCircle
 10
0.0921765753
 20
0.1658307643
 30
0.0
 40
0.00003861
100
AcDbArc
 50
184.0171175256
 51
205.9828824744
  0
LINE
  5
142
330
1F
100
AcDbEntity
  8
0
  6
Continuous
 62
     7
370
    25
100
AcDbLine
 10
0.0921315454
 20
0.1658318214
 30
0.0
 11
0.0920895647
 21
0.1658560582
 31
0.0
  0
LINE
  5
143
330
1F
100
AcDbEntity
  8
0
  6
Continuous
 62
     7
370
    25
100
AcDbLine
 10
0.0921138691
 20
0.1657653541
 30
0.0
 11
0.0921381067
 21
0.1658073334
 31
0.0
  0
LINE
  5
144
330
1F
100
AcDbEntity
  8
0
  6
Continuous
 62
     7
370
    25
100
AcDbLine
 10
0.0921512817
 20
0.1657437541
 30
0.0
 11
0.0921138691
 21
0.1657653541
 31
0.0
  0
ARC
  5
145
330
1F
100
AcDbEntity
  8
0
  6
Continuous
 62
     7
370
    25
100
AcDbCircle
 10
0.0921765753
 20
0.1658307643
 30
0.0
 40
0.0000450432666988
100
AcDbArc
 50
268.6552932583
 51
301.3447067417
  0
LINE
  5
146
330
1F
100
AcDbEntity
  8
0
  6
Continuous
 62
     7
370
    25
100
AcDbLine
 10
0.0922635864
 20
0.1658054705
 30
0.0
 11
0.0922419857
 21
0.1657680582
 31
0.0
  0
LINE
  5
147
330
1F
100
AcDbEntity
  8
0
  6
Continuous
 62
     7
370
    25
100
AcDbLine
 10
0.0922216057
 20
0.1658297073
 30
0.0
 11
0.0922635864
 21
0.1658054705
 31
0.0
  0
ARC
  5
148
330
1F
100
AcDbEntity
  8
0
  6
Continuous
 62
     7
370
    25
100
AcDbCircle
 10
0.0921765753
 20
0.1658307643
 30
0.0
 40
0.0000450432666988
100
AcDbArc
 50
358.6552932583
 51
31.3447067417
  0
LINE
  5
149
330
1F
100
AcDbEntity
  8
0
  6
Continuous
 62
     7
370
    25
100
AcDbLine
 10
0.092239282
 20
0.1658961746
 30
0.0
 11
0.0922150444
 21
0.1658541952
 31
0.0
  0
LINE
  5
14A
330
1F
100
AcDbEntity
  8
0
  6
Continuous
 62
     7
370
    25
100
AcDbLine
 10
0.0922018694
 20
0.1659177746
 30
0.0
 11
0.092239282
 21
0.1658961746
 31
0.0
  0
LINE
  5
14B
330
1F
100
AcDbEntity
  8
0
  6
Continuous
 62
     7
370
    25
100
AcDbLine
 10
0.0921776318
 20
0.1658757952
 30
0.0
 11
0.0922018694
 21
0.1659177746
 31
0.0
  0
CIRCLE
  5
14C
330
1F
100
AcDbEntity
  8
0
  6
Continuous
 62
     7
370
    25
100
AcDbCircle
 10
0.0921765753
 20
0.1658307643
 30
0.0
 40
0.000158
  0
LINE
  5
14D
330
1F
100
AcDbEntity
  8
0
  6
Continuous
 62
     7
370
    25
100
AcDbLine
 10
0.0921111654
 20
0.1658934705
 30
0.0
 11
0.0921531438
 21
0.1658692337
 31
0.0
  0
LINE
  5
14E
330
1F
100
AcDbEntity
  8
0
  6
Continuous
 62
     7
370
    25
100
AcDbLine
 10
0.0922419857
 20
0.1657680582
 30
0.0
 11
0.0922000073
 21
0.165792295
 31
0.0
  0
LINE
  5
14F
330
1F
100
AcDbEntity
  8
0
  6
Continuous
 62
     7
370
    25
100
AcDbLine
 10
0.0921755194
 20
0.1657857335
 30
0.0
 11
0.0921512817
 21
0.1657437541
 31
0.0
  0
LINE
  5
150
330
1F
100
AcDbEntity
  8
0
  6
Continuous
 62
     7
370
    25
100
AcDbLine
 10
0.0921789335
 20
0.1658780504
 30
0.0
 11
0.0922163462
 21
0.1658564504
 31
0.0
  0
LINE
  5
151
330
1F
100
AcDbEntity
  8
0
  6
Continuous
 62
     7
370
    25
100
AcDbLine
 10
0.0922238611
 20
0.1658284052
 30
0.0
 11
0.0922022604
 21
0.165790993
 31
0.0
  0
LINE
  5
152
330
1F
100
AcDbEntity
  8
0
  6
Continuous
 62
     7
370
    25
100
AcDbLine
 10
0.0921742152
 20
0.1657834782
 30
0.0
 11
0.092136805
 21
0.1658050782
 31
0.0
  0
ARC
  5
153
330
1F
100
AcDbEntity
  8
0
  6
Continuous
 62
     7
370
    25
100
AcDbCircle
 10
0.0921765753
 20
0.1658307643
 30
0.0
 40
0.00003861
100
AcDbArc
 50
274.0171175256
 51
295.9828824744
  0
LINE
  5
154
330
1F
100
AcDbEntity
  8
0
  6
Continuous
 62
     7
370
    25
100
AcDbLine
 10
0.0921934914
 20
0.1657960568
 30
0.0
 11
0.0922000073
 21
0.165792295
 31
0.0
  0
LINE
  5
155
330
1F
100
AcDbEntity
  8
0
  6
Continuous
 62
     7
370
    25
100
AcDbLine
 10
0.0921755194
 20
0.1657857335
 30
0.0
 11
0.0921792792
 21
0.1657922492
 31
0.0
  0
ARC
  5
156
330
1F
100
AcDbEntity
  8
0
  6
Continuous
 62
     7
370
    25
100
AcDbCircle
 10
0.0921765753
 20
0.1658307643
 30
0.0
 40
0.00003861
100
AcDbArc
 50
4.0171175257
 51
25.9828824744
  0
LINE
  5
157
330
1F
100
AcDbEntity
  8
0
  6
Continuous
 62
     7
370
    25
100
AcDbLine
 10
0.0922216057
 20
0.1658297073
 30
0.0
 11
0.0922150897
 21
0.1658334691
 31
0.0
  0
LINE
  5
158
330
1F
100
AcDbEntity
  8
0
  6
Continuous
 62
     7
370
    25
100
AcDbLine
 10
0.0922112822
 20
0.1658476794
 30
0.0
 11
0.0922150444
 21
0.1658541952
 31
0.0
  0
ARC
  5
159
330
1F
100
AcDbEntity
  8
0
  6
Continuous
 62
     7
370
    25
100
AcDbCircle
 10
0.0921765753
 20
0.1658307643
 30
0.0
 40
0.00003861
100
AcDbArc
 50
25.9828824744
 51
94.0171175256
  0
ARC
  5
15A
330
1F
100
AcDbEntity
  8
0
  6
Continuous
 62
     7
370
    25
100
AcDbCircle
 10
0.0921765753
 20
0.1658307643
 30
0.0
 40
0.00003861
100
AcDbArc
 50
295.9828824744
 51
4.0171175257
  0
ARC
  5
15B
330
1F
100
AcDbEntity
  8
0
  6
Continuous
 62
     7
370
    25
100
AcDbCircle
 10
0.0921765753
 20
0.1658307643
 30
0.0
 40
0.00003861
100
AcDbArc
 50
115.9828824744
 51
184.0171175256
  0
ARC
  5
15C
330
1F
100
AcDbEntity
  8
0
  6
Continuous
 62
     7
370
    25
100
AcDbCircle
 10
0.0921765753
 20
0.1658307643
 30
0.0
 40
0.00003861
100
AcDbArc
 50
205.9828824744
 51
274.0171175256
  0
LINE
  5
15D
330
1F
100
AcDbEntity
  8
0
  6
Continuous
 62
     7
370
    25
100
AcDbLine
 10
0.0921373319
 20
0.16780428
 30
0.0
 11
0.0921321629
 21
0.1678471698
 31
0.0
  0
LINE
  5
15E
330
1F
100
AcDbEntity
  8
0
  6
Continuous
 62
     7
370
    25
100
AcDbLine
 10
0.0920917915
 20
0.1677987932
 30
0.0
 11
0.0920866226
 21
0.1678416831
 31
0.0
  0
LINE
  5
15F
330
1F
100
AcDbEntity
  8
0
  6
Continuous
 62
     7
370
    25
100
AcDbLine
 10
0.092150402
 20
0.1678674232
 30
0.0
 11
0.0921513032
 21
0.1678599536
 31
0.0
  0
ARC
  5
160
330
1F
100
AcDbEntity
  8
0
  6
Continuous
 62
     7
370
    25
100
AcDbCircle
 10
0.0921765753
 20
0.1678307643
 30
0.0
 40
0.00003861
100
AcDbArc
 50
130.8870151715
 51
152.8527801202
  0
LINE
  5
161
330
1F
100
AcDbEntity
  8
0
  6
Continuous
 62
     7
370
    25
100
AcDbLine
 10
0.0921422194
 20
0.1678483812
 30
0.0
 11
0.0921347498
 21
0.1678474813
 31
0.0
  0
ARC
  5
162
330
1F
100
AcDbEntity
  8
0
  6
Continuous
 62
     7
370
    25
100
AcDbCircle
 10
0.0921765753
 20
0.1678307643
 30
0.0
 40
0.0000450432666988
100
AcDbArc
 50
125.5251909041
 51
158.2146043876
  0
LINE
  5
163
330
1F
100
AcDbEntity
  8
0
  6
Continuous
 62
     7
370
    25
100
AcDbLine
 10
0.0921589588
 20
0.1677964077
 30
0.0
 11
0.0921598576
 21
0.1677889381
 31
0.0
  0
ARC
  5
164
330
1F
100
AcDbEntity
  8
0
  6
Continuous
 62
     7
370
    25
100
AcDbCircle
 10
0.0921765753
 20
0.1678307643
 30
0.0
 40
0.0000450432666988
100
AcDbArc
 50
215.5251909041
 51
248.2146043876
  0
LINE
  5
165
330
1F
100
AcDbEntity
  8
0
  6
Continuous
 62
     7
370
    25
100
AcDbLine
 10
0.0921399163
 20
0.1678045914
 30
0.0
 11
0.092147386
 21
0.1678054914
 31
0.0
  0
ARC
  5
166
330
1F
100
AcDbEntity
  8
0
  6
Continuous
 62
     7
370
    25
100
AcDbCircle
 10
0.0921765753
 20
0.1678307643
 30
0.0
 40
0.00003861
100
AcDbArc
 50
220.8870151715
 51
242.8527801202
  0
LINE
  5
167
330
1F
100
AcDbEntity
  8
0
  6
Continuous
 62
     7
370
    25
100
AcDbLine
 10
0.092165656
 20
0.1677408124
 30
0.0
 11
0.0921598576
 21
0.1677889381
 31
0.0
  0
LINE
  5
168
330
1F
100
AcDbEntity
  8
0
  6
Continuous
 62
     7
370
    25
100
AcDbLine
 10
0.0922085475
 20
0.1677459799
 30
0.0
 11
0.092165656
 21
0.1677408124
 31
0.0
  0
ARC
  5
169
330
1F
100
AcDbEntity
  8
0
  6
Continuous
 62
     7
370
    25
100
AcDbCircle
 10
0.0921765753
 20
0.1678307643
 30
0.0
 40
0.0000450432666988
100
AcDbArc
 50
305.5251909041
 51
338.2146043876
  0
LINE
  5
16A
330
1F
100
AcDbEntity
  8
0
  6
Continuous
 62
     7
370
    25
100
AcDbLine
 10
0.0922613596
 20
0.1678627354
 30
0.0
 11
0.0922665261
 21
0.1678198455
 31
0.0
  0
LINE
  5
16B
330
1F
100
AcDbEntity
  8
0
  6
Continuous
 62
     7
370
    25
100
AcDbLine
 10
0.0922132348
 20
0.1678569372
 30
0.0
 11
0.0922613596
 21
0.1678627354
 31
0.0
  0
ARC
  5
16C
330
1F
100
AcDbEntity
  8
0
  6
Continuous
 62
     7
370
    25
100
AcDbCircle
 10
0.0921765753
 20
0.1678307643
 30
0.0
 40
0.0000450432666988
100
AcDbArc
 50
35.5251909041
 51
68.2146043876
  0
LINE
  5
16D
330
1F
100
AcDbEntity
  8
0
  6
Continuous
 62
     7
370
    25
100
AcDbLine
 10
0.0921874951
 20
0.1679207162
 30
0.0
 11
0.0921932911
 21
0.1678725906
 31
0.0
  0
LINE
  5
16E
330
1F
100
AcDbEntity
  8
0
  6
Continuous
 62
     7
370
    25
100
AcDbLine
 10
0.0921446036
 20
0.1679155488
 30
0.0
 11
0.0921874951
 21
0.1679207162
 31
0.0
  0
CIRCLE
  5
16F
330
1F
100
AcDbEntity
  8
0
  6
Continuous
 62
     7
370
    25
100
AcDbCircle
 10
0.0921765753
 20
0.1678307643
 30
0.0
 40
0.000158
  0
LINE
  5
170
330
1F
100
AcDbEntity
  8
0
  6
Continuous
 62
     7
370
    25
100
AcDbLine
 10
0.0921399163
 20
0.1678045914
 30
0.0
 11
0.0920917915
 21
0.1677987932
 31
0.0
  0
LINE
  5
171
330
1F
100
AcDbEntity
  8
0
  6
Continuous
 62
     7
370
    25
100
AcDbLine
 10
0.0920866226
 20
0.1678416831
 30
0.0
 11
0.0921347498
 21
0.1678474813
 31
0.0
  0
LINE
  5
172
330
1F
100
AcDbEntity
  8
0
  6
Continuous
 62
     7
370
    25
100
AcDbLine
 10
0.092150402
 20
0.1678674232
 30
0.0
 11
0.0921446036
 21
0.1679155488
 31
0.0
  0
LINE
  5
173
330
1F
100
AcDbEntity
  8
0
  6
Continuous
 62
     7
370
    25
100
AcDbLine
 10
0.0922665261
 20
0.1678198455
 30
0.0
 11
0.0922184013
 21
0.1678140474
 31
0.0
  0
LINE
  5
174
330
1F
100
AcDbEntity
  8
0
  6
Continuous
 62
     7
370
    25
100
AcDbLine
 10
0.0922027492
 20
0.1677941054
 30
0.0
 11
0.0922085475
 21
0.1677459799
 31
0.0
  0
LINE
  5
175
330
1F
100
AcDbEntity
  8
0
  6
Continuous
 62
     7
370
    25
100
AcDbLine
 10
0.092150092
 20
0.1678700086
 30
0.0
 11
0.0921929811
 21
0.1678751761
 31
0.0
  0
LINE
  5
176
330
1F
100
AcDbEntity
  8
0
  6
Continuous
 62
     7
370
    25
100
AcDbLine
 10
0.0922158193
 20
0.1678572487
 30
0.0
 11
0.0922209882
 21
0.1678143588
 31
0.0
  0
ARC
  5
177
330
1F
100
AcDbEntity
  8
0
  6
Continuous
 62
     7
370
    25
100
AcDbCircle
 10
0.0921765753
 20
0.1678307643
 30
0.0
 40
0.00003861
100
AcDbArc
 50
310.8870151715
 51
332.8527801202
  0
LINE
  5
178
330
1F
100
AcDbEntity
  8
0
  6
Continuous
 62
     7
370
    25
100
AcDbLine
 10
0.0922109317
 20
0.1678131474
 30
0.0
 11
0.0922184013
 21
0.1678140474
 31
0.0
  0
LINE
  5
179
330
1F
100
AcDbEntity
  8
0
  6
Continuous
 62
     7
370
    25
100
AcDbLine
 10
0.0922027492
 20
0.1677941054
 30
0.0
 11
0.0922018479
 21
0.1678015751
 31
0.0
  0
LINE
  5
17A
330
1F
100
AcDbEntity
  8
0
  6
Continuous
 62
     7
370
    25
100
AcDbLine
 10
0.0922030591
 20
0.16779152
 30
0.0
 11
0.09216017
 21
0.1677863526
 31
0.0
  0
ARC
  5
17B
330
1F
100
AcDbEntity
  8
0
  6
Continuous
 62
     7
370
    25
100
AcDbCircle
 10
0.0921765753
 20
0.1678307643
 30
0.0
 40
0.00003861
100
AcDbArc
 50
40.8870151715
 51
62.8527801202
  0
LINE
  5
17C
330
1F
100
AcDbEntity
  8
0
  6
Continuous
 62
     7
370
    25
100
AcDbLine
 10
0.0922132348
 20
0.1678569372
 30
0.0
 11
0.0922057651
 21
0.1678560372
 31
0.0
  0
LINE
  5
17D
330
1F
100
AcDbEntity
  8
0
  6
Continuous
 62
     7
370
    25
100
AcDbLine
 10
0.0921941923
 20
0.1678651209
 30
0.0
 11
0.0921932911
 21
0.1678725906
 31
0.0
  0
ARC
  5
17E
330
1F
100
AcDbEntity
  8
0
  6
Continuous
 62
     7
370
    25
100
AcDbCircle
 10
0.0921765753
 20
0.1678307643
 30
0.0
 40
0.00003861
100
AcDbArc
 50
152.8527801202
 51
220.8870151715
  0
ARC
  5
17F
330
1F
100
AcDbEntity
  8
0
  6
Continuous
 62
     7
370
    25
100
AcDbCircle
 10
0.0921765753
 20
0.1678307643
 30
0.0
 40
0.00003861
100
AcDbArc
 50
62.8527801202
 51
130.8870151715
  0
ARC
  5
180
330
1F
100
AcDbEntity
  8
0
  6
Continuous
 62
     7
370
    25
100
AcDbCircle
 10
0.0921765753
 20
0.1678307643
 30
0.0
 40
0.00003861
100
AcDbArc
 50
242.8527801202
 51
310.8870151715
  0
ARC
  5
181
330
1F
100
AcDbEntity
  8
0
  6
Continuous
 62
     7
370
    25
100
AcDbCircle
 10
0.0921765753
 20
0.1678307643
 30
0.0
 40
0.00003861
100
AcDbArc
 50
332.8527801202
 51
40.8870151715
  0
LINE
  5
182
330
1F
100
AcDbEntity
  8
0
  6
Continuous
 62
     7
370
    25
100
AcDbLine
 10
0.1041560351
 20
0.1469974714
 30
0.0
 11
0.1041344344
 21
0.147034884
 31
0.0
  0
LINE
  5
183
330
1F
100
AcDbEntity
  8
0
  6
Continuous
 62
     7
370
    25
100
AcDbLine
 10
0.104116311
 20
0.1469745367
 30
0.0
 11
0.1040947102
 21
0.1470119481
 31
0.0
  0
LINE
  5
184
330
1F
100
AcDbEntity
  8
0
  6
Continuous
 62
     7
370
    25
100
AcDbLine
 10
0.1041432511
 20
0.1470606738
 30
0.0
 11
0.1041470133
 21
0.1470541578
 31
0.0
  0
ARC
  5
185
330
1F
100
AcDbEntity
  8
0
  6
Continuous
 62
     7
370
    25
100
AcDbCircle
 10
0.1041817207
 20
0.1470372425
 30
0.0
 40
0.00003861
100
AcDbArc
 50
154.0171175256
 51
175.9828824743
  0
LINE
  5
186
330
1F
100
AcDbEntity
  8
0
  6
Continuous
 62
     7
370
    25
100
AcDbLine
 10
0.1041432058
 20
0.1470399468
 30
0.0
 11
0.1041366898
 21
0.1470361858
 31
0.0
  0
ARC
  5
187
330
1F
100
AcDbEntity
  8
0
  6
Continuous
 62
     7
370
    25
100
AcDbCircle
 10
0.1041817207
 20
0.1470372425
 30
0.0
 40
0.0000450432666988
100
AcDbArc
 50
148.6552932583
 51
181.3447067417
  0
LINE
  5
188
330
1F
100
AcDbEntity
  8
0
  6
Continuous
 62
     7
370
    25
100
AcDbLine
 10
0.1041790163
 20
0.1469987278
 30
0.0
 11
0.1041827773
 21
0.1469922119
 31
0.0
  0
ARC
  5
189
330
1F
100
AcDbEntity
  8
0
  6
Continuous
 62
     7
370
    25
100
AcDbCircle
 10
0.1041817207
 20
0.1470372425
 30
0.0
 40
0.0000450432666988
100
AcDbArc
 50
238.6552932583
 51
271.3447067417
  0
LINE
  5
18A
330
1F
100
AcDbEntity
  8
0
  6
Continuous
 62
     7
370
    25
100
AcDbLine
 10
0.1041582893
 20
0.1469987731
 30
0.0
 11
0.1041648053
 21
0.1470025354
 31
0.0
  0
ARC
  5
18B
330
1F
100
AcDbEntity
  8
0
  6
Continuous
 62
     7
370
    25
100
AcDbCircle
 10
0.1041817207
 20
0.1470372425
 30
0.0
 40
0.00003861
100
AcDbArc
 50
244.0171175256
 51
265.9828824744
  0
LINE
  5
18C
330
1F
100
AcDbEntity
  8
0
  6
Continuous
 62
     7
370
    25
100
AcDbLine
 10
0.1042070149
 20
0.1469502323
 30
0.0
 11
0.1041827773
 21
0.1469922119
 31
0.0
  0
LINE
  5
18D
330
1F
100
AcDbEntity
  8
0
  6
Continuous
 62
     7
370
    25
100
AcDbLine
 10
0.1042444264
 20
0.1469718318
 30
0.0
 11
0.1042070149
 21
0.1469502323
 31
0.0
  0
ARC
  5
18E
330
1F
100
AcDbEntity
  8
0
  6
Continuous
 62
     7
370
    25
100
AcDbCircle
 10
0.1041817207
 20
0.1470372425
 30
0.0
 40
0.0000450432666988
100
AcDbArc
 50
328.6552932583
 51
1.3447067417
  0
LINE
  5
18F
330
1F
100
AcDbEntity
  8
0
  6
Continuous
 62
     7
370
    25
100
AcDbLine
 10
0.1042471312
 20
0.1470999484
 30
0.0
 11
0.1042687308
 21
0.1470625358
 31
0.0
  0
LINE
  5
190
330
1F
100
AcDbEntity
  8
0
  6
Continuous
 62
     7
370
    25
100
AcDbLine
 10
0.1042051517
 20
0.147075712
 30
0.0
 11
0.1042471312
 21
0.1470999484
 31
0.0
  0
ARC
  5
191
330
1F
100
AcDbEntity
  8
0
  6
Continuous
 62
     7
370
    25
100
AcDbCircle
 10
0.1041817207
 20
0.1470372425
 30
0.0
 40
0.0000450432666988
100
AcDbArc
 50
58.6552932583
 51
91.3447067417
  0
LINE
  5
192
330
1F
100
AcDbEntity
  8
0
  6
Continuous
 62
     7
370
    25
100
AcDbLine
 10
0.1041564273
 20
0.1471242528
 30
0.0
 11
0.1041806637
 21
0.1470822733
 31
0.0
  0
LINE
  5
193
330
1F
100
AcDbEntity
  8
0
  6
Continuous
 62
     7
370
    25
100
AcDbLine
 10
0.1041190146
 20
0.1471026533
 30
0.0
 11
0.1041564273
 21
0.1471242528
 31
0.0
  0
CIRCLE
  5
194
330
1F
100
AcDbEntity
  8
0
  6
Continuous
 62
     7
370
    25
100
AcDbCircle
 10
0.1041817207
 20
0.1470372425
 30
0.0
 40
0.000158
  0
LINE
  5
195
330
1F
100
AcDbEntity
  8
0
  6
Continuous
 62
     7
370
    25
100
AcDbLine
 10
0.1041582893
 20
0.1469987731
 30
0.0
 11
0.104116311
 21
0.1469745367
 31
0.0
  0
LINE
  5
196
330
1F
100
AcDbEntity
  8
0
  6
Continuous
 62
     7
370
    25
100
AcDbLine
 10
0.1040947102
 20
0.1470119481
 30
0.0
 11
0.1041366898
 21
0.1470361858
 31
0.0
  0
LINE
  5
197
330
1F
100
AcDbEntity
  8
0
  6
Continuous
 62
     7
370
    25
100
AcDbLine
 10
0.1041432511
 20
0.1470606738
 30
0.0
 11
0.1041190146
 21
0.1471026533
 31
0.0
  0
LINE
  5
198
330
1F
100
AcDbEntity
  8
0
  6
Continuous
 62
     7
370
    25
100
AcDbLine
 10
0.1042687308
 20
0.1470625358
 30
0.0
 11
0.1042267512
 21
0.1470382994
 31
0.0
  0
LINE
  5
199
330
1F
100
AcDbEntity
  8
0
  6
Continuous
 62
     7
370
    25
100
AcDbLine
 10
0.1042201899
 20
0.1470138114
 30
0.0
 11
0.1042444264
 21
0.1469718318
 31
0.0
  0
LINE
  5
19A
330
1F
100
AcDbEntity
  8
0
  6
Continuous
 62
     7
370
    25
100
AcDbLine
 10
0.1041419493
 20
0.1470629292
 30
0.0
 11
0.104179362
 21
0.1470845287
 31
0.0
  0
LINE
  5
19B
330
1F
100
AcDbEntity
  8
0
  6
Continuous
 62
     7
370
    25
100
AcDbLine
 10
0.1042074071
 20
0.1470770138
 30
0.0
 11
0.1042290067
 21
0.1470396011
 31
0.0
  0
ARC
  5
19C
330
1F
100
AcDbEntity
  8
0
  6
Continuous
 62
     7
370
    25
100
AcDbCircle
 10
0.1041817207
 20
0.1470372425
 30
0.0
 40
0.00003861
100
AcDbArc
 50
334.0171175256
 51
355.9828824744
  0
LINE
  5
19D
330
1F
100
AcDbEntity
  8
0
  6
Continuous
 62
     7
370
    25
100
AcDbLine
 10
0.1042202352
 20
0.1470345383
 30
0.0
 11
0.1042267512
 21
0.1470382994
 31
0.0
  0
LINE
  5
19E
330
1F
100
AcDbEntity
  8
0
  6
Continuous
 62
     7
370
    25
100
AcDbLine
 10
0.1042201899
 20
0.1470138114
 30
0.0
 11
0.1042164277
 21
0.1470203274
 31
0.0
  0
LINE
  5
19F
330
1F
100
AcDbEntity
  8
0
  6
Continuous
 62
     7
370
    25
100
AcDbLine
 10
0.104184426
 20
0.1470757573
 30
0.0
 11
0.1041806637
 21
0.1470822733
 31
0.0
  0
LINE
  5
1A0
330
1F
100
AcDbEntity
  8
0
  6
Continuous
 62
     7
370
    25
100
AcDbLine
 10
0.1042051517
 20
0.147075712
 30
0.0
 11
0.1041986357
 21
0.1470719498
 31
0.0
  0
ARC
  5
1A1
330
1F
100
AcDbEntity
  8
0
  6
Continuous
 62
     7
370
    25
100
AcDbCircle
 10
0.1041817207
 20
0.1470372425
 30
0.0
 40
0.00003861
100
AcDbArc
 50
64.0171175256
 51
85.9828824744
  0
LINE
  5
1A2
330
1F
100
AcDbEntity
  8
0
  6
Continuous
 62
     7
370
    25
100
AcDbLine
 10
0.1042214917
 20
0.1470115559
 30
0.0
 11
0.1041840803
 21
0.1469899564
 31
0.0
  0
ARC
  5
1A3
330
1F
100
AcDbEntity
  8
0
  6
Continuous
 62
     7
370
    25
100
AcDbCircle
 10
0.1041817207
 20
0.1470372425
 30
0.0
 40
0.00003861
100
AcDbArc
 50
85.9828824744
 51
154.0171175256
  0
ARC
  5
1A4
330
1F
100
AcDbEntity
  8
0
  6
Continuous
 62
     7
370
    25
100
AcDbCircle
 10
0.1041817207
 20
0.1470372425
 30
0.0
 40
0.00003861
100
AcDbArc
 50
175.9828824743
 51
244.0171175256
  0
ARC
  5
1A5
330
1F
100
AcDbEntity
  8
0
  6
Continuous
 62
     7
370
    25
100
AcDbCircle
 10
0.1041817207
 20
0.1470372425
 30
0.0
 40
0.00003861
100
AcDbArc
 50
355.9828824744
 51
64.0171175256
  0
ARC
  5
1A6
330
1F
100
AcDbEntity
  8
0
  6
Continuous
 62
     7
370
    25
100
AcDbCircle
 10
0.1041817207
 20
0.1470372425
 30
0.0
 40
0.00003861
100
AcDbArc
 50
265.9828824744
 51
334.0171175256
  0
LINE
  5
1A7
330
1F
100
AcDbEntity
  8
0
  6
Continuous
 62
     7
370
    25
100
AcDbLine
 10
0.1247676813
 20
0.1865985995
 30
0.0
 11
0.1247302686
 21
0.1865769999
 31
0.0
  0
LINE
  5
1A8
330
1F
100
AcDbEntity
  8
0
  6
Continuous
 62
     7
370
    25
100
AcDbLine
 10
0.1247906159
 20
0.1865588754
 30
0.0
 11
0.1247532033
 21
0.1865372758
 31
0.0
  0
LINE
  5
1A9
330
1F
100
AcDbEntity
  8
0
  6
Continuous
 62
     7
370
    25
100
AcDbLine
 10
0.1247022234
 20
0.1865845149
 30
0.0
 11
0.1246806239
 21
0.1866219275
 31
0.0
  0
LINE
  5
1AA
330
1F
100
AcDbEntity
  8
0
  6
Continuous
 62
     7
370
    25
100
AcDbLine
 10
0.1246624993
 20
0.1865615802
 30
0.0
 11
0.1246408998
 21
0.1865989929
 31
0.0
  0
LINE
  5
1AB
330
1F
100
AcDbEntity
  8
0
  6
Continuous
 62
     7
370
    25
100
AcDbLine
 10
0.1247663795
 20
0.1866008549
 30
0.0
 11
0.1247626172
 21
0.1866073709
 31
0.0
  0
ARC
  5
1AC
330
1F
100
AcDbEntity
  8
0
  6
Continuous
 62
     7
370
    25
100
AcDbCircle
 10
0.1247279099
 20
0.1866242861
 30
0.0
 40
0.00003861
100
AcDbArc
 50
334.0171175256
 51
355.9828824743
  0
LINE
  5
1AD
330
1F
100
AcDbEntity
  8
0
  6
Continuous
 62
     7
370
    25
100
AcDbLine
 10
0.1247664248
 20
0.1866215818
 30
0.0
 11
0.1247729408
 21
0.1866253429
 31
0.0
  0
ARC
  5
1AE
330
1F
100
AcDbEntity
  8
0
  6
Continuous
 62
     7
370
    25
100
AcDbCircle
 10
0.1247279099
 20
0.1866242861
 30
0.0
 40
0.0000450432666988
100
AcDbArc
 50
328.6552932583
 51
1.3447067417
  0
LINE
  5
1AF
330
1F
100
AcDbEntity
  8
0
  6
Continuous
 62
     7
370
    25
100
AcDbLine
 10
0.1246894406
 20
0.1866477173
 30
0.0
 11
0.1246932029
 21
0.1866412013
 31
0.0
  0
ARC
  5
1B0
330
1F
100
AcDbEntity
  8
0
  6
Continuous
 62
     7
370
    25
100
AcDbCircle
 10
0.1247279099
 20
0.1866242861
 30
0.0
 40
0.00003861
100
AcDbArc
 50
154.0171175256
 51
175.9828824744
  0
LINE
  5
1B1
330
1F
100
AcDbEntity
  8
0
  6
Continuous
 62
     7
370
    25
100
AcDbLine
 10
0.1246893953
 20
0.1866269904
 30
0.0
 11
0.1246828793
 21
0.1866232293
 31
0.0
  0
ARC
  5
1B2
330
1F
100
AcDbEntity
  8
0
  6
Continuous
 62
     7
370
    25
100
AcDbCircle
 10
0.1247279099
 20
0.1866242861
 30
0.0
 40
0.0000450432666988
100
AcDbArc
 50
148.6552932583
 51
181.3447067417
  0
LINE
  5
1B3
330
1F
100
AcDbEntity
  8
0
  6
Continuous
 62
     7
370
    25
100
AcDbLine
 10
0.1247306143
 20
0.1866628008
 30
0.0
 11
0.1247268533
 21
0.1866693168
 31
0.0
  0
ARC
  5
1B4
330
1F
100
AcDbEntity
  8
0
  6
Continuous
 62
     7
370
    25
100
AcDbCircle
 10
0.1247279099
 20
0.1866242861
 30
0.0
 40
0.0000450432666988
100
AcDbArc
 50
58.6552932583
 51
91.3447067417
  0
LINE
  5
1B5
330
1F
100
AcDbEntity
  8
0
  6
Continuous
 62
     7
370
    25
100
AcDbLine
 10
0.1247513412
 20
0.1866627555
 30
0.0
 11
0.1247448253
 21
0.1866589933
 31
0.0
  0
ARC
  5
1B6
330
1F
100
AcDbEntity
  8
0
  6
Continuous
 62
     7
370
    25
100
AcDbCircle
 10
0.1247279099
 20
0.1866242861
 30
0.0
 40
0.00003861
100
AcDbArc
 50
64.0171175256
 51
85.9828824744
  0
LINE
  5
1B7
330
1F
100
AcDbEntity
  8
0
  6
Continuous
 62
     7
370
    25
100
AcDbLine
 10
0.1247252046
 20
0.1865857714
 30
0.0
 11
0.1247289669
 21
0.1865792554
 31
0.0
  0
ARC
  5
1B8
330
1F
100
AcDbEntity
  8
0
  6
Continuous
 62
     7
370
    25
100
AcDbCircle
 10
0.1247279099
 20
0.1866242861
 30
0.0
 40
0.0000450432666988
100
AcDbArc
 50
238.6552932583
 51
271.3447067417
  0
LINE
  5
1B9
330
1F
100
AcDbEntity
  8
0
  6
Continuous
 62
     7
370
    25
100
AcDbLine
 10
0.1247044789
 20
0.1865858167
 30
0.0
 11
0.1247109949
 21
0.1865895789
 31
0.0
  0
ARC
  5
1BA
330
1F
100
AcDbEntity
  8
0
  6
Continuous
 62
     7
370
    25
100
AcDbCircle
 10
0.1247279099
 20
0.1866242861
 30
0.0
 40
0.00003861
100
AcDbArc
 50
244.0171175256
 51
265.9828824744
  0
LINE
  5
1BB
330
1F
100
AcDbEntity
  8
0
  6
Continuous
 62
     7
370
    25
100
AcDbLine
 10
0.1247933196
 20
0.186686992
 30
0.0
 11
0.1248149203
 21
0.1866495805
 31
0.0
  0
LINE
  5
1BC
330
1F
100
AcDbEntity
  8
0
  6
Continuous
 62
     7
370
    25
100
AcDbLine
 10
0.1247026156
 20
0.1867112964
 30
0.0
 11
0.1247268533
 21
0.1866693168
 31
0.0
  0
LINE
  5
1BD
330
1F
100
AcDbEntity
  8
0
  6
Continuous
 62
     7
370
    25
100
AcDbLine
 10
0.1246652042
 20
0.1866896968
 30
0.0
 11
0.1247026156
 21
0.1867112964
 31
0.0
  0
LINE
  5
1BE
330
1F
100
AcDbEntity
  8
0
  6
Continuous
 62
     7
370
    25
100
AcDbLine
 10
0.1247044789
 20
0.1865858167
 30
0.0
 11
0.1246624993
 21
0.1865615802
 31
0.0
  0
LINE
  5
1BF
330
1F
100
AcDbEntity
  8
0
  6
Continuous
 62
     7
370
    25
100
AcDbLine
 10
0.1247532033
 20
0.1865372758
 30
0.0
 11
0.1247289669
 21
0.1865792554
 31
0.0
  0
LINE
  5
1C0
330
1F
100
AcDbEntity
  8
0
  6
Continuous
 62
     7
370
    25
100
AcDbLine
 10
0.1247513412
 20
0.1866627555
 30
0.0
 11
0.1247933196
 21
0.186686992
 31
0.0
  0
LINE
  5
1C1
330
1F
100
AcDbEntity
  8
0
  6
Continuous
 62
     7
370
    25
100
AcDbLine
 10
0.1248149203
 20
0.1866495805
 30
0.0
 11
0.1247729408
 21
0.1866253429
 31
0.0
  0
LINE
  5
1C2
330
1F
100
AcDbEntity
  8
0
  6
Continuous
 62
     7
370
    25
100
AcDbLine
 10
0.1247663795
 20
0.1866008549
 30
0.0
 11
0.1247906159
 21
0.1865588754
 31
0.0
  0
LINE
  5
1C3
330
1F
100
AcDbEntity
  8
0
  6
Continuous
 62
     7
370
    25
100
AcDbLine
 10
0.1246408998
 20
0.1865989929
 30
0.0
 11
0.1246828793
 21
0.1866232293
 31
0.0
  0
LINE
  5
1C4
330
1F
100
AcDbEntity
  8
0
  6
Continuous
 62
     7
370
    25
100
AcDbLine
 10
0.1246894406
 20
0.1866477173
 30
0.0
 11
0.1246652042
 21
0.1866896968
 31
0.0
  0
CIRCLE
  5
1C5
330
1F
100
AcDbEntity
  8
0
  6
Continuous
 62
     7
370
    25
100
AcDbCircle
 10
0.1247279099
 20
0.1866242861
 30
0.0
 40
0.000158
  0
LINE
  5
1C6
330
1F
100
AcDbEntity
  8
0
  6
Continuous
 62
     7
370
    25
100
AcDbLine
 10
0.1247535955
 20
0.1866640573
 30
0.0
 11
0.1247751962
 21
0.1866266446
 31
0.0
  0
LINE
  5
1C7
330
1F
100
AcDbEntity
  8
0
  6
Continuous
 62
     7
370
    25
100
AcDbLine
 10
0.1246881389
 20
0.1866499727
 30
0.0
 11
0.1247255503
 21
0.1866715722
 31
0.0
  0
ARC
  5
1C8
330
1F
100
AcDbEntity
  8
0
  6
Continuous
 62
     7
370
    25
100
AcDbCircle
 10
0.1247279099
 20
0.1866242861
 30
0.0
 40
0.00003861
100
AcDbArc
 50
265.9828824744
 51
334.0171175256
  0
ARC
  5
1C9
330
1F
100
AcDbEntity
  8
0
  6
Continuous
 62
     7
370
    25
100
AcDbCircle
 10
0.1247279099
 20
0.1866242861
 30
0.0
 40
0.00003861
100
AcDbArc
 50
175.9828824744
 51
244.0171175256
  0
ARC
  5
1CA
330
1F
100
AcDbEntity
  8
0
  6
Continuous
 62
     7
370
    25
100
AcDbCircle
 10
0.1247279099
 20
0.1866242861
 30
0.0
 40
0.00003861
100
AcDbArc
 50
85.9828824744
 51
154.0171175256
  0
ARC
  5
1CB
330
1F
100
AcDbEntity
  8
0
  6
Continuous
 62
     7
370
    25
100
AcDbCircle
 10
0.1247279099
 20
0.1866242861
 30
0.0
 40
0.00003861
100
AcDbArc
 50
355.9828824743
 51
64.0171175256
  0
LINE
  5
1CC
330
1F
100
AcDbEntity
  8
0
  6
Continuous
 62
     7
370
    25
100
AcDbLine
 10
0.1264746653
 20
0.185713697
 30
0.0
 11
0.126514393
 21
0.1856967276
 31
0.0
  0
LINE
  5
1CD
330
1F
100
AcDbEntity
  8
0
  6
Continuous
 62
     7
370
    25
100
AcDbLine
 10
0.126455624
 20
0.1856691199
 30
0.0
 11
0.1264746653
 21
0.185713697
 31
0.0
  0
ARC
  5
1CE
330
1F
100
AcDbEntity
  8
0
  6
Continuous
 62
     7
370
    25
100
AcDbCircle
 10
0.1264599607
 20
0.1856242861
 30
0.0
 40
0.0000450432666988
100
AcDbArc
 50
95.5251909041
 51
128.2146043876
  0
LINE
  5
1CF
330
1F
100
AcDbEntity
  8
0
  6
Continuous
 62
     7
370
    25
100
AcDbLine
 10
0.1263705491
 20
0.1856389909
 30
0.0
 11
0.1263875197
 21
0.1856787174
 31
0.0
  0
ARC
  5
1D0
330
1F
100
AcDbEntity
  8
0
  6
Continuous
 62
     7
370
    25
100
AcDbCircle
 10
0.1264599607
 20
0.1856242861
 30
0.0
 40
0.0000450432666988
100
AcDbArc
 50
185.5251909041
 51
218.2146043875
  0
LINE
  5
1D1
330
1F
100
AcDbEntity
  8
0
  6
Continuous
 62
     7
370
    25
100
AcDbLine
 10
0.1264452564
 20
0.1855348747
 30
0.0
 11
0.1264055287
 21
0.1855518453
 31
0.0
  0
LINE
  5
1D2
330
1F
100
AcDbEntity
  8
0
  6
Continuous
 62
     7
370
    25
100
AcDbLine
 10
0.1264642977
 20
0.1855794518
 30
0.0
 11
0.1264452564
 21
0.1855348747
 31
0.0
  0
ARC
  5
1D3
330
1F
100
AcDbEntity
  8
0
  6
Continuous
 62
     7
370
    25
100
AcDbCircle
 10
0.1264599607
 20
0.1856242861
 30
0.0
 40
0.0000450432666988
100
AcDbArc
 50
275.5251909041
 51
308.2146043876
  0
LINE
  5
1D4
330
1F
100
AcDbEntity
  8
0
  6
Continuous
 62
     7
370
    25
100
AcDbLine
 10
0.1265324019
 20
0.1855698543
 30
0.0
 11
0.1264878248
 21
0.1855888956
 31
0.0
  0
LINE
  5
1D5
330
1F
100
AcDbEntity
  8
0
  6
Continuous
 62
     7
370
    25
100
AcDbLine
 10
0.1265493714
 20
0.185609582
 30
0.0
 11
0.1265324019
 21
0.1855698543
 31
0.0
  0
LINE
  5
1D6
330
1F
100
AcDbEntity
  8
0
  6
Continuous
 62
     7
370
    25
100
AcDbLine
 10
0.1265047943
 20
0.1856286233
 30
0.0
 11
0.1265493714
 21
0.185609582
 31
0.0
  0
ARC
  5
1D7
330
1F
100
AcDbEntity
  8
0
  6
Continuous
 62
     7
370
    25
100
AcDbCircle
 10
0.1264599607
 20
0.1856242861
 30
0.0
 40
0.0000450432666988
100
AcDbArc
 50
5.5251909041
 51
38.2146043876
  0
CIRCLE
  5
1D8
330
1F
100
AcDbEntity
  8
0
  6
Continuous
 62
     7
370
    25
100
AcDbCircle
 10
0.1264599607
 20
0.1856242861
 30
0.0
 40
0.000158
  0
LINE
  5
1D9
330
1F
100
AcDbEntity
  8
0
  6
Continuous
 62
     7
370
    25
100
AcDbLine
 10
0.126514393
 20
0.1856967276
 30
0.0
 11
0.1264953517
 21
0.1856521504
 31
0.0
  0
LINE
  5
1DA
330
1F
100
AcDbEntity
  8
0
  6
Continuous
 62
     7
370
    25
100
AcDbLine
 10
0.1264055287
 20
0.1855518453
 30
0.0
 11
0.12642457
 21
0.1855964225
 31
0.0
  0
LINE
  5
1DB
330
1F
100
AcDbEntity
  8
0
  6
Continuous
 62
     7
370
    25
100
AcDbLine
 10
0.1264151262
 20
0.1856199496
 30
0.0
 11
0.1263705491
 21
0.1856389909
 31
0.0
  0
LINE
  5
1DC
330
1F
100
AcDbEntity
  8
0
  6
Continuous
 62
     7
370
    25
100
AcDbLine
 10
0.1263875197
 20
0.1856787174
 30
0.0
 11
0.1264320969
 21
0.1856596761
 31
0.0
  0
LINE
  5
1DD
330
1F
100
AcDbEntity
  8
0
  6
Continuous
 62
     7
370
    25
100
AcDbLine
 10
0.1264127325
 20
0.1856209724
 30
0.0
 11
0.1264297019
 21
0.1856607001
 31
0.0
  0
LINE
  5
1DE
330
1F
100
AcDbEntity
  8
0
  6
Continuous
 62
     7
370
    25
100
AcDbLine
 10
0.1264566468
 20
0.1856715148
 30
0.0
 11
0.1264963745
 21
0.1856545453
 31
0.0
  0
LINE
  5
1DF
330
1F
100
AcDbEntity
  8
0
  6
Continuous
 62
     7
370
    25
100
AcDbLine
 10
0.126455624
 20
0.1856691199
 30
0.0
 11
0.1264526688
 21
0.185662201
 31
0.0
  0
ARC
  5
1E0
330
1F
100
AcDbEntity
  8
0
  6
Continuous
 62
     7
370
    25
100
AcDbCircle
 10
0.1264599607
 20
0.1856242861
 30
0.0
 40
0.00003861
100
AcDbArc
 50
100.8870151715
 51
122.8527801202
  0
LINE
  5
1E1
330
1F
100
AcDbEntity
  8
0
  6
Continuous
 62
     7
370
    25
100
AcDbLine
 10
0.1264390158
 20
0.1856567209
 30
0.0
 11
0.1264320969
 21
0.1856596761
 31
0.0
  0
LINE
  5
1E2
330
1F
100
AcDbEntity
  8
0
  6
Continuous
 62
     7
370
    25
100
AcDbLine
 10
0.1264809059
 20
0.1855918508
 30
0.0
 11
0.1264878248
 21
0.1855888956
 31
0.0
  0
LINE
  5
1E3
330
1F
100
AcDbEntity
  8
0
  6
Continuous
 62
     7
370
    25
100
AcDbLine
 10
0.1264642977
 20
0.1855794518
 30
0.0
 11
0.1264672529
 21
0.1855863707
 31
0.0
  0
ARC
  5
1E4
330
1F
100
AcDbEntity
  8
0
  6
Continuous
 62
     7
370
    25
100
AcDbCircle
 10
0.1264599607
 20
0.1856242861
 30
0.0
 40
0.00003861
100
AcDbArc
 50
280.8870151715
 51
302.8527801202
  0
LINE
  5
1E5
330
1F
100
AcDbEntity
  8
0
  6
Continuous
 62
     7
370
    25
100
AcDbLine
 10
0.1265047943
 20
0.1856286233
 30
0.0
 11
0.1264978754
 21
0.1856315785
 31
0.0
  0
ARC
  5
1E6
330
1F
100
AcDbEntity
  8
0
  6
Continuous
 62
     7
370
    25
100
AcDbCircle
 10
0.1264599607
 20
0.1856242861
 30
0.0
 40
0.00003861
100
AcDbArc
 50
10.8870151715
 51
32.8527801202
  0
LINE
  5
1E7
330
1F
100
AcDbEntity
  8
0
  6
Continuous
 62
     7
370
    25
100
AcDbLine
 10
0.1264923953
 20
0.1856452315
 30
0.0
 11
0.1264953517
 21
0.1856521504
 31
0.0
  0
LINE
  5
1E8
330
1F
100
AcDbEntity
  8
0
  6
Continuous
 62
     7
370
    25
100
AcDbLine
 10
0.1265071892
 20
0.1856276005
 30
0.0
 11
0.1264902197
 21
0.1855878728
 31
0.0
  0
LINE
  5
1E9
330
1F
100
AcDbEntity
  8
0
  6
Continuous
 62
     7
370
    25
100
AcDbLine
 10
0.1264632749
 20
0.1855770569
 30
0.0
 11
0.1264235472
 21
0.1855940276
 31
0.0
  0
ARC
  5
1EA
330
1F
100
AcDbEntity
  8
0
  6
Continuous
 62
     7
370
    25
100
AcDbCircle
 10
0.1264599607
 20
0.1856242861
 30
0.0
 40
0.00003861
100
AcDbArc
 50
190.8870151714
 51
212.8527801202
  0
LINE
  5
1EB
330
1F
100
AcDbEntity
  8
0
  6
Continuous
 62
     7
370
    25
100
AcDbLine
 10
0.1264275252
 20
0.1856033414
 30
0.0
 11
0.12642457
 21
0.1855964225
 31
0.0
  0
LINE
  5
1EC
330
1F
100
AcDbEntity
  8
0
  6
Continuous
 62
     7
370
    25
100
AcDbLine
 10
0.1264151262
 20
0.1856199496
 30
0.0
 11
0.1264220451
 21
0.1856169932
 31
0.0
  0
ARC
  5
1ED
330
1F
100
AcDbEntity
  8
0
  6
Continuous
 62
     7
370
    25
100
AcDbCircle
 10
0.1264599607
 20
0.1856242861
 30
0.0
 40
0.00003861
100
AcDbArc
 50
32.8527801202
 51
100.8870151715
  0
ARC
  5
1EE
330
1F
100
AcDbEntity
  8
0
  6
Continuous
 62
     7
370
    25
100
AcDbCircle
 10
0.1264599607
 20
0.1856242861
 30
0.0
 40
0.00003861
100
AcDbArc
 50
122.8527801202
 51
190.8870151714
  0
ARC
  5
1EF
330
1F
100
AcDbEntity
  8
0
  6
Continuous
 62
     7
370
    25
100
AcDbCircle
 10
0.1264599607
 20
0.1856242861
 30
0.0
 40
0.00003861
100
AcDbArc
 50
302.8527801202
 51
10.8870151715
  0
ARC
  5
1F0
330
1F
100
AcDbEntity
  8
0
  6
Continuous
 62
     7
370
    25
100
AcDbCircle
 10
0.1264599607
 20
0.1856242861
 30
0.0
 40
0.00003861
100
AcDbArc
 50
212.8527801202
 51
280.8870151715
  0
LINE
  5
1F1
330
1F
100
AcDbEntity
  8
0
  6
Continuous
 62
     7
370
    25
100
AcDbLine
 10
0.136817839
 20
0.1658627354
 30
0.0
 11
0.136823008
 21
0.1658198456
 31
0.0
  0
ARC
  5
1F2
330
1F
100
AcDbEntity
  8
0
  6
Continuous
 62
     7
370
    25
100
AcDbCircle
 10
0.1367330553
 20
0.1658307643
 30
0.0
 40
0.0000450432666988
100
AcDbArc
 50
35.5251909041
 51
68.2146043876
  0
LINE
  5
1F3
330
1F
100
AcDbEntity
  8
0
  6
Continuous
 62
     7
370
    25
100
AcDbLine
 10
0.1367010831
 20
0.1659155488
 30
0.0
 11
0.1367439746
 21
0.1659207162
 31
0.0
  0
ARC
  5
1F4
330
1F
100
AcDbEntity
  8
0
  6
Continuous
 62
     7
370
    25
100
AcDbCircle
 10
0.1367330553
 20
0.1658307643
 30
0.0
 40
0.0000450432666988
100
AcDbArc
 50
125.5251909042
 51
158.2146043876
  0
LINE
  5
1F5
330
1F
100
AcDbEntity
  8
0
  6
Continuous
 62
     7
370
    25
100
AcDbLine
 10
0.136648271
 20
0.1657987933
 30
0.0
 11
0.1366431045
 21
0.1658416831
 31
0.0
  0
ARC
  5
1F6
330
1F
100
AcDbEntity
  8
0
  6
Continuous
 62
     7
370
    25
100
AcDbCircle
 10
0.1367330553
 20
0.1658307643
 30
0.0
 40
0.0000450432666988
100
AcDbArc
 50
215.5251909041
 51
248.2146043876
  0
LINE
  5
1F7
330
1F
100
AcDbEntity
  8
0
  6
Continuous
 62
     7
370
    25
100
AcDbLine
 10
0.1367650269
 20
0.1657459798
 30
0.0
 11
0.1367221354
 21
0.1657408125
 31
0.0
  0
ARC
  5
1F8
330
1F
100
AcDbEntity
  8
0
  6
Continuous
 62
     7
370
    25
100
AcDbCircle
 10
0.1367330553
 20
0.1658307643
 30
0.0
 40
0.0000450432666988
100
AcDbArc
 50
305.5251909041
 51
338.2146043876
  0
CIRCLE
  5
1F9
330
1F
100
AcDbEntity
  8
0
  6
Continuous
 62
     7
370
    25
100
AcDbCircle
 10
0.1367330553
 20
0.1658307643
 30
0.0
 40
0.000158
  0
LINE
  5
1FA
330
1F
100
AcDbEntity
  8
0
  6
Continuous
 62
     7
370
    25
100
AcDbLine
 10
0.1367697143
 20
0.1658569372
 30
0.0
 11
0.136817839
 21
0.1658627354
 31
0.0
  0
LINE
  5
1FB
330
1F
100
AcDbEntity
  8
0
  6
Continuous
 62
     7
370
    25
100
AcDbLine
 10
0.136823008
 20
0.1658198456
 30
0.0
 11
0.1367748808
 21
0.1658140474
 31
0.0
  0
LINE
  5
1FC
330
1F
100
AcDbEntity
  8
0
  6
Continuous
 62
     7
370
    25
100
AcDbLine
 10
0.1366963958
 20
0.1658045915
 30
0.0
 11
0.136648271
 21
0.1657987933
 31
0.0
  0
LINE
  5
1FD
330
1F
100
AcDbEntity
  8
0
  6
Continuous
 62
     7
370
    25
100
AcDbLine
 10
0.1366431045
 20
0.1658416831
 30
0.0
 11
0.1366912292
 21
0.1658474813
 31
0.0
  0
LINE
  5
1FE
330
1F
100
AcDbEntity
  8
0
  6
Continuous
 62
     7
370
    25
100
AcDbLine
 10
0.1367068814
 20
0.1658674233
 30
0.0
 11
0.1367010831
 21
0.1659155488
 31
0.0
  0
LINE
  5
1FF
330
1F
100
AcDbEntity
  8
0
  6
Continuous
 62
     7
370
    25
100
AcDbLine
 10
0.1367221354
 20
0.1657408125
 30
0.0
 11
0.1367163395
 21
0.165788938
 31
0.0
  0
LINE
  5
200
330
1F
100
AcDbEntity
  8
0
  6
Continuous
 62
     7
370
    25
100
AcDbLine
 10
0.1367439746
 20
0.1659207162
 30
0.0
 11
0.1367497729
 21
0.1658725906
 31
0.0
  0
LINE
  5
201
330
1F
100
AcDbEntity
  8
0
  6
Continuous
 62
     7
370
    25
100
AcDbLine
 10
0.1367592286
 20
0.1657941054
 30
0.0
 11
0.1367650269
 21
0.1657459798
 31
0.0
  0
LINE
  5
202
330
1F
100
AcDbEntity
  8
0
  6
Continuous
 62
     7
370
    25
100
AcDbLine
 10
0.1367595385
 20
0.16579152
 30
0.0
 11
0.1367166494
 21
0.1657863526
 31
0.0
  0
LINE
  5
203
330
1F
100
AcDbEntity
  8
0
  6
Continuous
 62
     7
370
    25
100
AcDbLine
 10
0.1367065715
 20
0.1658700087
 30
0.0
 11
0.1367494606
 21
0.165875176
 31
0.0
  0
LINE
  5
204
330
1F
100
AcDbEntity
  8
0
  6
Continuous
 62
     7
370
    25
100
AcDbLine
 10
0.1366938113
 20
0.16580428
 30
0.0
 11
0.1366886424
 21
0.1658471698
 31
0.0
  0
LINE
  5
205
330
1F
100
AcDbEntity
  8
0
  6
Continuous
 62
     7
370
    25
100
AcDbLine
 10
0.1367722987
 20
0.1658572487
 30
0.0
 11
0.1367774676
 21
0.1658143589
 31
0.0
  0
ARC
  5
206
330
1F
100
AcDbEntity
  8
0
  6
Continuous
 62
     7
370
    25
100
AcDbCircle
 10
0.1367330553
 20
0.1658307643
 30
0.0
 40
0.00003861
100
AcDbArc
 50
310.8870151715
 51
332.8527801202
  0
LINE
  5
207
330
1F
100
AcDbEntity
  8
0
  6
Continuous
 62
     7
370
    25
100
AcDbLine
 10
0.1367674111
 20
0.1658131474
 30
0.0
 11
0.1367748808
 21
0.1658140474
 31
0.0
  0
LINE
  5
208
330
1F
100
AcDbEntity
  8
0
  6
Continuous
 62
     7
370
    25
100
AcDbLine
 10
0.1367592286
 20
0.1657941054
 30
0.0
 11
0.1367583274
 21
0.1658015751
 31
0.0
  0
ARC
  5
209
330
1F
100
AcDbEntity
  8
0
  6
Continuous
 62
     7
370
    25
100
AcDbCircle
 10
0.1367330553
 20
0.1658307643
 30
0.0
 40
0.00003861
100
AcDbArc
 50
40.8870151715
 51
62.8527801202
  0
LINE
  5
20A
330
1F
100
AcDbEntity
  8
0
  6
Continuous
 62
     7
370
    25
100
AcDbLine
 10
0.1367697143
 20
0.1658569372
 30
0.0
 11
0.1367622446
 21
0.1658560373
 31
0.0
  0
LINE
  5
20B
330
1F
100
AcDbEntity
  8
0
  6
Continuous
 62
     7
370
    25
100
AcDbLine
 10
0.1367506718
 20
0.165865121
 30
0.0
 11
0.1367497729
 21
0.1658725906
 31
0.0
  0
ARC
  5
20C
330
1F
100
AcDbEntity
  8
0
  6
Continuous
 62
     7
370
    25
100
AcDbCircle
 10
0.1367330553
 20
0.1658307643
 30
0.0
 40
0.00003861
100
AcDbArc
 50
130.8870151715
 51
152.8527801202
  0
LINE
  5
20D
330
1F
100
AcDbEntity
  8
0
  6
Continuous
 62
     7
370
    25
100
AcDbLine
 10
0.1366986989
 20
0.1658483812
 30
0.0
 11
0.1366912292
 21
0.1658474813
 31
0.0
  0
LINE
  5
20E
330
1F
100
AcDbEntity
  8
0
  6
Continuous
 62
     7
370
    25
100
AcDbLine
 10
0.1367068814
 20
0.1658674233
 30
0.0
 11
0.1367077826
 21
0.1658599535
 31
0.0
  0
ARC
  5
20F
330
1F
100
AcDbEntity
  8
0
  6
Continuous
 62
     7
370
    25
100
AcDbCircle
 10
0.1367330553
 20
0.1658307643
 30
0.0
 40
0.00003861
100
AcDbArc
 50
220.8870151715
 51
242.8527801202
  0
LINE
  5
210
330
1F
100
AcDbEntity
  8
0
  6
Continuous
 62
     7
370
    25
100
AcDbLine
 10
0.1366963958
 20
0.1658045915
 30
0.0
 11
0.1367038654
 21
0.1658054914
 31
0.0
  0
LINE
  5
211
330
1F
100
AcDbEntity
  8
0
  6
Continuous
 62
     7
370
    25
100
AcDbLine
 10
0.1367154383
 20
0.1657964078
 30
0.0
 11
0.1367163395
 21
0.165788938
 31
0.0
  0
ARC
  5
212
330
1F
100
AcDbEntity
  8
0
  6
Continuous
 62
     7
370
    25
100
AcDbCircle
 10
0.1367330553
 20
0.1658307643
 30
0.0
 40
0.00003861
100
AcDbArc
 50
62.8527801202
 51
130.8870151715
  0
ARC
  5
213
330
1F
100
AcDbEntity
  8
0
  6
Continuous
 62
     7
370
    25
100
AcDbCircle
 10
0.1367330553
 20
0.1658307643
 30
0.0
 40
0.00003861
100
AcDbArc
 50
332.8527801202
 51
40.8870151715
  0
ARC
  5
214
330
1F
100
AcDbEntity
  8
0
  6
Continuous
 62
     7
370
    25
100
AcDbCircle
 10
0.1367330553
 20
0.1658307643
 30
0.0
 40
0.00003861
100
AcDbArc
 50
242.8527801202
 51
310.8870151715
  0
ARC
  5
215
330
1F
100
AcDbEntity
  8
0
  6
Continuous
 62
     7
370
    25
100
AcDbCircle
 10
0.1367330553
 20
0.1658307643
 30
0.0
 40
0.00003861
100
AcDbArc
 50
152.8527801202
 51
220.8870151715
  0
LINE
  5
216
330
1F
100
AcDbEntity
  8
0
  6
Continuous
 62
     7
370
    25
100
AcDbLine
 10
0.1024349653
 20
0.1479478317
 30
0.0
 11
0.1023952376
 21
0.1479648011
 31
0.0
  0
ARC
  5
217
330
1F
100
AcDbEntity
  8
0
  6
Continuous
 62
     7
370
    25
100
AcDbCircle
 10
0.1024496699
 20
0.1480372425
 30
0.0
 40
0.0000450432666988
100
AcDbArc
 50
275.5251909041
 51
308.2146043875
  0
LINE
  5
218
330
1F
100
AcDbEntity
  8
0
  6
Continuous
 62
     7
370
    25
100
AcDbLine
 10
0.1025390815
 20
0.1480225377
 30
0.0
 11
0.1025221108
 21
0.1479828113
 31
0.0
  0
ARC
  5
219
330
1F
100
AcDbEntity
  8
0
  6
Continuous
 62
     7
370
    25
100
AcDbCircle
 10
0.1024496699
 20
0.1480372425
 30
0.0
 40
0.0000450432666988
100
AcDbArc
 50
5.5251909041
 51
38.2146043876
  0
LINE
  5
21A
330
1F
100
AcDbEntity
  8
0
  6
Continuous
 62
     7
370
    25
100
AcDbLine
 10
0.1024643742
 20
0.1481266539
 30
0.0
 11
0.1025041019
 21
0.1481096833
 31
0.0
  0
ARC
  5
21B
330
1F
100
AcDbEntity
  8
0
  6
Continuous
 62
     7
370
    25
100
AcDbCircle
 10
0.1024496699
 20
0.1480372425
 30
0.0
 40
0.0000450432666988
100
AcDbArc
 50
95.5251909041
 51
128.2146043875
  0
LINE
  5
21C
330
1F
100
AcDbEntity
  8
0
  6
Continuous
 62
     7
370
    25
100
AcDbLine
 10
0.1023602592
 20
0.1480519467
 30
0.0
 11
0.1023772286
 21
0.1480916744
 31
0.0
  0
ARC
  5
21D
330
1F
100
AcDbEntity
  8
0
  6
Continuous
 62
     7
370
    25
100
AcDbCircle
 10
0.1024496699
 20
0.1480372425
 30
0.0
 40
0.0000450432666988
100
AcDbArc
 50
185.5251909041
 51
218.2146043876
  0
CIRCLE
  5
21E
330
1F
100
AcDbEntity
  8
0
  6
Continuous
 62
     7
370
    25
100
AcDbCircle
 10
0.1024496699
 20
0.1480372425
 30
0.0
 40
0.000158
  0
LINE
  5
21F
330
1F
100
AcDbEntity
  8
0
  6
Continuous
 62
     7
370
    25
100
AcDbLine
 10
0.1024540066
 20
0.1479924088
 30
0.0
 11
0.1024349653
 21
0.1479478317
 31
0.0
  0
LINE
  5
220
330
1F
100
AcDbEntity
  8
0
  6
Continuous
 62
     7
370
    25
100
AcDbLine
 10
0.1023952376
 20
0.1479648011
 30
0.0
 11
0.1024142789
 21
0.1480093782
 31
0.0
  0
LINE
  5
221
330
1F
100
AcDbEntity
  8
0
  6
Continuous
 62
     7
370
    25
100
AcDbLine
 10
0.1024453329
 20
0.1480820768
 30
0.0
 11
0.1024643742
 21
0.1481266539
 31
0.0
  0
LINE
  5
222
330
1F
100
AcDbEntity
  8
0
  6
Continuous
 62
     7
370
    25
100
AcDbLine
 10
0.1025041019
 20
0.1481096833
 30
0.0
 11
0.1024850606
 21
0.1480651062
 31
0.0
  0
LINE
  5
223
330
1F
100
AcDbEntity
  8
0
  6
Continuous
 62
     7
370
    25
100
AcDbLine
 10
0.1024945044
 20
0.148041579
 30
0.0
 11
0.1025390815
 21
0.1480225377
 31
0.0
  0
LINE
  5
224
330
1F
100
AcDbEntity
  8
0
  6
Continuous
 62
     7
370
    25
100
AcDbLine
 10
0.1023772286
 20
0.1480916744
 30
0.0
 11
0.1024218058
 21
0.1480726331
 31
0.0
  0
LINE
  5
225
330
1F
100
AcDbEntity
  8
0
  6
Continuous
 62
     7
370
    25
100
AcDbLine
 10
0.1025221108
 20
0.1479828113
 30
0.0
 11
0.1024775337
 21
0.1480018525
 31
0.0
  0
LINE
  5
226
330
1F
100
AcDbEntity
  8
0
  6
Continuous
 62
     7
370
    25
100
AcDbLine
 10
0.1024048363
 20
0.1480329054
 30
0.0
 11
0.1023602592
 21
0.1480519467
 31
0.0
  0
LINE
  5
227
330
1F
100
AcDbEntity
  8
0
  6
Continuous
 62
     7
370
    25
100
AcDbLine
 10
0.1024024414
 20
0.1480339282
 30
0.0
 11
0.1024194108
 21
0.1480736559
 31
0.0
  0
LINE
  5
228
330
1F
100
AcDbEntity
  8
0
  6
Continuous
 62
     7
370
    25
100
AcDbLine
 10
0.1024968981
 20
0.1480405562
 30
0.0
 11
0.1024799286
 21
0.1480008285
 31
0.0
  0
LINE
  5
229
330
1F
100
AcDbEntity
  8
0
  6
Continuous
 62
     7
370
    25
100
AcDbLine
 10
0.1024463557
 20
0.1480844717
 30
0.0
 11
0.1024860834
 21
0.1480675011
 31
0.0
  0
LINE
  5
22A
330
1F
100
AcDbEntity
  8
0
  6
Continuous
 62
     7
370
    25
100
AcDbLine
 10
0.1024529838
 20
0.1479900139
 30
0.0
 11
0.1024132561
 21
0.1480069833
 31
0.0
  0
ARC
  5
22B
330
1F
100
AcDbEntity
  8
0
  6
Continuous
 62
     7
370
    25
100
AcDbCircle
 10
0.1024496699
 20
0.1480372425
 30
0.0
 40
0.00003861
100
AcDbArc
 50
190.8870151715
 51
212.8527801202
  0
LINE
  5
22C
330
1F
100
AcDbEntity
  8
0
  6
Continuous
 62
     7
370
    25
100
AcDbLine
 10
0.1024172353
 20
0.1480162971
 30
0.0
 11
0.1024142789
 21
0.1480093782
 31
0.0
  0
LINE
  5
22D
330
1F
100
AcDbEntity
  8
0
  6
Continuous
 62
     7
370
    25
100
AcDbLine
 10
0.1024048363
 20
0.1480329054
 30
0.0
 11
0.1024117552
 21
0.1480299502
 31
0.0
  0
ARC
  5
22E
330
1F
100
AcDbEntity
  8
0
  6
Continuous
 62
     7
370
    25
100
AcDbCircle
 10
0.1024496699
 20
0.1480372425
 30
0.0
 40
0.00003861
100
AcDbArc
 50
280.8870151715
 51
302.8527801202
  0
LINE
  5
22F
330
1F
100
AcDbEntity
  8
0
  6
Continuous
 62
     7
370
    25
100
AcDbLine
 10
0.1024540066
 20
0.1479924088
 30
0.0
 11
0.1024569618
 21
0.1479993277
 31
0.0
  0
LINE
  5
230
330
1F
100
AcDbEntity
  8
0
  6
Continuous
 62
     7
370
    25
100
AcDbLine
 10
0.1024706148
 20
0.1480048077
 30
0.0
 11
0.1024775337
 21
0.1480018525
 31
0.0
  0
ARC
  5
231
330
1F
100
AcDbEntity
  8
0
  6
Continuous
 62
     7
370
    25
100
AcDbCircle
 10
0.1024496699
 20
0.1480372425
 30
0.0
 40
0.00003861
100
AcDbArc
 50
10.8870151715
 51
32.8527801202
  0
LINE
  5
232
330
1F
100
AcDbEntity
  8
0
  6
Continuous
 62
     7
370
    25
100
AcDbLine
 10
0.1024821054
 20
0.1480581873
 30
0.0
 11
0.1024850606
 21
0.1480651062
 31
0.0
  0
LINE
  5
233
330
1F
100
AcDbEntity
  8
0
  6
Continuous
 62
     7
370
    25
100
AcDbLine
 10
0.1024945044
 20
0.148041579
 30
0.0
 11
0.1024875854
 21
0.1480445354
 31
0.0
  0
ARC
  5
234
330
1F
100
AcDbEntity
  8
0
  6
Continuous
 62
     7
370
    25
100
AcDbCircle
 10
0.1024496699
 20
0.1480372425
 30
0.0
 40
0.00003861
100
AcDbArc
 50
100.8870151715
 51
122.8527801202
  0
LINE
  5
235
330
1F
100
AcDbEntity
  8
0
  6
Continuous
 62
     7
370
    25
100
AcDbLine
 10
0.1024453329
 20
0.1480820768
 30
0.0
 11
0.1024423777
 21
0.1480751579
 31
0.0
  0
LINE
  5
236
330
1F
100
AcDbEntity
  8
0
  6
Continuous
 62
     7
370
    25
100
AcDbLine
 10
0.1024287247
 20
0.1480696779
 30
0.0
 11
0.1024218058
 21
0.1480726331
 31
0.0
  0
ARC
  5
237
330
1F
100
AcDbEntity
  8
0
  6
Continuous
 62
     7
370
    25
100
AcDbCircle
 10
0.1024496699
 20
0.1480372425
 30
0.0
 40
0.00003861
100
AcDbArc
 50
302.8527801202
 51
10.8870151715
  0
ARC
  5
238
330
1F
100
AcDbEntity
  8
0
  6
Continuous
 62
     7
370
    25
100
AcDbCircle
 10
0.1024496699
 20
0.1480372425
 30
0.0
 40
0.00003861
100
AcDbArc
 50
32.8527801202
 51
100.8870151715
  0
ARC
  5
239
330
1F
100
AcDbEntity
  8
0
  6
Continuous
 62
     7
370
    25
100
AcDbCircle
 10
0.1024496699
 20
0.1480372425
 30
0.0
 40
0.00003861
100
AcDbArc
 50
212.8527801202
 51
280.8870151715
  0
ARC
  5
23A
330
1F
100
AcDbEntity
  8
0
  6
Continuous
 62
     7
370
    25
100
AcDbCircle
 10
0.1024496699
 20
0.1480372425
 30
0.0
 40
0.00003861
100
AcDbArc
 50
122.8527801202
 51
190.8870151715
  0
LINE
  5
23B
330
1F
100
AcDbEntity
  8
0
  6
Continuous
 62
     7
370
    25
100
AcDbLine
 10
0.1033950089
 20
0.1839645033
 30
0.0
 11
0.1034346818
 21
0.1839815991
 31
0.0
  0
ARC
  5
23C
330
1F
100
AcDbEntity
  8
0
  6
Continuous
 62
     7
370
    25
100
AcDbCircle
 10
0.1034496699
 20
0.1838922353
 30
0.0
 40
0.0000450432666988
100
AcDbArc
 50
141.9670712932
 51
174.6564847766
  0
LINE
  5
23D
330
1F
100
AcDbEntity
  8
0
  6
Continuous
 62
     7
370
    25
100
AcDbLine
 10
0.1033774017
 20
0.183837574
 30
0.0
 11
0.1033603059
 21
0.1838772469
 31
0.0
  0
ARC
  5
23E
330
1F
100
AcDbEntity
  8
0
  6
Continuous
 62
     7
370
    25
100
AcDbCircle
 10
0.1034496699
 20
0.1838922353
 30
0.0
 40
0.0000450432666988
100
AcDbArc
 50
231.9670712932
 51
264.6564847766
  0
LINE
  5
23F
330
1F
100
AcDbEntity
  8
0
  6
Continuous
 62
     7
370
    25
100
AcDbLine
 10
0.103504331
 20
0.1838199668
 30
0.0
 11
0.1034646582
 21
0.183802871
 31
0.0
  0
ARC
  5
240
330
1F
100
AcDbEntity
  8
0
  6
Continuous
 62
     7
370
    25
100
AcDbCircle
 10
0.1034496699
 20
0.1838922353
 30
0.0
 40
0.0000450432666988
100
AcDbArc
 50
321.9670712932
 51
354.6564847766
  0
LINE
  5
241
330
1F
100
AcDbEntity
  8
0
  6
Continuous
 62
     7
370
    25
100
AcDbLine
 10
0.1035219382
 20
0.1839468961
 30
0.0
 11
0.103539034
 21
0.1839072233
 31
0.0
  0
ARC
  5
242
330
1F
100
AcDbEntity
  8
0
  6
Continuous
 62
     7
370
    25
100
AcDbCircle
 10
0.1034496699
 20
0.1838922353
 30
0.0
 40
0.0000450432666988
100
AcDbArc
 50
51.9670712931
 51
84.6564847766
  0
CIRCLE
  5
243
330
1F
100
AcDbEntity
  8
0
  6
Continuous
 62
     7
370
    25
100
AcDbCircle
 10
0.1034496699
 20
0.1838922353
 30
0.0
 40
0.000158
  0
LINE
  5
244
330
1F
100
AcDbEntity
  8
0
  6
Continuous
 62
     7
370
    25
100
AcDbLine
 10
0.1034141909
 20
0.183919987
 30
0.0
 11
0.1033950089
 21
0.1839645033
 31
0.0
  0
LINE
  5
245
330
1F
100
AcDbEntity
  8
0
  6
Continuous
 62
     7
370
    25
100
AcDbLine
 10
0.1034346818
 20
0.1839815991
 30
0.0
 11
0.103453865
 21
0.1839370828
 31
0.0
  0
LINE
  5
246
330
1F
100
AcDbEntity
  8
0
  6
Continuous
 62
     7
370
    25
100
AcDbLine
 10
0.103485149
 20
0.1838644832
 30
0.0
 11
0.103504331
 21
0.1838199668
 31
0.0
  0
LINE
  5
247
330
1F
100
AcDbEntity
  8
0
  6
Continuous
 62
     7
370
    25
100
AcDbLine
 10
0.1034646582
 20
0.183802871
 30
0.0
 11
0.103445475
 21
0.1838473874
 31
0.0
  0
LINE
  5
248
330
1F
100
AcDbEntity
  8
0
  6
Continuous
 62
     7
370
    25
100
AcDbLine
 10
0.1034219181
 20
0.1838567572
 30
0.0
 11
0.1033774017
 21
0.183837574
 31
0.0
  0
LINE
  5
249
330
1F
100
AcDbEntity
  8
0
  6
Continuous
 62
     7
370
    25
100
AcDbLine
 10
0.103539034
 20
0.1839072233
 30
0.0
 11
0.1034945177
 21
0.1838880401
 31
0.0
  0
LINE
  5
24A
330
1F
100
AcDbEntity
  8
0
  6
Continuous
 62
     7
370
    25
100
AcDbLine
 10
0.1033603059
 20
0.1838772469
 30
0.0
 11
0.1034048222
 21
0.1838964301
 31
0.0
  0
LINE
  5
24B
330
1F
100
AcDbEntity
  8
0
  6
Continuous
 62
     7
370
    25
100
AcDbLine
 10
0.1034774219
 20
0.1839277141
 30
0.0
 11
0.1035219382
 21
0.1839468961
 31
0.0
  0
LINE
  5
24C
330
1F
100
AcDbEntity
  8
0
  6
Continuous
 62
     7
370
    25
100
AcDbLine
 10
0.1034798132
 20
0.1839287441
 30
0.0
 11
0.103496909
 21
0.1838890713
 31
0.0
  0
LINE
  5
24D
330
1F
100
AcDbEntity
  8
0
  6
Continuous
 62
     7
370
    25
100
AcDbLine
 10
0.1034195267
 20
0.183855726
 30
0.0
 11
0.1034024309
 21
0.1838954001
 31
0.0
  0
LINE
  5
24E
330
1F
100
AcDbEntity
  8
0
  6
Continuous
 62
     7
370
    25
100
AcDbLine
 10
0.103486179
 20
0.1838620918
 30
0.0
 11
0.1034465062
 21
0.183844996
 31
0.0
  0
LINE
  5
24F
330
1F
100
AcDbEntity
  8
0
  6
Continuous
 62
     7
370
    25
100
AcDbLine
 10
0.1034131609
 20
0.1839223783
 30
0.0
 11
0.1034528338
 21
0.1839394741
 31
0.0
  0
ARC
  5
250
330
1F
100
AcDbEntity
  8
0
  6
Continuous
 62
     7
370
    25
100
AcDbCircle
 10
0.1034496699
 20
0.1838922353
 30
0.0
 40
0.00003861
100
AcDbArc
 50
57.3288955605
 51
79.2946605092
  0
LINE
  5
251
330
1F
100
AcDbEntity
  8
0
  6
Continuous
 62
     7
370
    25
100
AcDbLine
 10
0.1034568416
 20
0.1839301734
 30
0.0
 11
0.103453865
 21
0.1839370828
 31
0.0
  0
LINE
  5
252
330
1F
100
AcDbEntity
  8
0
  6
Continuous
 62
     7
370
    25
100
AcDbLine
 10
0.1034774219
 20
0.1839277141
 30
0.0
 11
0.1034705125
 21
0.1839247363
 31
0.0
  0
ARC
  5
253
330
1F
100
AcDbEntity
  8
0
  6
Continuous
 62
     7
370
    25
100
AcDbCircle
 10
0.1034496699
 20
0.1838922353
 30
0.0
 40
0.00003861
100
AcDbArc
 50
147.3288955605
 51
169.2946605092
  0
LINE
  5
254
330
1F
100
AcDbEntity
  8
0
  6
Continuous
 62
     7
370
    25
100
AcDbLine
 10
0.1034141909
 20
0.183919987
 30
0.0
 11
0.1034171688
 21
0.1839130776
 31
0.0
  0
LINE
  5
255
330
1F
100
AcDbEntity
  8
0
  6
Continuous
 62
     7
370
    25
100
AcDbLine
 10
0.1034117316
 20
0.1838994079
 30
0.0
 11
0.1034048222
 21
0.1838964301
 31
0.0
  0
ARC
  5
256
330
1F
100
AcDbEntity
  8
0
  6
Continuous
 62
     7
370
    25
100
AcDbCircle
 10
0.1034496699
 20
0.1838922353
 30
0.0
 40
0.00003861
100
AcDbArc
 50
237.3288955605
 51
259.2946605092
  0
LINE
  5
257
330
1F
100
AcDbEntity
  8
0
  6
Continuous
 62
     7
370
    25
100
AcDbLine
 10
0.1034424983
 20
0.1838542967
 30
0.0
 11
0.103445475
 21
0.1838473874
 31
0.0
  0
LINE
  5
258
330
1F
100
AcDbEntity
  8
0
  6
Continuous
 62
     7
370
    25
100
AcDbLine
 10
0.1034219181
 20
0.1838567572
 30
0.0
 11
0.1034288274
 21
0.1838597339
 31
0.0
  0
ARC
  5
259
330
1F
100
AcDbEntity
  8
0
  6
Continuous
 62
     7
370
    25
100
AcDbCircle
 10
0.1034496699
 20
0.1838922353
 30
0.0
 40
0.00003861
100
AcDbArc
 50
327.3288955605
 51
349.2946605092
  0
LINE
  5
25A
330
1F
100
AcDbEntity
  8
0
  6
Continuous
 62
     7
370
    25
100
AcDbLine
 10
0.103485149
 20
0.1838644832
 30
0.0
 11
0.1034821712
 21
0.1838713925
 31
0.0
  0
LINE
  5
25B
330
1F
100
AcDbEntity
  8
0
  6
Continuous
 62
     7
370
    25
100
AcDbLine
 10
0.1034876083
 20
0.1838850634
 30
0.0
 11
0.1034945177
 21
0.1838880401
 31
0.0
  0
ARC
  5
25C
330
1F
100
AcDbEntity
  8
0
  6
Continuous
 62
     7
370
    25
100
AcDbCircle
 10
0.1034496699
 20
0.1838922353
 30
0.0
 40
0.00003861
100
AcDbArc
 50
79.2946605092
 51
147.3288955605
  0
ARC
  5
25D
330
1F
100
AcDbEntity
  8
0
  6
Continuous
 62
     7
370
    25
100
AcDbCircle
 10
0.1034496699
 20
0.1838922353
 30
0.0
 40
0.00003861
100
AcDbArc
 50
349.2946605092
 51
57.3288955605
  0
ARC
  5
25E
330
1F
100
AcDbEntity
  8
0
  6
Continuous
 62
     7
370
    25
100
AcDbCircle
 10
0.1034496699
 20
0.1838922353
 30
0.0
 40
0.00003861
100
AcDbArc
 50
259.2946605092
 51
327.3288955605
  0
ARC
  5
25F
330
1F
100
AcDbEntity
  8
0
  6
Continuous
 62
     7
370
    25
100
AcDbCircle
 10
0.1034496699
 20
0.1838922353
 30
0.0
 40
0.00003861
100
AcDbArc
 50
169.2946605092
 51
237.3288955605
  0
LINE
  5
260
330
1F
100
AcDbEntity
  8
0
  6
Continuous
 62
     7
370
    25
100
AcDbLine
 10
0.1051439237
 20
0.1849745875
 30
0.0
 11
0.1051863496
 21
0.1849827295
 31
0.0
  0
ARC
  5
261
330
1F
100
AcDbEntity
  8
0
  6
Continuous
 62
     7
370
    25
100
AcDbCircle
 10
0.1051817207
 20
0.1848922353
 30
0.0
 40
0.0000450432666988
100
AcDbArc
 50
129.517919348
 51
162.2073328314
  0
LINE
  5
262
330
1F
100
AcDbEntity
  8
0
  6
Continuous
 62
     7
370
    25
100
AcDbLine
 10
0.105099368
 20
0.1848544388
 30
0.0
 11
0.1050912266
 21
0.1848968642
 31
0.0
  0
ARC
  5
263
330
1F
100
AcDbEntity
  8
0
  6
Continuous
 62
     7
370
    25
100
AcDbCircle
 10
0.1051817207
 20
0.1848922353
 30
0.0
 40
0.0000450432666988
100
AcDbArc
 50
219.517919348
 51
252.2073328314
  0
LINE
  5
264
330
1F
100
AcDbEntity
  8
0
  6
Continuous
 62
     7
370
    25
100
AcDbLine
 10
0.1052195178
 20
0.1848098832
 30
0.0
 11
0.1051770919
 21
0.1848017412
 31
0.0
  0
ARC
  5
265
330
1F
100
AcDbEntity
  8
0
  6
Continuous
 62
     7
370
    25
100
AcDbCircle
 10
0.1051817207
 20
0.1848922353
 30
0.0
 40
0.0000450432666988
100
AcDbArc
 50
309.517919348
 51
342.2073328314
  0
LINE
  5
266
330
1F
100
AcDbEntity
  8
0
  6
Continuous
 62
     7
370
    25
100
AcDbLine
 10
0.1052640735
 20
0.1849300318
 30
0.0
 11
0.1052722143
 21
0.1848876064
 31
0.0
  0
ARC
  5
267
330
1F
100
AcDbEntity
  8
0
  6
Continuous
 62
     7
370
    25
100
AcDbCircle
 10
0.1051817207
 20
0.1848922353
 30
0.0
 40
0.0000450432666988
100
AcDbArc
 50
39.517919348
 51
72.2073328314
  0
CIRCLE
  5
268
330
1F
100
AcDbEntity
  8
0
  6
Continuous
 62
     7
370
    25
100
AcDbCircle
 10
0.1051817207
 20
0.1848922353
 30
0.0
 40
0.000158
  0
LINE
  5
269
330
1F
100
AcDbEntity
  8
0
  6
Continuous
 62
     7
370
    25
100
AcDbLine
 10
0.1051530587
 20
0.1849269824
 30
0.0
 11
0.1051439237
 21
0.1849745875
 31
0.0
  0
LINE
  5
26A
330
1F
100
AcDbEntity
  8
0
  6
Continuous
 62
     7
370
    25
100
AcDbLine
 10
0.1051863496
 20
0.1849827295
 30
0.0
 11
0.1051954847
 21
0.1849351244
 31
0.0
  0
LINE
  5
26B
330
1F
100
AcDbEntity
  8
0
  6
Continuous
 62
     7
370
    25
100
AcDbLine
 10
0.1052103828
 20
0.1848574882
 30
0.0
 11
0.1052195178
 21
0.1848098832
 31
0.0
  0
LINE
  5
26C
330
1F
100
AcDbEntity
  8
0
  6
Continuous
 62
     7
370
    25
100
AcDbLine
 10
0.1051770919
 20
0.1848017412
 30
0.0
 11
0.1051679568
 21
0.1848493462
 31
0.0
  0
LINE
  5
26D
330
1F
100
AcDbEntity
  8
0
  6
Continuous
 62
     7
370
    25
100
AcDbLine
 10
0.105146973
 20
0.1848635738
 30
0.0
 11
0.105099368
 21
0.1848544388
 31
0.0
  0
LINE
  5
26E
330
1F
100
AcDbEntity
  8
0
  6
Continuous
 62
     7
370
    25
100
AcDbLine
 10
0.1052722143
 20
0.1848876064
 30
0.0
 11
0.1052246093
 21
0.1848784714
 31
0.0
  0
LINE
  5
26F
330
1F
100
AcDbEntity
  8
0
  6
Continuous
 62
     7
370
    25
100
AcDbLine
 10
0.1050912266
 20
0.1848968642
 30
0.0
 11
0.1051388316
 21
0.1849059992
 31
0.0
  0
LINE
  5
270
330
1F
100
AcDbEntity
  8
0
  6
Continuous
 62
     7
370
    25
100
AcDbLine
 10
0.1052164685
 20
0.1849208968
 30
0.0
 11
0.1052640735
 21
0.1849300318
 31
0.0
  0
LINE
  5
271
330
1F
100
AcDbEntity
  8
0
  6
Continuous
 62
     7
370
    25
100
AcDbLine
 10
0.1052190255
 20
0.1849213879
 30
0.0
 11
0.1052271669
 21
0.1848789626
 31
0.0
  0
LINE
  5
272
330
1F
100
AcDbEntity
  8
0
  6
Continuous
 62
     7
370
    25
100
AcDbLine
 10
0.105144416
 20
0.1848630827
 30
0.0
 11
0.1051362746
 21
0.1849055081
 31
0.0
  0
LINE
  5
273
330
1F
100
AcDbEntity
  8
0
  6
Continuous
 62
     7
370
    25
100
AcDbLine
 10
0.1052108734
 20
0.18485493
 30
0.0
 11
0.1051684474
 21
0.1848467892
 31
0.0
  0
LINE
  5
274
330
1F
100
AcDbEntity
  8
0
  6
Continuous
 62
     7
370
    25
100
AcDbLine
 10
0.1051525681
 20
0.1849295407
 30
0.0
 11
0.1051949941
 21
0.1849376815
 31
0.0
  0
ARC
  5
275
330
1F
100
AcDbEntity
  8
0
  6
Continuous
 62
     7
370
    25
100
AcDbCircle
 10
0.1051817207
 20
0.1848922353
 30
0.0
 40
0.00003861
100
AcDbArc
 50
44.8797436153
 51
66.845508564
  0
LINE
  5
276
330
1F
100
AcDbEntity
  8
0
  6
Continuous
 62
     7
370
    25
100
AcDbLine
 10
0.1051969027
 20
0.1849277347
 30
0.0
 11
0.1051954847
 21
0.1849351244
 31
0.0
  0
LINE
  5
277
330
1F
100
AcDbEntity
  8
0
  6
Continuous
 62
     7
370
    25
100
AcDbLine
 10
0.1052164685
 20
0.1849208968
 30
0.0
 11
0.1052090793
 21
0.1849194794
 31
0.0
  0
ARC
  5
278
330
1F
100
AcDbEntity
  8
0
  6
Continuous
 62
     7
370
    25
100
AcDbCircle
 10
0.1051817207
 20
0.1848922353
 30
0.0
 40
0.00003861
100
AcDbArc
 50
134.8797436154
 51
156.8455085641
  0
LINE
  5
279
330
1F
100
AcDbEntity
  8
0
  6
Continuous
 62
     7
370
    25
100
AcDbLine
 10
0.1051530587
 20
0.1849269824
 30
0.0
 11
0.1051544767
 21
0.1849195938
 31
0.0
  0
LINE
  5
27A
330
1F
100
AcDbEntity
  8
0
  6
Continuous
 62
     7
370
    25
100
AcDbLine
 10
0.1051462208
 20
0.1849074178
 30
0.0
 11
0.1051388316
 21
0.1849059992
 31
0.0
  0
ARC
  5
27B
330
1F
100
AcDbEntity
  8
0
  6
Continuous
 62
     7
370
    25
100
AcDbCircle
 10
0.1051817207
 20
0.1848922353
 30
0.0
 40
0.00003861
100
AcDbArc
 50
224.8797436154
 51
246.845508564
  0
LINE
  5
27C
330
1F
100
AcDbEntity
  8
0
  6
Continuous
 62
     7
370
    25
100
AcDbLine
 10
0.1051665389
 20
0.184856736
 30
0.0
 11
0.1051679568
 21
0.1848493462
 31
0.0
  0
LINE
  5
27D
330
1F
100
AcDbEntity
  8
0
  6
Continuous
 62
     7
370
    25
100
AcDbLine
 10
0.105146973
 20
0.1848635738
 30
0.0
 11
0.1051543622
 21
0.1848649912
 31
0.0
  0
ARC
  5
27E
330
1F
100
AcDbEntity
  8
0
  6
Continuous
 62
     7
370
    25
100
AcDbCircle
 10
0.1051817207
 20
0.1848922353
 30
0.0
 40
0.00003861
100
AcDbArc
 50
314.8797436153
 51
336.845508564
  0
LINE
  5
27F
330
1F
100
AcDbEntity
  8
0
  6
Continuous
 62
     7
370
    25
100
AcDbLine
 10
0.1052103828
 20
0.1848574882
 30
0.0
 11
0.1052089648
 21
0.1848648768
 31
0.0
  0
LINE
  5
280
330
1F
100
AcDbEntity
  8
0
  6
Continuous
 62
     7
370
    25
100
AcDbLine
 10
0.1052172207
 20
0.1848770528
 30
0.0
 11
0.1052246093
 21
0.1848784714
 31
0.0
  0
ARC
  5
281
330
1F
100
AcDbEntity
  8
0
  6
Continuous
 62
     7
370
    25
100
AcDbCircle
 10
0.1051817207
 20
0.1848922353
 30
0.0
 40
0.00003861
100
AcDbArc
 50
156.8455085641
 51
224.8797436154
  0
ARC
  5
282
330
1F
100
AcDbEntity
  8
0
  6
Continuous
 62
     7
370
    25
100
AcDbCircle
 10
0.1051817207
 20
0.1848922353
 30
0.0
 40
0.00003861
100
AcDbArc
 50
336.845508564
 51
44.8797436153
  0
ARC
  5
283
330
1F
100
AcDbEntity
  8
0
  6
Continuous
 62
     7
370
    25
100
AcDbCircle
 10
0.1051817207
 20
0.1848922353
 30
0.0
 40
0.00003861
100
AcDbArc
 50
66.845508564
 51
134.8797436154
  0
ARC
  5
284
330
1F
100
AcDbEntity
  8
0
  6
Continuous
 62
     7
370
    25
100
AcDbCircle
 10
0.1051817207
 20
0.1848922353
 30
0.0
 40
0.00003861
100
AcDbArc
 50
246.845508564
 51
314.8797436153
  0
LINE
  5
285
330
1F
100
AcDbEntity
  8
0
  6
Continuous
 62
     7
370
    25
100
AcDbLine
 10
0.1237631654
 20
0.184975708
 30
0.0
 11
0.1237978076
 21
0.1849498968
 31
0.0
  0
ARC
  5
286
330
1F
100
AcDbEntity
  8
0
  6
Continuous
 62
     7
370
    25
100
AcDbCircle
 10
0.1237279099
 20
0.1848922353
 30
0.0
 40
0.0000450432666988
100
AcDbArc
 50
81.9670712931
 51
114.6564847766
  0
LINE
  5
287
330
1F
100
AcDbEntity
  8
0
  6
Continuous
 62
     7
370
    25
100
AcDbLine
 10
0.1236444377
 20
0.1849274903
 30
0.0
 11
0.1236702477
 21
0.1849621325
 31
0.0
  0
ARC
  5
288
330
1F
100
AcDbEntity
  8
0
  6
Continuous
 62
     7
370
    25
100
AcDbCircle
 10
0.1237279099
 20
0.1848922353
 30
0.0
 40
0.0000450432666988
100
AcDbArc
 50
171.9670712932
 51
204.6564847766
  0
LINE
  5
289
330
1F
100
AcDbEntity
  8
0
  6
Continuous
 62
     7
370
    25
100
AcDbLine
 10
0.1236926543
 20
0.1848087626
 30
0.0
 11
0.1236580126
 21
0.1848345738
 31
0.0
  0
ARC
  5
28A
330
1F
100
AcDbEntity
  8
0
  6
Continuous
 62
     7
370
    25
100
AcDbCircle
 10
0.1237279099
 20
0.1848922353
 30
0.0
 40
0.0000450432666988
100
AcDbArc
 50
261.9670712932
 51
294.6564847766
  0
LINE
  5
28B
330
1F
100
AcDbEntity
  8
0
  6
Continuous
 62
     7
370
    25
100
AcDbLine
 10
0.123811382
 20
0.1848569804
 30
0.0
 11
0.123785572
 21
0.1848223381
 31
0.0
  0
ARC
  5
28C
330
1F
100
AcDbEntity
  8
0
  6
Continuous
 62
     7
370
    25
100
AcDbCircle
 10
0.1237279099
 20
0.1848922353
 30
0.0
 40
0.0000450432666988
100
AcDbArc
 50
351.9670712931
 51
24.6564847766
  0
CIRCLE
  5
28D
330
1F
100
AcDbEntity
  8
0
  6
Continuous
 62
     7
370
    25
100
AcDbCircle
 10
0.1237279099
 20
0.1848922353
 30
0.0
 40
0.000158
  0
LINE
  5
28E
330
1F
100
AcDbEntity
  8
0
  6
Continuous
 62
     7
370
    25
100
AcDbLine
 10
0.1237342041
 20
0.1849368363
 30
0.0
 11
0.1237631654
 21
0.184975708
 31
0.0
  0
LINE
  5
28F
330
1F
100
AcDbEntity
  8
0
  6
Continuous
 62
     7
370
    25
100
AcDbLine
 10
0.1237978076
 20
0.1849498968
 30
0.0
 11
0.1237688463
 21
0.1849110263
 31
0.0
  0
LINE
  5
290
330
1F
100
AcDbEntity
  8
0
  6
Continuous
 62
     7
370
    25
100
AcDbLine
 10
0.1237216156
 20
0.1848476344
 30
0.0
 11
0.1236926543
 21
0.1848087626
 31
0.0
  0
LINE
  5
291
330
1F
100
AcDbEntity
  8
0
  6
Continuous
 62
     7
370
    25
100
AcDbLine
 10
0.1236580126
 20
0.1848345738
 30
0.0
 11
0.1236869734
 21
0.1848734444
 31
0.0
  0
LINE
  5
292
330
1F
100
AcDbEntity
  8
0
  6
Continuous
 62
     7
370
    25
100
AcDbLine
 10
0.1236833089
 20
0.1848985296
 30
0.0
 11
0.1236444377
 21
0.1849274903
 31
0.0
  0
LINE
  5
293
330
1F
100
AcDbEntity
  8
0
  6
Continuous
 62
     7
370
    25
100
AcDbLine
 10
0.123785572
 20
0.1848223381
 30
0.0
 11
0.1237467008
 21
0.1848512988
 31
0.0
  0
LINE
  5
294
330
1F
100
AcDbEntity
  8
0
  6
Continuous
 62
     7
370
    25
100
AcDbLine
 10
0.1236702477
 20
0.1849621325
 30
0.0
 11
0.1237091189
 21
0.1849331718
 31
0.0
  0
LINE
  5
295
330
1F
100
AcDbEntity
  8
0
  6
Continuous
 62
     7
370
    25
100
AcDbLine
 10
0.1237725114
 20
0.1848859411
 30
0.0
 11
0.123811382
 21
0.1848569804
 31
0.0
  0
LINE
  5
296
330
1F
100
AcDbEntity
  8
0
  6
Continuous
 62
     7
370
    25
100
AcDbLine
 10
0.1237745993
 20
0.1848843854
 30
0.0
 11
0.1237487893
 21
0.1848497432
 31
0.0
  0
LINE
  5
297
330
1F
100
AcDbEntity
  8
0
  6
Continuous
 62
     7
370
    25
100
AcDbLine
 10
0.1236812203
 20
0.1849000852
 30
0.0
 11
0.1237070309
 21
0.1849347275
 31
0.0
  0
LINE
  5
298
330
1F
100
AcDbEntity
  8
0
  6
Continuous
 62
     7
370
    25
100
AcDbLine
 10
0.1237200593
 20
0.1848455458
 30
0.0
 11
0.1236854177
 21
0.1848713558
 31
0.0
  0
LINE
  5
299
330
1F
100
AcDbEntity
  8
0
  6
Continuous
 62
     7
370
    25
100
AcDbLine
 10
0.1237357603
 20
0.1849389248
 30
0.0
 11
0.123770402
 21
0.1849131148
 31
0.0
  0
ARC
  5
29A
330
1F
100
AcDbEntity
  8
0
  6
Continuous
 62
     7
370
    25
100
AcDbCircle
 10
0.1237279099
 20
0.1848922353
 30
0.0
 40
0.00003861
100
AcDbArc
 50
357.3288955605
 51
19.2946605092
  0
LINE
  5
29B
330
1F
100
AcDbEntity
  8
0
  6
Continuous
 62
     7
370
    25
100
AcDbLine
 10
0.1237643515
 20
0.1849049931
 30
0.0
 11
0.1237688463
 21
0.1849110263
 31
0.0
  0
LINE
  5
29C
330
1F
100
AcDbEntity
  8
0
  6
Continuous
 62
     7
370
    25
100
AcDbLine
 10
0.1237725114
 20
0.1848859411
 30
0.0
 11
0.1237664782
 21
0.1848904364
 31
0.0
  0
ARC
  5
29D
330
1F
100
AcDbEntity
  8
0
  6
Continuous
 62
     7
370
    25
100
AcDbCircle
 10
0.1237279099
 20
0.1848922353
 30
0.0
 40
0.00003861
100
AcDbArc
 50
87.3288955605
 51
109.2946605092
  0
LINE
  5
29E
330
1F
100
AcDbEntity
  8
0
  6
Continuous
 62
     7
370
    25
100
AcDbLine
 10
0.1237342041
 20
0.1849368363
 30
0.0
 11
0.1237297093
 21
0.1849308031
 31
0.0
  0
LINE
  5
29F
330
1F
100
AcDbEntity
  8
0
  6
Continuous
 62
     7
370
    25
100
AcDbLine
 10
0.123715152
 20
0.1849286764
 30
0.0
 11
0.1237091189
 21
0.1849331718
 31
0.0
  0
ARC
  5
2A0
330
1F
100
AcDbEntity
  8
0
  6
Continuous
 62
     7
370
    25
100
AcDbCircle
 10
0.1237279099
 20
0.1848922353
 30
0.0
 40
0.00003861
100
AcDbArc
 50
177.3288955605
 51
199.2946605093
  0
LINE
  5
2A1
330
1F
100
AcDbEntity
  8
0
  6
Continuous
 62
     7
370
    25
100
AcDbLine
 10
0.1236914687
 20
0.1848794775
 30
0.0
 11
0.1236869734
 21
0.1848734444
 31
0.0
  0
LINE
  5
2A2
330
1F
100
AcDbEntity
  8
0
  6
Continuous
 62
     7
370
    25
100
AcDbLine
 10
0.1236833089
 20
0.1848985296
 30
0.0
 11
0.123689342
 21
0.1848940342
 31
0.0
  0
ARC
  5
2A3
330
1F
100
AcDbEntity
  8
0
  6
Continuous
 62
     7
370
    25
100
AcDbCircle
 10
0.1237279099
 20
0.1848922353
 30
0.0
 40
0.00003861
100
AcDbArc
 50
267.3288955605
 51
289.2946605092
  0
LINE
  5
2A4
330
1F
100
AcDbEntity
  8
0
  6
Continuous
 62
     7
370
    25
100
AcDbLine
 10
0.1237216156
 20
0.1848476344
 30
0.0
 11
0.1237261104
 21
0.1848536675
 31
0.0
  0
LINE
  5
2A5
330
1F
100
AcDbEntity
  8
0
  6
Continuous
 62
     7
370
    25
100
AcDbLine
 10
0.1237406676
 20
0.1848557942
 30
0.0
 11
0.1237467008
 21
0.1848512988
 31
0.0
  0
ARC
  5
2A6
330
1F
100
AcDbEntity
  8
0
  6
Continuous
 62
     7
370
    25
100
AcDbCircle
 10
0.1237279099
 20
0.1848922353
 30
0.0
 40
0.00003861
100
AcDbArc
 50
199.2946605093
 51
267.3288955605
  0
ARC
  5
2A7
330
1F
100
AcDbEntity
  8
0
  6
Continuous
 62
     7
370
    25
100
AcDbCircle
 10
0.1237279099
 20
0.1848922353
 30
0.0
 40
0.00003861
100
AcDbArc
 50
109.2946605092
 51
177.3288955605
  0
ARC
  5
2A8
330
1F
100
AcDbEntity
  8
0
  6
Continuous
 62
     7
370
    25
100
AcDbCircle
 10
0.1237279099
 20
0.1848922353
 30
0.0
 40
0.00003861
100
AcDbArc
 50
19.2946605092
 51
87.3288955605
  0
ARC
  5
2A9
330
1F
100
AcDbEntity
  8
0
  6
Continuous
 62
     7
370
    25
100
AcDbCircle
 10
0.1237279099
 20
0.1848922353
 30
0.0
 40
0.00003861
100
AcDbArc
 50
289.2946605092
 51
357.3288955605
  0
LINE
  5
2AA
330
1F
100
AcDbEntity
  8
0
  6
Continuous
 62
     7
370
    25
100
AcDbLine
 10
0.0940866589
 20
0.1658195604
 30
0.0
 11
0.0940916895
 21
0.1658624664
 31
0.0
  0
ARC
  5
2AB
330
1F
100
AcDbEntity
  8
0
  6
Continuous
 62
     7
370
    25
100
AcDbCircle
 10
0.0941765753
 20
0.1658307643
 30
0.0
 40
0.0000450432666988
100
AcDbArc
 50
201.9670712931
 51
234.6564847766
  0
LINE
  5
2AC
330
1F
100
AcDbEntity
  8
0
  6
Continuous
 62
     7
370
    25
100
AcDbLine
 10
0.0941877793
 20
0.1657408475
 30
0.0
 11
0.0941448735
 21
0.1657458789
 31
0.0
  0
ARC
  5
2AD
330
1F
100
AcDbEntity
  8
0
  6
Continuous
 62
     7
370
    25
100
AcDbCircle
 10
0.0941765753
 20
0.1658307643
 30
0.0
 40
0.0000450432666988
100
AcDbArc
 50
291.9670712932
 51
324.6564847766
  0
LINE
  5
2AE
330
1F
100
AcDbEntity
  8
0
  6
Continuous
 62
     7
370
    25
100
AcDbLine
 10
0.0942664932
 20
0.1658419683
 30
0.0
 11
0.0942614602
 21
0.1657990622
 31
0.0
  0
ARC
  5
2AF
330
1F
100
AcDbEntity
  8
0
  6
Continuous
 62
     7
370
    25
100
AcDbCircle
 10
0.0941765753
 20
0.1658307643
 30
0.0
 40
0.0000450432666988
100
AcDbArc
 50
21.9670712932
 51
54.6564847766
  0
LINE
  5
2B0
330
1F
100
AcDbEntity
  8
0
  6
Continuous
 62
     7
370
    25
100
AcDbLine
 10
0.0941653704
 20
0.1659206811
 30
0.0
 11
0.0942082762
 21
0.1659156497
 31
0.0
  0
ARC
  5
2B1
330
1F
100
AcDbEntity
  8
0
  6
Continuous
 62
     7
370
    25
100
AcDbCircle
 10
0.0941765753
 20
0.1658307643
 30
0.0
 40
0.0000450432666988
100
AcDbArc
 50
111.9670712932
 51
144.6564847766
  0
CIRCLE
  5
2B2
330
1F
100
AcDbEntity
  8
0
  6
Continuous
 62
     7
370
    25
100
AcDbCircle
 10
0.0941765753
 20
0.1658307643
 30
0.0
 40
0.000158
  0
LINE
  5
2B3
330
1F
100
AcDbEntity
  8
0
  6
Continuous
 62
     7
370
    25
100
AcDbLine
 10
0.0941348027
 20
0.1658139148
 30
0.0
 11
0.0940866589
 21
0.1658195604
 31
0.0
  0
LINE
  5
2B4
330
1F
100
AcDbEntity
  8
0
  6
Continuous
 62
     7
370
    25
100
AcDbLine
 10
0.0940916895
 20
0.1658624664
 30
0.0
 11
0.0941398333
 21
0.1658568209
 31
0.0
  0
LINE
  5
2B5
330
1F
100
AcDbEntity
  8
0
  6
Continuous
 62
     7
370
    25
100
AcDbLine
 10
0.0942183494
 20
0.1658476138
 30
0.0
 11
0.0942664932
 21
0.1658419683
 31
0.0
  0
LINE
  5
2B6
330
1F
100
AcDbEntity
  8
0
  6
Continuous
 62
     7
370
    25
100
AcDbLine
 10
0.0942614602
 20
0.1657990622
 30
0.0
 11
0.0942133163
 21
0.1658047078
 31
0.0
  0
LINE
  5
2B7
330
1F
100
AcDbEntity
  8
0
  6
Continuous
 62
     7
370
    25
100
AcDbLine
 10
0.0941934251
 20
0.1657889912
 30
0.0
 11
0.0941877793
 21
0.1657408475
 31
0.0
  0
LINE
  5
2B8
330
1F
100
AcDbEntity
  8
0
  6
Continuous
 62
     7
370
    25
100
AcDbLine
 10
0.0942082762
 20
0.1659156497
 30
0.0
 11
0.0942026328
 21
0.165867506
 31
0.0
  0
LINE
  5
2B9
330
1F
100
AcDbEntity
  8
0
  6
Continuous
 62
     7
370
    25
100
AcDbLine
 10
0.0941448735
 20
0.1657458789
 30
0.0
 11
0.0941505193
 21
0.1657940226
 31
0.0
  0
LINE
  5
2BA
330
1F
100
AcDbEntity
  8
0
  6
Continuous
 62
     7
370
    25
100
AcDbLine
 10
0.0941597246
 20
0.1658725374
 30
0.0
 11
0.0941653704
 21
0.1659206811
 31
0.0
  0
LINE
  5
2BB
330
1F
100
AcDbEntity
  8
0
  6
Continuous
 62
     7
370
    25
100
AcDbLine
 10
0.0941600298
 20
0.1658751238
 30
0.0
 11
0.0942029356
 21
0.1658700924
 31
0.0
  0
LINE
  5
2BC
330
1F
100
AcDbEntity
  8
0
  6
Continuous
 62
     7
370
    25
100
AcDbLine
 10
0.0941931223
 20
0.1657864049
 30
0.0
 11
0.0941502165
 21
0.1657914362
 31
0.0
  0
LINE
  5
2BD
330
1F
100
AcDbEntity
  8
0
  6
Continuous
 62
     7
370
    25
100
AcDbLine
 10
0.0942209338
 20
0.1658473106
 30
0.0
 11
0.0942159032
 21
0.1658044045
 31
0.0
  0
LINE
  5
2BE
330
1F
100
AcDbEntity
  8
0
  6
Continuous
 62
     7
370
    25
100
AcDbLine
 10
0.0941322159
 20
0.1658142181
 30
0.0
 11
0.0941372465
 21
0.1658571241
 31
0.0
  0
ARC
  5
2BF
330
1F
100
AcDbEntity
  8
0
  6
Continuous
 62
     7
370
    25
100
AcDbCircle
 10
0.0941765753
 20
0.1658307643
 30
0.0
 40
0.00003861
100
AcDbArc
 50
117.3288955605
 51
139.2946605092
  0
LINE
  5
2C0
330
1F
100
AcDbEntity
  8
0
  6
Continuous
 62
     7
370
    25
100
AcDbLine
 10
0.0941473054
 20
0.1658559446
 30
0.0
 11
0.0941398333
 21
0.1658568209
 31
0.0
  0
LINE
  5
2C1
330
1F
100
AcDbEntity
  8
0
  6
Continuous
 62
     7
370
    25
100
AcDbLine
 10
0.0941597246
 20
0.1658725374
 30
0.0
 11
0.0941588496
 21
0.1658650649
 31
0.0
  0
ARC
  5
2C2
330
1F
100
AcDbEntity
  8
0
  6
Continuous
 62
     7
370
    25
100
AcDbCircle
 10
0.0941765753
 20
0.1658307643
 30
0.0
 40
0.00003861
100
AcDbArc
 50
207.3288955605
 51
229.2946605092
  0
LINE
  5
2C3
330
1F
100
AcDbEntity
  8
0
  6
Continuous
 62
     7
370
    25
100
AcDbLine
 10
0.0941348027
 20
0.1658139148
 30
0.0
 11
0.0941422748
 21
0.1658130386
 31
0.0
  0
LINE
  5
2C4
330
1F
100
AcDbEntity
  8
0
  6
Continuous
 62
     7
370
    25
100
AcDbLine
 10
0.0941513943
 20
0.1658014951
 30
0.0
 11
0.0941505193
 21
0.1657940226
 31
0.0
  0
ARC
  5
2C5
330
1F
100
AcDbEntity
  8
0
  6
Continuous
 62
     7
370
    25
100
AcDbCircle
 10
0.0941765753
 20
0.1658307643
 30
0.0
 40
0.00003861
100
AcDbArc
 50
297.3288955605
 51
319.2946605092
  0
LINE
  5
2C6
330
1F
100
AcDbEntity
  8
0
  6
Continuous
 62
     7
370
    25
100
AcDbLine
 10
0.0942058443
 20
0.1658055841
 30
0.0
 11
0.0942133163
 21
0.1658047078
 31
0.0
  0
LINE
  5
2C7
330
1F
100
AcDbEntity
  8
0
  6
Continuous
 62
     7
370
    25
100
AcDbLine
 10
0.0941934251
 20
0.1657889912
 30
0.0
 11
0.0941943001
 21
0.1657964638
 31
0.0
  0
ARC
  5
2C8
330
1F
100
AcDbEntity
  8
0
  6
Continuous
 62
     7
370
    25
100
AcDbCircle
 10
0.0941765753
 20
0.1658307643
 30
0.0
 40
0.00003861
100
AcDbArc
 50
27.3288955605
 51
49.2946605092
  0
LINE
  5
2C9
330
1F
100
AcDbEntity
  8
0
  6
Continuous
 62
     7
370
    25
100
AcDbLine
 10
0.0942183494
 20
0.1658476138
 30
0.0
 11
0.0942108749
 21
0.1658484901
 31
0.0
  0
LINE
  5
2CA
330
1F
100
AcDbEntity
  8
0
  6
Continuous
 62
     7
370
    25
100
AcDbLine
 10
0.0942017554
 20
0.1658600335
 30
0.0
 11
0.0942026328
 21
0.165867506
 31
0.0
  0
ARC
  5
2CB
330
1F
100
AcDbEntity
  8
0
  6
Continuous
 62
     7
370
    25
100
AcDbCircle
 10
0.0941765753
 20
0.1658307643
 30
0.0
 40
0.00003861
100
AcDbArc
 50
229.2946605092
 51
297.3288955605
  0
ARC
  5
2CC
330
1F
100
AcDbEntity
  8
0
  6
Continuous
 62
     7
370
    25
100
AcDbCircle
 10
0.0941765753
 20
0.1658307643
 30
0.0
 40
0.00003861
100
AcDbArc
 50
139.2946605092
 51
207.3288955605
  0
ARC
  5
2CD
330
1F
100
AcDbEntity
  8
0
  6
Continuous
 62
     7
370
    25
100
AcDbCircle
 10
0.0941765753
 20
0.1658307643
 30
0.0
 40
0.00003861
100
AcDbArc
 50
49.2946605092
 51
117.3288955605
  0
ARC
  5
2CE
330
1F
100
AcDbEntity
  8
0
  6
Continuous
 62
     7
370
    25
100
AcDbCircle
 10
0.0941765753
 20
0.1658307643
 30
0.0
 40
0.00003861
100
AcDbArc
 50
319.2946605092
 51
27.3288955605
  0
LINE
  5
2CF
330
1F
100
AcDbEntity
  8
0
  6
Continuous
 62
     7
370
    25
100
AcDbLine
 10
0.1347582363
 20
0.1678600336
 30
0.0
 11
0.1347591113
 21
0.1678675061
 31
0.0
  0
ARC
  5
2D0
330
1F
100
AcDbEntity
  8
0
  6
Continuous
 62
     7
370
    25
100
AcDbCircle
 10
0.1347330553
 20
0.1678307643
 30
0.0
 40
0.0000450432666988
100
AcDbArc
 50
21.9670712932
 51
54.6564847766
  0
LINE
  5
2D1
330
1F
100
AcDbEntity
  8
0
  6
Continuous
 62
     7
370
    25
100
AcDbLine
 10
0.1347748279
 20
0.1678476138
 30
0.0
 11
0.1347673558
 21
0.1678484901
 31
0.0
  0
ARC
  5
2D2
330
1F
100
AcDbEntity
  8
0
  6
Continuous
 62
     7
370
    25
100
AcDbCircle
 10
0.1347330553
 20
0.1678307643
 30
0.0
 40
0.00003861
100
AcDbArc
 50
27.3288955605
 51
49.2946605092
  0
LINE
  5
2D3
330
1F
100
AcDbEntity
  8
0
  6
Continuous
 62
     7
370
    25
100
AcDbLine
 10
0.1347078752
 20
0.1678014951
 30
0.0
 11
0.1347069978
 21
0.1677940226
 31
0.0
  0
ARC
  5
2D4
330
1F
100
AcDbEntity
  8
0
  6
Continuous
 62
     7
370
    25
100
AcDbCircle
 10
0.1347330553
 20
0.1678307643
 30
0.0
 40
0.0000450432666988
100
AcDbArc
 50
201.9670712931
 51
234.6564847766
  0
LINE
  5
2D5
330
1F
100
AcDbEntity
  8
0
  6
Continuous
 62
     7
370
    25
100
AcDbLine
 10
0.1346912812
 20
0.1678139149
 30
0.0
 11
0.1346987556
 21
0.1678130386
 31
0.0
  0
ARC
  5
2D6
330
1F
100
AcDbEntity
  8
0
  6
Continuous
 62
     7
370
    25
100
AcDbCircle
 10
0.1347330553
 20
0.1678307643
 30
0.0
 40
0.00003861
100
AcDbArc
 50
207.3288955605
 51
229.2946605092
  0
LINE
  5
2D7
330
1F
100
AcDbEntity
  8
0
  6
Continuous
 62
     7
370
    25
100
AcDbLine
 10
0.1348229717
 20
0.1678419683
 30
0.0
 11
0.1348179411
 21
0.1677990623
 31
0.0
  0
LINE
  5
2D8
330
1F
100
AcDbEntity
  8
0
  6
Continuous
 62
     7
370
    25
100
AcDbLine
 10
0.1347218512
 20
0.1679206812
 30
0.0
 11
0.1347647571
 21
0.1679156498
 31
0.0
  0
ARC
  5
2D9
330
1F
100
AcDbEntity
  8
0
  6
Continuous
 62
     7
370
    25
100
AcDbCircle
 10
0.1347330553
 20
0.1678307643
 30
0.0
 40
0.0000450432666988
100
AcDbArc
 50
111.9670712932
 51
144.6564847766
  0
LINE
  5
2DA
330
1F
100
AcDbEntity
  8
0
  6
Continuous
 62
     7
370
    25
100
AcDbLine
 10
0.1346431374
 20
0.1678195604
 30
0.0
 11
0.1346481704
 21
0.1678624664
 31
0.0
  0
LINE
  5
2DB
330
1F
100
AcDbEntity
  8
0
  6
Continuous
 62
     7
370
    25
100
AcDbLine
 10
0.1347442602
 20
0.1677408475
 30
0.0
 11
0.1347013544
 21
0.1677458789
 31
0.0
  0
ARC
  5
2DC
330
1F
100
AcDbEntity
  8
0
  6
Continuous
 62
     7
370
    25
100
AcDbCircle
 10
0.1347330553
 20
0.1678307643
 30
0.0
 40
0.0000450432666988
100
AcDbArc
 50
291.9670712932
 51
324.6564847766
  0
CIRCLE
  5
2DD
330
1F
100
AcDbEntity
  8
0
  6
Continuous
 62
     7
370
    25
100
AcDbCircle
 10
0.1347330553
 20
0.1678307643
 30
0.0
 40
0.000158
  0
LINE
  5
2DE
330
1F
100
AcDbEntity
  8
0
  6
Continuous
 62
     7
370
    25
100
AcDbLine
 10
0.1347748279
 20
0.1678476138
 30
0.0
 11
0.1348229717
 21
0.1678419683
 31
0.0
  0
LINE
  5
2DF
330
1F
100
AcDbEntity
  8
0
  6
Continuous
 62
     7
370
    25
100
AcDbLine
 10
0.1348179411
 20
0.1677990623
 30
0.0
 11
0.1347697972
 21
0.1678047078
 31
0.0
  0
LINE
  5
2E0
330
1F
100
AcDbEntity
  8
0
  6
Continuous
 62
     7
370
    25
100
AcDbLine
 10
0.1346912812
 20
0.1678139149
 30
0.0
 11
0.1346431374
 21
0.1678195604
 31
0.0
  0
LINE
  5
2E1
330
1F
100
AcDbEntity
  8
0
  6
Continuous
 62
     7
370
    25
100
AcDbLine
 10
0.1346481704
 20
0.1678624664
 30
0.0
 11
0.1346963142
 21
0.1678568208
 31
0.0
  0
LINE
  5
2E2
330
1F
100
AcDbEntity
  8
0
  6
Continuous
 62
     7
370
    25
100
AcDbLine
 10
0.1347162055
 20
0.1678725374
 30
0.0
 11
0.1347218512
 21
0.1679206812
 31
0.0
  0
LINE
  5
2E3
330
1F
100
AcDbEntity
  8
0
  6
Continuous
 62
     7
370
    25
100
AcDbLine
 10
0.1347013544
 20
0.1677458789
 30
0.0
 11
0.1347069978
 21
0.1677940226
 31
0.0
  0
LINE
  5
2E4
330
1F
100
AcDbEntity
  8
0
  6
Continuous
 62
     7
370
    25
100
AcDbLine
 10
0.1347647571
 20
0.1679156498
 30
0.0
 11
0.1347591113
 21
0.1678675061
 31
0.0
  0
LINE
  5
2E5
330
1F
100
AcDbEntity
  8
0
  6
Continuous
 62
     7
370
    25
100
AcDbLine
 10
0.134749906
 20
0.1677889913
 30
0.0
 11
0.1347442602
 21
0.1677408475
 31
0.0
  0
LINE
  5
2E6
330
1F
100
AcDbEntity
  8
0
  6
Continuous
 62
     7
370
    25
100
AcDbLine
 10
0.1347496008
 20
0.1677864049
 30
0.0
 11
0.134706695
 21
0.1677914362
 31
0.0
  0
ARC
  5
2E7
330
1F
100
AcDbEntity
  8
0
  6
Continuous
 62
     7
370
    25
100
AcDbCircle
 10
0.1347330553
 20
0.1678307643
 30
0.0
 40
0.00003861
100
AcDbArc
 50
297.3288955605
 51
319.2946605093
  0
LINE
  5
2E8
330
1F
100
AcDbEntity
  8
0
  6
Continuous
 62
     7
370
    25
100
AcDbLine
 10
0.1347623252
 20
0.1678055841
 30
0.0
 11
0.1347697972
 21
0.1678047078
 31
0.0
  0
LINE
  5
2E9
330
1F
100
AcDbEntity
  8
0
  6
Continuous
 62
     7
370
    25
100
AcDbLine
 10
0.134749906
 20
0.1677889913
 30
0.0
 11
0.134750781
 21
0.1677964637
 31
0.0
  0
ARC
  5
2EA
330
1F
100
AcDbEntity
  8
0
  6
Continuous
 62
     7
370
    25
100
AcDbCircle
 10
0.1347330553
 20
0.1678307643
 30
0.0
 40
0.00003861
100
AcDbArc
 50
117.3288955605
 51
139.2946605092
  0
LINE
  5
2EB
330
1F
100
AcDbEntity
  8
0
  6
Continuous
 62
     7
370
    25
100
AcDbLine
 10
0.1347037863
 20
0.1678559446
 30
0.0
 11
0.1346963142
 21
0.1678568208
 31
0.0
  0
LINE
  5
2EC
330
1F
100
AcDbEntity
  8
0
  6
Continuous
 62
     7
370
    25
100
AcDbLine
 10
0.1347162055
 20
0.1678725374
 30
0.0
 11
0.1347153305
 21
0.1678650649
 31
0.0
  0
LINE
  5
2ED
330
1F
100
AcDbEntity
  8
0
  6
Continuous
 62
     7
370
    25
100
AcDbLine
 10
0.1347165083
 20
0.1678751238
 30
0.0
 11
0.1347594141
 21
0.1678700925
 31
0.0
  0
LINE
  5
2EE
330
1F
100
AcDbEntity
  8
0
  6
Continuous
 62
     7
370
    25
100
AcDbLine
 10
0.1347774147
 20
0.1678473105
 30
0.0
 11
0.1347723841
 21
0.1678044046
 31
0.0
  0
LINE
  5
2EF
330
1F
100
AcDbEntity
  8
0
  6
Continuous
 62
     7
370
    25
100
AcDbLine
 10
0.1346886968
 20
0.1678142181
 30
0.0
 11
0.1346937274
 21
0.1678571241
 31
0.0
  0
ARC
  5
2F0
330
1F
100
AcDbEntity
  8
0
  6
Continuous
 62
     7
370
    25
100
AcDbCircle
 10
0.1347330553
 20
0.1678307643
 30
0.0
 40
0.00003861
100
AcDbArc
 50
49.2946605092
 51
117.3288955605
  0
ARC
  5
2F1
330
1F
100
AcDbEntity
  8
0
  6
Continuous
 62
     7
370
    25
100
AcDbCircle
 10
0.1347330553
 20
0.1678307643
 30
0.0
 40
0.00003861
100
AcDbArc
 50
319.2946605093
 51
27.3288955605
  0
ARC
  5
2F2
330
1F
100
AcDbEntity
  8
0
  6
Continuous
 62
     7
370
    25
100
AcDbCircle
 10
0.1347330553
 20
0.1678307643
 30
0.0
 40
0.00003861
100
AcDbArc
 50
139.2946605092
 51
207.3288955605
  0
ARC
  5
2F3
330
1F
100
AcDbEntity
  8
0
  6
Continuous
 62
     7
370
    25
100
AcDbCircle
 10
0.1347330553
 20
0.1678307643
 30
0.0
 40
0.00003861
100
AcDbArc
 50
229.2946605092
 51
297.3288955605
  0
LINE
  5
2F4
330
1F
100
AcDbEntity
  8
0
  6
Continuous
 62
     7
370
    25
100
AcDbLine
 10
0.1034918653
 20
0.1497535317
 30
0.0
 11
0.1034869431
 21
0.1497592216
 31
0.0
  0
ARC
  5
2F5
330
1F
100
AcDbEntity
  8
0
  6
Continuous
 62
     7
370
    25
100
AcDbCircle
 10
0.1034496699
 20
0.1497692933
 30
0.0
 40
0.00003861
100
AcDbArc
 50
344.8797436153
 51
6.8455085641
  0
LINE
  5
2F6
330
1F
100
AcDbEntity
  8
0
  6
Continuous
 62
     7
370
    25
100
AcDbLine
 10
0.1034880041
 20
0.1497738951
 30
0.0
 11
0.1034936952
 21
0.1497788172
 31
0.0
  0
ARC
  5
2F7
330
1F
100
AcDbEntity
  8
0
  6
Continuous
 62
     7
370
    25
100
AcDbCircle
 10
0.1034496699
 20
0.1497692933
 30
0.0
 40
0.0000450432666988
100
AcDbArc
 50
339.517919348
 51
12.2073328314
  0
LINE
  5
2F8
330
1F
100
AcDbEntity
  8
0
  6
Continuous
 62
     7
370
    25
100
AcDbLine
 10
0.10340577
 20
0.1497870236
 30
0.0
 11
0.1034384417
 21
0.1498152881
 31
0.0
  0
LINE
  5
2F9
330
1F
100
AcDbEntity
  8
0
  6
Continuous
 62
     7
370
    25
100
AcDbLine
 10
0.1033757602
 20
0.1498217147
 30
0.0
 11
0.1034084319
 21
0.149849978
 31
0.0
  0
LINE
  5
2FA
330
1F
100
AcDbEntity
  8
0
  6
Continuous
 62
     7
370
    25
100
AcDbLine
 10
0.1034542715
 20
0.1497309583
 30
0.0
 11
0.1034591948
 21
0.1497252684
 31
0.0
  0
ARC
  5
2FB
330
1F
100
AcDbEntity
  8
0
  6
Continuous
 62
     7
370
    25
100
AcDbCircle
 10
0.1034496699
 20
0.1497692933
 30
0.0
 40
0.0000450432666988
100
AcDbArc
 50
249.517919348
 51
282.2073328314
  0
LINE
  5
2FC
330
1F
100
AcDbEntity
  8
0
  6
Continuous
 62
     7
370
    25
100
AcDbLine
 10
0.1034339081
 20
0.1497270971
 30
0.0
 11
0.1034395992
 21
0.1497320204
 31
0.0
  0
ARC
  5
2FD
330
1F
100
AcDbEntity
  8
0
  6
Continuous
 62
     7
370
    25
100
AcDbCircle
 10
0.1034496699
 20
0.1497692933
 30
0.0
 40
0.00003861
100
AcDbArc
 50
254.8797436153
 51
276.8455085641
  0
LINE
  5
2FE
330
1F
100
AcDbEntity
  8
0
  6
Continuous
 62
     7
370
    25
100
AcDbLine
 10
0.1034450673
 20
0.1498076277
 30
0.0
 11
0.1034401452
 21
0.1498133176
 31
0.0
  0
ARC
  5
2FF
330
1F
100
AcDbEntity
  8
0
  6
Continuous
 62
     7
370
    25
100
AcDbCircle
 10
0.1034496699
 20
0.1497692933
 30
0.0
 40
0.0000450432666988
100
AcDbArc
 50
69.517919348
 51
102.2073328314
  0
ARC
  5
300
330
1F
100
AcDbEntity
  8
0
  6
Continuous
 62
     7
370
    25
100
AcDbCircle
 10
0.1034496699
 20
0.1497692933
 30
0.0
 40
0.00003861
100
AcDbArc
 50
74.8797436153
 51
96.845508564
  0
LINE
  5
301
330
1F
100
AcDbEntity
  8
0
  6
Continuous
 62
     7
370
    25
100
AcDbLine
 10
0.1034654306
 20
0.1498114889
 30
0.0
 11
0.1034597408
 21
0.1498065668
 31
0.0
  0
LINE
  5
302
330
1F
100
AcDbEntity
  8
0
  6
Continuous
 62
     7
370
    25
100
AcDbLine
 10
0.1034674012
 20
0.1498131924
 30
0.0
 11
0.1034956645
 21
0.1497805219
 31
0.0
  0
LINE
  5
303
330
1F
100
AcDbEntity
  8
0
  6
Continuous
 62
     7
370
    25
100
AcDbLine
 10
0.1035020911
 20
0.1498432033
 30
0.0
 11
0.1035303544
 21
0.1498105317
 31
0.0
  0
ARC
  5
304
330
1F
100
AcDbEntity
  8
0
  6
Continuous
 62
     7
370
    25
100
AcDbCircle
 10
0.1034496699
 20
0.1497692933
 30
0.0
 40
0.00003861
100
AcDbArc
 50
164.8797436154
 51
186.8455085641
  0
ARC
  5
305
330
1F
100
AcDbEntity
  8
0
  6
Continuous
 62
     7
370
    25
100
AcDbCircle
 10
0.1034496699
 20
0.1497692933
 30
0.0
 40
0.0000450432666988
100
AcDbArc
 50
159.517919348
 51
192.2073328314
  0
LINE
  5
306
330
1F
100
AcDbEntity
  8
0
  6
Continuous
 62
     7
370
    25
100
AcDbLine
 10
0.1034074747
 20
0.1497850542
 30
0.0
 11
0.1034123968
 21
0.1497793644
 31
0.0
  0
LINE
  5
307
330
1F
100
AcDbEntity
  8
0
  6
Continuous
 62
     7
370
    25
100
AcDbLine
 10
0.1034113347
 20
0.1497646909
 30
0.0
 11
0.1034056448
 21
0.1497597688
 31
0.0
  0
LINE
  5
308
330
1F
100
AcDbEntity
  8
0
  6
Continuous
 62
     7
370
    25
100
AcDbLine
 10
0.1034935688
 20
0.1497515624
 30
0.0
 11
0.1034608983
 21
0.1497232991
 31
0.0
  0
LINE
  5
309
330
1F
100
AcDbEntity
  8
0
  6
Continuous
 62
     7
370
    25
100
AcDbLine
 10
0.1035235797
 20
0.1497168725
 30
0.0
 11
0.103490908
 21
0.1496886092
 31
0.0
  0
LINE
  5
30A
330
1F
100
AcDbEntity
  8
0
  6
Continuous
 62
     7
370
    25
100
AcDbLine
 10
0.1034319388
 20
0.1497253936
 30
0.0
 11
0.1034036755
 21
0.1497580653
 31
0.0
  0
LINE
  5
30B
330
1F
100
AcDbEntity
  8
0
  6
Continuous
 62
     7
370
    25
100
AcDbLine
 10
0.1033972489
 20
0.1496953838
 30
0.0
 11
0.1033689856
 21
0.1497280555
 31
0.0
  0
LINE
  5
30C
330
1F
100
AcDbEntity
  8
0
  6
Continuous
 62
     7
370
    25
100
AcDbLine
 10
0.1034918653
 20
0.1497535317
 30
0.0
 11
0.1035235797
 21
0.1497168725
 31
0.0
  0
LINE
  5
30D
330
1F
100
AcDbEntity
  8
0
  6
Continuous
 62
     7
370
    25
100
AcDbLine
 10
0.1034339081
 20
0.1497270971
 30
0.0
 11
0.1033972489
 21
0.1496953838
 31
0.0
  0
LINE
  5
30E
330
1F
100
AcDbEntity
  8
0
  6
Continuous
 62
     7
370
    25
100
AcDbLine
 10
0.103490908
 20
0.1496886092
 30
0.0
 11
0.1034591948
 21
0.1497252684
 31
0.0
  0
CIRCLE
  5
30F
330
1F
100
AcDbEntity
  8
0
  6
Continuous
 62
     7
370
    25
100
AcDbCircle
 10
0.1034496699
 20
0.1497692933
 30
0.0
 40
0.000158
  0
LINE
  5
310
330
1F
100
AcDbEntity
  8
0
  6
Continuous
 62
     7
370
    25
100
AcDbLine
 10
0.1034084319
 20
0.149849978
 30
0.0
 11
0.1034401452
 21
0.1498133176
 31
0.0
  0
LINE
  5
311
330
1F
100
AcDbEntity
  8
0
  6
Continuous
 62
     7
370
    25
100
AcDbLine
 10
0.1034074747
 20
0.1497850542
 30
0.0
 11
0.1033757602
 21
0.1498217147
 31
0.0
  0
LINE
  5
312
330
1F
100
AcDbEntity
  8
0
  6
Continuous
 62
     7
370
    25
100
AcDbLine
 10
0.1033689856
 20
0.1497280555
 30
0.0
 11
0.1034056448
 21
0.1497597688
 31
0.0
  0
LINE
  5
313
330
1F
100
AcDbEntity
  8
0
  6
Continuous
 62
     7
370
    25
100
AcDbLine
 10
0.1035303544
 20
0.1498105317
 30
0.0
 11
0.1034936952
 21
0.1497788172
 31
0.0
  0
LINE
  5
314
330
1F
100
AcDbEntity
  8
0
  6
Continuous
 62
     7
370
    25
100
AcDbLine
 10
0.1034654306
 20
0.1498114889
 30
0.0
 11
0.1035020911
 21
0.1498432033
 31
0.0
  0
ARC
  5
315
330
1F
100
AcDbEntity
  8
0
  6
Continuous
 62
     7
370
    25
100
AcDbCircle
 10
0.1034496699
 20
0.1497692933
 30
0.0
 40
0.00003861
100
AcDbArc
 50
276.8455085641
 51
344.8797436153
  0
ARC
  5
316
330
1F
100
AcDbEntity
  8
0
  6
Continuous
 62
     7
370
    25
100
AcDbCircle
 10
0.1034496699
 20
0.1497692933
 30
0.0
 40
0.00003861
100
AcDbArc
 50
6.8455085641
 51
74.8797436153
  0
ARC
  5
317
330
1F
100
AcDbEntity
  8
0
  6
Continuous
 62
     7
370
    25
100
AcDbCircle
 10
0.1034496699
 20
0.1497692933
 30
0.0
 40
0.00003861
100
AcDbArc
 50
96.845508564
 51
164.8797436154
  0
ARC
  5
318
330
1F
100
AcDbEntity
  8
0
  6
Continuous
 62
     7
370
    25
100
AcDbCircle
 10
0.1034496699
 20
0.1497692933
 30
0.0
 40
0.00003861
100
AcDbArc
 50
186.8455085641
 51
254.8797436153
  0
LINE
  5
319
330
1F
100
AcDbEntity
  8
0
  6
Continuous
 62
     7
370
    25
100
AcDbLine
 10
0.094145677
 20
0.1678076115
 30
0.0
 11
0.0941432117
 21
0.1678005036
 31
0.0
  0
ARC
  5
31A
330
1F
100
AcDbEntity
  8
0
  6
Continuous
 62
     7
370
    25
100
AcDbCircle
 10
0.0941765753
 20
0.1678307643
 30
0.0
 40
0.0000450432666988
100
AcDbArc
 50
189.517919348
 51
222.2073328314
  0
LINE
  5
31B
330
1F
100
AcDbEntity
  8
0
  6
Continuous
 62
     7
370
    25
100
AcDbLine
 10
0.0941321515
 20
0.1678233161
 30
0.0
 11
0.0941392611
 21
0.1678208496
 31
0.0
  0
ARC
  5
31C
330
1F
100
AcDbEntity
  8
0
  6
Continuous
 62
     7
370
    25
100
AcDbCircle
 10
0.0941765753
 20
0.1678307643
 30
0.0
 40
0.00003861
100
AcDbArc
 50
194.8797436153
 51
216.8455085641
  0
LINE
  5
31D
330
1F
100
AcDbEntity
  8
0
  6
Continuous
 62
     7
370
    25
100
AcDbLine
 10
0.0941840242
 20
0.1677863412
 30
0.0
 11
0.0941864895
 21
0.167793449
 31
0.0
  0
ARC
  5
31E
330
1F
100
AcDbEntity
  8
0
  6
Continuous
 62
     7
370
    25
100
AcDbCircle
 10
0.0941765753
 20
0.1678307643
 30
0.0
 40
0.00003861
100
AcDbArc
 50
284.8797436153
 51
306.8455085641
  0
LINE
  5
31F
330
1F
100
AcDbEntity
  8
0
  6
Continuous
 62
     7
370
    25
100
AcDbLine
 10
0.0941997289
 20
0.1677998665
 30
0.0
 11
0.0942068361
 21
0.1677974
 31
0.0
  0
ARC
  5
320
330
1F
100
AcDbEntity
  8
0
  6
Continuous
 62
     7
370
    25
100
AcDbCircle
 10
0.0941765753
 20
0.1678307643
 30
0.0
 40
0.0000450432666988
100
AcDbArc
 50
279.517919348
 51
312.2073328314
  0
LINE
  5
321
330
1F
100
AcDbEntity
  8
0
  6
Continuous
 62
     7
370
    25
100
AcDbLine
 10
0.0942074727
 20
0.1678539172
 30
0.0
 11
0.0942099403
 21
0.1678610251
 31
0.0
  0
ARC
  5
322
330
1F
100
AcDbEntity
  8
0
  6
Continuous
 62
     7
370
    25
100
AcDbCircle
 10
0.0941765753
 20
0.1678307643
 30
0.0
 40
0.0000450432666988
100
AcDbArc
 50
9.517919348
 51
42.2073328314
  0
ARC
  5
323
330
1F
100
AcDbEntity
  8
0
  6
Continuous
 62
     7
370
    25
100
AcDbCircle
 10
0.0941765753
 20
0.1678307643
 30
0.0
 40
0.00003861
100
AcDbArc
 50
14.8797436154
 51
36.8455085641
  0
LINE
  5
324
330
1F
100
AcDbEntity
  8
0
  6
Continuous
 62
     7
370
    25
100
AcDbLine
 10
0.0942209982
 20
0.1678382125
 30
0.0
 11
0.0942138909
 21
0.1678406791
 31
0.0
  0
LINE
  5
325
330
1F
100
AcDbEntity
  8
0
  6
Continuous
 62
     7
370
    25
100
AcDbLine
 10
0.0941699814
 20
0.1678776477
 30
0.0
 11
0.0942107939
 21
0.1678634853
 31
0.0
  0
LINE
  5
326
330
1F
100
AcDbEntity
  8
0
  6
Continuous
 62
     7
370
    25
100
AcDbLine
 10
0.0941850184
 20
0.1679209822
 30
0.0
 11
0.0942258309
 21
0.1679068198
 31
0.0
  0
LINE
  5
327
330
1F
100
AcDbEntity
  8
0
  6
Continuous
 62
     7
370
    25
100
AcDbLine
 10
0.094129691
 20
0.1678241698
 30
0.0
 11
0.0941438555
 21
0.1678649824
 31
0.0
  0
LINE
  5
328
330
1F
100
AcDbEntity
  8
0
  6
Continuous
 62
     7
370
    25
100
AcDbLine
 10
0.0940863584
 20
0.1678392075
 30
0.0
 11
0.0941005205
 21
0.1678800201
 31
0.0
  0
LINE
  5
329
330
1F
100
AcDbEntity
  8
0
  6
Continuous
 62
     7
370
    25
100
AcDbLine
 10
0.0941691278
 20
0.1678751875
 30
0.0
 11
0.0941666602
 21
0.1678680796
 31
0.0
  0
ARC
  5
32A
330
1F
100
AcDbEntity
  8
0
  6
Continuous
 62
     7
370
    25
100
AcDbCircle
 10
0.0941765753
 20
0.1678307643
 30
0.0
 40
0.00003861
100
AcDbArc
 50
104.8797436153
 51
126.845508564
  0
ARC
  5
32B
330
1F
100
AcDbEntity
  8
0
  6
Continuous
 62
     7
370
    25
100
AcDbCircle
 10
0.0941765753
 20
0.1678307643
 30
0.0
 40
0.0000450432666988
100
AcDbArc
 50
99.517919348
 51
132.2073328314
  0
LINE
  5
32C
330
1F
100
AcDbEntity
  8
0
  6
Continuous
 62
     7
370
    25
100
AcDbLine
 10
0.0941534232
 20
0.1678616622
 30
0.0
 11
0.0941463136
 21
0.1678641287
 31
0.0
  0
LINE
  5
32D
330
1F
100
AcDbEntity
  8
0
  6
Continuous
 62
     7
370
    25
100
AcDbLine
 10
0.0941831707
 20
0.167783881
 30
0.0
 11
0.0941423582
 21
0.1677980434
 31
0.0
  0
LINE
  5
32E
330
1F
100
AcDbEntity
  8
0
  6
Continuous
 62
     7
370
    25
100
AcDbLine
 10
0.0941681313
 20
0.1677405464
 30
0.0
 11
0.0941273188
 21
0.1677547088
 31
0.0
  0
LINE
  5
32F
330
1F
100
AcDbEntity
  8
0
  6
Continuous
 62
     7
370
    25
100
AcDbLine
 10
0.0942234587
 20
0.1678373588
 30
0.0
 11
0.0942092966
 21
0.1677965462
 31
0.0
  0
LINE
  5
330
330
1F
100
AcDbEntity
  8
0
  6
Continuous
 62
     7
370
    25
100
AcDbLine
 10
0.0942667936
 20
0.1678223212
 30
0.0
 11
0.0942526316
 21
0.1677815086
 31
0.0
  0
LINE
  5
331
330
1F
100
AcDbEntity
  8
0
  6
Continuous
 62
     7
370
    25
100
AcDbLine
 10
0.0941321515
 20
0.1678233161
 30
0.0
 11
0.0940863584
 21
0.1678392075
 31
0.0
  0
LINE
  5
332
330
1F
100
AcDbEntity
  8
0
  6
Continuous
 62
     7
370
    25
100
AcDbLine
 10
0.0941273188
 20
0.1677547088
 30
0.0
 11
0.0941432117
 21
0.1678005036
 31
0.0
  0
LINE
  5
333
330
1F
100
AcDbEntity
  8
0
  6
Continuous
 62
     7
370
    25
100
AcDbLine
 10
0.0941840242
 20
0.1677863412
 30
0.0
 11
0.0941681313
 21
0.1677405464
 31
0.0
  0
LINE
  5
334
330
1F
100
AcDbEntity
  8
0
  6
Continuous
 62
     7
370
    25
100
AcDbLine
 10
0.0942258309
 20
0.1679068198
 30
0.0
 11
0.0942099403
 21
0.1678610251
 31
0.0
  0
LINE
  5
335
330
1F
100
AcDbEntity
  8
0
  6
Continuous
 62
     7
370
    25
100
AcDbLine
 10
0.0941691278
 20
0.1678751875
 30
0.0
 11
0.0941850184
 21
0.1679209822
 31
0.0
  0
CIRCLE
  5
336
330
1F
100
AcDbEntity
  8
0
  6
Continuous
 62
     7
370
    25
100
AcDbCircle
 10
0.0941765753
 20
0.1678307643
 30
0.0
 40
0.000158
  0
LINE
  5
337
330
1F
100
AcDbEntity
  8
0
  6
Continuous
 62
     7
370
    25
100
AcDbLine
 10
0.0941005205
 20
0.1678800201
 30
0.0
 11
0.0941463136
 21
0.1678641287
 31
0.0
  0
LINE
  5
338
330
1F
100
AcDbEntity
  8
0
  6
Continuous
 62
     7
370
    25
100
AcDbLine
 10
0.0942526316
 20
0.1677815086
 30
0.0
 11
0.0942068361
 21
0.1677974
 31
0.0
  0
LINE
  5
339
330
1F
100
AcDbEntity
  8
0
  6
Continuous
 62
     7
370
    25
100
AcDbLine
 10
0.0942209982
 20
0.1678382125
 30
0.0
 11
0.0942667936
 21
0.1678223212
 31
0.0
  0
ARC
  5
33A
330
1F
100
AcDbEntity
  8
0
  6
Continuous
 62
     7
370
    25
100
AcDbCircle
 10
0.0941765753
 20
0.1678307643
 30
0.0
 40
0.00003861
100
AcDbArc
 50
216.8455085641
 51
284.8797436153
  0
ARC
  5
33B
330
1F
100
AcDbEntity
  8
0
  6
Continuous
 62
     7
370
    25
100
AcDbCircle
 10
0.0941765753
 20
0.1678307643
 30
0.0
 40
0.00003861
100
AcDbArc
 50
306.8455085641
 51
14.8797436154
  0
ARC
  5
33C
330
1F
100
AcDbEntity
  8
0
  6
Continuous
 62
     7
370
    25
100
AcDbCircle
 10
0.0941765753
 20
0.1678307643
 30
0.0
 40
0.00003861
100
AcDbArc
 50
126.845508564
 51
194.8797436153
  0
ARC
  5
33D
330
1F
100
AcDbEntity
  8
0
  6
Continuous
 62
     7
370
    25
100
AcDbCircle
 10
0.0941765753
 20
0.1678307643
 30
0.0
 40
0.00003861
100
AcDbArc
 50
36.8455085641
 51
104.8797436153
  0
LINE
  5
33E
330
1F
100
AcDbEntity
  8
0
  6
Continuous
 62
     7
370
    25
100
AcDbLine
 10
0.1254553591
 20
0.1839305704
 30
0.0
 11
0.1254504358
 21
0.1839362603
 31
0.0
  0
ARC
  5
33F
330
1F
100
AcDbEntity
  8
0
  6
Continuous
 62
     7
370
    25
100
AcDbCircle
 10
0.1254599607
 20
0.1838922353
 30
0.0
 40
0.0000450432666988
100
AcDbArc
 50
69.517919348
 51
102.2073328314
  0
LINE
  5
340
330
1F
100
AcDbEntity
  8
0
  6
Continuous
 62
     7
370
    25
100
AcDbLine
 10
0.1254757225
 20
0.1839344316
 30
0.0
 11
0.1254700314
 21
0.1839295082
 31
0.0
  0
ARC
  5
341
330
1F
100
AcDbEntity
  8
0
  6
Continuous
 62
     7
370
    25
100
AcDbCircle
 10
0.1254599607
 20
0.1838922353
 30
0.0
 40
0.00003861
100
AcDbArc
 50
74.8797436153
 51
96.8455085641
  0
LINE
  5
342
330
1F
100
AcDbEntity
  8
0
  6
Continuous
 62
     7
370
    25
100
AcDbLine
 10
0.1254177653
 20
0.1839079969
 30
0.0
 11
0.1254226874
 21
0.1839023071
 31
0.0
  0
ARC
  5
343
330
1F
100
AcDbEntity
  8
0
  6
Continuous
 62
     7
370
    25
100
AcDbCircle
 10
0.1254599607
 20
0.1838922353
 30
0.0
 40
0.00003861
100
AcDbArc
 50
164.8797436153
 51
186.8455085641
  0
LINE
  5
344
330
1F
100
AcDbEntity
  8
0
  6
Continuous
 62
     7
370
    25
100
AcDbLine
 10
0.1254216265
 20
0.1838876336
 30
0.0
 11
0.1254159354
 21
0.1838827114
 31
0.0
  0
ARC
  5
345
330
1F
100
AcDbEntity
  8
0
  6
Continuous
 62
     7
370
    25
100
AcDbCircle
 10
0.1254599607
 20
0.1838922353
 30
0.0
 40
0.0000450432666988
100
AcDbArc
 50
159.517919348
 51
192.2073328314
  0
LINE
  5
346
330
1F
100
AcDbEntity
  8
0
  6
Continuous
 62
     7
370
    25
100
AcDbLine
 10
0.1254645633
 20
0.1838539009
 30
0.0
 11
0.1254694854
 21
0.1838482111
 31
0.0
  0
ARC
  5
347
330
1F
100
AcDbEntity
  8
0
  6
Continuous
 62
     7
370
    25
100
AcDbCircle
 10
0.1254599607
 20
0.1838922353
 30
0.0
 40
0.0000450432666988
100
AcDbArc
 50
249.517919348
 51
282.2073328314
  0
ARC
  5
348
330
1F
100
AcDbEntity
  8
0
  6
Continuous
 62
     7
370
    25
100
AcDbCircle
 10
0.1254599607
 20
0.1838922353
 30
0.0
 40
0.00003861
100
AcDbArc
 50
254.8797436154
 51
276.8455085641
  0
LINE
  5
349
330
1F
100
AcDbEntity
  8
0
  6
Continuous
 62
     7
370
    25
100
AcDbLine
 10
0.1254441999
 20
0.1838500398
 30
0.0
 11
0.1254498898
 21
0.1838549619
 31
0.0
  0
LINE
  5
34A
330
1F
100
AcDbEntity
  8
0
  6
Continuous
 62
     7
370
    25
100
AcDbLine
 10
0.1255038606
 20
0.1838745051
 30
0.0
 11
0.1254711889
 21
0.1838462406
 31
0.0
  0
LINE
  5
34B
330
1F
100
AcDbEntity
  8
0
  6
Continuous
 62
     7
370
    25
100
AcDbLine
 10
0.1255338704
 20
0.183839814
 30
0.0
 11
0.1255011987
 21
0.1838115507
 31
0.0
  0
LINE
  5
34C
330
1F
100
AcDbEntity
  8
0
  6
Continuous
 62
     7
370
    25
100
AcDbLine
 10
0.1254776918
 20
0.1839361351
 30
0.0
 11
0.1255059551
 21
0.1839034634
 31
0.0
  0
LINE
  5
34D
330
1F
100
AcDbEntity
  8
0
  6
Continuous
 62
     7
370
    25
100
AcDbLine
 10
0.1255123817
 20
0.1839661448
 30
0.0
 11
0.125540645
 21
0.1839334731
 31
0.0
  0
LINE
  5
34E
330
1F
100
AcDbEntity
  8
0
  6
Continuous
 62
     7
370
    25
100
AcDbLine
 10
0.1255021559
 20
0.1838764744
 30
0.0
 11
0.1254972338
 21
0.1838821643
 31
0.0
  0
ARC
  5
34F
330
1F
100
AcDbEntity
  8
0
  6
Continuous
 62
     7
370
    25
100
AcDbCircle
 10
0.1254599607
 20
0.1838922353
 30
0.0
 40
0.00003861
100
AcDbArc
 50
344.8797436153
 51
6.8455085641
  0
ARC
  5
350
330
1F
100
AcDbEntity
  8
0
  6
Continuous
 62
     7
370
    25
100
AcDbCircle
 10
0.1254599607
 20
0.1838922353
 30
0.0
 40
0.0000450432666988
100
AcDbArc
 50
339.517919348
 51
12.2073328314
  0
LINE
  5
351
330
1F
100
AcDbEntity
  8
0
  6
Continuous
 62
     7
370
    25
100
AcDbLine
 10
0.1254982959
 20
0.1838968377
 30
0.0
 11
0.1255039858
 21
0.1839017599
 31
0.0
  0
LINE
  5
352
330
1F
100
AcDbEntity
  8
0
  6
Continuous
 62
     7
370
    25
100
AcDbLine
 10
0.1254422294
 20
0.1838483363
 30
0.0
 11
0.1254139661
 21
0.1838810068
 31
0.0
  0
LINE
  5
353
330
1F
100
AcDbEntity
  8
0
  6
Continuous
 62
     7
370
    25
100
AcDbLine
 10
0.1254075395
 20
0.1838183253
 30
0.0
 11
0.1253792762
 21
0.183850997
 31
0.0
  0
LINE
  5
354
330
1F
100
AcDbEntity
  8
0
  6
Continuous
 62
     7
370
    25
100
AcDbLine
 10
0.1254160618
 20
0.1839099663
 30
0.0
 11
0.1254487323
 21
0.1839382296
 31
0.0
  0
LINE
  5
355
330
1F
100
AcDbEntity
  8
0
  6
Continuous
 62
     7
370
    25
100
AcDbLine
 10
0.1253860508
 20
0.1839446562
 30
0.0
 11
0.1254187225
 21
0.1839729195
 31
0.0
  0
LINE
  5
356
330
1F
100
AcDbEntity
  8
0
  6
Continuous
 62
     7
370
    25
100
AcDbLine
 10
0.1254187225
 20
0.1839729195
 30
0.0
 11
0.1254504358
 21
0.1839362603
 31
0.0
  0
LINE
  5
357
330
1F
100
AcDbEntity
  8
0
  6
Continuous
 62
     7
370
    25
100
AcDbLine
 10
0.1254757225
 20
0.1839344316
 30
0.0
 11
0.1255123817
 21
0.1839661448
 31
0.0
  0
LINE
  5
358
330
1F
100
AcDbEntity
  8
0
  6
Continuous
 62
     7
370
    25
100
AcDbLine
 10
0.1254177653
 20
0.1839079969
 30
0.0
 11
0.1253860508
 21
0.1839446562
 31
0.0
  0
LINE
  5
359
330
1F
100
AcDbEntity
  8
0
  6
Continuous
 62
     7
370
    25
100
AcDbLine
 10
0.1255011987
 20
0.1838115507
 30
0.0
 11
0.1254694854
 21
0.1838482111
 31
0.0
  0
LINE
  5
35A
330
1F
100
AcDbEntity
  8
0
  6
Continuous
 62
     7
370
    25
100
AcDbLine
 10
0.1255021559
 20
0.1838764744
 30
0.0
 11
0.1255338704
 21
0.183839814
 31
0.0
  0
CIRCLE
  5
35B
330
1F
100
AcDbEntity
  8
0
  6
Continuous
 62
     7
370
    25
100
AcDbCircle
 10
0.1254599607
 20
0.1838922353
 30
0.0
 40
0.000158
  0
LINE
  5
35C
330
1F
100
AcDbEntity
  8
0
  6
Continuous
 62
     7
370
    25
100
AcDbLine
 10
0.125540645
 20
0.1839334731
 30
0.0
 11
0.1255039858
 21
0.1839017599
 31
0.0
  0
LINE
  5
35D
330
1F
100
AcDbEntity
  8
0
  6
Continuous
 62
     7
370
    25
100
AcDbLine
 10
0.1253792762
 20
0.183850997
 30
0.0
 11
0.1254159354
 21
0.1838827114
 31
0.0
  0
LINE
  5
35E
330
1F
100
AcDbEntity
  8
0
  6
Continuous
 62
     7
370
    25
100
AcDbLine
 10
0.1254441999
 20
0.1838500398
 30
0.0
 11
0.1254075395
 21
0.1838183253
 31
0.0
  0
ARC
  5
35F
330
1F
100
AcDbEntity
  8
0
  6
Continuous
 62
     7
370
    25
100
AcDbCircle
 10
0.1254599607
 20
0.1838922353
 30
0.0
 40
0.00003861
100
AcDbArc
 50
96.8455085641
 51
164.8797436153
  0
ARC
  5
360
330
1F
100
AcDbEntity
  8
0
  6
Continuous
 62
     7
370
    25
100
AcDbCircle
 10
0.1254599607
 20
0.1838922353
 30
0.0
 40
0.00003861
100
AcDbArc
 50
6.8455085641
 51
74.8797436153
  0
ARC
  5
361
330
1F
100
AcDbEntity
  8
0
  6
Continuous
 62
     7
370
    25
100
AcDbCircle
 10
0.1254599607
 20
0.1838922353
 30
0.0
 40
0.00003861
100
AcDbArc
 50
276.8455085641
 51
344.8797436153
  0
ARC
  5
362
330
1F
100
AcDbEntity
  8
0
  6
Continuous
 62
     7
370
    25
100
AcDbCircle
 10
0.1254599607
 20
0.1838922353
 30
0.0
 40
0.00003861
100
AcDbArc
 50
186.8455085641
 51
254.8797436154
  0
LINE
  5
363
330
1F
100
AcDbEntity
  8
0
  6
Continuous
 62
     7
370
    25
100
AcDbLine
 10
0.1347639536
 20
0.1658539171
 30
0.0
 11
0.1347664188
 21
0.1658610251
 31
0.0
  0
ARC
  5
364
330
1F
100
AcDbEntity
  8
0
  6
Continuous
 62
     7
370
    25
100
AcDbCircle
 10
0.1347330553
 20
0.1658307643
 30
0.0
 40
0.0000450432666988
100
AcDbArc
 50
9.517919348
 51
42.2073328314
  0
LINE
  5
365
330
1F
100
AcDbEntity
  8
0
  6
Continuous
 62
     7
370
    25
100
AcDbLine
 10
0.1347774791
 20
0.1658382125
 30
0.0
 11
0.1347703694
 21
0.165840679
 31
0.0
  0
ARC
  5
366
330
1F
100
AcDbEntity
  8
0
  6
Continuous
 62
     7
370
    25
100
AcDbCircle
 10
0.1347330553
 20
0.1658307643
 30
0.0
 40
0.00003861
100
AcDbArc
 50
14.8797436153
 51
36.8455085641
  0
LINE
  5
367
330
1F
100
AcDbEntity
  8
0
  6
Continuous
 62
     7
370
    25
100
AcDbLine
 10
0.1347256063
 20
0.1658751875
 30
0.0
 11
0.1347231411
 21
0.1658680797
 31
0.0
  0
ARC
  5
368
330
1F
100
AcDbEntity
  8
0
  6
Continuous
 62
     7
370
    25
100
AcDbCircle
 10
0.1347330553
 20
0.1658307643
 30
0.0
 40
0.00003861
100
AcDbArc
 50
104.8797436153
 51
126.845508564
  0
LINE
  5
369
330
1F
100
AcDbEntity
  8
0
  6
Continuous
 62
     7
370
    25
100
AcDbLine
 10
0.1347099017
 20
0.1658616622
 30
0.0
 11
0.1347027945
 21
0.1658641287
 31
0.0
  0
ARC
  5
36A
330
1F
100
AcDbEntity
  8
0
  6
Continuous
 62
     7
370
    25
100
AcDbCircle
 10
0.1347330553
 20
0.1658307643
 30
0.0
 40
0.0000450432666988
100
AcDbArc
 50
99.517919348
 51
132.2073328314
  0
LINE
  5
36B
330
1F
100
AcDbEntity
  8
0
  6
Continuous
 62
     7
370
    25
100
AcDbLine
 10
0.1347021579
 20
0.1658076115
 30
0.0
 11
0.1346996902
 21
0.1658005036
 31
0.0
  0
ARC
  5
36C
330
1F
100
AcDbEntity
  8
0
  6
Continuous
 62
     7
370
    25
100
AcDbCircle
 10
0.1347330553
 20
0.1658307643
 30
0.0
 40
0.0000450432666988
100
AcDbArc
 50
189.517919348
 51
222.2073328314
  0
ARC
  5
36D
330
1F
100
AcDbEntity
  8
0
  6
Continuous
 62
     7
370
    25
100
AcDbCircle
 10
0.1347330553
 20
0.1658307643
 30
0.0
 40
0.00003861
100
AcDbArc
 50
194.8797436153
 51
216.8455085641
  0
LINE
  5
36E
330
1F
100
AcDbEntity
  8
0
  6
Continuous
 62
     7
370
    25
100
AcDbLine
 10
0.1346886324
 20
0.1658233161
 30
0.0
 11
0.1346957396
 21
0.1658208496
 31
0.0
  0
LINE
  5
36F
330
1F
100
AcDbEntity
  8
0
  6
Continuous
 62
     7
370
    25
100
AcDbLine
 10
0.1347396492
 20
0.1657838809
 30
0.0
 11
0.1346988367
 21
0.1657980434
 31
0.0
  0
LINE
  5
370
330
1F
100
AcDbEntity
  8
0
  6
Continuous
 62
     7
370
    25
100
AcDbLine
 10
0.1347246121
 20
0.1657405464
 30
0.0
 11
0.1346837996
 21
0.1657547089
 31
0.0
  0
LINE
  5
371
330
1F
100
AcDbEntity
  8
0
  6
Continuous
 62
     7
370
    25
100
AcDbLine
 10
0.1347799396
 20
0.1658373588
 30
0.0
 11
0.1347657751
 21
0.1657965463
 31
0.0
  0
LINE
  5
372
330
1F
100
AcDbEntity
  8
0
  6
Continuous
 62
     7
370
    25
100
AcDbLine
 10
0.1348232721
 20
0.1658223212
 30
0.0
 11
0.1348091101
 21
0.1657815086
 31
0.0
  0
LINE
  5
373
330
1F
100
AcDbEntity
  8
0
  6
Continuous
 62
     7
370
    25
100
AcDbLine
 10
0.1347405027
 20
0.1657863411
 30
0.0
 11
0.1347429704
 21
0.1657934491
 31
0.0
  0
ARC
  5
374
330
1F
100
AcDbEntity
  8
0
  6
Continuous
 62
     7
370
    25
100
AcDbCircle
 10
0.1347330553
 20
0.1658307643
 30
0.0
 40
0.00003861
100
AcDbArc
 50
284.8797436154
 51
306.8455085641
  0
ARC
  5
375
330
1F
100
AcDbEntity
  8
0
  6
Continuous
 62
     7
370
    25
100
AcDbCircle
 10
0.1347330553
 20
0.1658307643
 30
0.0
 40
0.0000450432666988
100
AcDbArc
 50
279.517919348
 51
312.2073328314
  0
LINE
  5
376
330
1F
100
AcDbEntity
  8
0
  6
Continuous
 62
     7
370
    25
100
AcDbLine
 10
0.1347562074
 20
0.1657998665
 30
0.0
 11
0.134763317
 21
0.1657973999
 31
0.0
  0
LINE
  5
377
330
1F
100
AcDbEntity
  8
0
  6
Continuous
 62
     7
370
    25
100
AcDbLine
 10
0.1346861719
 20
0.1658241699
 30
0.0
 11
0.134700334
 21
0.1658649824
 31
0.0
  0
LINE
  5
378
330
1F
100
AcDbEntity
  8
0
  6
Continuous
 62
     7
370
    25
100
AcDbLine
 10
0.1346428369
 20
0.1658392075
 30
0.0
 11
0.134656999
 21
0.16588002
 31
0.0
  0
LINE
  5
379
330
1F
100
AcDbEntity
  8
0
  6
Continuous
 62
     7
370
    25
100
AcDbLine
 10
0.1347414993
 20
0.1659209823
 30
0.0
 11
0.1347823118
 21
0.1659068198
 31
0.0
  0
LINE
  5
37A
330
1F
100
AcDbEntity
  8
0
  6
Continuous
 62
     7
370
    25
100
AcDbLine
 10
0.1347774791
 20
0.1658382125
 30
0.0
 11
0.1348232721
 21
0.1658223212
 31
0.0
  0
LINE
  5
37B
330
1F
100
AcDbEntity
  8
0
  6
Continuous
 62
     7
370
    25
100
AcDbLine
 10
0.1347256063
 20
0.1658751875
 30
0.0
 11
0.1347414993
 21
0.1659209823
 31
0.0
  0
LINE
  5
37C
330
1F
100
AcDbEntity
  8
0
  6
Continuous
 62
     7
370
    25
100
AcDbLine
 10
0.1346837996
 20
0.1657547089
 30
0.0
 11
0.1346996902
 21
0.1658005036
 31
0.0
  0
LINE
  5
37D
330
1F
100
AcDbEntity
  8
0
  6
Continuous
 62
     7
370
    25
100
AcDbLine
 10
0.1347823118
 20
0.1659068198
 30
0.0
 11
0.1347664188
 21
0.1658610251
 31
0.0
  0
LINE
  5
37E
330
1F
100
AcDbEntity
  8
0
  6
Continuous
 62
     7
370
    25
100
AcDbLine
 10
0.1347405027
 20
0.1657863411
 30
0.0
 11
0.1347246121
 21
0.1657405464
 31
0.0
  0
CIRCLE
  5
37F
330
1F
100
AcDbEntity
  8
0
  6
Continuous
 62
     7
370
    25
100
AcDbCircle
 10
0.1347330553
 20
0.1658307643
 30
0.0
 40
0.000158
  0
LINE
  5
380
330
1F
100
AcDbEntity
  8
0
  6
Continuous
 62
     7
370
    25
100
AcDbLine
 10
0.1348091101
 20
0.1657815086
 30
0.0
 11
0.134763317
 21
0.1657973999
 31
0.0
  0
LINE
  5
381
330
1F
100
AcDbEntity
  8
0
  6
Continuous
 62
     7
370
    25
100
AcDbLine
 10
0.134656999
 20
0.16588002
 30
0.0
 11
0.1347027945
 21
0.1658641287
 31
0.0
  0
LINE
  5
382
330
1F
100
AcDbEntity
  8
0
  6
Continuous
 62
     7
370
    25
100
AcDbLine
 10
0.1346886324
 20
0.1658233161
 30
0.0
 11
0.1346428369
 21
0.1658392075
 31
0.0
  0
LINE
  5
383
330
1F
100
AcDbEntity
  8
0
  6
Continuous
 62
     7
370
    25
100
AcDbLine
 10
0.1347264599
 20
0.1658776477
 30
0.0
 11
0.1347672724
 21
0.1658634853
 31
0.0
  0
ARC
  5
384
330
1F
100
AcDbEntity
  8
0
  6
Continuous
 62
     7
370
    25
100
AcDbCircle
 10
0.1347330553
 20
0.1658307643
 30
0.0
 40
0.00003861
100
AcDbArc
 50
36.8455085641
 51
104.8797436153
  0
ARC
  5
385
330
1F
100
AcDbEntity
  8
0
  6
Continuous
 62
     7
370
    25
100
AcDbCircle
 10
0.1347330553
 20
0.1658307643
 30
0.0
 40
0.00003861
100
AcDbArc
 50
306.8455085641
 51
14.8797436153
  0
ARC
  5
386
330
1F
100
AcDbEntity
  8
0
  6
Continuous
 62
     7
370
    25
100
AcDbCircle
 10
0.1347330553
 20
0.1658307643
 30
0.0
 40
0.00003861
100
AcDbArc
 50
126.845508564
 51
194.8797436153
  0
ARC
  5
387
330
1F
100
AcDbEntity
  8
0
  6
Continuous
 62
     7
370
    25
100
AcDbCircle
 10
0.1347330553
 20
0.1658307643
 30
0.0
 40
0.00003861
100
AcDbArc
 50
216.8455085641
 51
284.8797436154
  0
LINE
  5
388
330
1F
100
AcDbEntity
  8
0
  6
Continuous
 62
     7
370
    25
100
AcDbLine
 10
0.1051944785
 20
0.1487328523
 30
0.0
 11
0.1052005117
 21
0.1487283569
 31
0.0
  0
ARC
  5
389
330
1F
100
AcDbEntity
  8
0
  6
Continuous
 62
     7
370
    25
100
AcDbCircle
 10
0.1051817207
 20
0.1487692933
 30
0.0
 40
0.0000450432666988
100
AcDbArc
 50
261.9670712931
 51
294.6564847766
  0
LINE
  5
38A
330
1F
100
AcDbEntity
  8
0
  6
Continuous
 62
     7
370
    25
100
AcDbLine
 10
0.1051754265
 20
0.1487246924
 30
0.0
 11
0.1051799213
 21
0.1487307256
 31
0.0
  0
ARC
  5
38B
330
1F
100
AcDbEntity
  8
0
  6
Continuous
 62
     7
370
    25
100
AcDbCircle
 10
0.1051817207
 20
0.1487692933
 30
0.0
 40
0.00003861
100
AcDbArc
 50
267.3288955605
 51
289.2946605092
  0
LINE
  5
38C
330
1F
100
AcDbEntity
  8
0
  6
Continuous
 62
     7
370
    25
100
AcDbLine
 10
0.1052263217
 20
0.1487629991
 30
0.0
 11
0.1052202885
 21
0.1487674945
 31
0.0
  0
ARC
  5
38D
330
1F
100
AcDbEntity
  8
0
  6
Continuous
 62
     7
370
    25
100
AcDbCircle
 10
0.1051817207
 20
0.1487692933
 30
0.0
 40
0.00003861
100
AcDbArc
 50
357.3288955605
 51
19.2946605092
  0
LINE
  5
38E
330
1F
100
AcDbEntity
  8
0
  6
Continuous
 62
     7
370
    25
100
AcDbLine
 10
0.1052181618
 20
0.1487820511
 30
0.0
 11
0.1052226572
 21
0.1487880843
 31
0.0
  0
ARC
  5
38F
330
1F
100
AcDbEntity
  8
0
  6
Continuous
 62
     7
370
    25
100
AcDbCircle
 10
0.1051817207
 20
0.1487692933
 30
0.0
 40
0.0000450432666988
100
AcDbArc
 50
351.9670712931
 51
24.6564847766
  0
LINE
  5
390
330
1F
100
AcDbEntity
  8
0
  6
Continuous
 62
     7
370
    25
100
AcDbLine
 10
0.105168963
 20
0.1488057344
 30
0.0
 11
0.1051629298
 21
0.1488102298
 31
0.0
  0
ARC
  5
391
330
1F
100
AcDbEntity
  8
0
  6
Continuous
 62
     7
370
    25
100
AcDbCircle
 10
0.1051817207
 20
0.1487692933
 30
0.0
 40
0.0000450432666988
100
AcDbArc
 50
81.9670712932
 51
114.6564847766
  0
ARC
  5
392
330
1F
100
AcDbEntity
  8
0
  6
Continuous
 62
     7
370
    25
100
AcDbCircle
 10
0.1051817207
 20
0.1487692933
 30
0.0
 40
0.00003861
100
AcDbArc
 50
87.3288955605
 51
109.2946605092
  0
LINE
  5
393
330
1F
100
AcDbEntity
  8
0
  6
Continuous
 62
     7
370
    25
100
AcDbLine
 10
0.105188015
 20
0.1488138943
 30
0.0
 11
0.1051835202
 21
0.1488078611
 31
0.0
  0
LINE
  5
394
330
1F
100
AcDbEntity
  8
0
  6
Continuous
 62
     7
370
    25
100
AcDbLine
 10
0.1051350312
 20
0.1487771433
 30
0.0
 11
0.1051608412
 21
0.1488117855
 31
0.0
  0
LINE
  5
395
330
1F
100
AcDbEntity
  8
0
  6
Continuous
 62
     7
370
    25
100
AcDbLine
 10
0.1050982486
 20
0.1488045483
 30
0.0
 11
0.1051240586
 21
0.1488391905
 31
0.0
  0
LINE
  5
396
330
1F
100
AcDbEntity
  8
0
  6
Continuous
 62
     7
370
    25
100
AcDbLine
 10
0.1051738702
 20
0.1487226038
 30
0.0
 11
0.1051392286
 21
0.1487484138
 31
0.0
  0
LINE
  5
397
330
1F
100
AcDbEntity
  8
0
  6
Continuous
 62
     7
370
    25
100
AcDbLine
 10
0.1051464652
 20
0.1486858206
 30
0.0
 11
0.105111823
 21
0.1487116318
 31
0.0
  0
ARC
  5
398
330
1F
100
AcDbEntity
  8
0
  6
Continuous
 62
     7
370
    25
100
AcDbCircle
 10
0.1051817207
 20
0.1487692933
 30
0.0
 40
0.00003861
100
AcDbArc
 50
177.3288955605
 51
199.2946605093
  0
ARC
  5
399
330
1F
100
AcDbEntity
  8
0
  6
Continuous
 62
     7
370
    25
100
AcDbCircle
 10
0.1051817207
 20
0.1487692933
 30
0.0
 40
0.0000450432666988
100
AcDbArc
 50
171.9670712932
 51
204.6564847766
  0
LINE
  5
39A
330
1F
100
AcDbEntity
  8
0
  6
Continuous
 62
     7
370
    25
100
AcDbLine
 10
0.1051371192
 20
0.1487755876
 30
0.0
 11
0.1051431524
 21
0.1487710922
 31
0.0
  0
LINE
  5
39B
330
1F
100
AcDbEntity
  8
0
  6
Continuous
 62
     7
370
    25
100
AcDbLine
 10
0.1051452791
 20
0.1487565356
 30
0.0
 11
0.1051407843
 21
0.1487505024
 31
0.0
  0
LINE
  5
39C
330
1F
100
AcDbEntity
  8
0
  6
Continuous
 62
     7
370
    25
100
AcDbLine
 10
0.1052393829
 20
0.1486993962
 30
0.0
 11
0.1052005117
 21
0.1487283569
 31
0.0
  0
LINE
  5
39D
330
1F
100
AcDbEntity
  8
0
  6
Continuous
 62
     7
370
    25
100
AcDbLine
 10
0.1052651929
 20
0.1487340384
 30
0.0
 11
0.1052393829
 21
0.1486993962
 31
0.0
  0
LINE
  5
39E
330
1F
100
AcDbEntity
  8
0
  6
Continuous
 62
     7
370
    25
100
AcDbLine
 10
0.1052169763
 20
0.1488527661
 30
0.0
 11
0.1052516179
 21
0.1488269549
 31
0.0
  0
LINE
  5
39F
330
1F
100
AcDbEntity
  8
0
  6
Continuous
 62
     7
370
    25
100
AcDbLine
 10
0.1051240586
 20
0.1488391905
 30
0.0
 11
0.1051629298
 21
0.1488102298
 31
0.0
  0
LINE
  5
3A0
330
1F
100
AcDbEntity
  8
0
  6
Continuous
 62
     7
370
    25
100
AcDbLine
 10
0.1051754265
 20
0.1487246924
 30
0.0
 11
0.1051464652
 21
0.1486858206
 31
0.0
  0
CIRCLE
  5
3A1
330
1F
100
AcDbEntity
  8
0
  6
Continuous
 62
     7
370
    25
100
AcDbCircle
 10
0.1051817207
 20
0.1487692933
 30
0.0
 40
0.000158
  0
LINE
  5
3A2
330
1F
100
AcDbEntity
  8
0
  6
Continuous
 62
     7
370
    25
100
AcDbLine
 10
0.1052516179
 20
0.1488269549
 30
0.0
 11
0.1052226572
 21
0.1487880843
 31
0.0
  0
LINE
  5
3A3
330
1F
100
AcDbEntity
  8
0
  6
Continuous
 62
     7
370
    25
100
AcDbLine
 10
0.1052263217
 20
0.1487629991
 30
0.0
 11
0.1052651929
 21
0.1487340384
 31
0.0
  0
LINE
  5
3A4
330
1F
100
AcDbEntity
  8
0
  6
Continuous
 62
     7
370
    25
100
AcDbLine
 10
0.1051371192
 20
0.1487755876
 30
0.0
 11
0.1050982486
 21
0.1488045483
 31
0.0
  0
LINE
  5
3A5
330
1F
100
AcDbEntity
  8
0
  6
Continuous
 62
     7
370
    25
100
AcDbLine
 10
0.105111823
 20
0.1487116318
 30
0.0
 11
0.1051407843
 21
0.1487505024
 31
0.0
  0
LINE
  5
3A6
330
1F
100
AcDbEntity
  8
0
  6
Continuous
 62
     7
370
    25
100
AcDbLine
 10
0.105188015
 20
0.1488138943
 30
0.0
 11
0.1052169763
 21
0.1488527661
 31
0.0
  0
LINE
  5
3A7
330
1F
100
AcDbEntity
  8
0
  6
Continuous
 62
     7
370
    25
100
AcDbLine
 10
0.1051895713
 20
0.1488159829
 30
0.0
 11
0.1052242129
 21
0.1487901729
 31
0.0
  0
LINE
  5
3A8
330
1F
100
AcDbEntity
  8
0
  6
Continuous
 62
     7
370
    25
100
AcDbLine
 10
0.1052284103
 20
0.1487614434
 30
0.0
 11
0.1052025997
 21
0.1487268012
 31
0.0
  0
ARC
  5
3A9
330
1F
100
AcDbEntity
  8
0
  6
Continuous
 62
     7
370
    25
100
AcDbCircle
 10
0.1051817207
 20
0.1487692933
 30
0.0
 40
0.00003861
100
AcDbArc
 50
289.2946605092
 51
357.3288955605
  0
ARC
  5
3AA
330
1F
100
AcDbEntity
  8
0
  6
Continuous
 62
     7
370
    25
100
AcDbCircle
 10
0.1051817207
 20
0.1487692933
 30
0.0
 40
0.00003861
100
AcDbArc
 50
199.2946605093
 51
267.3288955605
  0
ARC
  5
3AB
330
1F
100
AcDbEntity
  8
0
  6
Continuous
 62
     7
370
    25
100
AcDbCircle
 10
0.1051817207
 20
0.1487692933
 30
0.0
 40
0.00003861
100
AcDbArc
 50
19.2946605092
 51
87.3288955605
  0
ARC
  5
3AC
330
1F
100
AcDbEntity
  8
0
  6
Continuous
 62
     7
370
    25
100
AcDbCircle
 10
0.1051817207
 20
0.1487692933
 30
0.0
 40
0.00003861
100
AcDbArc
 50
109.2946605092
 51
177.3288955605
  0
LINE
  5
3AD
330
1F
100
AcDbEntity
  8
0
  6
Continuous
 62
     7
370
    25
100
AcDbLine
 10
0.125497899
 20
0.1497621208
 30
0.0
 11
0.1255048083
 21
0.1497650986
 31
0.0
  0
ARC
  5
3AE
330
1F
100
AcDbEntity
  8
0
  6
Continuous
 62
     7
370
    25
100
AcDbCircle
 10
0.1254599607
 20
0.1497692933
 30
0.0
 40
0.0000450432666988
100
AcDbArc
 50
321.9670712931
 51
354.6564847766
  0
LINE
  5
3AF
330
1F
100
AcDbEntity
  8
0
  6
Continuous
 62
     7
370
    25
100
AcDbLine
 10
0.1254954397
 20
0.1497415417
 30
0.0
 11
0.1254924618
 21
0.149748451
 31
0.0
  0
ARC
  5
3B0
330
1F
100
AcDbEntity
  8
0
  6
Continuous
 62
     7
370
    25
100
AcDbCircle
 10
0.1254599607
 20
0.1497692933
 30
0.0
 40
0.00003861
100
AcDbArc
 50
327.3288955605
 51
349.2946605092
  0
LINE
  5
3B1
330
1F
100
AcDbEntity
  8
0
  6
Continuous
 62
     7
370
    25
100
AcDbLine
 10
0.1254877125
 20
0.1498047715
 30
0.0
 11
0.1254808032
 21
0.1498017948
 31
0.0
  0
ARC
  5
3B2
330
1F
100
AcDbEntity
  8
0
  6
Continuous
 62
     7
370
    25
100
AcDbCircle
 10
0.1254599607
 20
0.1497692933
 30
0.0
 40
0.00003861
100
AcDbArc
 50
57.3288955605
 51
79.2946605092
  0
LINE
  5
3B3
330
1F
100
AcDbEntity
  8
0
  6
Continuous
 62
     7
370
    25
100
AcDbLine
 10
0.1254671322
 20
0.1498072319
 30
0.0
 11
0.1254641556
 21
0.1498141413
 31
0.0
  0
ARC
  5
3B4
330
1F
100
AcDbEntity
  8
0
  6
Continuous
 62
     7
370
    25
100
AcDbCircle
 10
0.1254599607
 20
0.1497692933
 30
0.0
 40
0.0000450432666988
100
AcDbArc
 50
51.9670712932
 51
84.6564847766
  0
LINE
  5
3B5
330
1F
100
AcDbEntity
  8
0
  6
Continuous
 62
     7
370
    25
100
AcDbLine
 10
0.1254220222
 20
0.1497764652
 30
0.0
 11
0.1254151129
 21
0.1497734886
 31
0.0
  0
ARC
  5
3B6
330
1F
100
AcDbEntity
  8
0
  6
Continuous
 62
     7
370
    25
100
AcDbCircle
 10
0.1254599607
 20
0.1497692933
 30
0.0
 40
0.0000450432666988
100
AcDbArc
 50
141.9670712932
 51
174.6564847766
  0
ARC
  5
3B7
330
1F
100
AcDbEntity
  8
0
  6
Continuous
 62
     7
370
    25
100
AcDbCircle
 10
0.1254599607
 20
0.1497692933
 30
0.0
 40
0.00003861
100
AcDbArc
 50
147.3288955605
 51
169.2946605092
  0
LINE
  5
3B8
330
1F
100
AcDbEntity
  8
0
  6
Continuous
 62
     7
370
    25
100
AcDbLine
 10
0.1254244815
 20
0.1497970455
 30
0.0
 11
0.1254274594
 21
0.1497901361
 31
0.0
  0
LINE
  5
3B9
330
1F
100
AcDbEntity
  8
0
  6
Continuous
 62
     7
370
    25
100
AcDbLine
 10
0.1254298173
 20
0.1497327845
 30
0.0
 11
0.1254127215
 21
0.1497724574
 31
0.0
  0
LINE
  5
3BA
330
1F
100
AcDbEntity
  8
0
  6
Continuous
 62
     7
370
    25
100
AcDbLine
 10
0.1253876924
 20
0.1497146325
 30
0.0
 11
0.1253705965
 21
0.1497543054
 31
0.0
  0
LINE
  5
3BB
330
1F
100
AcDbEntity
  8
0
  6
Continuous
 62
     7
370
    25
100
AcDbLine
 10
0.1254901039
 20
0.1498058026
 30
0.0
 11
0.1255071997
 21
0.1497661286
 31
0.0
  0
LINE
  5
3BC
330
1F
100
AcDbEntity
  8
0
  6
Continuous
 62
     7
370
    25
100
AcDbLine
 10
0.1255322288
 20
0.1498239546
 30
0.0
 11
0.1255493246
 21
0.1497842818
 31
0.0
  0
LINE
  5
3BD
330
1F
100
AcDbEntity
  8
0
  6
Continuous
 62
     7
370
    25
100
AcDbLine
 10
0.1254964696
 20
0.1497391503
 30
0.0
 11
0.1254567968
 21
0.1497220545
 31
0.0
  0
LINE
  5
3BE
330
1F
100
AcDbEntity
  8
0
  6
Continuous
 62
     7
370
    25
100
AcDbLine
 10
0.1255146216
 20
0.1496970253
 30
0.0
 11
0.1254749488
 21
0.1496799295
 31
0.0
  0
LINE
  5
3BF
330
1F
100
AcDbEntity
  8
0
  6
Continuous
 62
     7
370
    25
100
AcDbLine
 10
0.1254322087
 20
0.1497338145
 30
0.0
 11
0.125439118
 21
0.1497367924
 31
0.0
  0
ARC
  5
3C0
330
1F
100
AcDbEntity
  8
0
  6
Continuous
 62
     7
370
    25
100
AcDbCircle
 10
0.1254599607
 20
0.1497692933
 30
0.0
 40
0.00003861
100
AcDbArc
 50
237.3288955605
 51
259.2946605092
  0
ARC
  5
3C1
330
1F
100
AcDbEntity
  8
0
  6
Continuous
 62
     7
370
    25
100
AcDbCircle
 10
0.1254599607
 20
0.1497692933
 30
0.0
 40
0.0000450432666988
100
AcDbArc
 50
231.9670712931
 51
264.6564847766
  0
LINE
  5
3C2
330
1F
100
AcDbEntity
  8
0
  6
Continuous
 62
     7
370
    25
100
AcDbLine
 10
0.125452789
 20
0.1497313552
 30
0.0
 11
0.1254557656
 21
0.1497244459
 31
0.0
  0
LINE
  5
3C3
330
1F
100
AcDbEntity
  8
0
  6
Continuous
 62
     7
370
    25
100
AcDbLine
 10
0.1254954397
 20
0.1497415417
 30
0.0
 11
0.1255146216
 21
0.1496970253
 31
0.0
  0
LINE
  5
3C4
330
1F
100
AcDbEntity
  8
0
  6
Continuous
 62
     7
370
    25
100
AcDbLine
 10
0.1254052996
 20
0.1498415618
 30
0.0
 11
0.1254449724
 21
0.1498586576
 31
0.0
  0
LINE
  5
3C5
330
1F
100
AcDbEntity
  8
0
  6
Continuous
 62
     7
370
    25
100
AcDbLine
 10
0.1253705965
 20
0.1497543054
 30
0.0
 11
0.1254151129
 21
0.1497734886
 31
0.0
  0
LINE
  5
3C6
330
1F
100
AcDbEntity
  8
0
  6
Continuous
 62
     7
370
    25
100
AcDbLine
 10
0.1254322087
 20
0.1497338145
 30
0.0
 11
0.1253876924
 21
0.1497146325
 31
0.0
  0
CIRCLE
  5
3C7
330
1F
100
AcDbEntity
  8
0
  6
Continuous
 62
     7
370
    25
100
AcDbCircle
 10
0.1254599607
 20
0.1497692933
 30
0.0
 40
0.000158
  0
LINE
  5
3C8
330
1F
100
AcDbEntity
  8
0
  6
Continuous
 62
     7
370
    25
100
AcDbLine
 10
0.1254749488
 20
0.1496799295
 30
0.0
 11
0.1254557656
 21
0.1497244459
 31
0.0
  0
LINE
  5
3C9
330
1F
100
AcDbEntity
  8
0
  6
Continuous
 62
     7
370
    25
100
AcDbLine
 10
0.1254449724
 20
0.1498586576
 30
0.0
 11
0.1254641556
 21
0.1498141413
 31
0.0
  0
LINE
  5
3CA
330
1F
100
AcDbEntity
  8
0
  6
Continuous
 62
     7
370
    25
100
AcDbLine
 10
0.1254877125
 20
0.1498047715
 30
0.0
 11
0.1255322288
 21
0.1498239546
 31
0.0
  0
LINE
  5
3CB
330
1F
100
AcDbEntity
  8
0
  6
Continuous
 62
     7
370
    25
100
AcDbLine
 10
0.1255493246
 20
0.1497842818
 30
0.0
 11
0.1255048083
 21
0.1497650986
 31
0.0
  0
LINE
  5
3CC
330
1F
100
AcDbEntity
  8
0
  6
Continuous
 62
     7
370
    25
100
AcDbLine
 10
0.1254244815
 20
0.1497970455
 30
0.0
 11
0.1254052996
 21
0.1498415618
 31
0.0
  0
LINE
  5
3CD
330
1F
100
AcDbEntity
  8
0
  6
Continuous
 62
     7
370
    25
100
AcDbLine
 10
0.1254234516
 20
0.1497994368
 30
0.0
 11
0.1254631244
 21
0.1498165326
 31
0.0
  0
ARC
  5
3CE
330
1F
100
AcDbEntity
  8
0
  6
Continuous
 62
     7
370
    25
100
AcDbCircle
 10
0.1254599607
 20
0.1497692933
 30
0.0
 40
0.00003861
100
AcDbArc
 50
349.2946605092
 51
57.3288955605
  0
ARC
  5
3CF
330
1F
100
AcDbEntity
  8
0
  6
Continuous
 62
     7
370
    25
100
AcDbCircle
 10
0.1254599607
 20
0.1497692933
 30
0.0
 40
0.00003861
100
AcDbArc
 50
259.2946605092
 51
327.3288955605
  0
ARC
  5
3D0
330
1F
100
AcDbEntity
  8
0
  6
Continuous
 62
     7
370
    25
100
AcDbCircle
 10
0.1254599607
 20
0.1497692933
 30
0.0
 40
0.00003861
100
AcDbArc
 50
169.2946605092
 51
237.3288955605
  0
ARC
  5
3D1
330
1F
100
AcDbEntity
  8
0
  6
Continuous
 62
     7
370
    25
100
AcDbCircle
 10
0.1254599607
 20
0.1497692933
 30
0.0
 40
0.00003861
100
AcDbArc
 50
79.2946605092
 51
147.3288955605
  0
LINE
  5
3D2
330
1F
100
AcDbEntity
  8
0
  6
Continuous
 62
     7
370
    25
100
AcDbLine
 10
0.1237634098
 20
0.1487541109
 30
0.0
 11
0.1237707989
 21
0.1487555294
 31
0.0
  0
ARC
  5
3D3
330
1F
100
AcDbEntity
  8
0
  6
Continuous
 62
     7
370
    25
100
AcDbCircle
 10
0.1237279099
 20
0.1487692933
 30
0.0
 40
0.0000450432666988
100
AcDbArc
 50
309.517919348
 51
342.2073328314
  0
LINE
  5
3D4
330
1F
100
AcDbEntity
  8
0
  6
Continuous
 62
     7
370
    25
100
AcDbLine
 10
0.1237565719
 20
0.1487345462
 30
0.0
 11
0.1237551539
 21
0.1487419348
 31
0.0
  0
ARC
  5
3D5
330
1F
100
AcDbEntity
  8
0
  6
Continuous
 62
     7
370
    25
100
AcDbCircle
 10
0.1237279099
 20
0.1487692933
 30
0.0
 40
0.00003861
100
AcDbArc
 50
314.8797436153
 51
336.8455085641
  0
LINE
  5
3D6
330
1F
100
AcDbEntity
  8
0
  6
Continuous
 62
     7
370
    25
100
AcDbLine
 10
0.1237626575
 20
0.1487979548
 30
0.0
 11
0.1237552684
 21
0.1487965374
 31
0.0
  0
ARC
  5
3D7
330
1F
100
AcDbEntity
  8
0
  6
Continuous
 62
     7
370
    25
100
AcDbCircle
 10
0.1237279099
 20
0.1487692933
 30
0.0
 40
0.00003861
100
AcDbArc
 50
44.8797436154
 51
66.8455085641
  0
LINE
  5
3D8
330
1F
100
AcDbEntity
  8
0
  6
Continuous
 62
     7
370
    25
100
AcDbLine
 10
0.1237430917
 20
0.1488047927
 30
0.0
 11
0.1237416737
 21
0.1488121825
 31
0.0
  0
ARC
  5
3D9
330
1F
100
AcDbEntity
  8
0
  6
Continuous
 62
     7
370
    25
100
AcDbCircle
 10
0.1237279099
 20
0.1487692933
 30
0.0
 40
0.0000450432666988
100
AcDbArc
 50
39.517919348
 51
72.2073328314
  0
LINE
  5
3DA
330
1F
100
AcDbEntity
  8
0
  6
Continuous
 62
     7
370
    25
100
AcDbLine
 10
0.1236924099
 20
0.1487844758
 30
0.0
 11
0.1236850213
 21
0.1487830573
 31
0.0
  0
ARC
  5
3DB
330
1F
100
AcDbEntity
  8
0
  6
Continuous
 62
     7
370
    25
100
AcDbCircle
 10
0.1237279099
 20
0.1487692933
 30
0.0
 40
0.0000450432666988
100
AcDbArc
 50
129.517919348
 51
162.2073328314
  0
ARC
  5
3DC
330
1F
100
AcDbEntity
  8
0
  6
Continuous
 62
     7
370
    25
100
AcDbCircle
 10
0.1237279099
 20
0.1487692933
 30
0.0
 40
0.00003861
100
AcDbArc
 50
134.8797436153
 51
156.845508564
  0
LINE
  5
3DD
330
1F
100
AcDbEntity
  8
0
  6
Continuous
 62
     7
370
    25
100
AcDbLine
 10
0.1236992477
 20
0.1488040405
 30
0.0
 11
0.1237006657
 21
0.1487966519
 31
0.0
  0
LINE
  5
3DE
330
1F
100
AcDbEntity
  8
0
  6
Continuous
 62
     7
370
    25
100
AcDbLine
 10
0.1236906051
 20
0.1487401407
 30
0.0
 11
0.1236824637
 21
0.1487825661
 31
0.0
  0
LINE
  5
3DF
330
1F
100
AcDbEntity
  8
0
  6
Continuous
 62
     7
370
    25
100
AcDbLine
 10
0.1236455571
 20
0.1487314968
 30
0.0
 11
0.1236374163
 21
0.1487739222
 31
0.0
  0
LINE
  5
3E0
330
1F
100
AcDbEntity
  8
0
  6
Continuous
 62
     7
370
    25
100
AcDbLine
 10
0.1237570625
 20
0.148731988
 30
0.0
 11
0.1237146365
 21
0.1487238472
 31
0.0
  0
LINE
  5
3E1
330
1F
100
AcDbEntity
  8
0
  6
Continuous
 62
     7
370
    25
100
AcDbLine
 10
0.1237657069
 20
0.1486869412
 30
0.0
 11
0.1237232809
 21
0.1486787992
 31
0.0
  0
ARC
  5
3E2
330
1F
100
AcDbEntity
  8
0
  6
Continuous
 62
     7
370
    25
100
AcDbCircle
 10
0.1237279099
 20
0.1487692933
 30
0.0
 40
0.00003861
100
AcDbArc
 50
224.8797436153
 51
246.845508564
  0
ARC
  5
3E3
330
1F
100
AcDbEntity
  8
0
  6
Continuous
 62
     7
370
    25
100
AcDbCircle
 10
0.1237279099
 20
0.1487692933
 30
0.0
 40
0.0000450432666988
100
AcDbArc
 50
219.517919348
 51
252.2073328314
  0
LINE
  5
3E4
330
1F
100
AcDbEntity
  8
0
  6
Continuous
 62
     7
370
    25
100
AcDbLine
 10
0.1236931621
 20
0.1487406319
 30
0.0
 11
0.1237005513
 21
0.1487420493
 31
0.0
  0
LINE
  5
3E5
330
1F
100
AcDbEntity
  8
0
  6
Continuous
 62
     7
370
    25
100
AcDbLine
 10
0.1237127279
 20
0.148733794
 30
0.0
 11
0.1237141459
 21
0.1487264042
 31
0.0
  0
LINE
  5
3E6
330
1F
100
AcDbEntity
  8
0
  6
Continuous
 62
     7
370
    25
100
AcDbLine
 10
0.1236987572
 20
0.1488065987
 30
0.0
 11
0.1237411832
 21
0.1488147395
 31
0.0
  0
LINE
  5
3E7
330
1F
100
AcDbEntity
  8
0
  6
Continuous
 62
     7
370
    25
100
AcDbLine
 10
0.1236901127
 20
0.1488516455
 30
0.0
 11
0.1237325387
 21
0.1488597875
 31
0.0
  0
LINE
  5
3E8
330
1F
100
AcDbEntity
  8
0
  6
Continuous
 62
     7
370
    25
100
AcDbLine
 10
0.1238102626
 20
0.1488070898
 30
0.0
 11
0.123818404
 21
0.1487646644
 31
0.0
  0
LINE
  5
3E9
330
1F
100
AcDbEntity
  8
0
  6
Continuous
 62
     7
370
    25
100
AcDbLine
 10
0.1236374163
 20
0.1487739222
 30
0.0
 11
0.1236850213
 21
0.1487830573
 31
0.0
  0
CIRCLE
  5
3EA
330
1F
100
AcDbEntity
  8
0
  6
Continuous
 62
     7
370
    25
100
AcDbCircle
 10
0.1237279099
 20
0.1487692933
 30
0.0
 40
0.000158
  0
LINE
  5
3EB
330
1F
100
AcDbEntity
  8
0
  6
Continuous
 62
     7
370
    25
100
AcDbLine
 10
0.1237565719
 20
0.1487345462
 30
0.0
 11
0.1237657069
 21
0.1486869412
 31
0.0
  0
LINE
  5
3EC
330
1F
100
AcDbEntity
  8
0
  6
Continuous
 62
     7
370
    25
100
AcDbLine
 10
0.1237325387
 20
0.1488597875
 30
0.0
 11
0.1237416737
 21
0.1488121825
 31
0.0
  0
LINE
  5
3ED
330
1F
100
AcDbEntity
  8
0
  6
Continuous
 62
     7
370
    25
100
AcDbLine
 10
0.1237626575
 20
0.1487979548
 30
0.0
 11
0.1238102626
 21
0.1488070898
 31
0.0
  0
LINE
  5
3EE
330
1F
100
AcDbEntity
  8
0
  6
Continuous
 62
     7
370
    25
100
AcDbLine
 10
0.123818404
 20
0.1487646644
 30
0.0
 11
0.1237707989
 21
0.1487555294
 31
0.0
  0
LINE
  5
3EF
330
1F
100
AcDbEntity
  8
0
  6
Continuous
 62
     7
370
    25
100
AcDbLine
 10
0.1236931621
 20
0.1487406319
 30
0.0
 11
0.1236455571
 21
0.1487314968
 31
0.0
  0
LINE
  5
3F0
330
1F
100
AcDbEntity
  8
0
  6
Continuous
 62
     7
370
    25
100
AcDbLine
 10
0.1237232809
 20
0.1486787992
 30
0.0
 11
0.1237141459
 21
0.1487264042
 31
0.0
  0
LINE
  5
3F1
330
1F
100
AcDbEntity
  8
0
  6
Continuous
 62
     7
370
    25
100
AcDbLine
 10
0.1236992477
 20
0.1488040405
 30
0.0
 11
0.1236901127
 21
0.1488516455
 31
0.0
  0
LINE
  5
3F2
330
1F
100
AcDbEntity
  8
0
  6
Continuous
 62
     7
370
    25
100
AcDbLine
 10
0.1237652146
 20
0.148798446
 30
0.0
 11
0.123773356
 21
0.1487560206
 31
0.0
  0
ARC
  5
3F3
330
1F
100
AcDbEntity
  8
0
  6
Continuous
 62
     7
370
    25
100
AcDbCircle
 10
0.1237279099
 20
0.1487692933
 30
0.0
 40
0.00003861
100
AcDbArc
 50
246.845508564
 51
314.8797436153
  0
ARC
  5
3F4
330
1F
100
AcDbEntity
  8
0
  6
Continuous
 62
     7
370
    25
100
AcDbCircle
 10
0.1237279099
 20
0.1487692933
 30
0.0
 40
0.00003861
100
AcDbArc
 50
156.845508564
 51
224.8797436153
  0
ARC
  5
3F5
330
1F
100
AcDbEntity
  8
0
  6
Continuous
 62
     7
370
    25
100
AcDbCircle
 10
0.1237279099
 20
0.1487692933
 30
0.0
 40
0.00003861
100
AcDbArc
 50
66.8455085641
 51
134.8797436153
  0
ARC
  5
3F6
330
1F
100
AcDbEntity
  8
0
  6
Continuous
 62
     7
370
    25
100
AcDbCircle
 10
0.1237279099
 20
0.1487692933
 30
0.0
 40
0.00003861
100
AcDbArc
 50
336.8455085641
 51
44.8797436154
  0
CIRCLE
  5
3F7
330
1F
100
AcDbEntity
  8
0
  6
Continuous
 62
     7
370
    25
100
AcDbCircle
 10
0.0941765753
 20
0.1658307643
 30
0.0
 40
0.0001792
  0
CIRCLE
  5
3F8
330
1F
100
AcDbEntity
  8
0
  6
Continuous
 62
     7
370
    25
100
AcDbCircle
 10
0.0941765753
 20
0.1678307643
 30
0.0
 40
0.0001792
  0
CIRCLE
  5
3F9
330
1F
100
AcDbEntity
  8
0
  6
Continuous
 62
     7
370
    25
100
AcDbCircle
 10
0.0921765753
 20
0.1658307643
 30
0.0
 40
0.0001792
  0
CIRCLE
  5
3FA
330
1F
100
AcDbEntity
  8
0
  6
Continuous
 62
     7
370
    25
100
AcDbCircle
 10
0.0921765753
 20
0.1678307643
 30
0.0
 40
0.0001792
  0
CIRCLE
  5
3FB
330
1F
100
AcDbEntity
  8
0
  6
Continuous
 62
     7
370
    25
100
AcDbCircle
 10
0.0931765753
 20
0.1668307643
 30
0.0
 40
0.004
  0
CIRCLE
  5
3FC
330
1F
100
AcDbEntity
  8
0
  6
Continuous
 62
     7
370
    25
100
AcDbCircle
 10
0.1041817207
 20
0.1866242861
 30
0.0
 40
0.0001792
  0
CIRCLE
  5
3FD
330
1F
100
AcDbEntity
  8
0
  6
Continuous
 62
     7
370
    25
100
AcDbCircle
 10
0.1024496699
 20
0.1856242861
 30
0.0
 40
0.0001792
  0
CIRCLE
  5
3FE
330
1F
100
AcDbEntity
  8
0
  6
Continuous
 62
     7
370
    25
100
AcDbCircle
 10
0.1034496699
 20
0.1838922353
 30
0.0
 40
0.0001792
  0
CIRCLE
  5
3FF
330
1F
100
AcDbEntity
  8
0
  6
Continuous
 62
     7
370
    25
100
AcDbCircle
 10
0.1051817207
 20
0.1848922353
 30
0.0
 40
0.0001792
  0
CIRCLE
  5
400
330
1F
100
AcDbEntity
  8
0
  6
Continuous
 62
     7
370
    25
100
AcDbCircle
 10
0.1038156953
 20
0.1852582607
 30
0.0
 40
0.004
  0
CIRCLE
  5
401
330
1F
100
AcDbEntity
  8
0
  6
Continuous
 62
     7
370
    25
100
AcDbCircle
 10
0.1051817207
 20
0.1487692933
 30
0.0
 40
0.0001792
  0
CIRCLE
  5
402
330
1F
100
AcDbEntity
  8
0
  6
Continuous
 62
     7
370
    25
100
AcDbCircle
 10
0.1034496699
 20
0.1497692933
 30
0.0
 40
0.0001792
  0
CIRCLE
  5
403
330
1F
100
AcDbEntity
  8
0
  6
Continuous
 62
     7
370
    25
100
AcDbCircle
 10
0.1024496699
 20
0.1480372425
 30
0.0
 40
0.0001792
  0
CIRCLE
  5
404
330
1F
100
AcDbEntity
  8
0
  6
Continuous
 62
     7
370
    25
100
AcDbCircle
 10
0.1041817207
 20
0.1470372425
 30
0.0
 40
0.0001792
  0
CIRCLE
  5
405
330
1F
100
AcDbEntity
  8
0
  6
Continuous
 62
     7
370
    25
100
AcDbCircle
 10
0.1038156953
 20
0.1484032679
 30
0.0
 40
0.004
  0
CIRCLE
  5
406
330
1F
100
AcDbEntity
  8
0
  6
Continuous
 62
     7
370
    25
100
AcDbCircle
 10
0.1264599607
 20
0.1480372425
 30
0.0
 40
0.0001792
  0
CIRCLE
  5
407
330
1F
100
AcDbEntity
  8
0
  6
Continuous
 62
     7
370
    25
100
AcDbCircle
 10
0.1254599607
 20
0.1497692933
 30
0.0
 40
0.0001792
  0
CIRCLE
  5
408
330
1F
100
AcDbEntity
  8
0
  6
Continuous
 62
     7
370
    25
100
AcDbCircle
 10
0.1237279099
 20
0.1487692933
 30
0.0
 40
0.0001792
  0
CIRCLE
  5
409
330
1F
100
AcDbEntity
  8
0
  6
Continuous
 62
     7
370
    25
100
AcDbCircle
 10
0.1247279099
 20
0.1470372425
 30
0.0
 40
0.0001792
  0
CIRCLE
  5
40A
330
1F
100
AcDbEntity
  8
0
  6
Continuous
 62
     7
370
    25
100
AcDbCircle
 10
0.1250939353
 20
0.1484032679
 30
0.0
 40
0.004
  0
CIRCLE
  5
40B
330
1F
100
AcDbEntity
  8
0
  6
Continuous
 62
     7
370
    25
100
AcDbCircle
 10
0.1367330553
 20
0.1678307643
 30
0.0
 40
0.0001792
  0
CIRCLE
  5
40C
330
1F
100
AcDbEntity
  8
0
  6
Continuous
 62
     7
370
    25
100
AcDbCircle
 10
0.1347330553
 20
0.1678307643
 30
0.0
 40
0.0001792
  0
CIRCLE
  5
40D
330
1F
100
AcDbEntity
  8
0
  6
Continuous
 62
     7
370
    25
100
AcDbCircle
 10
0.1347330553
 20
0.1658307643
 30
0.0
 40
0.0001792
  0
CIRCLE
  5
40E
330
1F
100
AcDbEntity
  8
0
  6
Continuous
 62
     7
370
    25
100
AcDbCircle
 10
0.1367330553
 20
0.1658307643
 30
0.0
 40
0.0001792
  0
CIRCLE
  5
40F
330
1F
100
AcDbEntity
  8
0
  6
Continuous
 62
     7
370
    25
100
AcDbCircle
 10
0.1357330553
 20
0.1668307643
 30
0.0
 40
0.004
  0
CIRCLE
  5
410
330
1F
100
AcDbEntity
  8
0
  6
Continuous
 62
     7
370
    25
100
AcDbCircle
 10
0.1247279099
 20
0.1866242861
 30
0.0
 40
0.0001792
  0
CIRCLE
  5
411
330
1F
100
AcDbEntity
  8
0
  6
Continuous
 62
     7
370
    25
100
AcDbCircle
 10
0.1237279099
 20
0.1848922353
 30
0.0
 40
0.0001792
  0
CIRCLE
  5
412
330
1F
100
AcDbEntity
  8
0
  6
Continuous
 62
     7
370
    25
100
AcDbCircle
 10
0.1254599607
 20
0.1838922353
 30
0.0
 40
0.0001792
  0
CIRCLE
  5
413
330
1F
100
AcDbEntity
  8
0
  6
Continuous
 62
     7
370
    25
100
AcDbCircle
 10
0.1264599607
 20
0.1856242861
 30
0.0
 40
0.0001792
  0
CIRCLE
  5
414
330
1F
100
AcDbEntity
  8
0
  6
Continuous
 62
     7
370
    25
100
AcDbCircle
 10
0.1250939353
 20
0.1852582607
 30
0.0
 40
0.004
  0
ARC
  5
415
330
1F
100
AcDbEntity
  8
0
  6
Continuous
 62
     7
370
    25
100
AcDbCircle
 10
0.1043579626
 20
0.1610013455
 30
0.0
 40
0.032
100
AcDbArc
 50
17.7001903709
 51
42.2998042526
  0
CIRCLE
  5
416
330
1F
100
AcDbEntity
  8
0
  6
Continuous
 62
     7
370
    25
100
AcDbCircle
 10
0.1265612636
 20
0.1780449285
 30
0.0
 40
0.0003523792084572
  0
CIRCLE
  5
417
330
1F
100
AcDbEntity
  8
0
  6
Continuous
 62
     7
370
    25
100
AcDbCircle
 10
0.1253381011
 20
0.1807853538
 30
0.0
 40
0.0003109228309916
  0
CIRCLE
  5
418
330
1F
100
AcDbEntity
  8
0
  6
Continuous
 62
     7
370
    25
100
AcDbCircle
 10
0.129270341
 20
0.1753845139
 30
0.0
 40
0.000173
  0
CIRCLE
  5
419
330
1F
100
AcDbEntity
  8
0
  6
Continuous
 62
     7
370
    25
100
AcDbCircle
 10
0.129270341
 20
0.1753845139
 30
0.0
 40
0.00009
  0
CIRCLE
  5
41A
330
1F
100
AcDbEntity
  8
0
  6
Continuous
 62
     7
370
    25
100
AcDbCircle
 10
0.1280853569
 20
0.174700363
 30
0.0
 40
0.0003895851905887
  0
CIRCLE
  5
41B
330
1F
100
AcDbEntity
  8
0
  6
Continuous
 62
     7
370
    25
100
AcDbCircle
 10
0.1319814855
 20
0.1692786743
 30
0.0
 40
0.0003109228309916
  0
ARC
  5
41C
330
1F
100
AcDbEntity
  8
0
  6
Continuous
 62
     7
370
    25
100
AcDbCircle
 10
0.1551516628
 20
0.190327102
 30
0.0
 40
0.032
100
AcDbArc
 50
196.3653663755
 51
223.6346384382
  0
CIRCLE
  5
41D
330
1F
100
AcDbEntity
  8
0
  6
Continuous
 62
     7
370
    25
100
AcDbCircle
 10
0.1302197889
 20
0.1717081767
 30
0.0
 40
0.0003523792084572
  0
ARC
  5
41E
330
1F
100
AcDbEntity
  8
0
  6
Continuous
 62
     7
370
    25
100
AcDbCircle
 10
0.1043579642
 20
0.1726601858
 30
0.0
 40
0.032
100
AcDbArc
 50
317.7001903709
 51
342.2998042526
  0
CIRCLE
  5
41F
330
1F
100
AcDbEntity
  8
0
  6
Continuous
 62
     7
370
    25
100
AcDbCircle
 10
0.1319814871
 20
0.1643828571
 30
0.0
 40
0.0003109228309916
  0
CIRCLE
  5
420
330
1F
100
AcDbEntity
  8
0
  6
Continuous
 62
     7
370
    25
100
AcDbCircle
 10
0.1292703425
 20
0.1582770175
 30
0.0
 40
0.000173
  0
CIRCLE
  5
421
330
1F
100
AcDbEntity
  8
0
  6
Continuous
 62
     7
370
    25
100
AcDbCircle
 10
0.1292703425
 20
0.1582770175
 30
0.0
 40
0.00009
  0
CIRCLE
  5
422
330
1F
100
AcDbEntity
  8
0
  6
Continuous
 62
     7
370
    25
100
AcDbCircle
 10
0.1265612651
 20
0.1556166029
 30
0.0
 40
0.0003523792084572
  0
CIRCLE
  5
423
330
1F
100
AcDbEntity
  8
0
  6
Continuous
 62
     7
370
    25
100
AcDbCircle
 10
0.1280853584
 20
0.1589611684
 30
0.0
 40
0.0003895851905887
  0
ARC
  5
424
330
1F
100
AcDbEntity
  8
0
  6
Continuous
 62
     7
370
    25
100
AcDbCircle
 10
0.1551516644
 20
0.1433344294
 30
0.0
 40
0.032
100
AcDbArc
 50
136.3653663755
 51
163.6346384382
  0
CIRCLE
  5
425
330
1F
100
AcDbEntity
  8
0
  6
Continuous
 62
     7
370
    25
100
AcDbCircle
 10
0.1253381026
 20
0.1528761776
 30
0.0
 40
0.0003109228309916
  0
CIRCLE
  5
426
330
1F
100
AcDbEntity
  8
0
  6
Continuous
 62
     7
370
    25
100
AcDbCircle
 10
0.1302197904
 20
0.1619533546
 30
0.0
 40
0.0003523792084572
  0
CIRCLE
  5
427
330
1F
100
AcDbEntity
  8
0
  6
Continuous
 62
     7
370
    25
100
AcDbCircle
 10
0.1144548169
 20
0.1497232679
 30
0.0
 40
0.000173
  0
CIRCLE
  5
428
330
1F
100
AcDbEntity
  8
0
  6
Continuous
 62
     7
370
    25
100
AcDbCircle
 10
0.1144548169
 20
0.1510915697
 30
0.0
 40
0.0003895851905887
  0
CIRCLE
  5
429
330
1F
100
AcDbEntity
  8
0
  6
Continuous
 62
     7
370
    25
100
AcDbCircle
 10
0.1107962915
 20
0.1507391905
 30
0.0
 40
0.0003523792084572
  0
CIRCLE
  5
42A
330
1F
100
AcDbEntity
  8
0
  6
Continuous
 62
     7
370
    25
100
AcDbCircle
 10
0.1181133422
 20
0.1507391905
 30
0.0
 40
0.0003523792084572
  0
ARC
  5
42B
330
1F
100
AcDbEntity
  8
0
  6
Continuous
 62
     7
370
    25
100
AcDbCircle
 10
0.1144548169
 20
0.1784896047
 30
0.0
 40
0.032
100
AcDbArc
 50
257.7001903709
 51
282.2998042526
  0
CIRCLE
  5
42C
330
1F
100
AcDbEntity
  8
0
  6
Continuous
 62
     7
370
    25
100
AcDbCircle
 10
0.1078114324
 20
0.1504282677
 30
0.0
 40
0.0003109228309916
  0
CIRCLE
  5
42D
330
1F
100
AcDbEntity
  8
0
  6
Continuous
 62
     7
370
    25
100
AcDbCircle
 10
0.1210982013
 20
0.1504282677
 30
0.0
 40
0.0003109228309916
  0
ARC
  5
42E
330
1F
100
AcDbEntity
  8
0
  6
Continuous
 62
     7
370
    25
100
AcDbCircle
 10
0.1144548169
 20
0.1198380917
 30
0.0
 40
0.032
100
AcDbArc
 50
76.3653663755
 51
103.6346384382
  0
CIRCLE
  5
42F
330
1F
100
AcDbEntity
  8
0
  6
Continuous
 62
     7
370
    25
100
AcDbCircle
 10
0.1144548169
 20
0.1497232679
 30
0.0
 40
0.00009
  0
CIRCLE
  5
430
330
1F
100
AcDbEntity
  8
0
  6
Continuous
 62
     7
370
    25
100
AcDbCircle
 10
0.1023483654
 20
0.1780449257
 30
0.0
 40
0.0003523792084572
  0
ARC
  5
431
330
1F
100
AcDbEntity
  8
0
  6
Continuous
 62
     7
370
    25
100
AcDbCircle
 10
0.1245516664
 20
0.1610013428
 30
0.0
 40
0.032
100
AcDbArc
 50
137.7001903709
 51
162.2998042526
  0
CIRCLE
  5
432
330
1F
100
AcDbEntity
  8
0
  6
Continuous
 62
     7
370
    25
100
AcDbCircle
 10
0.099639288
 20
0.1753845112
 30
0.0
 40
0.000173
  0
CIRCLE
  5
433
330
1F
100
AcDbEntity
  8
0
  6
Continuous
 62
     7
370
    25
100
AcDbCircle
 10
0.099639288
 20
0.1753845112
 30
0.0
 40
0.00009
  0
CIRCLE
  5
434
330
1F
100
AcDbEntity
  8
0
  6
Continuous
 62
     7
370
    25
100
AcDbCircle
 10
0.0969281435
 20
0.1692786716
 30
0.0
 40
0.0003109228309916
  0
CIRCLE
  5
435
330
1F
100
AcDbEntity
  8
0
  6
Continuous
 62
     7
370
    25
100
AcDbCircle
 10
0.103571528
 20
0.180785351
 30
0.0
 40
0.0003109228309916
  0
CIRCLE
  5
436
330
1F
100
AcDbEntity
  8
0
  6
Continuous
 62
     7
370
    25
100
AcDbCircle
 10
0.1008242721
 20
0.1747003603
 30
0.0
 40
0.0003895851905887
  0
ARC
  5
437
330
1F
100
AcDbEntity
  8
0
  6
Continuous
 62
     7
370
    25
100
AcDbCircle
 10
0.0737579662
 20
0.1903270993
 30
0.0
 40
0.032
100
AcDbArc
 50
316.3653663755
 51
343.6346384382
  0
CIRCLE
  5
438
330
1F
100
AcDbEntity
  8
0
  6
Continuous
 62
     7
370
    25
100
AcDbCircle
 10
0.0986898401
 20
0.171708174
 30
0.0
 40
0.0003523792084572
  0
CIRCLE
  5
439
330
1F
100
AcDbEntity
  8
0
  6
Continuous
 62
     7
370
    25
100
AcDbCircle
 10
0.0996392896
 20
0.1582770148
 30
0.0
 40
0.000173
  0
CIRCLE
  5
43A
330
1F
100
AcDbEntity
  8
0
  6
Continuous
 62
     7
370
    25
100
AcDbCircle
 10
0.0996392896
 20
0.1582770148
 30
0.0
 40
0.00009
  0
CIRCLE
  5
43B
330
1F
100
AcDbEntity
  8
0
  6
Continuous
 62
     7
370
    25
100
AcDbCircle
 10
0.1035715295
 20
0.1528761749
 30
0.0
 40
0.0003109228309917
  0
ARC
  5
43C
330
1F
100
AcDbEntity
  8
0
  6
Continuous
 62
     7
370
    25
100
AcDbCircle
 10
0.124551668
 20
0.1726601831
 30
0.0
 40
0.032
100
AcDbArc
 50
197.7001903709
 51
222.2998042526
  0
CIRCLE
  5
43D
330
1F
100
AcDbEntity
  8
0
  6
Continuous
 62
     7
370
    25
100
AcDbCircle
 10
0.102348367
 20
0.1556166002
 30
0.0
 40
0.0003523792084572
  0
CIRCLE
  5
43E
330
1F
100
AcDbEntity
  8
0
  6
Continuous
 62
     7
370
    25
100
AcDbCircle
 10
0.0986898417
 20
0.1619533519
 30
0.0
 40
0.0003523792084572
  0
CIRCLE
  5
43F
330
1F
100
AcDbEntity
  8
0
  6
Continuous
 62
     7
370
    25
100
AcDbCircle
 10
0.1008242737
 20
0.1589611657
 30
0.0
 40
0.0003895851905887
  0
CIRCLE
  5
440
330
1F
100
AcDbEntity
  8
0
  6
Continuous
 62
     7
370
    25
100
AcDbCircle
 10
0.096928145
 20
0.1643828544
 30
0.0
 40
0.0003109228309917
  0
ARC
  5
441
330
1F
100
AcDbEntity
  8
0
  6
Continuous
 62
     7
370
    25
100
AcDbCircle
 10
0.0737579678
 20
0.1433344266
 30
0.0
 40
0.032
100
AcDbArc
 50
16.3653663755
 51
43.6346384382
  0
CIRCLE
  5
442
330
1F
100
AcDbEntity
  8
0
  6
Continuous
 62
     7
370
    25
100
AcDbCircle
 10
0.1210981982
 20
0.183233261
 30
0.0
 40
0.0003109228309916
  0
CIRCLE
  5
443
330
1F
100
AcDbEntity
  8
0
  6
Continuous
 62
     7
370
    25
100
AcDbCircle
 10
0.1144548137
 20
0.1839382607
 30
0.0
 40
0.000173
  0
CIRCLE
  5
444
330
1F
100
AcDbEntity
  8
0
  6
Continuous
 62
     7
370
    25
100
AcDbCircle
 10
0.118113339
 20
0.1829223382
 30
0.0
 40
0.0003523792084572
  0
CIRCLE
  5
445
330
1F
100
AcDbEntity
  8
0
  6
Continuous
 62
     7
370
    25
100
AcDbCircle
 10
0.1144548137
 20
0.1825699589
 30
0.0
 40
0.0003895851905887
  0
CIRCLE
  5
446
330
1F
100
AcDbEntity
  8
0
  6
Continuous
 62
     7
370
    25
100
AcDbCircle
 10
0.1144548137
 20
0.1839382607
 30
0.0
 40
0.00009
  0
ARC
  5
447
330
1F
100
AcDbEntity
  8
0
  6
Continuous
 62
     7
370
    25
100
AcDbCircle
 10
0.1144548137
 20
0.213823437
 30
0.0
 40
0.032
100
AcDbArc
 50
256.3653663755
 51
283.6346384382
  0
ARC
  5
448
330
1F
100
AcDbEntity
  8
0
  6
Continuous
 62
     7
370
    25
100
AcDbCircle
 10
0.1144548137
 20
0.155171924
 30
0.0
 40
0.032
100
AcDbArc
 50
77.7001903709
 51
102.2998042526
  0
CIRCLE
  5
449
330
1F
100
AcDbEntity
  8
0
  6
Continuous
 62
     7
370
    25
100
AcDbCircle
 10
0.1078114292
 20
0.183233261
 30
0.0
 40
0.0003109228309916
  0
CIRCLE
  5
44A
330
1F
100
AcDbEntity
  8
0
  6
Continuous
 62
     7
370
    25
100
AcDbCircle
 10
0.1107962884
 20
0.1829223382
 30
0.0
 40
0.0003523792084572
  0
LINE
  5
44B
330
1F
100
AcDbEntity
  8
0
  6
Continuous
 62
     7
370
    18
100
AcDbLine
 10
0.1275336735
 20
0.2191915181
 30
0.0
 11
0.1016714572
 21
0.2192644446
 31
0.0
  0
LINE
  5
44C
330
1F
100
AcDbEntity
  8
0
  6
Continuous
 62
     7
370
    18
100
AcDbLine
 10
0.1663399874
 20
0.1816845177
 30
0.0
 11
0.1534720354
 21
0.2041183173
 31
0.0
  0
LINE
  5
44D
330
1F
100
AcDbEntity
  8
0
  6
Continuous
 62
     7
370
    18
100
AcDbLine
 10
0.1532611291
 20
0.1293237639
 30
0.0
 11
0.1662553935
 21
0.151684637
 31
0.0
  0
LINE
  5
44E
330
1F
100
AcDbEntity
  8
0
  6
Continuous
 62
     7
370
    18
100
AcDbLine
 10
0.101375957
 20
0.1144700105
 30
0.0
 11
0.1272381733
 21
0.114397084
 31
0.0
  0
LINE
  5
44F
330
1F
100
AcDbEntity
  8
0
  6
Continuous
 62
     7
370
    18
100
AcDbLine
 10
0.0625696432
 20
0.1519770109
 30
0.0
 11
0.0754375952
 21
0.1295432114
 31
0.0
  0
LINE
  5
450
330
1F
100
AcDbEntity
  8
0
  6
Continuous
 62
     7
370
    18
100
AcDbLine
 10
0.0756485015
 20
0.2043377647
 30
0.0
 11
0.0626542371
 21
0.1819768917
 31
0.0
  0
ARC
  5
451
330
1F
100
AcDbEntity
  8
0
  6
Continuous
 62
     7
370
    18
100
AcDbCircle
 10
0.1015868633
 20
0.1892645639
 30
0.0
 40
0.03
100
AcDbArc
 50
89.8384373249
 51
149.8384373249
  0
ARC
  5
452
330
1F
100
AcDbEntity
  8
0
  6
Continuous
 62
     7
370
    18
100
AcDbCircle
 10
0.1274490796
 20
0.1891916374
 30
0.0
 40
0.03
100
AcDbArc
 50
29.8384373249
 51
89.8384373249
  0
ARC
  5
453
330
1F
100
AcDbEntity
  8
0
  6
Continuous
 62
     7
370
    18
100
AcDbCircle
 10
0.1403170316
 20
0.1667578378
 30
0.0
 40
0.03
100
AcDbArc
 50
329.8384373249
 51
29.8384373249
  0
ARC
  5
454
330
1F
100
AcDbEntity
  8
0
  6
Continuous
 62
     7
370
    18
100
AcDbCircle
 10
0.1273227672
 20
0.1443969648
 30
0.0
 40
0.03
100
AcDbArc
 50
269.8384373249
 51
329.8384373249
  0
ARC
  5
455
330
1F
100
AcDbEntity
  8
0
  6
Continuous
 62
     7
370
    18
100
AcDbCircle
 10
0.1014605509
 20
0.1444698913
 30
0.0
 40
0.03
100
AcDbArc
 50
209.8384373249
 51
269.8384373249
  0
ARC
  5
456
330
1F
100
AcDbEntity
  8
0
  6
Continuous
 62
     7
370
    18
100
AcDbCircle
 10
0.088592599
 20
0.1669036908
 30
0.0
 40
0.03
100
AcDbArc
 50
149.8384373249
 51
209.8384373249
  0
ENDSEC
  0
SECTION
  2
OBJECTS
  0
DICTIONARY
  5
C
330
0
100
AcDbDictionary
281
     1
  3
ACAD_DETAILVIEWSTYLE
350
45F
  3
ACAD_GROUP
350
D
  3
ACAD_LAYOUT
350
1A
  3
ACAD_MATERIAL
350
43
  3
ACAD_MLEADERSTYLE
350
6B
  3
ACAD_MLINESTYLE
350
17
  3
ACAD_PLOTSETTINGS
350
19
  3
ACAD_PLOTSTYLENAME
350
E
  3
ACAD_SCALELIST
350
47
  3
ACAD_SECTIONVIEWSTYLE
350
460
  3
ACAD_TABLESTYLE
350
69
  3
ACAD_VISUALSTYLE
350
2A
  3
ACDB_RECOMPOSE_DATA
350
45C
  3
AcDbVariableDictionary
350
457
  0
SUN
  5
6D
330
29
100
AcDbSun
 90
        1
290
     0
 63
     7
421
 16777215
 40
1.0
291
     1
 91
  2455826
 92
 54000000
292
     0
 70
     2
 71
   256
280
     1
  0
DICTIONARY
  5
45F
102
{ACAD_REACTORS
330
C
102
}
330
C
100
AcDbDictionary
281
     1
  0
DICTIONARY
  5
D
102
{ACAD_REACTORS
330
C
102
}
330
C
100
AcDbDictionary
281
     1
  0
DICTIONARY
  5
1A
102
{ACAD_REACTORS
330
C
102
}
330
C
100
AcDbDictionary
281
     1
  3
Layout1
350
1E
  3
Layout2
350
26
  3
Model
350
22
  0
DICTIONARY
  5
43
102
{ACAD_REACTORS
330
C
102
}
330
C
100
AcDbDictionary
281
     1
  3
ByBlock
350
45
  3
ByLayer
350
44
  3
Global
350
46
  0
DICTIONARY
  5
6B
102
{ACAD_REACTORS
330
C
102
}
330
C
100
AcDbDictionary
281
     1
  3
Standard
350
6C
  0
DICTIONARY
  5
17
102
{ACAD_REACTORS
330
C
102
}
330
C
100
AcDbDictionary
281
     1
  3
Standard
350
18
  0
DICTIONARY
  5
19
102
{ACAD_REACTORS
330
C
102
}
330
C
100
AcDbDictionary
281
     1
  0
ACDBDICTIONARYWDFLT
  5
E
102
{ACAD_REACTORS
330
C
102
}
330
C
100
AcDbDictionary
281
     1
  3
Normal
350
F
100
AcDbDictionaryWithDefault
340
F
  0
DICTIONARY
  5
47
102
{ACAD_REACTORS
330
C
102
}
330
C
100
AcDbDictionary
281
     1
  3
A0
350
48
  3
A1
350
49
  3
A2
350
4A
  3
A3
350
4B
  3
A4
350
4C
  3
A5
350
4D
  3
A6
350
4E
  3
A7
350
4F
  3
A8
350
50
  3
A9
350
51
  3
B0
350
52
  3
B1
350
53
  3
B2
350
54
  3
B3
350
55
  3
B4
350
56
  3
B5
350
57
  3
B6
350
58
  3
B7
350
59
  3
B8
350
5A
  3
B9
350
5B
  3
C0
350
5C
  3
C1
350
5D
  3
C2
350
5E
  3
C3
350
5F
  3
C4
350
60
  3
C5
350
61
  3
C6
350
62
  3
C7
350
63
  3
C8
350
64
  3
C9
350
65
  3
D0
350
66
  3
D1
350
67
  3
D2
350
68
  0
DICTIONARY
  5
460
102
{ACAD_REACTORS
330
C
102
}
330
C
100
AcDbDictionary
281
     1
  0
DICTIONARY
  5
69
102
{ACAD_REACTORS
330
C
102
}
330
C
100
AcDbDictionary
281
     1
  3
Standard
350
6A
  0
DICTIONARY
  5
2A
102
{ACAD_REACTORS
330
C
102
}
330
C
100
AcDbDictionary
281
     1
  3
2dWireframe
350
2F
  3
Basic
350
32
  3
Brighten
350
36
  3
ColorChange
350
3A
  3
Conceptual
350
34
  3
Dim
350
35
  3
EdgeColorOff
350
3D
  3
Facepattern
350
39
  3
Flat
350
2B
  3
FlatWithEdges
350
2C
  3
Gouraud
350
2D
  3
GouraudWithEdges
350
2E
  3
Hidden
350
31
  3
JitterOff
350
3B
  3
Linepattern
350
38
  3
OverhangOff
350
3C
  3
Realistic
350
33
  3
Shaded
350
42
  3
Shaded with edges
350
41
  3
Shades of Gray
350
3E
  3
Sketchy
350
3F
  3
Thicken
350
37
  3
Wireframe
350
30
  3
X-Ray
350
40
  0
XRECORD
  5
45C
102
{ACAD_REACTORS
330
C
102
}
330
C
100
AcDbXrecord
280
     1
 90
        1
330
6A
  0
DICTIONARY
  5
457
102
{ACAD_REACTORS
330
C
102
}
330
C
100
AcDbDictionary
281
     1
  3
CANNOSCALE
350
458
  3
CMLEADERSTYLE
350
45E
  3
CTABLESTYLE
350
45D
  0
LAYOUT
  5
1E
102
{ACAD_REACTORS
330
1A
102
}
330
1A
100
AcDbPlotSettings
  1

  2
none_device
  4

  6

 40
0.0
 41
0.0
 42
0.0
 43
0.0
 44
0.0
 45
0.0
 46
0.0
 47
0.0
 48
0.0
 49
0.0
140
0.0
141
0.0
142
1.0
143
1.0
 70
   688
 72
     1
 73
     0
 74
     5
  7

 75
    16
 76
     0
 77
     2
 78
   300
147
1.0
148
0.0
149
0.0
100
AcDbLayout
  1
Layout1
 70
     1
 71
     1
 10
0.0
 20
0.0
 11
420.0
 21
297.0
 12
0.0
 22
0.0
 32
0.0
 14
1.0000000000E+20
 24
1.0000000000E+20
 34
1.0000000000E+20
 15
-1.0000000000E+20
 25
-1.0000000000E+20
 35
-1.0000000000E+20
146
0.0
 13
0.0
 23
0.0
 33
0.0
 16
1.0
 26
0.0
 36
0.0
 17
0.0
 27
1.0
 37
0.0
 76
     0
330
1B
  0
LAYOUT
  5
26
102
{ACAD_REACTORS
330
1A
102
}
330
1A
100
AcDbPlotSettings
  1

  2
none_device
  4

  6

 40
0.0
 41
0.0
 42
0.0
 43
0.0
 44
0.0
 45
0.0
 46
0.0
 47
0.0
 48
0.0
 49
0.0
140
0.0
141
0.0
142
1.0
143
1.0
 70
   688
 72
     1
 73
     0
 74
     5
  7

 75
    16
 76
     0
 77
     2
 78
   300
147
1.0
148
0.0
149
0.0
100
AcDbLayout
  1
Layout2
 70
     1
 71
     2
 10
0.0
 20
0.0
 11
0.0
 21
0.0
 12
0.0
 22
0.0
 32
0.0
 14
0.0
 24
0.0
 34
0.0
 15
0.0
 25
0.0
 35
0.0
146
0.0
 13
0.0
 23
0.0
 33
0.0
 16
1.0
 26
0.0
 36
0.0
 17
0.0
 27
1.0
 37
0.0
 76
     0
330
23
  0
LAYOUT
  5
22
102
{ACAD_REACTORS
330
1A
102
}
330
1A
100
AcDbPlotSettings
  1

  2
none_device
  4
Letter_(8.50_x_11.00_Inches)
  6

 40
6.35
 41
6.35
 42
6.35000508
 43
6.35000508
 44
215.9
 45
279.4
 46
0.0
 47
0.0
 48
0.0
 49
0.0
140
0.0
141
0.0
142
1.0
143
1.0
 70
  1712
 72
     1
 73
     0
 74
     0
  7

 75
     0
 76
     0
 77
     2
 78
   300
147
1.0
148
0.0
149
0.0
100
AcDbLayout
  1
Model
 70
     1
 71
     0
 10
0.0
 20
0.0
 11
0.21
 21
0.297
 12
0.0
 22
0.0
 32
0.0
 14
0.0
 24
0.0
 34
0.0
 15
0.21
 25
0.297
 35
0.0
146
0.0
 13
0.0
 23
0.0
 33
0.0
 16
1.0
 26
0.0
 36
0.0
 17
0.0
 27
1.0
 37
0.0
 76
     0
330
1F
331
29
  0
MATERIAL
  5
45
102
{ACAD_REACTORS
330
43
102
}
330
43
100
AcDbMaterial
  1
ByBlock
 72
     1
 94
      127
  0
MATERIAL
  5
44
102
{ACAD_REACTORS
330
43
102
}
330
43
100
AcDbMaterial
  1
ByLayer
 72
     1
 94
      127
  0
MATERIAL
  5
46
102
{ACAD_REACTORS
330
43
102
}
330
43
100
AcDbMaterial
  1
Global
 72
     1
 94
      127
  0
MLEADERSTYLE
  5
6C
102
{ACAD_REACTORS
330
6B
102
}
330
6B
100
AcDbMLeaderStyle
170
     2
171
     1
172
     0
 90
        2
 40
0.0
 41
0.0
173
     1
 91
-1056964608
340
14
 92
       -2
290
     1
 42
2.0
291
     1
 43
8.0
  3
Standard
341
0
 44
4.0
300

342
11
174
     1
178
     6
175
     1
176
     0
 93
-1056964608
 45
4.0
292
     0
297
     0
 46
4.0
343
0
 94
-1056964608
 47
1.0
 49
1.0
140
1.0
293
     1
141
0.0
294
     1
177
     0
142
1.0
295
     0
296
     0
143
3.75
1001
ACAD_MLEADERVER
1070
     2
  0
MLINESTYLE
  5
18
102
{ACAD_REACTORS
330
17
102
}
330
17
100
AcDbMlineStyle
  2
Standard
 70
     0
  3

 62
   256
 51
90.0
 52
90.0
 71
     2
 49
0.5
 62
   256
  6
BYLAYER
 49
-0.5
 62
   256
  6
BYLAYER
  0
ACDBPLACEHOLDER
  5
F
102
{ACAD_REACTORS
330
E
102
}
330
E
  0
SCALE
  5
48
102
{ACAD_REACTORS
330
47
102
}
330
47
100
AcDbScale
 70
     0
300
1:1
140
1.0
141
1.0
290
     1
  0
SCALE
  5
49
102
{ACAD_REACTORS
330
47
102
}
330
47
100
AcDbScale
 70
     0
300
1:2
140
1.0
141
2.0
290
     0
  0
SCALE
  5
4A
102
{ACAD_REACTORS
330
47
102
}
330
47
100
AcDbScale
 70
     0
300
1:4
140
1.0
141
4.0
290
     0
  0
SCALE
  5
4B
102
{ACAD_REACTORS
330
47
102
}
330
47
100
AcDbScale
 70
     0
300
1:5
140
1.0
141
5.0
290
     0
  0
SCALE
  5
4C
102
{ACAD_REACTORS
330
47
102
}
330
47
100
AcDbScale
 70
     0
300
1:8
140
1.0
141
8.0
290
     0
  0
SCALE
  5
4D
102
{ACAD_REACTORS
330
47
102
}
330
47
100
AcDbScale
 70
     0
300
1:10
140
1.0
141
10.0
290
     0
  0
SCALE
  5
4E
102
{ACAD_REACTORS
330
47
102
}
330
47
100
AcDbScale
 70
     0
300
1:16
140
1.0
141
16.0
290
     0
  0
SCALE
  5
4F
102
{ACAD_REACTORS
330
47
102
}
330
47
100
AcDbScale
 70
     0
300
1:20
140
1.0
141
20.0
290
     0
  0
SCALE
  5
50
102
{ACAD_REACTORS
330
47
102
}
330
47
100
AcDbScale
 70
     0
300
1:30
140
1.0
141
30.0
290
     0
  0
SCALE
  5
51
102
{ACAD_REACTORS
330
47
102
}
330
47
100
AcDbScale
 70
     0
300
1:40
140
1.0
141
40.0
290
     0
  0
SCALE
  5
52
102
{ACAD_REACTORS
330
47
102
}
330
47
100
AcDbScale
 70
     0
300
1:50
140
1.0
141
50.0
290
     0
  0
SCALE
  5
53
102
{ACAD_REACTORS
330
47
102
}
330
47
100
AcDbScale
 70
     0
300
1:100
140
1.0
141
100.0
290
     0
  0
SCALE
  5
54
102
{ACAD_REACTORS
330
47
102
}
330
47
100
AcDbScale
 70
     0
300
2:1
140
2.0
141
1.0
290
     0
  0
SCALE
  5
55
102
{ACAD_REACTORS
330
47
102
}
330
47
100
AcDbScale
 70
     0
300
4:1
140
4.0
141
1.0
290
     0
  0
SCALE
  5
56
102
{ACAD_REACTORS
330
47
102
}
330
47
100
AcDbScale
 70
     0
300
8:1
140
8.0
141
1.0
290
     0
  0
SCALE
  5
57
102
{ACAD_REACTORS
330
47
102
}
330
47
100
AcDbScale
 70
     0
300
10:1
140
10.0
141
1.0
290
     0
  0
SCALE
  5
58
102
{ACAD_REACTORS
330
47
102
}
330
47
100
AcDbScale
 70
     0
300
100:1
140
100.0
141
1.0
290
     0
  0
SCALE
  5
59
102
{ACAD_REACTORS
330
47
102
}
330
47
100
AcDbScale
 70
     0
300
1/128" = 1'-0"
140
0.0078125
141
12.0
290
     0
  0
SCALE
  5
5A
102
{ACAD_REACTORS
330
47
102
}
330
47
100
AcDbScale
 70
     0
300
1/64" = 1'-0"
140
0.015625
141
12.0
290
     0
  0
SCALE
  5
5B
102
{ACAD_REACTORS
330
47
102
}
330
47
100
AcDbScale
 70
     0
300
1/32" = 1'-0"
140
0.03125
141
12.0
290
     0
  0
SCALE
  5
5C
102
{ACAD_REACTORS
330
47
102
}
330
47
100
AcDbScale
 70
     0
300
1/16" = 1'-0"
140
0.0625
141
12.0
290
     0
  0
SCALE
  5
5D
102
{ACAD_REACTORS
330
47
102
}
330
47
100
AcDbScale
 70
     0
300
3/32" = 1'-0"
140
0.09375
141
12.0
290
     0
  0
SCALE
  5
5E
102
{ACAD_REACTORS
330
47
102
}
330
47
100
AcDbScale
 70
     0
300
1/8" = 1'-0"
140
0.125
141
12.0
290
     0
  0
SCALE
  5
5F
102
{ACAD_REACTORS
330
47
102
}
330
47
100
AcDbScale
 70
     0
300
3/16" = 1'-0"
140
0.1875
141
12.0
290
     0
  0
SCALE
  5
60
102
{ACAD_REACTORS
330
47
102
}
330
47
100
AcDbScale
 70
     0
300
1/4" = 1'-0"
140
0.25
141
12.0
290
     0
  0
SCALE
  5
61
102
{ACAD_REACTORS
330
47
102
}
330
47
100
AcDbScale
 70
     0
300
3/8" = 1'-0"
140
0.375
141
12.0
290
     0
  0
SCALE
  5
62
102
{ACAD_REACTORS
330
47
102
}
330
47
100
AcDbScale
 70
     0
300
1/2" = 1'-0"
140
0.5
141
12.0
290
     0
  0
SCALE
  5
63
102
{ACAD_REACTORS
330
47
102
}
330
47
100
AcDbScale
 70
     0
300
3/4" = 1'-0"
140
0.75
141
12.0
290
     0
  0
SCALE
  5
64
102
{ACAD_REACTORS
330
47
102
}
330
47
100
AcDbScale
 70
     0
300
1" = 1'-0"
140
1.0
141
12.0
290
     0
  0
SCALE
  5
65
102
{ACAD_REACTORS
330
47
102
}
330
47
100
AcDbScale
 70
     0
300
1-1/2" = 1'-0"
140
1.5
141
12.0
290
     0
  0
SCALE
  5
66
102
{ACAD_REACTORS
330
47
102
}
330
47
100
AcDbScale
 70
     0
300
3" = 1'-0"
140
3.0
141
12.0
290
     0
  0
SCALE
  5
67
102
{ACAD_REACTORS
330
47
102
}
330
47
100
AcDbScale
 70
     0
300
6" = 1'-0"
140
6.0
141
12.0
290
     0
  0
SCALE
  5
68
102
{ACAD_REACTORS
330
47
102
}
330
47
100
AcDbScale
 70
     0
300
1'-0" = 1'-0"
140
12.0
141
12.0
290
     0
  0
TABLESTYLE
  5
6A
102
{ACAD_REACTORS
330
69
102
}
102
{ACAD_XDICTIONARY
360
459
102
}
330
69
100
AcDbTableStyle
  3
Standard
 70
     0
 71
     0
 40
0.06
 41
0.06
280
     0
281
     0
  7
Standard
140
4.5
170
     2
 62
     0
 63
   257
283
     0
 90
        4
 91
        0
  1

274
    -2
284
     1
 64
     0
275
    -2
285
     1
 65
     0
276
    -2
286
     1
 66
     0
277
    -2
287
     1
 67
     0
278
    -2
288
     1
 68
     0
279
    -2
289
     1
 69
     0
  7
Standard
140
6.0
170
     5
 62
     0
 63
   257
283
     0
 90
        4
 91
        0
  1

274
    -2
284
     1
 64
     0
275
    -2
285
     1
 65
     0
276
    -2
286
     1
 66
     0
277
    -2
287
     1
 67
     0
278
    -2
288
     1
 68
     0
279
    -2
289
     1
 69
     0
  7
Standard
140
4.5
170
     5
 62
     0
 63
   257
283
     0
 90
        4
 91
        0
  1

274
    -2
284
     1
 64
     0
275
    -2
285
     1
 65
     0
276
    -2
286
     1
 66
     0
277
    -2
287
     1
 67
     0
278
    -2
288
     1
 68
     0
279
    -2
289
     1
 69
     0
  0
VISUALSTYLE
  5
2F
102
{ACAD_REACTORS
330
2A
102
}
330
2A
100
AcDbVisualStyle
  2
2dWireframe
 70
     4
 71
     0
 72
     2
 73
     0
 90
        0
 40
0.6
 41
30.0
 62
     5
 63
     7
421
 16777215
 74
     1
 91
        4
 64
     7
 65
   257
 75
     1
175
     1
 42
1.0
 92
        0
 66
   257
 43
1.0
 76
     1
 77
     6
 78
     2
 67
     7
 79
     5
170
     0
171
     0
290
     0
174
     0
 93
        1
 44
0.0
173
     0
291
     0
 45
0.0
  0
VISUALSTYLE
  5
32
102
{ACAD_REACTORS
330
2A
102
}
330
2A
100
AcDbVisualStyle
  2
Basic
 70
     7
 71
     1
 72
     0
 73
     1
 90
        0
 40
0.6
 41
30.0
 62
     5
 63
     7
421
 16777215
 74
     0
 91
        4
 64
     7
 65
   257
 75
     1
175
     1
 42
1.0
 92
        8
 66
     7
 43
1.0
 76
     1
 77
     6
 78
     2
 67
     7
 79
     5
170
     0
171
     0
290
     0
174
     0
 93
        1
 44
0.0
173
     0
291
     1
 45
0.0
  0
VISUALSTYLE
  5
36
102
{ACAD_REACTORS
330
2A
102
}
330
2A
100
AcDbVisualStyle
  2
Brighten
 70
    12
 71
     2
 72
     2
 73
     0
 90
        0
 40
0.6
 41
30.0
 62
     5
 63
     7
421
 16777215
 74
     1
 91
        4
 64
     7
 65
   257
 75
     1
175
     1
 42
1.0
 92
        8
 66
     7
 43
1.0
 76
     1
 77
     6
 78
     2
 67
     7
 79
     5
170
     0
171
     0
290
     0
174
     0
 93
        1
 44
50.0
173
     0
291
     1
 45
0.0
  0
VISUALSTYLE
  5
3A
102
{ACAD_REACTORS
330
2A
102
}
330
2A
100
AcDbVisualStyle
  2
ColorChange
 70
    16
 71
     2
 72
     2
 73
     3
 90
        0
 40
0.6
 41
30.0
 62
     5
 63
     8
421
  8421504
 74
     1
 91
        4
 64
     7
 65
   257
 75
     1
175
     1
 42
1.0
 92
        8
 66
     8
424
  8421504
 43
1.0
 76
     1
 77
     6
 78
     2
 67
     7
 79
     5
170
     0
171
     0
290
     0
174
     0
 93
        1
 44
0.0
173
     0
291
     1
 45
0.0
  0
VISUALSTYLE
  5
34
102
{ACAD_REACTORS
330
2A
102
}
330
2A
100
AcDbVisualStyle
  2
Conceptual
 70
     9
 71
     3
 72
     2
 73
     0
 90
        0
 40
0.6
 41
30.0
 62
     5
 63
     7
421
 16777215
 74
     2
 91
        2
 64
     7
 65
   257
 75
     1
175
     1
 42
179.0
 92
        8
 66
     7
 43
1.0
 76
     1
 77
     6
 78
     2
 67
     7
 79
     3
170
     0
171
     0
290
     0
174
     0
 93
        1
 44
0.0
173
     0
291
     0
 45
0.0
  0
VISUALSTYLE
  5
35
102
{ACAD_REACTORS
330
2A
102
}
330
2A
100
AcDbVisualStyle
  2
Dim
 70
    11
 71
     2
 72
     2
 73
     0
 90
        0
 40
0.6
 41
30.0
 62
     5
 63
     7
421
 16777215
 74
     1
 91
        4
 64
     7
 65
   257
 75
     1
175
     1
 42
1.0
 92
        8
 66
     7
 43
1.0
 76
     1
 77
     6
 78
     2
 67
     7
 79
     5
170
     0
171
     0
290
     0
174
     0
 93
        1
 44
-50.0
173
     0
291
     1
 45
0.0
  0
VISUALSTYLE
  5
3D
102
{ACAD_REACTORS
330
2A
102
}
330
2A
100
AcDbVisualStyle
  2
EdgeColorOff
 70
    22
 71
     2
 72
     2
 73
     0
 90
        0
 40
0.6
 41
30.0
 62
     5
 63
     7
421
 16777215
 74
     1
 91
        4
 64
     7
 65
   257
 75
     1
175
     1
 42
1.0
 92
        8
 66
     7
 43
1.0
 76
     1
 77
     6
 78
     2
 67
     7
 79
     5
170
     0
171
     0
290
     0
174
     0
 93
        1
 44
0.0
173
     0
291
     1
 45
0.0
  0
VISUALSTYLE
  5
39
102
{ACAD_REACTORS
330
2A
102
}
330
2A
100
AcDbVisualStyle
  2
Facepattern
 70
    15
 71
     2
 72
     2
 73
     0
 90
        0
 40
0.6
 41
30.0
 62
     5
 63
     7
421
 16777215
 74
     1
 91
        4
 64
     7
 65
   257
 75
     1
175
     1
 42
1.0
 92
        8
 66
     7
 43
1.0
 76
     1
 77
     6
 78
     2
 67
     7
 79
     5
170
     0
171
     0
290
     0
174
     0
 93
        1
 44
0.0
173
     0
291
     1
 45
0.0
  0
VISUALSTYLE
  5
2B
102
{ACAD_REACTORS
330
2A
102
}
330
2A
100
AcDbVisualStyle
  2
Flat
 70
     0
 71
     2
 72
     1
 73
     1
 90
        2
 40
0.6
 41
30.0
 62
     5
 63
     7
421
 16777215
 74
     0
 91
        0
 64
     7
 65
   257
 75
     1
175
     1
 42
1.0
 92
        8
 66
     7
 43
1.0
 76
     1
 77
     6
 78
     2
 67
     7
 79
     5
170
     0
171
     0
290
     0
174
     0
 93
       13
 44
0.0
173
     0
291
     1
 45
0.0
  0
VISUALSTYLE
  5
2C
102
{ACAD_REACTORS
330
2A
102
}
330
2A
100
AcDbVisualStyle
  2
FlatWithEdges
 70
     1
 71
     2
 72
     1
 73
     1
 90
        2
 40
0.6
 41
30.0
 62
     5
 63
     7
421
 16777215
 74
     1
 91
        0
 64
     7
 65
   257
 75
     1
175
     1
 42
1.0
 92
        0
 66
   257
 43
1.0
 76
     1
 77
     6
 78
     2
 67
     7
 79
     5
170
     0
171
     0
290
     0
174
     0
 93
       13
 44
0.0
173
     0
291
     1
 45
0.0
  0
VISUALSTYLE
  5
2D
102
{ACAD_REACTORS
330
2A
102
}
330
2A
100
AcDbVisualStyle
  2
Gouraud
 70
     2
 71
     2
 72
     2
 73
     1
 90
        2
 40
0.6
 41
30.0
 62
     5
 63
     7
421
 16777215
 74
     0
 91
        0
 64
     7
 65
   257
 75
     1
175
     1
 42
1.0
 92
        0
 66
     7
 43
1.0
 76
     1
 77
     6
 78
     2
 67
     7
 79
     5
170
     0
171
     0
290
     0
174
     0
 93
       13
 44
0.0
173
     0
291
     1
 45
0.0
  0
VISUALSTYLE
  5
2E
102
{ACAD_REACTORS
330
2A
102
}
330
2A
100
AcDbVisualStyle
  2
GouraudWithEdges
 70
     3
 71
     2
 72
     2
 73
     1
 90
        2
 40
0.6
 41
30.0
 62
     5
 63
     7
421
 16777215
 74
     1
 91
        0
 64
     7
 65
   257
 75
     1
175
     1
 42
1.0
 92
        0
 66
   257
 43
1.0
 76
     1
 77
     6
 78
     2
 67
     7
 79
     5
170
     0
171
     0
290
     0
174
     0
 93
       13
 44
0.0
173
     0
291
     1
 45
0.0
  0
VISUALSTYLE
  5
31
102
{ACAD_REACTORS
330
2A
102
}
330
2A
100
AcDbVisualStyle
  2
Hidden
 70
     6
 71
     1
 72
     2
 73
     2
 90
        0
 40
0.6
 41
30.0
 62
     5
 63
     7
421
 16777215
 74
     2
 91
        2
 64
     7
 65
   257
 75
     2
175
     1
 42
40.0
 92
        0
 66
   257
 43
1.0
 76
     1
 77
     6
 78
     2
 67
     7
 79
     3
170
     0
171
     0
290
     0
174
     0
 93
        1
 44
0.0
173
     0
291
     0
 45
0.0
  0
VISUALSTYLE
  5
3B
102
{ACAD_REACTORS
330
2A
102
}
330
2A
100
AcDbVisualStyle
  2
JitterOff
 70
    20
 71
     2
 72
     2
 73
     0
 90
        0
 40
0.6
 41
30.0
 62
     5
 63
     7
421
 16777215
 74
     1
 91
        4
 64
     7
 65
   257
 75
     1
175
     1
 42
1.0
 92
       10
 66
     7
 43
1.0
 76
     1
 77
     6
 78
     2
 67
     7
 79
     5
170
     0
171
     0
290
     0
174
     0
 93
        1
 44
0.0
173
     0
291
     1
 45
0.0
  0
VISUALSTYLE
  5
38
102
{ACAD_REACTORS
330
2A
102
}
330
2A
100
AcDbVisualStyle
  2
Linepattern
 70
    14
 71
     2
 72
     2
 73
     0
 90
        0
 40
0.6
 41
30.0
 62
     5
 63
     7
421
 16777215
 74
     1
 91
        4
 64
     7
 65
   257
 75
     7
175
     7
 42
1.0
 92
        8
 66
     7
 43
1.0
 76
     1
 77
     6
 78
     2
 67
     7
 79
     5
170
     0
171
     0
290
     0
174
     0
 93
        1
 44
0.0
173
     0
291
     1
 45
0.0
  0
VISUALSTYLE
  5
3C
102
{ACAD_REACTORS
330
2A
102
}
330
2A
100
AcDbVisualStyle
  2
OverhangOff
 70
    21
 71
     2
 72
     2
 73
     0
 90
        0
 40
0.6
 41
30.0
 62
     5
 63
     7
421
 16777215
 74
     1
 91
        4
 64
     7
 65
   257
 75
     1
175
     1
 42
1.0
 92
        9
 66
     7
 43
1.0
 76
     1
 77
     6
 78
     2
 67
     7
 79
     5
170
     0
171
     0
290
     0
174
     0
 93
        1
 44
0.0
173
     0
291
     1
 45
0.0
  0
VISUALSTYLE
  5
33
102
{ACAD_REACTORS
330
2A
102
}
330
2A
100
AcDbVisualStyle
  2
Realistic
 70
     8
 71
     2
 72
     3
 73
     0
 90
        2
 40
0.6
 41
30.0
 62
     5
 63
     7
421
 16777215
 74
     0
 91
        0
 64
     7
 65
   257
 75
     1
175
     1
 42
1.0
 92
        8
 66
   257
 43
1.0
 76
     1
 77
     6
 78
     2
 67
     7
 79
     3
170
     0
171
     0
290
     0
174
     0
 93
       13
 44
0.0
173
     0
291
     0
 45
0.0
  0
VISUALSTYLE
  5
42
102
{ACAD_REACTORS
330
2A
102
}
330
2A
100
AcDbVisualStyle
  2
Shaded
 70
    27
 71
     2
 72
     2
 73
     1
 90
        2
 40
0.6
 41
30.0
 62
     5
 63
     7
421
 16777215
 74
     0
 91
        4
 64
     7
 65
   257
 75
     1
175
     1
 42
1.0
 92
        8
 66
   257
 43
1.0
 76
     1
 77
     6
 78
     2
 67
     8
425
  7895160
 79
     3
170
     0
171
     0
290
     0
174
     0
 93
        5
 44
0.0
173
     0
291
     0
 45
0.0
  0
VISUALSTYLE
  5
41
102
{ACAD_REACTORS
330
2A
102
}
330
2A
100
AcDbVisualStyle
  2
Shaded with edges
 70
    26
 71
     2
 72
     2
 73
     1
 90
        2
 40
0.6
 41
30.0
 62
     5
 63
     7
421
 16777215
 74
     1
 91
       10
 64
     7
 65
   257
 75
     2
175
     1
 42
1.0
 92
        8
 66
   257
 43
1.0
 76
     1
 77
     6
 78
     2
 67
     7
 79
     3
170
     0
171
     0
290
     0
174
     0
 93
        5
 44
0.0
173
     0
291
     0
 45
0.0
  0
VISUALSTYLE
  5
3E
102
{ACAD_REACTORS
330
2A
102
}
330
2A
100
AcDbVisualStyle
  2
Shades of Gray
 70
    23
 71
     2
 72
     2
 73
     3
 90
        0
 40
0.6
 41
30.0
 62
     5
 63
     7
421
 16777215
 74
     2
 91
        2
 64
     7
 65
     7
 75
     1
175
     1
 42
40.0
 92
        8
 66
     7
 43
1.0
 76
     1
 77
     6
 78
     2
 67
     7
 79
     3
170
     0
171
     0
290
     0
174
     0
 93
        1
 44
0.0
173
     0
291
     0
 45
0.0
  0
VISUALSTYLE
  5
3F
102
{ACAD_REACTORS
330
2A
102
}
330
2A
100
AcDbVisualStyle
  2
Sketchy
 70
    24
 71
     1
 72
     2
 73
     2
 90
        0
 40
0.6
 41
30.0
 62
     5
 63
     7
421
 16777215
 74
     2
 91
        2
 64
     7
 65
     7
 75
     1
175
     1
 42
40.0
 92
       11
 66
     7
 43
1.0
 76
     1
 77
     6
 78
     2
 67
     7
 79
     6
170
     0
171
     0
290
     0
174
     0
 93
        1
 44
0.0
173
     0
291
     0
 45
0.0
  0
VISUALSTYLE
  5
37
102
{ACAD_REACTORS
330
2A
102
}
330
2A
100
AcDbVisualStyle
  2
Thicken
 70
    13
 71
     2
 72
     2
 73
     0
 90
        0
 40
0.6
 41
30.0
 62
     5
 63
     7
421
 16777215
 74
     1
 91
        4
 64
     7
 65
   257
 75
     1
175
     1
 42
1.0
 92
       12
 66
     7
 43
1.0
 76
     1
 77
     6
 78
     2
 67
     7
 79
     5
170
     0
171
     0
290
     0
174
     0
 93
        1
 44
0.0
173
     0
291
     1
 45
0.0
  0
VISUALSTYLE
  5
30
102
{ACAD_REACTORS
330
2A
102
}
330
2A
100
AcDbVisualStyle
  2
Wireframe
 70
     5
 71
     0
 72
     2
 73
     0
 90
        0
 40
0.6
 41
30.0
 62
     5
 63
     7
421
 16777215
 74
     1
 91
        4
 64
     7
 65
   257
 75
     1
175
     1
 42
1.0
 92
        0
 66
   257
 43
1.0
 76
     1
 77
     6
 78
     2
 67
     7
 79
     3
170
     0
171
     0
290
     0
174
     0
 93
        1
 44
0.0
173
     0
291
     0
 45
0.0
  0
VISUALSTYLE
  5
40
102
{ACAD_REACTORS
330
2A
102
}
330
2A
100
AcDbVisualStyle
  2
X-Ray
 70
    25
 71
     2
 72
     2
 73
     1
 90
        1
 40
0.5
 41
30.0
 62
     5
 63
     7
421
 16777215
 74
     1
 91
        0
 64
     7
 65
   257
 75
     1
175
     1
 42
1.0
 92
        8
 66
     7
 43
1.0
 76
     1
 77
     6
 78
     2
 67
     7
 79
     3
170
     0
171
     0
290
     0
174
     0
 93
       13
 44
0.0
173
     0
291
     0
 45
0.0
  0
DICTIONARYVAR
  5
458
102
{ACAD_REACTORS
330
457
102
}
330
457
100
DictionaryVariables
280
     0
  1
1:1
  0
DICTIONARYVAR
  5
45E
102
{ACAD_REACTORS
330
457
102
}
330
457
100
DictionaryVariables
280
     0
  1
Standard
  0
DICTIONARYVAR
  5
45D
102
{ACAD_REACTORS
330
457
102
}
330
457
100
DictionaryVariables
280
     0
  1
Standard
  0
DICTIONARY
  5
459
330
6A
100
AcDbDictionary
280
     1
281
     1
  3
ACAD_ROUNDTRIP_2008_TABLESTYLE_CELLSTYLEMAP
360
45A
  0
CELLSTYLEMAP
  5
45A
102
{ACAD_REACTORS
330
459
102
}
330
459
100
AcDbCellStyleMap
 90
        3
300
CELLSTYLE
  1
TABLEFORMAT_BEGIN
 90
        5
170
     1
 91
        0
 92
    32768
 62
   257
 93
        1
300
CONTENTFORMAT
  1
CONTENTFORMAT_BEGIN
 90
        0
 91
        0
 92
        4
 93
        0
300

 40
0.0
140
1.0
 94
        5
 62
     0
340
11
144
6.0
309
CONTENTFORMAT_END
171
     1
301
MARGIN
  1
CELLMARGIN_BEGIN
 40
1.5
 40
1.5
 40
1.5
 40
1.5
 40
1.5
 40
1.5
309
CELLMARGIN_END
 94
        6
 95
        1
302
GRIDFORMAT
  1
GRIDFORMAT_BEGIN
 90
        0
 91
        1
 62
     0
 92
       -2
340
14
 93
        0
 40
0.045
309
GRIDFORMAT_END
 95
        2
302
GRIDFORMAT
  1
GRIDFORMAT_BEGIN
 90
        0
 91
        1
 62
     0
 92
       -2
340
14
 93
        0
 40
0.045
309
GRIDFORMAT_END
 95
        4
302
GRIDFORMAT
  1
GRIDFORMAT_BEGIN
 90
        0
 91
        1
 62
     0
 92
       -2
340
14
 93
        0
 40
0.045
309
GRIDFORMAT_END
 95
        8
302
GRIDFORMAT
  1
GRIDFORMAT_BEGIN
 90
        0
 91
        1
 62
     0
 92
       -2
340
14
 93
        0
 40
0.045
309
GRIDFORMAT_END
 95
       16
302
GRIDFORMAT
  1
GRIDFORMAT_BEGIN
 90
        0
 91
        1
 62
     0
 92
       -2
340
14
 93
        0
 40
0.045
309
GRIDFORMAT_END
 95
       32
302
GRIDFORMAT
  1
GRIDFORMAT_BEGIN
 90
        0
 91
        1
 62
     0
 92
       -2
340
14
 93
        0
 40
0.045
309
GRIDFORMAT_END
309
TABLEFORMAT_END
  1
CELLSTYLE_BEGIN
 90
        1
 91
        1
300
_TITLE
309
CELLSTYLE_END
300
CELLSTYLE
  1
TABLEFORMAT_BEGIN
 90
        5
170
     1
 91
        0
 92
        0
 62
   257
 93
        1
300
CONTENTFORMAT
  1
CONTENTFORMAT_BEGIN
 90
        0
 91
        0
 92
        4
 93
        0
300

 40
0.0
140
1.0
 94
        5
 62
     0
340
11
144
4.5
309
CONTENTFORMAT_END
171
     1
301
MARGIN
  1
CELLMARGIN_BEGIN
 40
1.5
 40
1.5
 40
1.5
 40
1.5
 40
1.5
 40
1.5
309
CELLMARGIN_END
 94
        6
 95
        1
302
GRIDFORMAT
  1
GRIDFORMAT_BEGIN
 90
        0
 91
        1
 62
     0
 92
       -2
340
14
 93
        0
 40
0.045
309
GRIDFORMAT_END
 95
        2
302
GRIDFORMAT
  1
GRIDFORMAT_BEGIN
 90
        0
 91
        1
 62
     0
 92
       -2
340
14
 93
        0
 40
0.045
309
GRIDFORMAT_END
 95
        4
302
GRIDFORMAT
  1
GRIDFORMAT_BEGIN
 90
        0
 91
        1
 62
     0
 92
       -2
340
14
 93
        0
 40
0.045
309
GRIDFORMAT_END
 95
        8
302
GRIDFORMAT
  1
GRIDFORMAT_BEGIN
 90
        0
 91
        1
 62
     0
 92
       -2
340
14
 93
        0
 40
0.045
309
GRIDFORMAT_END
 95
       16
302
GRIDFORMAT
  1
GRIDFORMAT_BEGIN
 90
        0
 91
        1
 62
     0
 92
       -2
340
14
 93
        0
 40
0.045
309
GRIDFORMAT_END
 95
       32
302
GRIDFORMAT
  1
GRIDFORMAT_BEGIN
 90
        0
 91
        1
 62
     0
 92
       -2
340
14
 93
        0
 40
0.045
309
GRIDFORMAT_END
309
TABLEFORMAT_END
  1
CELLSTYLE_BEGIN
 90
        2
 91
        1
300
_HEADER
309
CELLSTYLE_END
300
CELLSTYLE
  1
TABLEFORMAT_BEGIN
 90
        5
170
     1
 91
        0
 92
        0
 62
   257
 93
        1
300
CONTENTFORMAT
  1
CONTENTFORMAT_BEGIN
 90
        0
 91
        0
 92
        4
 93
        0
300

 40
0.0
140
1.0
 94
        2
 62
     0
340
11
144
4.5
309
CONTENTFORMAT_END
171
     1
301
MARGIN
  1
CELLMARGIN_BEGIN
 40
1.5
 40
1.5
 40
1.5
 40
1.5
 40
1.5
 40
1.5
309
CELLMARGIN_END
 94
        6
 95
        1
302
GRIDFORMAT
  1
GRIDFORMAT_BEGIN
 90
        0
 91
        1
 62
     0
 92
       -2
340
14
 93
        0
 40
0.045
309
GRIDFORMAT_END
 95
        2
302
GRIDFORMAT
  1
GRIDFORMAT_BEGIN
 90
        0
 91
        1
 62
     0
 92
       -2
340
14
 93
        0
 40
0.045
309
GRIDFORMAT_END
 95
        4
302
GRIDFORMAT
  1
GRIDFORMAT_BEGIN
 90
        0
 91
        1
 62
     0
 92
       -2
340
14
 93
        0
 40
0.045
309
GRIDFORMAT_END
 95
        8
302
GRIDFORMAT
  1
GRIDFORMAT_BEGIN
 90
        0
 91
        1
 62
     0
 92
       -2
340
14
 93
        0
 40
0.045
309
GRIDFORMAT_END
 95
       16
302
GRIDFORMAT
  1
GRIDFORMAT_BEGIN
 90
        0
 91
        1
 62
     0
 92
       -2
340
14
 93
        0
 40
0.045
309
GRIDFORMAT_END
 95
       32
302
GRIDFORMAT
  1
GRIDFORMAT_BEGIN
 90
        0
 91
        1
 62
     0
 92
       -2
340
14
 93
        0
 40
0.045
309
GRIDFORMAT_END
309
TABLEFORMAT_END
  1
CELLSTYLE_BEGIN
 90
        3
 91
        2
300
_DATA
309
CELLSTYLE_END
  0
ENDSEC
  0
EOF
