  0
SECTION
  2
HEADER
  9
$ACADVER
  1
AC1021
  9
$ACADMAINTVER
 70
    25
  9
$DWGCODEPAGE
  3
ANSI_1250
  9
$INSBASE
 10
0.0
 20
0.0
 30
0.0
  9
$EXTMIN
 10
0.0
 20
0.0
 30
0.0
  9
$EXTMAX
 10
0.21
 20
0.297
 30
0.0
  9
$LIMMIN
 10
0.0
 20
0.0
  9
$LIMMAX
 10
0.21
 20
0.297
  9
$ORTHOMODE
 70
     0
  9
$REGENMODE
 70
     1
  9
$FILLMODE
 70
     1
  9
$QTEXTMODE
 70
     0
  9
$MIRRTEXT
 70
     1
  9
$LTSCALE
 40
1.0
  9
$ATTMODE
 70
     1
  9
$TEXTSIZE
 40
0.0035
  9
$TRACEWID
 40
1.0
  9
$TEXTSTYLE
  7
Standard
  9
$CLAYER
  8
0
  9
$CELTYPE
  6
ByLayer
  9
$CECOLOR
 62
   256
  9
$CELTSCALE
 40
1.0
  9
$DISPSILH
 70
     0
  9
$DIMSCALE
 40
1.0
  9
$DIMASZ
 40
0.003302
  9
$DIMEXO
 40
0.001
  9
$DIMDLI
 40
3.75
  9
$DIMRND
 40
0.0
  9
$DIMDLE
 40
0.0
  9
$DIMEXE
 40
0.001
  9
$DIMTP
 40
0.0
  9
$DIMTM
 40
0.0
  9
$DIMTXT
 40
0.0035
  9
$DIMCEN
 40
2.5
  9
$DIMTSZ
 40
0.0
  9
$DIMTOL
 70
     0
  9
$DIMLIM
 70
     0
  9
$DIMTIH
 70
     1
  9
$DIMTOH
 70
     1
  9
$DIMSE1
 70
     0
  9
$DIMSE2
 70
     0
  9
$DIMTAD
 70
     1
  9
$DIMZIN
 70
     0
  9
$DIMBLK
  1

  9
$DIMASO
 70
     1
  9
$DIMSHO
 70
     1
  9
$DIMPOST
  1

  9
$DIMAPOST
  1

  9
$DIMALT
 70
     0
  9
$DIMALTD
 70
     3
  9
$DIMALTF
 40
39.3700787402
  9
$DIMLFAC
 40
50.0
  9
$DIMTOFL
 70
     1
  9
$DIMTVP
 40
0.0
  9
$DIMTIX
 70
     0
  9
$DIMSOXD
 70
     0
  9
$DIMSAH
 70
     0
  9
$DIMBLK1
  1

  9
$DIMBLK2
  1

  9
$DIMSTYLE
  2
ISO-25
  9
$DIMCLRD
 70
     0
  9
$DIMCLRE
 70
     0
  9
$DIMCLRT
 70
     0
  9
$DIMTFAC
 40
1.0
  9
$DIMGAP
 40
0.001524
  9
$DIMJUST
 70
     0
  9
$DIMSD1
 70
     0
  9
$DIMSD2
 70
     0
  9
$DIMTOLJ
 70
     0
  9
$DIMTZIN
 70
     0
  9
$DIMALTZ
 70
     0
  9
$DIMALTTZ
 70
     0
  9
$DIMUPT
 70
     0
  9
$DIMDEC
 70
     2
  9
$DIMTDEC
 70
     2
  9
$DIMALTU
 70
     2
  9
$DIMALTTD
 70
     3
  9
$DIMTXSTY
  7
Standard
  9
$DIMAUNIT
 70
     0
  9
$DIMADEC
 70
     2
  9
$DIMALTRND
 40
0.0
  9
$DIMAZIN
 70
     0
  9
$DIMDSEP
 70
    44
  9
$DIMATFIT
 70
     3
  9
$DIMFRAC
 70
     0
  9
$DIMLDRBLK
  1

  9
$DIMLUNIT
 70
     2
  9
$DIMLWD
 70
    -2
  9
$DIMLWE
 70
    -2
  9
$DIMTMOVE
 70
     0
  9
$DIMFXL
 40
1.0
  9
$DIMFXLON
 70
     0
  9
$DIMJOGANG
 40
0.7853981634
  9
$DIMTFILL
 70
     0
  9
$DIMTFILLCLR
 70
     0
  9
$DIMARCSYM
 70
     0
  9
$DIMLTYPE
  6

  9
$DIMLTEX1
  6

  9
$DIMLTEX2
  6

  9
$LUNITS
 70
     2
  9
$LUPREC
 70
     2
  9
$SKETCHINC
 40
1.0
  9
$FILLETRAD
 40
10.0
  9
$AUNITS
 70
     0
  9
$AUPREC
 70
     2
  9
$MENU
  1
.
  9
$ELEVATION
 40
0.0
  9
$PELEVATION
 40
0.0
  9
$THICKNESS
 40
0.0
  9
$LIMCHECK
 70
     0
  9
$CHAMFERA
 40
0.0
  9
$CHAMFERB
 40
0.0
  9
$CHAMFERC
 40
0.0
  9
$CHAMFERD
 40
0.0
  9
$SKPOLY
 70
     0
  9
$TDCREATE
 40
2458074.51923581
  9
$TDUCREATE
 40
2458074.477569143
  9
$TDUPDATE
 40
2458074.519236551
  9
$TDUUPDATE
 40
2458074.477569884
  9
$TDINDWG
 40
0.0000000116
  9
$TDUSRTIMER
 40
0.0000000116
  9
$USRTIMER
 70
     1
  9
$ANGBASE
 50
0.0
  9
$ANGDIR
 70
     0
  9
$PDMODE
 70
     0
  9
$PDSIZE
 40
-1.0
  9
$PLINEWID
 40
0.0
  9
$SPLFRAME
 70
     0
  9
$SPLINETYPE
 70
     6
  9
$SPLINESEGS
 70
     8
  9
$HANDSEED
  5
54B
  9
$SURFTAB1
 70
     6
  9
$SURFTAB2
 70
     6
  9
$SURFTYPE
 70
     6
  9
$SURFU
 70
     6
  9
$SURFV
 70
     6
  9
$UCSBASE
  2

  9
$UCSNAME
  2

  9
$UCSORG
 10
0.0
 20
0.0
 30
0.0
  9
$UCSXDIR
 10
1.0
 20
0.0
 30
0.0
  9
$UCSYDIR
 10
0.0
 20
1.0
 30
0.0
  9
$UCSORTHOREF
  2

  9
$UCSORTHOVIEW
 70
     0
  9
$UCSORGTOP
 10
0.0
 20
0.0
 30
0.0
  9
$UCSORGBOTTOM
 10
0.0
 20
0.0
 30
0.0
  9
$UCSORGLEFT
 10
0.0
 20
0.0
 30
0.0
  9
$UCSORGRIGHT
 10
0.0
 20
0.0
 30
0.0
  9
$UCSORGFRONT
 10
0.0
 20
0.0
 30
0.0
  9
$UCSORGBACK
 10
0.0
 20
0.0
 30
0.0
  9
$PUCSBASE
  2

  9
$PUCSNAME
  2

  9
$PUCSORG
 10
0.0
 20
0.0
 30
0.0
  9
$PUCSXDIR
 10
1.0
 20
0.0
 30
0.0
  9
$PUCSYDIR
 10
0.0
 20
1.0
 30
0.0
  9
$PUCSORTHOREF
  2

  9
$PUCSORTHOVIEW
 70
     0
  9
$PUCSORGTOP
 10
0.0
 20
0.0
 30
0.0
  9
$PUCSORGBOTTOM
 10
0.0
 20
0.0
 30
0.0
  9
$PUCSORGLEFT
 10
0.0
 20
0.0
 30
0.0
  9
$PUCSORGRIGHT
 10
0.0
 20
0.0
 30
0.0
  9
$PUCSORGFRONT
 10
0.0
 20
0.0
 30
0.0
  9
$PUCSORGBACK
 10
0.0
 20
0.0
 30
0.0
  9
$USERI1
 70
     0
  9
$USERI2
 70
     0
  9
$USERI3
 70
     0
  9
$USERI4
 70
     0
  9
$USERI5
 70
     0
  9
$USERR1
 40
0.0
  9
$USERR2
 40
0.0
  9
$USERR3
 40
0.0
  9
$USERR4
 40
0.0
  9
$USERR5
 40
0.0
  9
$WORLDVIEW
 70
     1
  9
$SHADEDGE
 70
     3
  9
$SHADEDIF
 70
    70
  9
$TILEMODE
 70
     1
  9
$MAXACTVP
 70
    64
  9
$PINSBASE
 10
0.0
 20
0.0
 30
0.0
  9
$PLIMCHECK
 70
     0
  9
$PEXTMIN
 10
1.0000000000E+20
 20
1.0000000000E+20
 30
1.0000000000E+20
  9
$PEXTMAX
 10
-1.0000000000E+20
 20
-1.0000000000E+20
 30
-1.0000000000E+20
  9
$PLIMMIN
 10
0.0
 20
0.0
  9
$PLIMMAX
 10
420.0
 20
297.0
  9
$UNITMODE
 70
     0
  9
$VISRETAIN
 70
     1
  9
$PLINEGEN
 70
     0
  9
$PSLTSCALE
 70
     1
  9
$TREEDEPTH
 70
  3020
  9
$CMLSTYLE
  2
Standard
  9
$CMLJUST
 70
     0
  9
$CMLSCALE
 40
20.0
  9
$PROXYGRAPHICS
 70
     1
  9
$MEASUREMENT
 70
     1
  9
$CELWEIGHT
370
    -1
  9
$ENDCAPS
280
     0
  9
$JOINSTYLE
280
     0
  9
$LWDISPLAY
290
     1
  9
$INSUNITS
 70
     4
  9
$HYPERLINKBASE
  1

  9
$STYLESHEET
  1

  9
$XEDIT
290
     1
  9
$CEPSNTYPE
380
     0
  9
$PSTYLEMODE
290
     1
  9
$FINGERPRINTGUID
  2
{4CFA0320-2D4E-43F4-9882-54A21A2534FE}
  9
$VERSIONGUID
  2
{FAEB1C32-E019-11D5-929B-00C0DF256EC4}
  9
$EXTNAMES
290
     1
  9
$PSVPSCALE
 40
0.0
  9
$OLESTARTUP
290
     0
  9
$SORTENTS
280
   127
  9
$INDEXCTL
280
     0
  9
$HIDETEXT
280
     1
  9
$XCLIPFRAME
290
     0
  9
$HALOGAP
280
     0
  9
$OBSCOLOR
 70
   257
  9
$OBSLTYPE
280
     0
  9
$INTERSECTIONDISPLAY
280
     0
  9
$INTERSECTIONCOLOR
 70
   257
  9
$DIMASSOC
280
     2
  9
$PROJECTNAME
  1

  9
$CAMERADISPLAY
290
     0
  9
$LENSLENGTH
 40
50.0
  9
$CAMERAHEIGHT
 40
0.0
  9
$STEPSPERSEC
 40
2.0
  9
$STEPSIZE
 40
6.0
  9
$3DDWFPREC
 40
2.0
  9
$PSOLWIDTH
 40
5.0
  9
$PSOLHEIGHT
 40
80.0
  9
$LOFTANG1
 40
1.5707963268
  9
$LOFTANG2
 40
1.5707963268
  9
$LOFTMAG1
 40
0.0
  9
$LOFTMAG2
 40
0.0
  9
$LOFTPARAM
 70
     7
  9
$LOFTNORMALS
280
     1
  9
$LATITUDE
 40
37.795
  9
$LONGITUDE
 40
-122.394
  9
$NORTHDIRECTION
 40
0.0
  9
$TIMEZONE
 70
 -8000
  9
$LIGHTGLYPHDISPLAY
280
     1
  9
$TILEMODELIGHTSYNCH
280
     1
  9
$CMATERIAL
347
44
  9
$SOLIDHIST
280
     0
  9
$SHOWHIST
280
     1
  9
$DWFFRAME
280
     2
  9
$DGNFRAME
280
     2
  9
$REALWORLDSCALE
290
     1
  9
$INTERFERECOLOR
 62
   256
  9
$CSHADOW
280
     0
  9
$SHADOWPLANELOCATION
 40
0.0
  0
ENDSEC
  0
SECTION
  2
CLASSES
  0
CLASS
  1
ACDBDICTIONARYWDFLT
  2
AcDbDictionaryWithDefault
  3
ObjectDBX Classes
 90
        0
 91
        4
280
     0
281
     0
  0
CLASS
  1
VISUALSTYLE
  2
AcDbVisualStyle
  3
ObjectDBX Classes
 90
     4095
 91
        4
280
     0
281
     0
  0
CLASS
  1
MATERIAL
  2
AcDbMaterial
  3
ObjectDBX Classes
 90
     1153
 91
        4
280
     0
281
     0
  0
CLASS
  1
SCALE
  2
AcDbScale
  3
ObjectDBX Classes
 90
     1153
 91
        4
280
     0
281
     0
  0
CLASS
  1
TABLESTYLE
  2
AcDbTableStyle
  3
ObjectDBX Classes
 90
     4095
 91
        4
280
     0
281
     0
  0
CLASS
  1
MLEADERSTYLE
  2
AcDbMLeaderStyle
  3
ACDB_MLEADERSTYLE_CLASS
 90
     4095
 91
        4
280
     0
281
     0
  0
CLASS
  1
SUN
  2
AcDbSun
  3
SCENEOE
 90
     1153
 91
        4
280
     0
281
     0
  0
CLASS
  1
DICTIONARYVAR
  2
AcDbDictionaryVar
  3
ObjectDBX Classes
 90
        0
 91
        4
280
     0
281
     0
  0
CLASS
  1
CELLSTYLEMAP
  2
AcDbCellStyleMap
  3
ObjectDBX Classes
 90
     1152
 91
        4
280
     0
281
     0
  0
ENDSEC
  0
SECTION
  2
TABLES
  0
TABLE
  2
VPORT
  5
8
330
0
100
AcDbSymbolTable
 70
     1
  0
VPORT
  5
29
330
8
100
AcDbSymbolTableRecord
100
AcDbViewportTableRecord
  2
*Active
 70
     0
 10
0.0
 20
0.0
 11
1.0
 21
1.0
 12
0.105
 22
0.1485
 13
0.0
 23
0.0
 14
10.0
 24
10.0
 15
10.0
 25
10.0
 16
0.0
 26
0.0
 36
1.0
 17
0.0
 27
0.0
 37
0.0
 40
0.297
 41
0.7070707071
 42
50.0
 43
0.0
 44
0.0
 50
0.0
 51
0.0
 71
     0
 72
  2000
 73
     1
 74
     3
 75
     0
 76
     0
 77
     0
 78
     0
281
     0
 65
     1
110
0.0
120
0.0
130
0.0
111
1.0
121
0.0
131
0.0
112
0.0
122
1.0
132
0.0
 79
     0
146
0.0
 60
     3
 61
     5
292
     1
282
     1
141
0.0
142
0.0
 63
   250
361
6D
  0
ENDTAB
  0
TABLE
  2
LTYPE
  5
5
330
0
100
AcDbSymbolTable
 70
     6
  0
LTYPE
  5
14
330
5
100
AcDbSymbolTableRecord
100
AcDbLinetypeTableRecord
  2
ByBlock
 70
     0
  3

 72
    65
 73
     0
 40
0.0
  0
LTYPE
  5
15
330
5
100
AcDbSymbolTableRecord
100
AcDbLinetypeTableRecord
  2
ByLayer
 70
     0
  3

 72
    65
 73
     0
 40
0.0
  0
LTYPE
  5
16
330
5
100
AcDbSymbolTableRecord
100
AcDbLinetypeTableRecord
  2
Continuous
 70
     0
  3
Solid line
 72
    65
 73
     0
 40
0.0
  0
LTYPE
  5
6E
330
5
100
AcDbSymbolTableRecord
100
AcDbLinetypeTableRecord
  2
HIDDEN
 70
     0
  3
Hidden __ __ __ __ __ __ __ __ __ __ __ __ __ __
 72
    65
 73
     2
 40
0.001905
 49
0.00127
 74
     0
 49
-0.000635
 74
     0
  0
LTYPE
  5
6F
330
5
100
AcDbSymbolTableRecord
100
AcDbLinetypeTableRecord
  2
PHANTOM
 70
     0
  3
Phantom ______  __  __  ______  __  __  ______
 72
    65
 73
     6
 40
0.0127
 49
0.00635
 74
     0
 49
-0.00127
 74
     0
 49
0.00127
 74
     0
 49
-0.00127
 74
     0
 49
0.00127
 74
     0
 49
-0.00127
 74
     0
  0
LTYPE
  5
70
330
5
100
AcDbSymbolTableRecord
100
AcDbLinetypeTableRecord
  2
CENTER
 70
     0
  3
Center ____ _ ____ _ ____ _ ____ _ ____ _ ____
 72
    65
 73
     4
 40
0.01016
 49
0.00635
 74
     0
 49
-0.00127
 74
     0
 49
0.00127
 74
     0
 49
-0.00127
 74
     0
  0
LTYPE
  5
71
330
5
100
AcDbSymbolTableRecord
100
AcDbLinetypeTableRecord
  2
CENTERX2
 70
     0
  3
Center (2x) ________  __  ________  __  _____
 72
    65
 73
     4
 40
0.02032
 49
0.0127
 74
     0
 49
-0.00254
 74
     0
 49
0.00254
 74
     0
 49
-0.00254
 74
     0
  0
LTYPE
  5
72
330
5
100
AcDbSymbolTableRecord
100
AcDbLinetypeTableRecord
  2
DOT2
 70
     0
  3
Dot (.5x) ........................................
 72
    65
 73
     2
 40
0.000635
 49
0.0
 74
     0
 49
-0.000635
 74
     0
  0
ENDTAB
  0
TABLE
  2
LAYER
  5
2
330
0
100
AcDbSymbolTable
 70
     1
  0
LAYER
  5
10
330
2
100
AcDbSymbolTableRecord
100
AcDbLayerTableRecord
  2
0
 70
     0
 62
     7
  6
Continuous
370
    -3
390
F
347
46
  0
ENDTAB
  0
TABLE
  2
STYLE
  5
3
330
0
100
AcDbSymbolTable
 70
     1
  0
STYLE
  5
11
330
3
100
AcDbSymbolTableRecord
100
AcDbTextStyleTableRecord
  2
Standard
 70
     0
 40
0.0
 41
1.0
 50
0.0
 71
     0
 42
0.0035
  3
txt
  4

  0
ENDTAB
  0
TABLE
  2
VIEW
  5
6
330
0
100
AcDbSymbolTable
 70
     0
  0
ENDTAB
  0
TABLE
  2
UCS
  5
7
330
0
100
AcDbSymbolTable
 70
     0
  0
ENDTAB
  0
TABLE
  2
APPID
  5
9
330
0
100
AcDbSymbolTable
 70
     2
  0
APPID
  5
12
330
9
100
AcDbSymbolTableRecord
100
AcDbRegAppTableRecord
  2
ACAD
 70
     0
  0
APPID
  5
545
330
9
100
AcDbSymbolTableRecord
100
AcDbRegAppTableRecord
  2
ACAD_MLEADERVER
 70
     0
  0
ENDTAB
  0
TABLE
  2
DIMSTYLE
  5
A
330
0
100
AcDbSymbolTable
 70
     1
100
AcDbDimStyleTable
  0
DIMSTYLE
105
27
330
A
100
AcDbSymbolTableRecord
100
AcDbDimStyleTableRecord
  2
ISO-25
 70
     0
 41
2.5
 42
0.625
 43
3.75
 44
1.25
 73
     0
 74
     0
 77
     1
 78
     8
140
2.5
141
2.5
143
0.0393700787
147
0.625
171
     3
172
     1
178
     0
271
     2
272
     2
274
     3
278
    44
283
     0
284
     8
340
11
  0
ENDTAB
  0
TABLE
  2
BLOCK_RECORD
  5
1
330
0
100
AcDbSymbolTable
 70
     1
  0
BLOCK_RECORD
  5
1F
330
1
100
AcDbSymbolTableRecord
100
AcDbBlockTableRecord
  2
*Model_Space
340
22
 70
     0
280
     1
281
     0
  0
BLOCK_RECORD
  5
1B
330
1
100
AcDbSymbolTableRecord
100
AcDbBlockTableRecord
  2
*Paper_Space
340
1E
 70
     0
280
     1
281
     0
  0
BLOCK_RECORD
  5
23
330
1
100
AcDbSymbolTableRecord
100
AcDbBlockTableRecord
  2
*Paper_Space0
340
26
 70
     0
280
     1
281
     0
  0
ENDTAB
  0
ENDSEC
  0
SECTION
  2
BLOCKS
  0
BLOCK
  5
20
330
1F
100
AcDbEntity
  8
0
100
AcDbBlockBegin
  2
*Model_Space
 70
     0
 10
0.0
 20
0.0
 30
0.0
  3
*Model_Space
  1

  0
ENDBLK
  5
21
330
1F
100
AcDbEntity
  8
0
100
AcDbBlockEnd
  0
BLOCK
  5
1C
330
1B
100
AcDbEntity
 67
     1
  8
0
100
AcDbBlockBegin
  2
*Paper_Space
 70
     0
 10
0.0
 20
0.0
 30
0.0
  3
*Paper_Space
  1

  0
ENDBLK
  5
1D
330
1B
100
AcDbEntity
 67
     1
  8
0
100
AcDbBlockEnd
  0
BLOCK
  5
24
330
23
100
AcDbEntity
  8
0
100
AcDbBlockBegin
  2
*Paper_Space0
 70
     0
 10
0.0
 20
0.0
 30
0.0
  3
*Paper_Space0
  1

  0
ENDBLK
  5
25
330
23
100
AcDbEntity
  8
0
100
AcDbBlockEnd
  0
ENDSEC
  0
SECTION
  2
ENTITIES
  0
LINE
  5
73
330
1F
100
AcDbEntity
  8
0
  6
Continuous
 62
     7
370
    25
100
AcDbLine
 10
0.0840677984
 20
0.0909199895
 30
0.0
 11
0.1323490818
 21
0.0909199895
 31
0.0
  0
ARC
  5
74
330
1F
100
AcDbEntity
  8
0
  6
Continuous
 62
     7
370
    25
100
AcDbCircle
 10
0.0840677987
 20
0.1209199877
 30
0.0
 40
0.03
100
AcDbArc
 50
210.0
 51
270.0
  0
LINE
  5
75
330
1F
100
AcDbEntity
  8
0
  6
Continuous
 62
     7
370
    25
100
AcDbLine
 10
0.0339463933
 20
0.1477328051
 30
0.0
 11
0.0580870374
 21
0.1059199895
 31
0.0
  0
ARC
  5
76
330
1F
100
AcDbEntity
  8
0
  6
Continuous
 62
     7
370
    25
100
AcDbCircle
 10
0.0599271573
 20
0.1627328051
 30
0.0
 40
0.03
100
AcDbArc
 50
150.0
 51
210.0
  0
LINE
  5
77
330
1F
100
AcDbEntity
  8
0
  6
Continuous
 62
     7
370
    25
100
AcDbLine
 10
0.0580870374
 20
0.2195456208
 30
0.0
 11
0.0339463933
 21
0.1777328051
 31
0.0
  0
ARC
  5
78
330
1F
100
AcDbEntity
  8
0
  6
Continuous
 62
     7
370
    25
100
AcDbCircle
 10
0.0840677987
 20
0.2045456225
 30
0.0
 40
0.03
100
AcDbArc
 50
90.0
 51
150.0
  0
LINE
  5
79
330
1F
100
AcDbEntity
  8
0
  6
Continuous
 62
     7
370
    25
100
AcDbLine
 10
0.1323490818
 20
0.2345456208
 30
0.0
 11
0.0840677984
 21
0.2345456208
 31
0.0
  0
ARC
  5
7A
330
1F
100
AcDbEntity
  8
0
  6
Continuous
 62
     7
370
    25
100
AcDbCircle
 10
0.1323490815
 20
0.2045456225
 30
0.0
 40
0.03
100
AcDbArc
 50
30.0
 51
90.0
  0
LINE
  5
7B
330
1F
100
AcDbEntity
  8
0
  6
Continuous
 62
     7
370
    25
100
AcDbLine
 10
0.1824704869
 20
0.1777328051
 30
0.0
 11
0.1583298428
 21
0.2195456208
 31
0.0
  0
ARC
  5
7C
330
1F
100
AcDbEntity
  8
0
  6
Continuous
 62
     7
370
    25
100
AcDbCircle
 10
0.1564897229
 20
0.1627328051
 30
0.0
 40
0.03
100
AcDbArc
 50
330.0
 51
30.0
  0
LINE
  5
7D
330
1F
100
AcDbEntity
  8
0
  6
Continuous
 62
     7
370
    25
100
AcDbLine
 10
0.1583298428
 20
0.1059199895
 30
0.0
 11
0.1824704869
 21
0.1477328051
 31
0.0
  0
ARC
  5
7E
330
1F
100
AcDbEntity
  8
0
  6
Continuous
 62
     7
370
    25
100
AcDbCircle
 10
0.1323490815
 20
0.1209199877
 30
0.0
 40
0.03
100
AcDbArc
 50
270.0
 51
330.0
  0
LINE
  5
7F
330
1F
100
AcDbEntity
  8
0
  6
Continuous
 62
     7
370
    25
100
AcDbLine
 10
0.0872672398
 20
0.2010040296
 30
0.0
 11
0.0873252042
 21
0.2010040296
 31
0.0
  0
CIRCLE
  5
80
330
1F
100
AcDbEntity
  8
0
  6
Continuous
 62
     7
370
    25
100
AcDbCircle
 10
0.0872962224
 20
0.2009538287
 30
0.0
 40
0.0001557
  0
LINE
  5
81
330
1F
100
AcDbEntity
  8
0
  6
Continuous
 62
     7
370
    25
100
AcDbLine
 10
0.0873252042
 20
0.2010040296
 30
0.0
 11
0.0873541887
 21
0.2009538282
 31
0.0
  0
LINE
  5
82
330
1F
100
AcDbEntity
  8
0
  6
Continuous
 62
     7
370
    25
100
AcDbLine
 10
0.0873252042
 20
0.2009036292
 30
0.0
 11
0.0872672398
 21
0.2009036292
 31
0.0
  0
LINE
  5
83
330
1F
100
AcDbEntity
  8
0
  6
Continuous
 62
     7
370
    25
100
AcDbLine
 10
0.0873541887
 20
0.2009538282
 30
0.0
 11
0.0873252042
 21
0.2009036292
 31
0.0
  0
LINE
  5
84
330
1F
100
AcDbEntity
  8
0
  6
Continuous
 62
     7
370
    25
100
AcDbLine
 10
0.0872672398
 20
0.2009036292
 30
0.0
 11
0.0872382553
 21
0.2009538282
 31
0.0
  0
LINE
  5
85
330
1F
100
AcDbEntity
  8
0
  6
Continuous
 62
     7
370
    25
100
AcDbLine
 10
0.0872382553
 20
0.2009538282
 30
0.0
 11
0.0872672398
 21
0.2010040296
 31
0.0
  0
ARC
  5
86
330
1F
100
AcDbEntity
  8
0
  6
Continuous
 62
     7
370
    25
100
AcDbCircle
 10
0.0872962224
 20
0.2009538287
 30
0.0
 40
0.0000502
100
AcDbArc
 50
210.0
 51
270.0
  0
ARC
  5
87
330
1F
100
AcDbEntity
  8
0
  6
Continuous
 62
     7
370
    25
100
AcDbCircle
 10
0.0872962224
 20
0.2009538287
 30
0.0
 40
0.0000502
100
AcDbArc
 50
90.0
 51
150.0
  0
ARC
  5
88
330
1F
100
AcDbEntity
  8
0
  6
Continuous
 62
     7
370
    25
100
AcDbCircle
 10
0.0872962224
 20
0.2009538287
 30
0.0
 40
0.0000502
100
AcDbArc
 50
30.0
 51
90.0
  0
ARC
  5
89
330
1F
100
AcDbEntity
  8
0
  6
Continuous
 62
     7
370
    25
100
AcDbCircle
 10
0.0872962224
 20
0.2009538287
 30
0.0
 40
0.0000502
100
AcDbArc
 50
330.0
 51
30.0
  0
ARC
  5
8A
330
1F
100
AcDbEntity
  8
0
  6
Continuous
 62
     7
370
    25
100
AcDbCircle
 10
0.0872962224
 20
0.2009538287
 30
0.0
 40
0.0000502
100
AcDbArc
 50
270.0
 51
330.0
  0
ARC
  5
8B
330
1F
100
AcDbEntity
  8
0
  6
Continuous
 62
     7
370
    25
100
AcDbCircle
 10
0.0872962224
 20
0.2009538287
 30
0.0
 40
0.0000502
100
AcDbArc
 50
150.0
 51
210.0
  0
LINE
  5
8C
330
1F
100
AcDbEntity
  8
0
  6
Continuous
 62
     7
370
    25
100
AcDbLine
 10
0.1281137247
 20
0.1263013829
 30
0.0
 11
0.1281670304
 21
0.1262786115
 31
0.0
  0
LINE
  5
8D
330
1F
100
AcDbEntity
  8
0
  6
Continuous
 62
     7
370
    25
100
AcDbLine
 10
0.1280673511
 20
0.1262666024
 30
0.0
 11
0.1281137247
 21
0.1263013829
 31
0.0
  0
LINE
  5
8E
330
1F
100
AcDbEntity
  8
0
  6
Continuous
 62
     7
370
    25
100
AcDbLine
 10
0.1281275912
 20
0.1261862816
 30
0.0
 11
0.1280742855
 21
0.1262090529
 31
0.0
  0
CIRCLE
  5
8F
330
1F
100
AcDbEntity
  8
0
  6
Continuous
 62
     7
370
    25
100
AcDbCircle
 10
0.1281206578
 20
0.1262438323
 30
0.0
 40
0.0001557
  0
LINE
  5
90
330
1F
100
AcDbEntity
  8
0
  6
Continuous
 62
     7
370
    25
100
AcDbLine
 10
0.1281670304
 20
0.1262786115
 30
0.0
 11
0.1281739648
 21
0.1262210621
 31
0.0
  0
LINE
  5
91
330
1F
100
AcDbEntity
  8
0
  6
Continuous
 62
     7
370
    25
100
AcDbLine
 10
0.1281739648
 20
0.1262210621
 30
0.0
 11
0.1281275912
 21
0.1261862816
 31
0.0
  0
LINE
  5
92
330
1F
100
AcDbEntity
  8
0
  6
Continuous
 62
     7
370
    25
100
AcDbLine
 10
0.1280742855
 20
0.1262090529
 30
0.0
 11
0.1280673511
 21
0.1262666024
 31
0.0
  0
ARC
  5
93
330
1F
100
AcDbEntity
  8
0
  6
Continuous
 62
     7
370
    25
100
AcDbCircle
 10
0.1281206578
 20
0.1262438323
 30
0.0
 40
0.0000502
100
AcDbArc
 50
246.8698976458
 51
306.8698976459
  0
ARC
  5
94
330
1F
100
AcDbEntity
  8
0
  6
Continuous
 62
     7
370
    25
100
AcDbCircle
 10
0.1281206578
 20
0.1262438323
 30
0.0
 40
0.0000502
100
AcDbArc
 50
126.8698976459
 51
186.8698976458
  0
ARC
  5
95
330
1F
100
AcDbEntity
  8
0
  6
Continuous
 62
     7
370
    25
100
AcDbCircle
 10
0.1281206578
 20
0.1262438323
 30
0.0
 40
0.0000502
100
AcDbArc
 50
66.8698976458
 51
126.8698976459
  0
ARC
  5
96
330
1F
100
AcDbEntity
  8
0
  6
Continuous
 62
     7
370
    25
100
AcDbCircle
 10
0.1281206578
 20
0.1262438323
 30
0.0
 40
0.0000502
100
AcDbArc
 50
306.8698976459
 51
6.8698976458
  0
ARC
  5
97
330
1F
100
AcDbEntity
  8
0
  6
Continuous
 62
     7
370
    25
100
AcDbCircle
 10
0.1281206578
 20
0.1262438323
 30
0.0
 40
0.0000502
100
AcDbArc
 50
186.8698976458
 51
246.8698976458
  0
ARC
  5
98
330
1F
100
AcDbEntity
  8
0
  6
Continuous
 62
     7
370
    25
100
AcDbCircle
 10
0.1281206578
 20
0.1262438323
 30
0.0
 40
0.0000502
100
AcDbArc
 50
6.8698976458
 51
66.8698976458
  0
LINE
  5
99
330
1F
100
AcDbEntity
  8
0
  6
Continuous
 62
     7
370
    25
100
AcDbLine
 10
0.064632953
 20
0.1616780426
 30
0.0
 11
0.0645950253
 21
0.1617218811
 31
0.0
  0
LINE
  5
9A
330
1F
100
AcDbEntity
  8
0
  6
Continuous
 62
     7
370
    25
100
AcDbLine
 10
0.0647088797
 20
0.1617437291
 30
0.0
 11
0.0646898778
 21
0.1616889666
 31
0.0
  0
LINE
  5
9B
330
1F
100
AcDbEntity
  8
0
  6
Continuous
 62
     7
370
    25
100
AcDbLine
 10
0.0646140321
 20
0.1617766437
 30
0.0
 11
0.0646709569
 21
0.1617875676
 31
0.0
  0
LINE
  5
9C
330
1F
100
AcDbEntity
  8
0
  6
Continuous
 62
     7
370
    25
100
AcDbLine
 10
0.0645950253
 20
0.1617218811
 30
0.0
 11
0.0646140321
 21
0.1617766437
 31
0.0
  0
LINE
  5
9D
330
1F
100
AcDbEntity
  8
0
  6
Continuous
 62
     7
370
    25
100
AcDbLine
 10
0.0646709569
 20
0.1617875676
 30
0.0
 11
0.0647088797
 21
0.1617437291
 31
0.0
  0
CIRCLE
  5
9E
330
1F
100
AcDbEntity
  8
0
  6
Continuous
 62
     7
370
    25
100
AcDbCircle
 10
0.0646519538
 20
0.1617328051
 30
0.0
 40
0.0001557
  0
LINE
  5
9F
330
1F
100
AcDbEntity
  8
0
  6
Continuous
 62
     7
370
    25
100
AcDbLine
 10
0.0646898778
 20
0.1616889666
 30
0.0
 11
0.064632953
 21
0.1616780426
 31
0.0
  0
ARC
  5
A0
330
1F
100
AcDbEntity
  8
0
  6
Continuous
 62
     7
370
    25
100
AcDbCircle
 10
0.0646519538
 20
0.1617328051
 30
0.0
 40
0.0000502
100
AcDbArc
 50
220.8626260897
 51
280.8626260897
  0
ARC
  5
A1
330
1F
100
AcDbEntity
  8
0
  6
Continuous
 62
     7
370
    25
100
AcDbCircle
 10
0.0646519538
 20
0.1617328051
 30
0.0
 40
0.0000502
100
AcDbArc
 50
340.8626260897
 51
40.8626260897
  0
ARC
  5
A2
330
1F
100
AcDbEntity
  8
0
  6
Continuous
 62
     7
370
    25
100
AcDbCircle
 10
0.0646519538
 20
0.1617328051
 30
0.0
 40
0.0000502
100
AcDbArc
 50
280.8626260897
 51
340.8626260897
  0
ARC
  5
A3
330
1F
100
AcDbEntity
  8
0
  6
Continuous
 62
     7
370
    25
100
AcDbCircle
 10
0.0646519538
 20
0.1617328051
 30
0.0
 40
0.0000502
100
AcDbArc
 50
100.8626260897
 51
160.8626260897
  0
ARC
  5
A4
330
1F
100
AcDbEntity
  8
0
  6
Continuous
 62
     7
370
    25
100
AcDbCircle
 10
0.0646519538
 20
0.1617328051
 30
0.0
 40
0.0000502
100
AcDbArc
 50
160.8626260897
 51
220.8626260897
  0
ARC
  5
A5
330
1F
100
AcDbEntity
  8
0
  6
Continuous
 62
     7
370
    25
100
AcDbCircle
 10
0.0646519538
 20
0.1617328051
 30
0.0
 40
0.0000502
100
AcDbArc
 50
40.8626260897
 51
100.8626260897
  0
LINE
  5
A6
330
1F
100
AcDbEntity
  8
0
  6
Continuous
 62
     7
370
    25
100
AcDbLine
 10
0.1291786249
 20
0.124511782
 30
0.0
 11
0.1291496404
 21
0.1244615806
 31
0.0
  0
LINE
  5
A7
330
1F
100
AcDbEntity
  8
0
  6
Continuous
 62
     7
370
    25
100
AcDbLine
 10
0.1291496404
 20
0.1245619811
 30
0.0
 11
0.1291786249
 21
0.124511782
 31
0.0
  0
LINE
  5
A8
330
1F
100
AcDbEntity
  8
0
  6
Continuous
 62
     7
370
    25
100
AcDbLine
 10
0.129091676
 20
0.1245619811
 30
0.0
 11
0.1291496404
 21
0.1245619811
 31
0.0
  0
LINE
  5
A9
330
1F
100
AcDbEntity
  8
0
  6
Continuous
 62
     7
370
    25
100
AcDbLine
 10
0.1290626915
 20
0.124511782
 30
0.0
 11
0.129091676
 21
0.1245619811
 31
0.0
  0
LINE
  5
AA
330
1F
100
AcDbEntity
  8
0
  6
Continuous
 62
     7
370
    25
100
AcDbLine
 10
0.129091676
 20
0.1244615806
 30
0.0
 11
0.1290626915
 21
0.124511782
 31
0.0
  0
LINE
  5
AB
330
1F
100
AcDbEntity
  8
0
  6
Continuous
 62
     7
370
    25
100
AcDbLine
 10
0.1291496404
 20
0.1244615806
 30
0.0
 11
0.129091676
 21
0.1244615806
 31
0.0
  0
CIRCLE
  5
AC
330
1F
100
AcDbEntity
  8
0
  6
Continuous
 62
     7
370
    25
100
AcDbCircle
 10
0.1291206578
 20
0.1245117815
 30
0.0
 40
0.0001557
  0
ARC
  5
AD
330
1F
100
AcDbEntity
  8
0
  6
Continuous
 62
     7
370
    25
100
AcDbCircle
 10
0.1291206578
 20
0.1245117815
 30
0.0
 40
0.0000502
100
AcDbArc
 50
210.0
 51
270.0
  0
ARC
  5
AE
330
1F
100
AcDbEntity
  8
0
  6
Continuous
 62
     7
370
    25
100
AcDbCircle
 10
0.1291206578
 20
0.1245117815
 30
0.0
 40
0.0000502
100
AcDbArc
 50
270.0
 51
330.0
  0
ARC
  5
AF
330
1F
100
AcDbEntity
  8
0
  6
Continuous
 62
     7
370
    25
100
AcDbCircle
 10
0.1291206578
 20
0.1245117815
 30
0.0
 40
0.0000502
100
AcDbArc
 50
30.0
 51
90.0
  0
ARC
  5
B0
330
1F
100
AcDbEntity
  8
0
  6
Continuous
 62
     7
370
    25
100
AcDbCircle
 10
0.1291206578
 20
0.1245117815
 30
0.0
 40
0.0000502
100
AcDbArc
 50
90.0
 51
150.0
  0
ARC
  5
B1
330
1F
100
AcDbEntity
  8
0
  6
Continuous
 62
     7
370
    25
100
AcDbCircle
 10
0.1291206578
 20
0.1245117815
 30
0.0
 40
0.0000502
100
AcDbArc
 50
150.0
 51
210.0
  0
ARC
  5
B2
330
1F
100
AcDbEntity
  8
0
  6
Continuous
 62
     7
370
    25
100
AcDbCircle
 10
0.1291206578
 20
0.1245117815
 30
0.0
 40
0.0000502
100
AcDbArc
 50
330.0
 51
30.0
  0
LINE
  5
B3
330
1F
100
AcDbEntity
  8
0
  6
Continuous
 62
     7
370
    25
100
AcDbLine
 10
0.1308717115
 20
0.1255665435
 30
0.0
 11
0.1309096368
 21
0.1255227054
 31
0.0
  0
LINE
  5
B4
330
1F
100
AcDbEntity
  8
0
  6
Continuous
 62
     7
370
    25
100
AcDbLine
 10
0.1307957824
 20
0.1255008567
 30
0.0
 11
0.1308147843
 21
0.1255556191
 31
0.0
  0
LINE
  5
B5
330
1F
100
AcDbEntity
  8
0
  6
Continuous
 62
     7
370
    25
100
AcDbLine
 10
0.1308337052
 20
0.1254570187
 30
0.0
 11
0.1307957824
 21
0.1255008567
 31
0.0
  0
LINE
  5
B6
330
1F
100
AcDbEntity
  8
0
  6
Continuous
 62
     7
370
    25
100
AcDbLine
 10
0.1308147843
 20
0.1255556191
 30
0.0
 11
0.1308717115
 21
0.1255665435
 31
0.0
  0
LINE
  5
B7
330
1F
100
AcDbEntity
  8
0
  6
Continuous
 62
     7
370
    25
100
AcDbLine
 10
0.1308906324
 20
0.1254679431
 30
0.0
 11
0.1308337052
 21
0.1254570187
 31
0.0
  0
CIRCLE
  5
B8
330
1F
100
AcDbEntity
  8
0
  6
Continuous
 62
     7
370
    25
100
AcDbCircle
 10
0.1308527086
 20
0.1255117815
 30
0.0
 40
0.0001557
  0
LINE
  5
B9
330
1F
100
AcDbEntity
  8
0
  6
Continuous
 62
     7
370
    25
100
AcDbLine
 10
0.1309096368
 20
0.1255227054
 30
0.0
 11
0.1308906324
 21
0.1254679431
 31
0.0
  0
ARC
  5
BA
330
1F
100
AcDbEntity
  8
0
  6
Continuous
 62
     7
370
    25
100
AcDbCircle
 10
0.1308527086
 20
0.1255117815
 30
0.0
 40
0.0000502
100
AcDbArc
 50
40.8626260897
 51
100.8626260897
  0
ARC
  5
BB
330
1F
100
AcDbEntity
  8
0
  6
Continuous
 62
     7
370
    25
100
AcDbCircle
 10
0.1308527086
 20
0.1255117815
 30
0.0
 40
0.0000502
100
AcDbArc
 50
100.8626260897
 51
160.8626260897
  0
ARC
  5
BC
330
1F
100
AcDbEntity
  8
0
  6
Continuous
 62
     7
370
    25
100
AcDbCircle
 10
0.1308527086
 20
0.1255117815
 30
0.0
 40
0.0000502
100
AcDbArc
 50
160.8626260897
 51
220.8626260897
  0
ARC
  5
BD
330
1F
100
AcDbEntity
  8
0
  6
Continuous
 62
     7
370
    25
100
AcDbCircle
 10
0.1308527086
 20
0.1255117815
 30
0.0
 40
0.0000502
100
AcDbArc
 50
280.8626260897
 51
340.8626260897
  0
ARC
  5
BE
330
1F
100
AcDbEntity
  8
0
  6
Continuous
 62
     7
370
    25
100
AcDbCircle
 10
0.1308527086
 20
0.1255117815
 30
0.0
 40
0.0000502
100
AcDbArc
 50
220.8626260897
 51
280.8626260897
  0
ARC
  5
BF
330
1F
100
AcDbEntity
  8
0
  6
Continuous
 62
     7
370
    25
100
AcDbCircle
 10
0.1308527086
 20
0.1255117815
 30
0.0
 40
0.0000502
100
AcDbArc
 50
340.8626260897
 51
40.8626260897
  0
LINE
  5
C0
330
1F
100
AcDbEntity
  8
0
  6
Continuous
 62
     7
370
    25
100
AcDbLine
 10
0.0646229728
 20
0.1636826051
 30
0.0
 11
0.0645939858
 21
0.1637328051
 31
0.0
  0
LINE
  5
C1
330
1F
100
AcDbEntity
  8
0
  6
Continuous
 62
     7
370
    25
100
AcDbLine
 10
0.0646809371
 20
0.1636826051
 30
0.0
 11
0.0646229728
 21
0.1636826051
 31
0.0
  0
LINE
  5
C2
330
1F
100
AcDbEntity
  8
0
  6
Continuous
 62
     7
370
    25
100
AcDbLine
 10
0.0647099192
 20
0.1637328051
 30
0.0
 11
0.0646809371
 21
0.1636826051
 31
0.0
  0
LINE
  5
C3
330
1F
100
AcDbEntity
  8
0
  6
Continuous
 62
     7
370
    25
100
AcDbLine
 10
0.0646809371
 20
0.1637830051
 30
0.0
 11
0.0647099192
 21
0.1637328051
 31
0.0
  0
LINE
  5
C4
330
1F
100
AcDbEntity
  8
0
  6
Continuous
 62
     7
370
    25
100
AcDbLine
 10
0.0646229728
 20
0.1637830051
 30
0.0
 11
0.0646809371
 21
0.1637830051
 31
0.0
  0
LINE
  5
C5
330
1F
100
AcDbEntity
  8
0
  6
Continuous
 62
     7
370
    25
100
AcDbLine
 10
0.0645939858
 20
0.1637328051
 30
0.0
 11
0.0646229728
 21
0.1637830051
 31
0.0
  0
CIRCLE
  5
C6
330
1F
100
AcDbEntity
  8
0
  6
Continuous
 62
     7
370
    25
100
AcDbCircle
 10
0.0646519538
 20
0.1637328051
 30
0.0
 40
0.0001557
  0
ARC
  5
C7
330
1F
100
AcDbEntity
  8
0
  6
Continuous
 62
     7
370
    25
100
AcDbCircle
 10
0.0646519538
 20
0.1637328051
 30
0.0
 40
0.0000502
100
AcDbArc
 50
90.0
 51
150.0
  0
ARC
  5
C8
330
1F
100
AcDbEntity
  8
0
  6
Continuous
 62
     7
370
    25
100
AcDbCircle
 10
0.0646519538
 20
0.1637328051
 30
0.0
 40
0.0000502
100
AcDbArc
 50
150.0
 51
210.0
  0
ARC
  5
C9
330
1F
100
AcDbEntity
  8
0
  6
Continuous
 62
     7
370
    25
100
AcDbCircle
 10
0.0646519538
 20
0.1637328051
 30
0.0
 40
0.0000502
100
AcDbArc
 50
210.0
 51
270.0
  0
ARC
  5
CA
330
1F
100
AcDbEntity
  8
0
  6
Continuous
 62
     7
370
    25
100
AcDbCircle
 10
0.0646519538
 20
0.1637328051
 30
0.0
 40
0.0000502
100
AcDbArc
 50
330.0
 51
30.0
  0
ARC
  5
CB
330
1F
100
AcDbEntity
  8
0
  6
Continuous
 62
     7
370
    25
100
AcDbCircle
 10
0.0646519538
 20
0.1637328051
 30
0.0
 40
0.0000502
100
AcDbArc
 50
30.0
 51
90.0
  0
ARC
  5
CC
330
1F
100
AcDbEntity
  8
0
  6
Continuous
 62
     7
370
    25
100
AcDbCircle
 10
0.0646519538
 20
0.1637328051
 30
0.0
 40
0.0000502
100
AcDbArc
 50
270.0
 51
330.0
  0
LINE
  5
CD
330
1F
100
AcDbEntity
  8
0
  6
Continuous
 62
     7
370
    25
100
AcDbLine
 10
0.1517359431
 20
0.1617830051
 30
0.0
 11
0.1517939074
 21
0.1617830051
 31
0.0
  0
LINE
  5
CE
330
1F
100
AcDbEntity
  8
0
  6
Continuous
 62
     7
370
    25
100
AcDbLine
 10
0.1517069609
 20
0.1617328051
 30
0.0
 11
0.1517359431
 21
0.1617830051
 31
0.0
  0
LINE
  5
CF
330
1F
100
AcDbEntity
  8
0
  6
Continuous
 62
     7
370
    25
100
AcDbLine
 10
0.1517359431
 20
0.1616826051
 30
0.0
 11
0.1517069609
 21
0.1617328051
 31
0.0
  0
LINE
  5
D0
330
1F
100
AcDbEntity
  8
0
  6
Continuous
 62
     7
370
    25
100
AcDbLine
 10
0.1517939074
 20
0.1616826051
 30
0.0
 11
0.1517359431
 21
0.1616826051
 31
0.0
  0
CIRCLE
  5
D1
330
1F
100
AcDbEntity
  8
0
  6
Continuous
 62
     7
370
    25
100
AcDbCircle
 10
0.1517649264
 20
0.1617328051
 30
0.0
 40
0.0001557
  0
LINE
  5
D2
330
1F
100
AcDbEntity
  8
0
  6
Continuous
 62
     7
370
    25
100
AcDbLine
 10
0.1518228944
 20
0.1617328051
 30
0.0
 11
0.1517939074
 21
0.1616826051
 31
0.0
  0
LINE
  5
D3
330
1F
100
AcDbEntity
  8
0
  6
Continuous
 62
     7
370
    25
100
AcDbLine
 10
0.1517939074
 20
0.1617830051
 30
0.0
 11
0.1518228944
 21
0.1617328051
 31
0.0
  0
ARC
  5
D4
330
1F
100
AcDbEntity
  8
0
  6
Continuous
 62
     7
370
    25
100
AcDbCircle
 10
0.1517649264
 20
0.1617328051
 30
0.0
 40
0.0000502
100
AcDbArc
 50
330.0
 51
30.0
  0
ARC
  5
D5
330
1F
100
AcDbEntity
  8
0
  6
Continuous
 62
     7
370
    25
100
AcDbCircle
 10
0.1517649264
 20
0.1617328051
 30
0.0
 40
0.0000502
100
AcDbArc
 50
270.0
 51
330.0
  0
ARC
  5
D6
330
1F
100
AcDbEntity
  8
0
  6
Continuous
 62
     7
370
    25
100
AcDbCircle
 10
0.1517649264
 20
0.1617328051
 30
0.0
 40
0.0000502
100
AcDbArc
 50
210.0
 51
270.0
  0
ARC
  5
D7
330
1F
100
AcDbEntity
  8
0
  6
Continuous
 62
     7
370
    25
100
AcDbCircle
 10
0.1517649264
 20
0.1617328051
 30
0.0
 40
0.0000502
100
AcDbArc
 50
150.0
 51
210.0
  0
ARC
  5
D8
330
1F
100
AcDbEntity
  8
0
  6
Continuous
 62
     7
370
    25
100
AcDbCircle
 10
0.1517649264
 20
0.1617328051
 30
0.0
 40
0.0000502
100
AcDbArc
 50
90.0
 51
150.0
  0
ARC
  5
D9
330
1F
100
AcDbEntity
  8
0
  6
Continuous
 62
     7
370
    25
100
AcDbCircle
 10
0.1517649264
 20
0.1617328051
 30
0.0
 40
0.0000502
100
AcDbArc
 50
30.0
 51
90.0
  0
LINE
  5
DA
330
1F
100
AcDbEntity
  8
0
  6
Continuous
 62
     7
370
    25
100
AcDbLine
 10
0.1298596413
 20
0.1981642283
 30
0.0
 11
0.1298063357
 21
0.1981869973
 31
0.0
  0
LINE
  5
DB
330
1F
100
AcDbEntity
  8
0
  6
Continuous
 62
     7
370
    25
100
AcDbLine
 10
0.1299060161
 20
0.1981990088
 30
0.0
 11
0.1298596413
 21
0.1981642283
 31
0.0
  0
LINE
  5
DC
330
1F
100
AcDbEntity
  8
0
  6
Continuous
 62
     7
370
    25
100
AcDbLine
 10
0.1297994025
 20
0.1982445491
 30
0.0
 11
0.1298457749
 21
0.1982793273
 31
0.0
  0
LINE
  5
DD
330
1F
100
AcDbEntity
  8
0
  6
Continuous
 62
     7
370
    25
100
AcDbLine
 10
0.1298457749
 20
0.1982793273
 30
0.0
 11
0.1298990805
 21
0.1982565583
 31
0.0
  0
CIRCLE
  5
DE
330
1F
100
AcDbEntity
  8
0
  6
Continuous
 62
     7
370
    25
100
AcDbCircle
 10
0.1298527086
 20
0.1982217779
 30
0.0
 40
0.0001557
  0
LINE
  5
DF
330
1F
100
AcDbEntity
  8
0
  6
Continuous
 62
     7
370
    25
100
AcDbLine
 10
0.1298063357
 20
0.1981869973
 30
0.0
 11
0.1297994025
 21
0.1982445491
 31
0.0
  0
LINE
  5
E0
330
1F
100
AcDbEntity
  8
0
  6
Continuous
 62
     7
370
    25
100
AcDbLine
 10
0.1298990805
 20
0.1982565583
 30
0.0
 11
0.1299060161
 21
0.1981990088
 31
0.0
  0
ARC
  5
E1
330
1F
100
AcDbEntity
  8
0
  6
Continuous
 62
     7
370
    25
100
AcDbCircle
 10
0.1298527086
 20
0.1982217779
 30
0.0
 40
0.0000502
100
AcDbArc
 50
6.8698976458
 51
66.8698976459
  0
ARC
  5
E2
330
1F
100
AcDbEntity
  8
0
  6
Continuous
 62
     7
370
    25
100
AcDbCircle
 10
0.1298527086
 20
0.1982217779
 30
0.0
 40
0.0000502
100
AcDbArc
 50
246.8698976458
 51
306.8698976458
  0
ARC
  5
E3
330
1F
100
AcDbEntity
  8
0
  6
Continuous
 62
     7
370
    25
100
AcDbCircle
 10
0.1298527086
 20
0.1982217779
 30
0.0
 40
0.0000502
100
AcDbArc
 50
126.8698976459
 51
186.8698976458
  0
ARC
  5
E4
330
1F
100
AcDbEntity
  8
0
  6
Continuous
 62
     7
370
    25
100
AcDbCircle
 10
0.1298527086
 20
0.1982217779
 30
0.0
 40
0.0000502
100
AcDbArc
 50
66.8698976459
 51
126.8698976459
  0
ARC
  5
E5
330
1F
100
AcDbEntity
  8
0
  6
Continuous
 62
     7
370
    25
100
AcDbCircle
 10
0.1298527086
 20
0.1982217779
 30
0.0
 40
0.0000502
100
AcDbArc
 50
186.8698976458
 51
246.8698976458
  0
ARC
  5
E6
330
1F
100
AcDbEntity
  8
0
  6
Continuous
 62
     7
370
    25
100
AcDbCircle
 10
0.1298527086
 20
0.1982217779
 30
0.0
 40
0.0000502
100
AcDbArc
 50
306.8698976458
 51
6.8698976458
  0
CIRCLE
  5
E7
330
1F
100
AcDbEntity
  8
0
  6
Continuous
 62
     7
370
    25
100
AcDbCircle
 10
0.1517649264
 20
0.1637328051
 30
0.0
 40
0.0001557
  0
LINE
  5
E8
330
1F
100
AcDbEntity
  8
0
  6
Continuous
 62
     7
370
    25
100
AcDbLine
 10
0.1517459233
 20
0.1636780426
 30
0.0
 11
0.1517080005
 21
0.1637218812
 31
0.0
  0
LINE
  5
E9
330
1F
100
AcDbEntity
  8
0
  6
Continuous
 62
     7
370
    25
100
AcDbLine
 10
0.1517080005
 20
0.1637218812
 30
0.0
 11
0.1517270024
 21
0.1637766437
 31
0.0
  0
LINE
  5
EA
330
1F
100
AcDbEntity
  8
0
  6
Continuous
 62
     7
370
    25
100
AcDbLine
 10
0.1518028481
 20
0.1636889666
 30
0.0
 11
0.1517459233
 21
0.1636780426
 31
0.0
  0
LINE
  5
EB
330
1F
100
AcDbEntity
  8
0
  6
Continuous
 62
     7
370
    25
100
AcDbLine
 10
0.1517270024
 20
0.1637766437
 30
0.0
 11
0.1517839272
 21
0.1637875677
 31
0.0
  0
LINE
  5
EC
330
1F
100
AcDbEntity
  8
0
  6
Continuous
 62
     7
370
    25
100
AcDbLine
 10
0.1518218549
 20
0.1637437291
 30
0.0
 11
0.1518028481
 21
0.1636889666
 31
0.0
  0
LINE
  5
ED
330
1F
100
AcDbEntity
  8
0
  6
Continuous
 62
     7
370
    25
100
AcDbLine
 10
0.1517839272
 20
0.1637875677
 30
0.0
 11
0.1518218549
 21
0.1637437291
 31
0.0
  0
ARC
  5
EE
330
1F
100
AcDbEntity
  8
0
  6
Continuous
 62
     7
370
    25
100
AcDbCircle
 10
0.1517649264
 20
0.1637328051
 30
0.0
 40
0.0000502
100
AcDbArc
 50
280.8626260897
 51
340.8626260897
  0
ARC
  5
EF
330
1F
100
AcDbEntity
  8
0
  6
Continuous
 62
     7
370
    25
100
AcDbCircle
 10
0.1517649264
 20
0.1637328051
 30
0.0
 40
0.0000502
100
AcDbArc
 50
220.8626260897
 51
280.8626260897
  0
ARC
  5
F0
330
1F
100
AcDbEntity
  8
0
  6
Continuous
 62
     7
370
    25
100
AcDbCircle
 10
0.1517649264
 20
0.1637328051
 30
0.0
 40
0.0000502
100
AcDbArc
 50
100.8626260897
 51
160.8626260897
  0
ARC
  5
F1
330
1F
100
AcDbEntity
  8
0
  6
Continuous
 62
     7
370
    25
100
AcDbCircle
 10
0.1517649264
 20
0.1637328051
 30
0.0
 40
0.0000502
100
AcDbArc
 50
340.8626260897
 51
40.8626260897
  0
ARC
  5
F2
330
1F
100
AcDbEntity
  8
0
  6
Continuous
 62
     7
370
    25
100
AcDbCircle
 10
0.1517649264
 20
0.1637328051
 30
0.0
 40
0.0000502
100
AcDbArc
 50
160.8626260897
 51
220.8626260897
  0
ARC
  5
F3
330
1F
100
AcDbEntity
  8
0
  6
Continuous
 62
     7
370
    25
100
AcDbCircle
 10
0.1517649264
 20
0.1637328051
 30
0.0
 40
0.0000502
100
AcDbArc
 50
40.8626260897
 51
100.8626260897
  0
LINE
  5
F4
330
1F
100
AcDbEntity
  8
0
  6
Continuous
 62
     7
370
    25
100
AcDbLine
 10
0.0666588862
 20
0.1636752554
 30
0.0
 11
0.0666055806
 21
0.1636980255
 31
0.0
  0
LINE
  5
F5
330
1F
100
AcDbEntity
  8
0
  6
Continuous
 62
     7
370
    25
100
AcDbLine
 10
0.0667052586
 20
0.1637100349
 30
0.0
 11
0.0666588862
 21
0.1636752554
 31
0.0
  0
LINE
  5
F6
330
1F
100
AcDbEntity
  8
0
  6
Continuous
 62
     7
370
    25
100
AcDbLine
 10
0.0666983254
 20
0.1637675847
 30
0.0
 11
0.0667052586
 21
0.1637100349
 31
0.0
  0
LINE
  5
F7
330
1F
100
AcDbEntity
  8
0
  6
Continuous
 62
     7
370
    25
100
AcDbLine
 10
0.0666450198
 20
0.1637903549
 30
0.0
 11
0.0666983254
 21
0.1637675847
 31
0.0
  0
LINE
  5
F8
330
1F
100
AcDbEntity
  8
0
  6
Continuous
 62
     7
370
    25
100
AcDbLine
 10
0.0665986474
 20
0.1637555753
 30
0.0
 11
0.0666450198
 21
0.1637903549
 31
0.0
  0
LINE
  5
F9
330
1F
100
AcDbEntity
  8
0
  6
Continuous
 62
     7
370
    25
100
AcDbLine
 10
0.0666055806
 20
0.1636980255
 30
0.0
 11
0.0665986474
 21
0.1637555753
 31
0.0
  0
CIRCLE
  5
FA
330
1F
100
AcDbEntity
  8
0
  6
Continuous
 62
     7
370
    25
100
AcDbCircle
 10
0.0666519538
 20
0.1637328051
 30
0.0
 40
0.0001557
  0
ARC
  5
FB
330
1F
100
AcDbEntity
  8
0
  6
Continuous
 62
     7
370
    25
100
AcDbCircle
 10
0.0666519538
 20
0.1637328051
 30
0.0
 40
0.0000502
100
AcDbArc
 50
126.8698976459
 51
186.8698976458
  0
ARC
  5
FC
330
1F
100
AcDbEntity
  8
0
  6
Continuous
 62
     7
370
    25
100
AcDbCircle
 10
0.0666519538
 20
0.1637328051
 30
0.0
 40
0.0000502
100
AcDbArc
 50
186.8698976458
 51
246.8698976458
  0
ARC
  5
FD
330
1F
100
AcDbEntity
  8
0
  6
Continuous
 62
     7
370
    25
100
AcDbCircle
 10
0.0666519538
 20
0.1637328051
 30
0.0
 40
0.0000502
100
AcDbArc
 50
66.8698976458
 51
126.8698976459
  0
ARC
  5
FE
330
1F
100
AcDbEntity
  8
0
  6
Continuous
 62
     7
370
    25
100
AcDbCircle
 10
0.0666519538
 20
0.1637328051
 30
0.0
 40
0.0000502
100
AcDbArc
 50
6.8698976458
 51
66.8698976458
  0
ARC
  5
FF
330
1F
100
AcDbEntity
  8
0
  6
Continuous
 62
     7
370
    25
100
AcDbCircle
 10
0.0666519538
 20
0.1637328051
 30
0.0
 40
0.0000502
100
AcDbArc
 50
306.8698976458
 51
6.8698976458
  0
ARC
  5
100
330
1F
100
AcDbEntity
  8
0
  6
Continuous
 62
     7
370
    25
100
AcDbCircle
 10
0.0666519538
 20
0.1637328051
 30
0.0
 40
0.0000502
100
AcDbArc
 50
246.8698976458
 51
306.8698976458
  0
CIRCLE
  5
101
330
1F
100
AcDbEntity
  8
0
  6
Continuous
 62
     7
370
    25
100
AcDbCircle
 10
0.0882962224
 20
0.1992217779
 30
0.0
 40
0.0001557
  0
LINE
  5
102
330
1F
100
AcDbEntity
  8
0
  6
Continuous
 62
     7
370
    25
100
AcDbLine
 10
0.0883495291
 20
0.1991990079
 30
0.0
 11
0.0883031555
 21
0.1991642274
 31
0.0
  0
LINE
  5
103
330
1F
100
AcDbEntity
  8
0
  6
Continuous
 62
     7
370
    25
100
AcDbLine
 10
0.088289289
 20
0.1992793287
 30
0.0
 11
0.0883425947
 21
0.1992565573
 31
0.0
  0
LINE
  5
104
330
1F
100
AcDbEntity
  8
0
  6
Continuous
 62
     7
370
    25
100
AcDbLine
 10
0.0883425947
 20
0.1992565573
 30
0.0
 11
0.0883495291
 21
0.1991990079
 31
0.0
  0
LINE
  5
105
330
1F
100
AcDbEntity
  8
0
  6
Continuous
 62
     7
370
    25
100
AcDbLine
 10
0.0883031555
 20
0.1991642274
 30
0.0
 11
0.0882498498
 21
0.1991869987
 31
0.0
  0
LINE
  5
106
330
1F
100
AcDbEntity
  8
0
  6
Continuous
 62
     7
370
    25
100
AcDbLine
 10
0.0882498498
 20
0.1991869987
 30
0.0
 11
0.0882429154
 21
0.1992445482
 31
0.0
  0
LINE
  5
107
330
1F
100
AcDbEntity
  8
0
  6
Continuous
 62
     7
370
    25
100
AcDbLine
 10
0.0882429154
 20
0.1992445482
 30
0.0
 11
0.088289289
 21
0.1992793287
 31
0.0
  0
ARC
  5
108
330
1F
100
AcDbEntity
  8
0
  6
Continuous
 62
     7
370
    25
100
AcDbCircle
 10
0.0882962224
 20
0.1992217779
 30
0.0
 40
0.0000502
100
AcDbArc
 50
126.8698976459
 51
186.8698976458
  0
ARC
  5
109
330
1F
100
AcDbEntity
  8
0
  6
Continuous
 62
     7
370
    25
100
AcDbCircle
 10
0.0882962224
 20
0.1992217779
 30
0.0
 40
0.0000502
100
AcDbArc
 50
66.8698976458
 51
126.8698976459
  0
ARC
  5
10A
330
1F
100
AcDbEntity
  8
0
  6
Continuous
 62
     7
370
    25
100
AcDbCircle
 10
0.0882962224
 20
0.1992217779
 30
0.0
 40
0.0000502
100
AcDbArc
 50
6.8698976458
 51
66.8698976458
  0
ARC
  5
10B
330
1F
100
AcDbEntity
  8
0
  6
Continuous
 62
     7
370
    25
100
AcDbCircle
 10
0.0882962224
 20
0.1992217779
 30
0.0
 40
0.0000502
100
AcDbArc
 50
306.8698976458
 51
6.8698976458
  0
ARC
  5
10C
330
1F
100
AcDbEntity
  8
0
  6
Continuous
 62
     7
370
    25
100
AcDbCircle
 10
0.0882962224
 20
0.1992217779
 30
0.0
 40
0.0000502
100
AcDbArc
 50
246.8698976458
 51
306.8698976458
  0
ARC
  5
10D
330
1F
100
AcDbEntity
  8
0
  6
Continuous
 62
     7
370
    25
100
AcDbCircle
 10
0.0882962224
 20
0.1992217779
 30
0.0
 40
0.0000502
100
AcDbArc
 50
186.8698976458
 51
246.8698976458
  0
LINE
  5
10E
330
1F
100
AcDbEntity
  8
0
  6
Continuous
 62
     7
370
    25
100
AcDbLine
 10
0.149757994
 20
0.1617903549
 30
0.0
 11
0.1498112996
 21
0.1617675847
 31
0.0
  0
LINE
  5
10F
330
1F
100
AcDbEntity
  8
0
  6
Continuous
 62
     7
370
    25
100
AcDbLine
 10
0.1497116216
 20
0.1617555753
 30
0.0
 11
0.149757994
 21
0.1617903549
 31
0.0
  0
LINE
  5
110
330
1F
100
AcDbEntity
  8
0
  6
Continuous
 62
     7
370
    25
100
AcDbLine
 10
0.1497185548
 20
0.1616980256
 30
0.0
 11
0.1497116216
 21
0.1617555753
 31
0.0
  0
LINE
  5
111
330
1F
100
AcDbEntity
  8
0
  6
Continuous
 62
     7
370
    25
100
AcDbLine
 10
0.1498182328
 20
0.1617100349
 30
0.0
 11
0.1497718604
 21
0.1616752553
 31
0.0
  0
LINE
  5
112
330
1F
100
AcDbEntity
  8
0
  6
Continuous
 62
     7
370
    25
100
AcDbLine
 10
0.1498112996
 20
0.1617675847
 30
0.0
 11
0.1498182328
 21
0.1617100349
 31
0.0
  0
CIRCLE
  5
113
330
1F
100
AcDbEntity
  8
0
  6
Continuous
 62
     7
370
    25
100
AcDbCircle
 10
0.1497649264
 20
0.1617328051
 30
0.0
 40
0.0001557
  0
LINE
  5
114
330
1F
100
AcDbEntity
  8
0
  6
Continuous
 62
     7
370
    25
100
AcDbLine
 10
0.1497718604
 20
0.1616752553
 30
0.0
 11
0.1497185548
 21
0.1616980256
 31
0.0
  0
ARC
  5
115
330
1F
100
AcDbEntity
  8
0
  6
Continuous
 62
     7
370
    25
100
AcDbCircle
 10
0.1497649264
 20
0.1617328051
 30
0.0
 40
0.0000502
100
AcDbArc
 50
6.8698976458
 51
66.8698976459
  0
ARC
  5
116
330
1F
100
AcDbEntity
  8
0
  6
Continuous
 62
     7
370
    25
100
AcDbCircle
 10
0.1497649264
 20
0.1617328051
 30
0.0
 40
0.0000502
100
AcDbArc
 50
306.8698976458
 51
6.8698976458
  0
ARC
  5
117
330
1F
100
AcDbEntity
  8
0
  6
Continuous
 62
     7
370
    25
100
AcDbCircle
 10
0.1497649264
 20
0.1617328051
 30
0.0
 40
0.0000502
100
AcDbArc
 50
246.8698976458
 51
306.8698976458
  0
ARC
  5
118
330
1F
100
AcDbEntity
  8
0
  6
Continuous
 62
     7
370
    25
100
AcDbCircle
 10
0.1497649264
 20
0.1617328051
 30
0.0
 40
0.0000502
100
AcDbArc
 50
186.8698976458
 51
246.8698976458
  0
ARC
  5
119
330
1F
100
AcDbEntity
  8
0
  6
Continuous
 62
     7
370
    25
100
AcDbCircle
 10
0.1497649264
 20
0.1617328051
 30
0.0
 40
0.0000502
100
AcDbArc
 50
126.8698976459
 51
186.8698976458
  0
ARC
  5
11A
330
1F
100
AcDbEntity
  8
0
  6
Continuous
 62
     7
370
    25
100
AcDbCircle
 10
0.1497649264
 20
0.1617328051
 30
0.0
 40
0.0000502
100
AcDbArc
 50
66.8698976459
 51
126.8698976459
  0
CIRCLE
  5
11B
330
1F
100
AcDbEntity
  8
0
  6
Continuous
 62
     7
370
    25
100
AcDbCircle
 10
0.0666519538
 20
0.1617328051
 30
0.0
 40
0.0001557
  0
LINE
  5
11C
330
1F
100
AcDbEntity
  8
0
  6
Continuous
 62
     7
370
    25
100
AcDbLine
 10
0.0666054709
 20
0.1617674375
 30
0.0
 11
0.066658705
 21
0.1617903766
 31
0.0
  0
LINE
  5
11D
330
1F
100
AcDbEntity
  8
0
  6
Continuous
 62
     7
370
    25
100
AcDbLine
 10
0.066645201
 20
0.1616752337
 30
0.0
 11
0.0665987189
 21
0.161709866
 31
0.0
  0
LINE
  5
11E
330
1F
100
AcDbEntity
  8
0
  6
Continuous
 62
     7
370
    25
100
AcDbLine
 10
0.0666984351
 20
0.1616981727
 30
0.0
 11
0.066645201
 21
0.1616752337
 31
0.0
  0
LINE
  5
11F
330
1F
100
AcDbEntity
  8
0
  6
Continuous
 62
     7
370
    25
100
AcDbLine
 10
0.0667051871
 20
0.1617557443
 30
0.0
 11
0.0666984351
 21
0.1616981727
 31
0.0
  0
LINE
  5
120
330
1F
100
AcDbEntity
  8
0
  6
Continuous
 62
     7
370
    25
100
AcDbLine
 10
0.066658705
 20
0.1617903766
 30
0.0
 11
0.0667051871
 21
0.1617557443
 31
0.0
  0
LINE
  5
121
330
1F
100
AcDbEntity
  8
0
  6
Continuous
 62
     7
370
    25
100
AcDbLine
 10
0.0665987189
 20
0.161709866
 30
0.0
 11
0.0666054709
 21
0.1617674375
 31
0.0
  0
ARC
  5
122
330
1F
100
AcDbEntity
  8
0
  6
Continuous
 62
     7
370
    25
100
AcDbCircle
 10
0.0666519538
 20
0.1617328051
 30
0.0
 40
0.0000502
100
AcDbArc
 50
173.3117780349
 51
233.3117780349
  0
ARC
  5
123
330
1F
100
AcDbEntity
  8
0
  6
Continuous
 62
     7
370
    25
100
AcDbCircle
 10
0.0666519538
 20
0.1617328051
 30
0.0
 40
0.0000502
100
AcDbArc
 50
113.3117780349
 51
173.3117780349
  0
ARC
  5
124
330
1F
100
AcDbEntity
  8
0
  6
Continuous
 62
     7
370
    25
100
AcDbCircle
 10
0.0666519538
 20
0.1617328051
 30
0.0
 40
0.0000502
100
AcDbArc
 50
53.3117780349
 51
113.3117780349
  0
ARC
  5
125
330
1F
100
AcDbEntity
  8
0
  6
Continuous
 62
     7
370
    25
100
AcDbCircle
 10
0.0666519538
 20
0.1617328051
 30
0.0
 40
0.0000502
100
AcDbArc
 50
353.3117780348
 51
53.3117780349
  0
ARC
  5
126
330
1F
100
AcDbEntity
  8
0
  6
Continuous
 62
     7
370
    25
100
AcDbCircle
 10
0.0666519538
 20
0.1617328051
 30
0.0
 40
0.0000502
100
AcDbArc
 50
293.3117780349
 51
353.3117780348
  0
ARC
  5
127
330
1F
100
AcDbEntity
  8
0
  6
Continuous
 62
     7
370
    25
100
AcDbCircle
 10
0.0666519538
 20
0.1617328051
 30
0.0
 40
0.0000502
100
AcDbArc
 50
233.3117780349
 51
293.3117780349
  0
LINE
  5
128
330
1F
100
AcDbEntity
  8
0
  6
Continuous
 62
     7
370
    25
100
AcDbLine
 10
0.1307947429
 20
0.1999538292
 30
0.0
 11
0.130823725
 21
0.2000040282
 31
0.0
  0
CIRCLE
  5
129
330
1F
100
AcDbEntity
  8
0
  6
Continuous
 62
     7
370
    25
100
AcDbCircle
 10
0.1308527086
 20
0.1999538287
 30
0.0
 40
0.0001557
  0
LINE
  5
12A
330
1F
100
AcDbEntity
  8
0
  6
Continuous
 62
     7
370
    25
100
AcDbLine
 10
0.130823725
 20
0.2000040282
 30
0.0
 11
0.1308816917
 21
0.2000040282
 31
0.0
  0
LINE
  5
12B
330
1F
100
AcDbEntity
  8
0
  6
Continuous
 62
     7
370
    25
100
AcDbLine
 10
0.130823725
 20
0.1999036277
 30
0.0
 11
0.1307947429
 21
0.1999538292
 31
0.0
  0
LINE
  5
12C
330
1F
100
AcDbEntity
  8
0
  6
Continuous
 62
     7
370
    25
100
AcDbLine
 10
0.1308816917
 20
0.2000040282
 30
0.0
 11
0.1309106739
 21
0.1999538292
 31
0.0
  0
LINE
  5
12D
330
1F
100
AcDbEntity
  8
0
  6
Continuous
 62
     7
370
    25
100
AcDbLine
 10
0.1308816917
 20
0.1999036277
 30
0.0
 11
0.130823725
 21
0.1999036277
 31
0.0
  0
LINE
  5
12E
330
1F
100
AcDbEntity
  8
0
  6
Continuous
 62
     7
370
    25
100
AcDbLine
 10
0.1309106739
 20
0.1999538292
 30
0.0
 11
0.1308816917
 21
0.1999036277
 31
0.0
  0
ARC
  5
12F
330
1F
100
AcDbEntity
  8
0
  6
Continuous
 62
     7
370
    25
100
AcDbCircle
 10
0.1308527086
 20
0.1999538287
 30
0.0
 40
0.0000502
100
AcDbArc
 50
90.0
 51
150.0
  0
ARC
  5
130
330
1F
100
AcDbEntity
  8
0
  6
Continuous
 62
     7
370
    25
100
AcDbCircle
 10
0.1308527086
 20
0.1999538287
 30
0.0
 40
0.0000502
100
AcDbArc
 50
150.0
 51
210.0
  0
ARC
  5
131
330
1F
100
AcDbEntity
  8
0
  6
Continuous
 62
     7
370
    25
100
AcDbCircle
 10
0.1308527086
 20
0.1999538287
 30
0.0
 40
0.0000502
100
AcDbArc
 50
270.0
 51
330.0
  0
ARC
  5
132
330
1F
100
AcDbEntity
  8
0
  6
Continuous
 62
     7
370
    25
100
AcDbCircle
 10
0.1308527086
 20
0.1999538287
 30
0.0
 40
0.0000502
100
AcDbArc
 50
330.0
 51
30.0
  0
ARC
  5
133
330
1F
100
AcDbEntity
  8
0
  6
Continuous
 62
     7
370
    25
100
AcDbCircle
 10
0.1308527086
 20
0.1999538287
 30
0.0
 40
0.0000502
100
AcDbArc
 50
30.0
 51
90.0
  0
ARC
  5
134
330
1F
100
AcDbEntity
  8
0
  6
Continuous
 62
     7
370
    25
100
AcDbCircle
 10
0.1308527086
 20
0.1999538287
 30
0.0
 40
0.0000502
100
AcDbArc
 50
210.0
 51
270.0
  0
LINE
  5
135
330
1F
100
AcDbEntity
  8
0
  6
Continuous
 62
     7
370
    25
100
AcDbLine
 10
0.08655742
 20
0.1981642069
 30
0.0
 11
0.086510938
 21
0.1981988395
 31
0.0
  0
LINE
  5
136
330
1F
100
AcDbEntity
  8
0
  6
Continuous
 62
     7
370
    25
100
AcDbLine
 10
0.086510938
 20
0.1981988395
 30
0.0
 11
0.0865176876
 21
0.1982564105
 31
0.0
  0
LINE
  5
137
330
1F
100
AcDbEntity
  8
0
  6
Continuous
 62
     7
370
    25
100
AcDbLine
 10
0.0865176876
 20
0.1982564105
 30
0.0
 11
0.0865709217
 21
0.1982793487
 31
0.0
  0
CIRCLE
  5
138
330
1F
100
AcDbEntity
  8
0
  6
Continuous
 62
     7
370
    25
100
AcDbCircle
 10
0.0865641716
 20
0.1982217779
 30
0.0
 40
0.0001557
  0
LINE
  5
139
330
1F
100
AcDbEntity
  8
0
  6
Continuous
 62
     7
370
    25
100
AcDbLine
 10
0.0866106541
 20
0.1981871451
 30
0.0
 11
0.08655742
 21
0.1981642069
 31
0.0
  0
LINE
  5
13A
330
1F
100
AcDbEntity
  8
0
  6
Continuous
 62
     7
370
    25
100
AcDbLine
 10
0.0866174062
 20
0.198244716
 30
0.0
 11
0.0866106541
 21
0.1981871451
 31
0.0
  0
LINE
  5
13B
330
1F
100
AcDbEntity
  8
0
  6
Continuous
 62
     7
370
    25
100
AcDbLine
 10
0.0865709217
 20
0.1982793487
 30
0.0
 11
0.0866174062
 21
0.198244716
 31
0.0
  0
ARC
  5
13C
330
1F
100
AcDbEntity
  8
0
  6
Continuous
 62
     7
370
    25
100
AcDbCircle
 10
0.0865641716
 20
0.1982217779
 30
0.0
 40
0.0000502
100
AcDbArc
 50
53.3117780349
 51
113.3117780349
  0
ARC
  5
13D
330
1F
100
AcDbEntity
  8
0
  6
Continuous
 62
     7
370
    25
100
AcDbCircle
 10
0.0865641716
 20
0.1982217779
 30
0.0
 40
0.0000502
100
AcDbArc
 50
113.3117780349
 51
173.3117780348
  0
ARC
  5
13E
330
1F
100
AcDbEntity
  8
0
  6
Continuous
 62
     7
370
    25
100
AcDbCircle
 10
0.0865641716
 20
0.1982217779
 30
0.0
 40
0.0000502
100
AcDbArc
 50
233.3117780349
 51
293.3117780349
  0
ARC
  5
13F
330
1F
100
AcDbEntity
  8
0
  6
Continuous
 62
     7
370
    25
100
AcDbCircle
 10
0.0865641716
 20
0.1982217779
 30
0.0
 40
0.0000502
100
AcDbArc
 50
353.3117780349
 51
53.3117780349
  0
ARC
  5
140
330
1F
100
AcDbEntity
  8
0
  6
Continuous
 62
     7
370
    25
100
AcDbCircle
 10
0.0865641716
 20
0.1982217779
 30
0.0
 40
0.0000502
100
AcDbArc
 50
293.3117780349
 51
353.3117780349
  0
ARC
  5
141
330
1F
100
AcDbEntity
  8
0
  6
Continuous
 62
     7
370
    25
100
AcDbCircle
 10
0.0865641716
 20
0.1982217779
 30
0.0
 40
0.0000502
100
AcDbArc
 50
173.3117780348
 51
233.3117780349
  0
LINE
  5
142
330
1F
100
AcDbEntity
  8
0
  6
Continuous
 62
     7
370
    25
100
AcDbLine
 10
0.0855072434
 20
0.1999429048
 30
0.0
 11
0.0855262478
 21
0.1999976672
 31
0.0
  0
LINE
  5
143
330
1F
100
AcDbEntity
  8
0
  6
Continuous
 62
     7
370
    25
100
AcDbLine
 10
0.0855451687
 20
0.1998990668
 30
0.0
 11
0.0855072434
 21
0.1999429048
 31
0.0
  0
LINE
  5
144
330
1F
100
AcDbEntity
  8
0
  6
Continuous
 62
     7
370
    25
100
AcDbLine
 10
0.0856020959
 20
0.1999099911
 30
0.0
 11
0.0855451687
 21
0.1998990668
 31
0.0
  0
LINE
  5
145
330
1F
100
AcDbEntity
  8
0
  6
Continuous
 62
     7
370
    25
100
AcDbLine
 10
0.0856210978
 20
0.1999647535
 30
0.0
 11
0.0856020959
 21
0.1999099911
 31
0.0
  0
LINE
  5
146
330
1F
100
AcDbEntity
  8
0
  6
Continuous
 62
     7
370
    25
100
AcDbLine
 10
0.085583175
 20
0.2000085915
 30
0.0
 11
0.0856210978
 21
0.1999647535
 31
0.0
  0
LINE
  5
147
330
1F
100
AcDbEntity
  8
0
  6
Continuous
 62
     7
370
    25
100
AcDbLine
 10
0.0855262478
 20
0.1999976672
 30
0.0
 11
0.085583175
 21
0.2000085915
 31
0.0
  0
CIRCLE
  5
148
330
1F
100
AcDbEntity
  8
0
  6
Continuous
 62
     7
370
    25
100
AcDbCircle
 10
0.0855641716
 20
0.1999538287
 30
0.0
 40
0.0001557
  0
ARC
  5
149
330
1F
100
AcDbEntity
  8
0
  6
Continuous
 62
     7
370
    25
100
AcDbCircle
 10
0.0855641716
 20
0.1999538287
 30
0.0
 40
0.0000502
100
AcDbArc
 50
340.8626260897
 51
40.8626260897
  0
ARC
  5
14A
330
1F
100
AcDbEntity
  8
0
  6
Continuous
 62
     7
370
    25
100
AcDbCircle
 10
0.0855641716
 20
0.1999538287
 30
0.0
 40
0.0000502
100
AcDbArc
 50
220.8626260897
 51
280.8626260897
  0
ARC
  5
14B
330
1F
100
AcDbEntity
  8
0
  6
Continuous
 62
     7
370
    25
100
AcDbCircle
 10
0.0855641716
 20
0.1999538287
 30
0.0
 40
0.0000502
100
AcDbArc
 50
100.8626260897
 51
160.8626260897
  0
ARC
  5
14C
330
1F
100
AcDbEntity
  8
0
  6
Continuous
 62
     7
370
    25
100
AcDbCircle
 10
0.0855641716
 20
0.1999538287
 30
0.0
 40
0.0000502
100
AcDbArc
 50
40.8626260897
 51
100.8626260897
  0
ARC
  5
14D
330
1F
100
AcDbEntity
  8
0
  6
Continuous
 62
     7
370
    25
100
AcDbCircle
 10
0.0855641716
 20
0.1999538287
 30
0.0
 40
0.0000502
100
AcDbArc
 50
280.8626260897
 51
340.8626260897
  0
ARC
  5
14E
330
1F
100
AcDbEntity
  8
0
  6
Continuous
 62
     7
370
    25
100
AcDbCircle
 10
0.0855641716
 20
0.1999538287
 30
0.0
 40
0.0000502
100
AcDbArc
 50
160.8626260897
 51
220.8626260897
  0
LINE
  5
14F
330
1F
100
AcDbEntity
  8
0
  6
Continuous
 62
     7
370
    25
100
AcDbLine
 10
0.1497581752
 20
0.1636752336
 30
0.0
 11
0.1497116931
 21
0.163709866
 31
0.0
  0
CIRCLE
  5
150
330
1F
100
AcDbEntity
  8
0
  6
Continuous
 62
     7
370
    25
100
AcDbCircle
 10
0.1497649264
 20
0.1637328051
 30
0.0
 40
0.0001557
  0
LINE
  5
151
330
1F
100
AcDbEntity
  8
0
  6
Continuous
 62
     7
370
    25
100
AcDbLine
 10
0.1497116931
 20
0.163709866
 30
0.0
 11
0.1497184451
 21
0.1637674375
 31
0.0
  0
LINE
  5
152
330
1F
100
AcDbEntity
  8
0
  6
Continuous
 62
     7
370
    25
100
AcDbLine
 10
0.1498114093
 20
0.1636981728
 30
0.0
 11
0.1497581752
 21
0.1636752336
 31
0.0
  0
LINE
  5
153
330
1F
100
AcDbEntity
  8
0
  6
Continuous
 62
     7
370
    25
100
AcDbLine
 10
0.1497184451
 20
0.1637674375
 30
0.0
 11
0.1497716792
 21
0.1637903766
 31
0.0
  0
LINE
  5
154
330
1F
100
AcDbEntity
  8
0
  6
Continuous
 62
     7
370
    25
100
AcDbLine
 10
0.1497716792
 20
0.1637903766
 30
0.0
 11
0.1498181613
 21
0.1637557442
 31
0.0
  0
LINE
  5
155
330
1F
100
AcDbEntity
  8
0
  6
Continuous
 62
     7
370
    25
100
AcDbLine
 10
0.1498181613
 20
0.1637557442
 30
0.0
 11
0.1498114093
 21
0.1636981728
 31
0.0
  0
ARC
  5
156
330
1F
100
AcDbEntity
  8
0
  6
Continuous
 62
     7
370
    25
100
AcDbCircle
 10
0.1497649264
 20
0.1637328051
 30
0.0
 40
0.0000502
100
AcDbArc
 50
233.3117780349
 51
293.3117780349
  0
ARC
  5
157
330
1F
100
AcDbEntity
  8
0
  6
Continuous
 62
     7
370
    25
100
AcDbCircle
 10
0.1497649264
 20
0.1637328051
 30
0.0
 40
0.0000502
100
AcDbArc
 50
353.3117780348
 51
53.3117780349
  0
ARC
  5
158
330
1F
100
AcDbEntity
  8
0
  6
Continuous
 62
     7
370
    25
100
AcDbCircle
 10
0.1497649264
 20
0.1637328051
 30
0.0
 40
0.0000502
100
AcDbArc
 50
293.3117780349
 51
353.3117780348
  0
ARC
  5
159
330
1F
100
AcDbEntity
  8
0
  6
Continuous
 62
     7
370
    25
100
AcDbCircle
 10
0.1497649264
 20
0.1637328051
 30
0.0
 40
0.0000502
100
AcDbArc
 50
173.3117780349
 51
233.3117780349
  0
ARC
  5
15A
330
1F
100
AcDbEntity
  8
0
  6
Continuous
 62
     7
370
    25
100
AcDbCircle
 10
0.1497649264
 20
0.1637328051
 30
0.0
 40
0.0000502
100
AcDbArc
 50
113.3117780349
 51
173.3117780349
  0
ARC
  5
15B
330
1F
100
AcDbEntity
  8
0
  6
Continuous
 62
     7
370
    25
100
AcDbCircle
 10
0.1497649264
 20
0.1637328051
 30
0.0
 40
0.0000502
100
AcDbArc
 50
53.3117780349
 51
113.3117780349
  0
LINE
  5
15C
330
1F
100
AcDbEntity
  8
0
  6
Continuous
 62
     7
370
    25
100
AcDbLine
 10
0.1280741747
 20
0.1992564095
 30
0.0
 11
0.1281274088
 21
0.1992793502
 31
0.0
  0
LINE
  5
15D
330
1F
100
AcDbEntity
  8
0
  6
Continuous
 62
     7
370
    25
100
AcDbLine
 10
0.1280674239
 20
0.1991988386
 30
0.0
 11
0.1280741747
 21
0.1992564095
 31
0.0
  0
LINE
  5
15E
330
1F
100
AcDbEntity
  8
0
  6
Continuous
 62
     7
370
    25
100
AcDbLine
 10
0.1281139071
 20
0.1991642059
 30
0.0
 11
0.1280674239
 21
0.1991988386
 31
0.0
  0
LINE
  5
15F
330
1F
100
AcDbEntity
  8
0
  6
Continuous
 62
     7
370
    25
100
AcDbLine
 10
0.1281671412
 20
0.1991871465
 30
0.0
 11
0.1281139071
 21
0.1991642059
 31
0.0
  0
LINE
  5
160
330
1F
100
AcDbEntity
  8
0
  6
Continuous
 62
     7
370
    25
100
AcDbLine
 10
0.1281738921
 20
0.1992447175
 30
0.0
 11
0.1281671412
 21
0.1991871465
 31
0.0
  0
LINE
  5
161
330
1F
100
AcDbEntity
  8
0
  6
Continuous
 62
     7
370
    25
100
AcDbLine
 10
0.1281274088
 20
0.1992793502
 30
0.0
 11
0.1281738921
 21
0.1992447175
 31
0.0
  0
CIRCLE
  5
162
330
1F
100
AcDbEntity
  8
0
  6
Continuous
 62
     7
370
    25
100
AcDbCircle
 10
0.1281206578
 20
0.1992217779
 30
0.0
 40
0.0001557
  0
ARC
  5
163
330
1F
100
AcDbEntity
  8
0
  6
Continuous
 62
     7
370
    25
100
AcDbCircle
 10
0.1281206578
 20
0.1992217779
 30
0.0
 40
0.0000502
100
AcDbArc
 50
53.3117780349
 51
113.3117780349
  0
ARC
  5
164
330
1F
100
AcDbEntity
  8
0
  6
Continuous
 62
     7
370
    25
100
AcDbCircle
 10
0.1281206578
 20
0.1992217779
 30
0.0
 40
0.0000502
100
AcDbArc
 50
353.3117780349
 51
53.3117780349
  0
ARC
  5
165
330
1F
100
AcDbEntity
  8
0
  6
Continuous
 62
     7
370
    25
100
AcDbCircle
 10
0.1281206578
 20
0.1992217779
 30
0.0
 40
0.0000502
100
AcDbArc
 50
293.3117780349
 51
353.3117780349
  0
ARC
  5
166
330
1F
100
AcDbEntity
  8
0
  6
Continuous
 62
     7
370
    25
100
AcDbCircle
 10
0.1281206578
 20
0.1992217779
 30
0.0
 40
0.0000502
100
AcDbArc
 50
233.3117780349
 51
293.3117780349
  0
ARC
  5
167
330
1F
100
AcDbEntity
  8
0
  6
Continuous
 62
     7
370
    25
100
AcDbCircle
 10
0.1281206578
 20
0.1992217779
 30
0.0
 40
0.0000502
100
AcDbArc
 50
173.3117780348
 51
233.3117780349
  0
ARC
  5
168
330
1F
100
AcDbEntity
  8
0
  6
Continuous
 62
     7
370
    25
100
AcDbCircle
 10
0.1281206578
 20
0.1992217779
 30
0.0
 40
0.0000502
100
AcDbArc
 50
113.3117780349
 51
173.3117780348
  0
LINE
  5
169
330
1F
100
AcDbEntity
  8
0
  6
Continuous
 62
     7
370
    25
100
AcDbLine
 10
0.1299059422
 20
0.1272667707
 30
0.0
 11
0.1298991926
 21
0.1272091998
 31
0.0
  0
LINE
  5
16A
330
1F
100
AcDbEntity
  8
0
  6
Continuous
 62
     7
370
    25
100
AcDbLine
 10
0.1298594601
 20
0.1273014034
 30
0.0
 11
0.1299059422
 21
0.1272667707
 31
0.0
  0
LINE
  5
16B
330
1F
100
AcDbEntity
  8
0
  6
Continuous
 62
     7
370
    25
100
AcDbLine
 10
0.129806226
 20
0.1272784651
 30
0.0
 11
0.1298594601
 21
0.1273014034
 31
0.0
  0
LINE
  5
16C
330
1F
100
AcDbEntity
  8
0
  6
Continuous
 62
     7
370
    25
100
AcDbLine
 10
0.129799474
 20
0.1272208942
 30
0.0
 11
0.129806226
 21
0.1272784651
 31
0.0
  0
LINE
  5
16D
330
1F
100
AcDbEntity
  8
0
  6
Continuous
 62
     7
370
    25
100
AcDbLine
 10
0.1298459585
 20
0.1271862615
 30
0.0
 11
0.129799474
 21
0.1272208942
 31
0.0
  0
LINE
  5
16E
330
1F
100
AcDbEntity
  8
0
  6
Continuous
 62
     7
370
    25
100
AcDbLine
 10
0.1298991926
 20
0.1272091998
 30
0.0
 11
0.1298459585
 21
0.1271862615
 31
0.0
  0
CIRCLE
  5
16F
330
1F
100
AcDbEntity
  8
0
  6
Continuous
 62
     7
370
    25
100
AcDbCircle
 10
0.1298527086
 20
0.1272438323
 30
0.0
 40
0.0001557
  0
ARC
  5
170
330
1F
100
AcDbEntity
  8
0
  6
Continuous
 62
     7
370
    25
100
AcDbCircle
 10
0.1298527086
 20
0.1272438323
 30
0.0
 40
0.0000502
100
AcDbArc
 50
293.3117780349
 51
353.3117780349
  0
ARC
  5
171
330
1F
100
AcDbEntity
  8
0
  6
Continuous
 62
     7
370
    25
100
AcDbCircle
 10
0.1298527086
 20
0.1272438323
 30
0.0
 40
0.0000502
100
AcDbArc
 50
233.3117780349
 51
293.3117780349
  0
ARC
  5
172
330
1F
100
AcDbEntity
  8
0
  6
Continuous
 62
     7
370
    25
100
AcDbCircle
 10
0.1298527086
 20
0.1272438323
 30
0.0
 40
0.0000502
100
AcDbArc
 50
173.3117780348
 51
233.3117780349
  0
ARC
  5
173
330
1F
100
AcDbEntity
  8
0
  6
Continuous
 62
     7
370
    25
100
AcDbCircle
 10
0.1298527086
 20
0.1272438323
 30
0.0
 40
0.0000502
100
AcDbArc
 50
113.3117780349
 51
173.3117780348
  0
ARC
  5
174
330
1F
100
AcDbEntity
  8
0
  6
Continuous
 62
     7
370
    25
100
AcDbCircle
 10
0.1298527086
 20
0.1272438323
 30
0.0
 40
0.0000502
100
AcDbArc
 50
53.3117780349
 51
113.3117780349
  0
ARC
  5
175
330
1F
100
AcDbEntity
  8
0
  6
Continuous
 62
     7
370
    25
100
AcDbCircle
 10
0.1298527086
 20
0.1272438323
 30
0.0
 40
0.0000502
100
AcDbArc
 50
353.3117780349
 51
53.3117780349
  0
LINE
  5
176
330
1F
100
AcDbEntity
  8
0
  6
Continuous
 62
     7
370
    25
100
AcDbLine
 10
0.129063731
 20
0.2009429039
 30
0.0
 11
0.1290827329
 21
0.2009976662
 31
0.0
  0
CIRCLE
  5
177
330
1F
100
AcDbEntity
  8
0
  6
Continuous
 62
     7
370
    25
100
AcDbCircle
 10
0.1291206578
 20
0.2009538287
 30
0.0
 40
0.0001557
  0
LINE
  5
178
330
1F
100
AcDbEntity
  8
0
  6
Continuous
 62
     7
370
    25
100
AcDbLine
 10
0.1290827329
 20
0.2009976662
 30
0.0
 11
0.1291396602
 21
0.2010085906
 31
0.0
  0
LINE
  5
179
330
1F
100
AcDbEntity
  8
0
  6
Continuous
 62
     7
370
    25
100
AcDbLine
 10
0.1291775854
 20
0.2009647525
 30
0.0
 11
0.129158581
 21
0.2009099902
 31
0.0
  0
LINE
  5
17A
330
1F
100
AcDbEntity
  8
0
  6
Continuous
 62
     7
370
    25
100
AcDbLine
 10
0.129158581
 20
0.2009099902
 30
0.0
 11
0.1291016538
 21
0.2008990658
 31
0.0
  0
LINE
  5
17B
330
1F
100
AcDbEntity
  8
0
  6
Continuous
 62
     7
370
    25
100
AcDbLine
 10
0.1291016538
 20
0.2008990658
 30
0.0
 11
0.129063731
 21
0.2009429039
 31
0.0
  0
LINE
  5
17C
330
1F
100
AcDbEntity
  8
0
  6
Continuous
 62
     7
370
    25
100
AcDbLine
 10
0.1291396602
 20
0.2010085906
 30
0.0
 11
0.1291775854
 21
0.2009647525
 31
0.0
  0
ARC
  5
17D
330
1F
100
AcDbEntity
  8
0
  6
Continuous
 62
     7
370
    25
100
AcDbCircle
 10
0.1291206578
 20
0.2009538287
 30
0.0
 40
0.0000502
100
AcDbArc
 50
220.8626260897
 51
280.8626260897
  0
ARC
  5
17E
330
1F
100
AcDbEntity
  8
0
  6
Continuous
 62
     7
370
    25
100
AcDbCircle
 10
0.1291206578
 20
0.2009538287
 30
0.0
 40
0.0000502
100
AcDbArc
 50
160.8626260897
 51
220.8626260897
  0
ARC
  5
17F
330
1F
100
AcDbEntity
  8
0
  6
Continuous
 62
     7
370
    25
100
AcDbCircle
 10
0.1291206578
 20
0.2009538287
 30
0.0
 40
0.0000502
100
AcDbArc
 50
40.8626260897
 51
100.8626260897
  0
ARC
  5
180
330
1F
100
AcDbEntity
  8
0
  6
Continuous
 62
     7
370
    25
100
AcDbCircle
 10
0.1291206578
 20
0.2009538287
 30
0.0
 40
0.0000502
100
AcDbArc
 50
340.8626260897
 51
40.8626260897
  0
ARC
  5
181
330
1F
100
AcDbEntity
  8
0
  6
Continuous
 62
     7
370
    25
100
AcDbCircle
 10
0.1291206578
 20
0.2009538287
 30
0.0
 40
0.0000502
100
AcDbArc
 50
280.8626260897
 51
340.8626260897
  0
ARC
  5
182
330
1F
100
AcDbEntity
  8
0
  6
Continuous
 62
     7
370
    25
100
AcDbCircle
 10
0.1291206578
 20
0.2009538287
 30
0.0
 40
0.0000502
100
AcDbArc
 50
100.8626260897
 51
160.8626260897
  0
LINE
  5
183
330
1F
100
AcDbEntity
  8
0
  6
Continuous
 62
     7
370
    25
100
AcDbLine
 10
0.107141708
 20
0.2006856073
 30
0.0
 11
0.1071486742
 21
0.200743152
 31
0.0
  0
LINE
  5
184
330
1F
100
AcDbEntity
  8
0
  6
Continuous
 62
     7
370
    25
100
AcDbLine
 10
0.107188061
 20
0.2006508006
 30
0.0
 11
0.107141708
 21
0.2006856073
 31
0.0
  0
LINE
  5
185
330
1F
100
AcDbEntity
  8
0
  6
Continuous
 62
     7
370
    25
100
AcDbLine
 10
0.1072413804
 20
0.2006735409
 30
0.0
 11
0.107188061
 21
0.2006508006
 31
0.0
  0
LINE
  5
186
330
1F
100
AcDbEntity
  8
0
  6
Continuous
 62
     7
370
    25
100
AcDbLine
 10
0.1072483466
 20
0.200731088
 30
0.0
 11
0.1072413804
 21
0.2006735409
 31
0.0
  0
LINE
  5
187
330
1F
100
AcDbEntity
  8
0
  6
Continuous
 62
     7
370
    25
100
AcDbLine
 10
0.1072019935
 20
0.2007658924
 30
0.0
 11
0.1072483466
 21
0.200731088
 31
0.0
  0
CIRCLE
  5
188
330
1F
100
AcDbEntity
  8
0
  6
Continuous
 62
     7
370
    25
100
AcDbCircle
 10
0.1071950273
 20
0.2007083472
 30
0.0
 40
0.0001557
  0
LINE
  5
189
330
1F
100
AcDbEntity
  8
0
  6
Continuous
 62
     7
370
    25
100
AcDbLine
 10
0.1071486742
 20
0.200743152
 30
0.0
 11
0.1072019935
 21
0.2007658924
 31
0.0
  0
ARC
  5
18A
330
1F
100
AcDbEntity
  8
0
  6
Continuous
 62
     7
370
    25
100
AcDbCircle
 10
0.1071950273
 20
0.2007083472
 30
0.0
 40
0.0000502
100
AcDbArc
 50
173.097643206
 51
233.097643206
  0
ARC
  5
18B
330
1F
100
AcDbEntity
  8
0
  6
Continuous
 62
     7
370
    25
100
AcDbCircle
 10
0.1071950273
 20
0.2007083472
 30
0.0
 40
0.0000502
100
AcDbArc
 50
233.097643206
 51
293.097643206
  0
ARC
  5
18C
330
1F
100
AcDbEntity
  8
0
  6
Continuous
 62
     7
370
    25
100
AcDbCircle
 10
0.1071950273
 20
0.2007083472
 30
0.0
 40
0.0000502
100
AcDbArc
 50
293.097643206
 51
353.0976432059
  0
ARC
  5
18D
330
1F
100
AcDbEntity
  8
0
  6
Continuous
 62
     7
370
    25
100
AcDbCircle
 10
0.1071950273
 20
0.2007083472
 30
0.0
 40
0.0000502
100
AcDbArc
 50
113.097643206
 51
173.097643206
  0
ARC
  5
18E
330
1F
100
AcDbEntity
  8
0
  6
Continuous
 62
     7
370
    25
100
AcDbCircle
 10
0.1071950273
 20
0.2007083472
 30
0.0
 40
0.0000502
100
AcDbArc
 50
53.097643206
 51
113.097643206
  0
ARC
  5
18F
330
1F
100
AcDbEntity
  8
0
  6
Continuous
 62
     7
370
    25
100
AcDbCircle
 10
0.1071950273
 20
0.2007083472
 30
0.0
 40
0.0000502
100
AcDbArc
 50
353.0976432059
 51
53.097643206
  0
LINE
  5
190
330
1F
100
AcDbEntity
  8
0
  6
Continuous
 62
     7
370
    25
100
AcDbLine
 10
0.0758547266
 20
0.1825984658
 30
0.0
 11
0.0758394702
 21
0.1825425435
 31
0.0
  0
LINE
  5
191
330
1F
100
AcDbEntity
  8
0
  6
Continuous
 62
     7
370
    25
100
AcDbLine
 10
0.0758394702
 20
0.1825425435
 30
0.0
 11
0.0757834108
 21
0.1825277973
 31
0.0
  0
CIRCLE
  5
192
330
1F
100
AcDbEntity
  8
0
  6
Continuous
 62
     7
370
    25
100
AcDbCircle
 10
0.0757986687
 20
0.1825837187
 30
0.0
 40
0.0001557
  0
LINE
  5
193
330
1F
100
AcDbEntity
  8
0
  6
Continuous
 62
     7
370
    25
100
AcDbLine
 10
0.0757834108
 20
0.1825277973
 30
0.0
 11
0.0757426102
 21
0.1825689722
 31
0.0
  0
LINE
  5
194
330
1F
100
AcDbEntity
  8
0
  6
Continuous
 62
     7
370
    25
100
AcDbLine
 10
0.075757869
 20
0.1826248933
 30
0.0
 11
0.075813926
 21
0.1826396407
 31
0.0
  0
LINE
  5
195
330
1F
100
AcDbEntity
  8
0
  6
Continuous
 62
     7
370
    25
100
AcDbLine
 10
0.075813926
 20
0.1826396407
 30
0.0
 11
0.0758547266
 21
0.1825984658
 31
0.0
  0
LINE
  5
196
330
1F
100
AcDbEntity
  8
0
  6
Continuous
 62
     7
370
    25
100
AcDbLine
 10
0.0757426102
 20
0.1825689722
 30
0.0
 11
0.075757869
 21
0.1826248933
 31
0.0
  0
ARC
  5
197
330
1F
100
AcDbEntity
  8
0
  6
Continuous
 62
     7
370
    25
100
AcDbCircle
 10
0.0757986687
 20
0.1825837187
 30
0.0
 40
0.0000502
100
AcDbArc
 50
104.7385195751
 51
164.7385195751
  0
ARC
  5
198
330
1F
100
AcDbEntity
  8
0
  6
Continuous
 62
     7
370
    25
100
AcDbCircle
 10
0.0757986687
 20
0.1825837187
 30
0.0
 40
0.0000502
100
AcDbArc
 50
344.7385195751
 51
44.7385195752
  0
ARC
  5
199
330
1F
100
AcDbEntity
  8
0
  6
Continuous
 62
     7
370
    25
100
AcDbCircle
 10
0.0757986687
 20
0.1825837187
 30
0.0
 40
0.0000502
100
AcDbArc
 50
44.7385195752
 51
104.7385195751
  0
ARC
  5
19A
330
1F
100
AcDbEntity
  8
0
  6
Continuous
 62
     7
370
    25
100
AcDbCircle
 10
0.0757986687
 20
0.1825837187
 30
0.0
 40
0.0000502
100
AcDbArc
 50
164.7385195751
 51
224.7385195751
  0
ARC
  5
19B
330
1F
100
AcDbEntity
  8
0
  6
Continuous
 62
     7
370
    25
100
AcDbCircle
 10
0.0757986687
 20
0.1825837187
 30
0.0
 40
0.0000502
100
AcDbArc
 50
284.7385195752
 51
344.7385195751
  0
ARC
  5
19C
330
1F
100
AcDbEntity
  8
0
  6
Continuous
 62
     7
370
    25
100
AcDbCircle
 10
0.0757986687
 20
0.1825837187
 30
0.0
 40
0.0000502
100
AcDbArc
 50
224.7385195751
 51
284.7385195752
  0
LINE
  5
19D
330
1F
100
AcDbEntity
  8
0
  6
Continuous
 62
     7
370
    25
100
AcDbLine
 10
0.1091553482
 20
0.1987354077
 30
0.0
 11
0.1091920743
 21
0.1987802542
 31
0.0
  0
LINE
  5
19E
330
1F
100
AcDbEntity
  8
0
  6
Continuous
 62
     7
370
    25
100
AcDbLine
 10
0.1091758239
 20
0.198681177
 30
0.0
 11
0.1091553482
 21
0.1987354077
 31
0.0
  0
LINE
  5
19F
330
1F
100
AcDbEntity
  8
0
  6
Continuous
 62
     7
370
    25
100
AcDbLine
 10
0.1092330255
 20
0.1986717952
 30
0.0
 11
0.1091758239
 21
0.198681177
 31
0.0
  0
LINE
  5
1A0
330
1F
100
AcDbEntity
  8
0
  6
Continuous
 62
     7
370
    25
100
AcDbLine
 10
0.1092697515
 20
0.1987166418
 30
0.0
 11
0.1092330255
 21
0.1986717952
 31
0.0
  0
LINE
  5
1A1
330
1F
100
AcDbEntity
  8
0
  6
Continuous
 62
     7
370
    25
100
AcDbLine
 10
0.1092492759
 20
0.1987708725
 30
0.0
 11
0.1092697515
 21
0.1987166418
 31
0.0
  0
LINE
  5
1A2
330
1F
100
AcDbEntity
  8
0
  6
Continuous
 62
     7
370
    25
100
AcDbLine
 10
0.1091920743
 20
0.1987802542
 30
0.0
 11
0.1092492759
 21
0.1987708725
 31
0.0
  0
CIRCLE
  5
1A3
330
1F
100
AcDbEntity
  8
0
  6
Continuous
 62
     7
370
    25
100
AcDbCircle
 10
0.1092125499
 20
0.1987260247
 30
0.0
 40
0.0001557
  0
ARC
  5
1A4
330
1F
100
AcDbEntity
  8
0
  6
Continuous
 62
     7
370
    25
100
AcDbCircle
 10
0.1092125499
 20
0.1987260247
 30
0.0
 40
0.0000502
100
AcDbArc
 50
20.6852854729
 51
80.6852854729
  0
ARC
  5
1A5
330
1F
100
AcDbEntity
  8
0
  6
Continuous
 62
     7
370
    25
100
AcDbCircle
 10
0.1092125499
 20
0.1987260247
 30
0.0
 40
0.0000502
100
AcDbArc
 50
320.6852854729
 51
20.6852854729
  0
ARC
  5
1A6
330
1F
100
AcDbEntity
  8
0
  6
Continuous
 62
     7
370
    25
100
AcDbCircle
 10
0.1092125499
 20
0.1987260247
 30
0.0
 40
0.0000502
100
AcDbArc
 50
80.6852854729
 51
140.6852854729
  0
ARC
  5
1A7
330
1F
100
AcDbEntity
  8
0
  6
Continuous
 62
     7
370
    25
100
AcDbCircle
 10
0.1092125499
 20
0.1987260247
 30
0.0
 40
0.0000502
100
AcDbArc
 50
260.6852854729
 51
320.6852854729
  0
ARC
  5
1A8
330
1F
100
AcDbEntity
  8
0
  6
Continuous
 62
     7
370
    25
100
AcDbCircle
 10
0.1092125499
 20
0.1987260247
 30
0.0
 40
0.0000502
100
AcDbArc
 50
200.6852854729
 51
260.6852854729
  0
ARC
  5
1A9
330
1F
100
AcDbEntity
  8
0
  6
Continuous
 62
     7
370
    25
100
AcDbCircle
 10
0.1092125499
 20
0.1987260247
 30
0.0
 40
0.0000502
100
AcDbArc
 50
140.6852854729
 51
200.6852854729
  0
LINE
  5
1AA
330
1F
100
AcDbEntity
  8
0
  6
Continuous
 62
     7
370
    25
100
AcDbLine
 10
0.1072066723
 20
0.1246837414
 30
0.0
 11
0.1071658716
 21
0.1247249163
 31
0.0
  0
CIRCLE
  5
1AB
330
1F
100
AcDbEntity
  8
0
  6
Continuous
 62
     7
370
    25
100
AcDbCircle
 10
0.1072219304
 20
0.124739663
 30
0.0
 40
0.0001557
  0
LINE
  5
1AC
330
1F
100
AcDbEntity
  8
0
  6
Continuous
 62
     7
370
    25
100
AcDbLine
 10
0.1071658716
 20
0.1247249163
 30
0.0
 11
0.1071811297
 21
0.1247808374
 31
0.0
  0
LINE
  5
1AD
330
1F
100
AcDbEntity
  8
0
  6
Continuous
 62
     7
370
    25
100
AcDbLine
 10
0.1071811297
 20
0.1247808374
 30
0.0
 11
0.1072371884
 21
0.1247955836
 31
0.0
  0
LINE
  5
1AE
330
1F
100
AcDbEntity
  8
0
  6
Continuous
 62
     7
370
    25
100
AcDbLine
 10
0.1072371884
 20
0.1247955836
 30
0.0
 11
0.1072779891
 21
0.1247544111
 31
0.0
  0
LINE
  5
1AF
330
1F
100
AcDbEntity
  8
0
  6
Continuous
 62
     7
370
    25
100
AcDbLine
 10
0.1072779891
 20
0.1247544111
 30
0.0
 11
0.107262731
 21
0.1246984876
 31
0.0
  0
LINE
  5
1B0
330
1F
100
AcDbEntity
  8
0
  6
Continuous
 62
     7
370
    25
100
AcDbLine
 10
0.107262731
 20
0.1246984876
 30
0.0
 11
0.1072066723
 21
0.1246837414
 31
0.0
  0
ARC
  5
1B1
330
1F
100
AcDbEntity
  8
0
  6
Continuous
 62
     7
370
    25
100
AcDbCircle
 10
0.1072219304
 20
0.124739663
 30
0.0
 40
0.0000502
100
AcDbArc
 50
284.7385195751
 51
344.7385195751
  0
ARC
  5
1B2
330
1F
100
AcDbEntity
  8
0
  6
Continuous
 62
     7
370
    25
100
AcDbCircle
 10
0.1072219304
 20
0.124739663
 30
0.0
 40
0.0000502
100
AcDbArc
 50
224.7385195751
 51
284.7385195751
  0
ARC
  5
1B3
330
1F
100
AcDbEntity
  8
0
  6
Continuous
 62
     7
370
    25
100
AcDbCircle
 10
0.1072219304
 20
0.124739663
 30
0.0
 40
0.0000502
100
AcDbArc
 50
164.7385195751
 51
224.7385195751
  0
ARC
  5
1B4
330
1F
100
AcDbEntity
  8
0
  6
Continuous
 62
     7
370
    25
100
AcDbCircle
 10
0.1072219304
 20
0.124739663
 30
0.0
 40
0.0000502
100
AcDbArc
 50
104.7385195751
 51
164.7385195751
  0
ARC
  5
1B5
330
1F
100
AcDbEntity
  8
0
  6
Continuous
 62
     7
370
    25
100
AcDbCircle
 10
0.1072219304
 20
0.124739663
 30
0.0
 40
0.0000502
100
AcDbArc
 50
44.7385195752
 51
104.7385195751
  0
ARC
  5
1B6
330
1F
100
AcDbEntity
  8
0
  6
Continuous
 62
     7
370
    25
100
AcDbCircle
 10
0.1072219304
 20
0.124739663
 30
0.0
 40
0.0000502
100
AcDbArc
 50
344.7385195751
 51
44.7385195752
  0
LINE
  5
1B7
330
1F
100
AcDbEntity
  8
0
  6
Continuous
 62
     7
370
    25
100
AcDbLine
 10
0.1091464054
 20
0.1267534817
 30
0.0
 11
0.1091721208
 21
0.1268054308
 31
0.0
  0
LINE
  5
1B8
330
1F
100
AcDbEntity
  8
0
  6
Continuous
 62
     7
370
    25
100
AcDbLine
 10
0.1092363849
 20
0.1267089404
 30
0.0
 11
0.1091785375
 21
0.1267052354
 31
0.0
  0
LINE
  5
1B9
330
1F
100
AcDbEntity
  8
0
  6
Continuous
 62
     7
370
    25
100
AcDbLine
 10
0.1092299683
 20
0.1268091358
 30
0.0
 11
0.1092621003
 21
0.1267608894
 31
0.0
  0
CIRCLE
  5
1BA
330
1F
100
AcDbEntity
  8
0
  6
Continuous
 62
     7
370
    25
100
AcDbCircle
 10
0.1092042529
 20
0.1267571856
 30
0.0
 40
0.0001557
  0
LINE
  5
1BB
330
1F
100
AcDbEntity
  8
0
  6
Continuous
 62
     7
370
    25
100
AcDbLine
 10
0.1091785375
 20
0.1267052354
 30
0.0
 11
0.1091464054
 21
0.1267534817
 31
0.0
  0
LINE
  5
1BC
330
1F
100
AcDbEntity
  8
0
  6
Continuous
 62
     7
370
    25
100
AcDbLine
 10
0.1091721208
 20
0.1268054308
 30
0.0
 11
0.1092299683
 21
0.1268091358
 31
0.0
  0
LINE
  5
1BD
330
1F
100
AcDbEntity
  8
0
  6
Continuous
 62
     7
370
    25
100
AcDbLine
 10
0.1092621003
 20
0.1267608894
 30
0.0
 11
0.1092363849
 21
0.1267089404
 31
0.0
  0
ARC
  5
1BE
330
1F
100
AcDbEntity
  8
0
  6
Continuous
 62
     7
370
    25
100
AcDbCircle
 10
0.1092042529
 20
0.1267571856
 30
0.0
 40
0.0000502
100
AcDbArc
 50
33.664344673
 51
93.664344673
  0
ARC
  5
1BF
330
1F
100
AcDbEntity
  8
0
  6
Continuous
 62
     7
370
    25
100
AcDbCircle
 10
0.1092042529
 20
0.1267571856
 30
0.0
 40
0.0000502
100
AcDbArc
 50
213.664344673
 51
273.664344673
  0
ARC
  5
1C0
330
1F
100
AcDbEntity
  8
0
  6
Continuous
 62
     7
370
    25
100
AcDbCircle
 10
0.1092042529
 20
0.1267571856
 30
0.0
 40
0.0000502
100
AcDbArc
 50
273.664344673
 51
333.664344673
  0
ARC
  5
1C1
330
1F
100
AcDbEntity
  8
0
  6
Continuous
 62
     7
370
    25
100
AcDbCircle
 10
0.1092042529
 20
0.1267571856
 30
0.0
 40
0.0000502
100
AcDbArc
 50
153.664344673
 51
213.664344673
  0
ARC
  5
1C2
330
1F
100
AcDbEntity
  8
0
  6
Continuous
 62
     7
370
    25
100
AcDbCircle
 10
0.1092042529
 20
0.1267571856
 30
0.0
 40
0.0000502
100
AcDbArc
 50
93.664344673
 51
153.664344673
  0
ARC
  5
1C3
330
1F
100
AcDbEntity
  8
0
  6
Continuous
 62
     7
370
    25
100
AcDbCircle
 10
0.1092042529
 20
0.1267571856
 30
0.0
 40
0.0000502
100
AcDbArc
 50
333.664344673
 51
33.664344673
  0
LINE
  5
1C4
330
1F
100
AcDbEntity
  8
0
  6
Continuous
 62
     7
370
    25
100
AcDbLine
 10
0.1072410563
 20
0.1267844332
 30
0.0
 11
0.107261532
 21
0.1267302025
 31
0.0
  0
LINE
  5
1C5
330
1F
100
AcDbEntity
  8
0
  6
Continuous
 62
     7
370
    25
100
AcDbLine
 10
0.1071676043
 20
0.1266947378
 30
0.0
 11
0.1071471287
 21
0.1267489685
 31
0.0
  0
CIRCLE
  5
1C6
330
1F
100
AcDbEntity
  8
0
  6
Continuous
 62
     7
370
    25
100
AcDbCircle
 10
0.1072043303
 20
0.1267395856
 30
0.0
 40
0.0001557
  0
LINE
  5
1C7
330
1F
100
AcDbEntity
  8
0
  6
Continuous
 62
     7
370
    25
100
AcDbLine
 10
0.1072248059
 20
0.126685356
 30
0.0
 11
0.1071676043
 21
0.1266947378
 31
0.0
  0
LINE
  5
1C8
330
1F
100
AcDbEntity
  8
0
  6
Continuous
 62
     7
370
    25
100
AcDbLine
 10
0.1071471287
 20
0.1267489685
 30
0.0
 11
0.1071838547
 21
0.126793815
 31
0.0
  0
LINE
  5
1C9
330
1F
100
AcDbEntity
  8
0
  6
Continuous
 62
     7
370
    25
100
AcDbLine
 10
0.1071838547
 20
0.126793815
 30
0.0
 11
0.1072410563
 21
0.1267844332
 31
0.0
  0
LINE
  5
1CA
330
1F
100
AcDbEntity
  8
0
  6
Continuous
 62
     7
370
    25
100
AcDbLine
 10
0.107261532
 20
0.1267302025
 30
0.0
 11
0.1072248059
 21
0.126685356
 31
0.0
  0
ARC
  5
1CB
330
1F
100
AcDbEntity
  8
0
  6
Continuous
 62
     7
370
    25
100
AcDbCircle
 10
0.1072043303
 20
0.1267395856
 30
0.0
 40
0.0000502
100
AcDbArc
 50
20.6852854729
 51
80.6852854729
  0
ARC
  5
1CC
330
1F
100
AcDbEntity
  8
0
  6
Continuous
 62
     7
370
    25
100
AcDbCircle
 10
0.1072043303
 20
0.1267395856
 30
0.0
 40
0.0000502
100
AcDbArc
 50
140.6852854729
 51
200.6852854729
  0
ARC
  5
1CD
330
1F
100
AcDbEntity
  8
0
  6
Continuous
 62
     7
370
    25
100
AcDbCircle
 10
0.1072043303
 20
0.1267395856
 30
0.0
 40
0.0000502
100
AcDbArc
 50
200.6852854729
 51
260.6852854729
  0
ARC
  5
1CE
330
1F
100
AcDbEntity
  8
0
  6
Continuous
 62
     7
370
    25
100
AcDbCircle
 10
0.1072043303
 20
0.1267395856
 30
0.0
 40
0.0000502
100
AcDbArc
 50
260.6852854729
 51
320.6852854729
  0
ARC
  5
1CF
330
1F
100
AcDbEntity
  8
0
  6
Continuous
 62
     7
370
    25
100
AcDbCircle
 10
0.1072043303
 20
0.1267395856
 30
0.0
 40
0.0000502
100
AcDbArc
 50
320.6852854729
 51
20.6852854729
  0
ARC
  5
1D0
330
1F
100
AcDbEntity
  8
0
  6
Continuous
 62
     7
370
    25
100
AcDbCircle
 10
0.1072043303
 20
0.1267395856
 30
0.0
 40
0.0000502
100
AcDbArc
 50
80.6852854729
 51
140.6852854729
  0
LINE
  5
1D1
330
1F
100
AcDbEntity
  8
0
  6
Continuous
 62
     7
370
    25
100
AcDbLine
 10
0.0866174777
 20
0.1272210611
 30
0.0
 11
0.0865711053
 21
0.127186283
 31
0.0
  0
LINE
  5
1D2
330
1F
100
AcDbEntity
  8
0
  6
Continuous
 62
     7
370
    25
100
AcDbLine
 10
0.0865572388
 20
0.1273013819
 30
0.0
 11
0.0866105445
 21
0.127278613
 31
0.0
  0
CIRCLE
  5
1D3
330
1F
100
AcDbEntity
  8
0
  6
Continuous
 62
     7
370
    25
100
AcDbCircle
 10
0.0865641716
 20
0.1272438323
 30
0.0
 40
0.0001557
  0
LINE
  5
1D4
330
1F
100
AcDbEntity
  8
0
  6
Continuous
 62
     7
370
    25
100
AcDbLine
 10
0.0865711053
 20
0.127186283
 30
0.0
 11
0.0865177996
 21
0.127209052
 31
0.0
  0
LINE
  5
1D5
330
1F
100
AcDbEntity
  8
0
  6
Continuous
 62
     7
370
    25
100
AcDbLine
 10
0.0865177996
 20
0.127209052
 30
0.0
 11
0.0865108641
 21
0.1272666014
 31
0.0
  0
LINE
  5
1D6
330
1F
100
AcDbEntity
  8
0
  6
Continuous
 62
     7
370
    25
100
AcDbLine
 10
0.0866105445
 20
0.127278613
 30
0.0
 11
0.0866174777
 21
0.1272210611
 31
0.0
  0
LINE
  5
1D7
330
1F
100
AcDbEntity
  8
0
  6
Continuous
 62
     7
370
    25
100
AcDbLine
 10
0.0865108641
 20
0.1272666014
 30
0.0
 11
0.0865572388
 21
0.1273013819
 31
0.0
  0
ARC
  5
1D8
330
1F
100
AcDbEntity
  8
0
  6
Continuous
 62
     7
370
    25
100
AcDbCircle
 10
0.0865641716
 20
0.1272438323
 30
0.0
 40
0.0000502
100
AcDbArc
 50
66.8698976458
 51
126.8698976459
  0
ARC
  5
1D9
330
1F
100
AcDbEntity
  8
0
  6
Continuous
 62
     7
370
    25
100
AcDbCircle
 10
0.0865641716
 20
0.1272438323
 30
0.0
 40
0.0000502
100
AcDbArc
 50
246.8698976458
 51
306.8698976458
  0
ARC
  5
1DA
330
1F
100
AcDbEntity
  8
0
  6
Continuous
 62
     7
370
    25
100
AcDbCircle
 10
0.0865641716
 20
0.1272438323
 30
0.0
 40
0.0000502
100
AcDbArc
 50
186.8698976458
 51
246.8698976458
  0
ARC
  5
1DB
330
1F
100
AcDbEntity
  8
0
  6
Continuous
 62
     7
370
    25
100
AcDbCircle
 10
0.0865641716
 20
0.1272438323
 30
0.0
 40
0.0000502
100
AcDbArc
 50
6.8698976458
 51
66.8698976458
  0
ARC
  5
1DC
330
1F
100
AcDbEntity
  8
0
  6
Continuous
 62
     7
370
    25
100
AcDbCircle
 10
0.0865641716
 20
0.1272438323
 30
0.0
 40
0.0000502
100
AcDbArc
 50
306.8698976458
 51
6.8698976458
  0
ARC
  5
1DD
330
1F
100
AcDbEntity
  8
0
  6
Continuous
 62
     7
370
    25
100
AcDbCircle
 10
0.0865641716
 20
0.1272438323
 30
0.0
 40
0.0000502
100
AcDbArc
 50
126.8698976459
 51
186.8698976458
  0
LINE
  5
1DE
330
1F
100
AcDbEntity
  8
0
  6
Continuous
 62
     7
370
    25
100
AcDbLine
 10
0.1091754998
 20
0.1247920693
 30
0.0
 11
0.1092288192
 21
0.1248148097
 31
0.0
  0
LINE
  5
1DF
330
1F
100
AcDbEntity
  8
0
  6
Continuous
 62
     7
370
    25
100
AcDbLine
 10
0.1092288192
 20
0.1248148097
 30
0.0
 11
0.1092751722
 21
0.1247800029
 31
0.0
  0
CIRCLE
  5
1E0
330
1F
100
AcDbEntity
  8
0
  6
Continuous
 62
     7
370
    25
100
AcDbCircle
 10
0.1092218529
 20
0.1247572631
 30
0.0
 40
0.0001557
  0
LINE
  5
1E1
330
1F
100
AcDbEntity
  8
0
  6
Continuous
 62
     7
370
    25
100
AcDbLine
 10
0.1091685336
 20
0.1247345222
 30
0.0
 11
0.1091754998
 21
0.1247920693
 31
0.0
  0
LINE
  5
1E2
330
1F
100
AcDbEntity
  8
0
  6
Continuous
 62
     7
370
    25
100
AcDbLine
 10
0.109268206
 20
0.1247224582
 30
0.0
 11
0.1092148867
 21
0.1246997179
 31
0.0
  0
LINE
  5
1E3
330
1F
100
AcDbEntity
  8
0
  6
Continuous
 62
     7
370
    25
100
AcDbLine
 10
0.1092751722
 20
0.1247800029
 30
0.0
 11
0.109268206
 21
0.1247224582
 31
0.0
  0
LINE
  5
1E4
330
1F
100
AcDbEntity
  8
0
  6
Continuous
 62
     7
370
    25
100
AcDbLine
 10
0.1092148867
 20
0.1246997179
 30
0.0
 11
0.1091685336
 21
0.1247345222
 31
0.0
  0
ARC
  5
1E5
330
1F
100
AcDbEntity
  8
0
  6
Continuous
 62
     7
370
    25
100
AcDbCircle
 10
0.1092218529
 20
0.1247572631
 30
0.0
 40
0.0000502
100
AcDbArc
 50
233.097643206
 51
293.097643206
  0
ARC
  5
1E6
330
1F
100
AcDbEntity
  8
0
  6
Continuous
 62
     7
370
    25
100
AcDbCircle
 10
0.1092218529
 20
0.1247572631
 30
0.0
 40
0.0000502
100
AcDbArc
 50
53.097643206
 51
113.097643206
  0
ARC
  5
1E7
330
1F
100
AcDbEntity
  8
0
  6
Continuous
 62
     7
370
    25
100
AcDbCircle
 10
0.1092218529
 20
0.1247572631
 30
0.0
 40
0.0000502
100
AcDbArc
 50
173.097643206
 51
233.097643206
  0
ARC
  5
1E8
330
1F
100
AcDbEntity
  8
0
  6
Continuous
 62
     7
370
    25
100
AcDbCircle
 10
0.1092218529
 20
0.1247572631
 30
0.0
 40
0.0000502
100
AcDbArc
 50
353.097643206
 51
53.097643206
  0
ARC
  5
1E9
330
1F
100
AcDbEntity
  8
0
  6
Continuous
 62
     7
370
    25
100
AcDbCircle
 10
0.1092218529
 20
0.1247572631
 30
0.0
 40
0.0000502
100
AcDbArc
 50
293.097643206
 51
353.097643206
  0
ARC
  5
1EA
330
1F
100
AcDbEntity
  8
0
  6
Continuous
 62
     7
370
    25
100
AcDbCircle
 10
0.1092218529
 20
0.1247572631
 30
0.0
 40
0.0000502
100
AcDbArc
 50
113.097643206
 51
173.097643206
  0
LINE
  5
1EB
330
1F
100
AcDbEntity
  8
0
  6
Continuous
 62
     7
370
    25
100
AcDbLine
 10
0.0758343275
 20
0.1429249383
 30
0.0
 11
0.0758806808
 21
0.1428901328
 31
0.0
  0
LINE
  5
1EC
330
1F
100
AcDbEntity
  8
0
  6
Continuous
 62
     7
370
    25
100
AcDbLine
 10
0.0757810099
 20
0.1429021991
 30
0.0
 11
0.0758343275
 21
0.1429249383
 31
0.0
  0
LINE
  5
1ED
330
1F
100
AcDbEntity
  8
0
  6
Continuous
 62
     7
370
    25
100
AcDbLine
 10
0.0758203967
 20
0.1428098465
 30
0.0
 11
0.0757740434
 21
0.1428446532
 31
0.0
  0
LINE
  5
1EE
330
1F
100
AcDbEntity
  8
0
  6
Continuous
 62
     7
370
    25
100
AcDbLine
 10
0.0758737142
 20
0.1428325869
 30
0.0
 11
0.0758203967
 21
0.1428098465
 31
0.0
  0
CIRCLE
  5
1EF
330
1F
100
AcDbEntity
  8
0
  6
Continuous
 62
     7
370
    25
100
AcDbCircle
 10
0.0758273623
 20
0.1428673928
 30
0.0
 40
0.0001557
  0
LINE
  5
1F0
330
1F
100
AcDbEntity
  8
0
  6
Continuous
 62
     7
370
    25
100
AcDbLine
 10
0.0758806808
 20
0.1428901328
 30
0.0
 11
0.0758737142
 21
0.1428325869
 31
0.0
  0
LINE
  5
1F1
330
1F
100
AcDbEntity
  8
0
  6
Continuous
 62
     7
370
    25
100
AcDbLine
 10
0.0757740434
 20
0.1428446532
 30
0.0
 11
0.0757810099
 21
0.1429021991
 31
0.0
  0
ARC
  5
1F2
330
1F
100
AcDbEntity
  8
0
  6
Continuous
 62
     7
370
    25
100
AcDbCircle
 10
0.0758273623
 20
0.1428673928
 30
0.0
 40
0.0000502
100
AcDbArc
 50
53.097643206
 51
113.097643206
  0
ARC
  5
1F3
330
1F
100
AcDbEntity
  8
0
  6
Continuous
 62
     7
370
    25
100
AcDbCircle
 10
0.0758273623
 20
0.1428673928
 30
0.0
 40
0.0000502
100
AcDbArc
 50
113.097643206
 51
173.097643206
  0
ARC
  5
1F4
330
1F
100
AcDbEntity
  8
0
  6
Continuous
 62
     7
370
    25
100
AcDbCircle
 10
0.0758273623
 20
0.1428673928
 30
0.0
 40
0.0000502
100
AcDbArc
 50
173.097643206
 51
233.097643206
  0
ARC
  5
1F5
330
1F
100
AcDbEntity
  8
0
  6
Continuous
 62
     7
370
    25
100
AcDbCircle
 10
0.0758273623
 20
0.1428673928
 30
0.0
 40
0.0000502
100
AcDbArc
 50
233.097643206
 51
293.097643206
  0
ARC
  5
1F6
330
1F
100
AcDbEntity
  8
0
  6
Continuous
 62
     7
370
    25
100
AcDbCircle
 10
0.0758273623
 20
0.1428673928
 30
0.0
 40
0.0000502
100
AcDbArc
 50
353.097643206
 51
53.097643206
  0
ARC
  5
1F7
330
1F
100
AcDbEntity
  8
0
  6
Continuous
 62
     7
370
    25
100
AcDbCircle
 10
0.0758273623
 20
0.1428673928
 30
0.0
 40
0.0000502
100
AcDbArc
 50
293.097643206
 51
353.097643206
  0
LINE
  5
1F8
330
1F
100
AcDbEntity
  8
0
  6
Continuous
 62
     7
370
    25
100
AcDbLine
 10
0.140543166
 20
0.1826330234
 30
0.0
 11
0.1405964835
 21
0.1826557637
 31
0.0
  0
LINE
  5
1F9
330
1F
100
AcDbEntity
  8
0
  6
Continuous
 62
     7
370
    25
100
AcDbLine
 10
0.1405361994
 20
0.1825754775
 30
0.0
 11
0.140543166
 21
0.1826330234
 31
0.0
  0
LINE
  5
1FA
330
1F
100
AcDbEntity
  8
0
  6
Continuous
 62
     7
370
    25
100
AcDbLine
 10
0.1405825527
 20
0.1825406719
 30
0.0
 11
0.1405361994
 21
0.1825754775
 31
0.0
  0
LINE
  5
1FB
330
1F
100
AcDbEntity
  8
0
  6
Continuous
 62
     7
370
    25
100
AcDbLine
 10
0.1406358702
 20
0.1825634111
 30
0.0
 11
0.1405825527
 21
0.1825406719
 31
0.0
  0
LINE
  5
1FC
330
1F
100
AcDbEntity
  8
0
  6
Continuous
 62
     7
370
    25
100
AcDbLine
 10
0.1406428368
 20
0.182620957
 30
0.0
 11
0.1406358702
 21
0.1825634111
 31
0.0
  0
LINE
  5
1FD
330
1F
100
AcDbEntity
  8
0
  6
Continuous
 62
     7
370
    25
100
AcDbLine
 10
0.1405964835
 20
0.1826557637
 30
0.0
 11
0.1406428368
 21
0.182620957
 31
0.0
  0
CIRCLE
  5
1FE
330
1F
100
AcDbEntity
  8
0
  6
Continuous
 62
     7
370
    25
100
AcDbCircle
 10
0.1405895178
 20
0.1825982174
 30
0.0
 40
0.0001557
  0
ARC
  5
1FF
330
1F
100
AcDbEntity
  8
0
  6
Continuous
 62
     7
370
    25
100
AcDbCircle
 10
0.1405895178
 20
0.1825982174
 30
0.0
 40
0.0000502
100
AcDbArc
 50
293.097643206
 51
353.097643206
  0
ARC
  5
200
330
1F
100
AcDbEntity
  8
0
  6
Continuous
 62
     7
370
    25
100
AcDbCircle
 10
0.1405895178
 20
0.1825982174
 30
0.0
 40
0.0000502
100
AcDbArc
 50
53.097643206
 51
113.0976432059
  0
ARC
  5
201
330
1F
100
AcDbEntity
  8
0
  6
Continuous
 62
     7
370
    25
100
AcDbCircle
 10
0.1405895178
 20
0.1825982174
 30
0.0
 40
0.0000502
100
AcDbArc
 50
113.0976432059
 51
173.097643206
  0
ARC
  5
202
330
1F
100
AcDbEntity
  8
0
  6
Continuous
 62
     7
370
    25
100
AcDbCircle
 10
0.1405895178
 20
0.1825982174
 30
0.0
 40
0.0000502
100
AcDbArc
 50
353.097643206
 51
53.097643206
  0
ARC
  5
203
330
1F
100
AcDbEntity
  8
0
  6
Continuous
 62
     7
370
    25
100
AcDbCircle
 10
0.1405895178
 20
0.1825982174
 30
0.0
 40
0.0000502
100
AcDbArc
 50
233.097643206
 51
293.097643206
  0
ARC
  5
204
330
1F
100
AcDbEntity
  8
0
  6
Continuous
 62
     7
370
    25
100
AcDbCircle
 10
0.1405895178
 20
0.1825982174
 30
0.0
 40
0.0000502
100
AcDbArc
 50
173.097643206
 51
233.097643206
  0
LINE
  5
205
330
1F
100
AcDbEntity
  8
0
  6
Continuous
 62
     7
370
    25
100
AcDbLine
 10
0.0883427055
 20
0.1262092007
 30
0.0
 11
0.0882894714
 21
0.1261862601
 31
0.0
  0
LINE
  5
206
330
1F
100
AcDbEntity
  8
0
  6
Continuous
 62
     7
370
    25
100
AcDbLine
 10
0.0883494563
 20
0.1262667717
 30
0.0
 11
0.0883427055
 21
0.1262092007
 31
0.0
  0
LINE
  5
207
330
1F
100
AcDbEntity
  8
0
  6
Continuous
 62
     7
370
    25
100
AcDbLine
 10
0.0883029731
 20
0.1263014043
 30
0.0
 11
0.0883494563
 21
0.1262667717
 31
0.0
  0
LINE
  5
208
330
1F
100
AcDbEntity
  8
0
  6
Continuous
 62
     7
370
    25
100
AcDbLine
 10
0.088249739
 20
0.1262784637
 30
0.0
 11
0.0883029731
 21
0.1263014043
 31
0.0
  0
LINE
  5
209
330
1F
100
AcDbEntity
  8
0
  6
Continuous
 62
     7
370
    25
100
AcDbLine
 10
0.0882429881
 20
0.1262208928
 30
0.0
 11
0.088249739
 21
0.1262784637
 31
0.0
  0
LINE
  5
20A
330
1F
100
AcDbEntity
  8
0
  6
Continuous
 62
     7
370
    25
100
AcDbLine
 10
0.0882894714
 20
0.1261862601
 30
0.0
 11
0.0882429881
 21
0.1262208928
 31
0.0
  0
CIRCLE
  5
20B
330
1F
100
AcDbEntity
  8
0
  6
Continuous
 62
     7
370
    25
100
AcDbCircle
 10
0.0882962224
 20
0.1262438323
 30
0.0
 40
0.0001557
  0
ARC
  5
20C
330
1F
100
AcDbEntity
  8
0
  6
Continuous
 62
     7
370
    25
100
AcDbCircle
 10
0.0882962224
 20
0.1262438323
 30
0.0
 40
0.0000502
100
AcDbArc
 50
173.3117780348
 51
233.3117780349
  0
ARC
  5
20D
330
1F
100
AcDbEntity
  8
0
  6
Continuous
 62
     7
370
    25
100
AcDbCircle
 10
0.0882962224
 20
0.1262438323
 30
0.0
 40
0.0000502
100
AcDbArc
 50
233.3117780349
 51
293.3117780349
  0
ARC
  5
20E
330
1F
100
AcDbEntity
  8
0
  6
Continuous
 62
     7
370
    25
100
AcDbCircle
 10
0.0882962224
 20
0.1262438323
 30
0.0
 40
0.0000502
100
AcDbArc
 50
113.3117780349
 51
173.3117780348
  0
ARC
  5
20F
330
1F
100
AcDbEntity
  8
0
  6
Continuous
 62
     7
370
    25
100
AcDbCircle
 10
0.0882962224
 20
0.1262438323
 30
0.0
 40
0.0000502
100
AcDbArc
 50
53.3117780349
 51
113.3117780349
  0
ARC
  5
210
330
1F
100
AcDbEntity
  8
0
  6
Continuous
 62
     7
370
    25
100
AcDbCircle
 10
0.0882962224
 20
0.1262438323
 30
0.0
 40
0.0000502
100
AcDbArc
 50
353.3117780349
 51
53.3117780349
  0
ARC
  5
211
330
1F
100
AcDbEntity
  8
0
  6
Continuous
 62
     7
370
    25
100
AcDbCircle
 10
0.0882962224
 20
0.1262438323
 30
0.0
 40
0.0000502
100
AcDbArc
 50
293.3117780349
 51
353.3117780349
  0
LINE
  5
212
330
1F
100
AcDbEntity
  8
0
  6
Continuous
 62
     7
370
    25
100
AcDbLine
 10
0.1091388911
 20
0.2007111992
 30
0.0
 11
0.1091541492
 21
0.2007671226
 31
0.0
  0
LINE
  5
213
330
1F
100
AcDbEntity
  8
0
  6
Continuous
 62
     7
370
    25
100
AcDbLine
 10
0.1091796917
 20
0.2006700267
 30
0.0
 11
0.1091388911
 21
0.2007111992
 31
0.0
  0
LINE
  5
214
330
1F
100
AcDbEntity
  8
0
  6
Continuous
 62
     7
370
    25
100
AcDbLine
 10
0.1092357505
 20
0.2006847728
 30
0.0
 11
0.1091796917
 21
0.2006700267
 31
0.0
  0
LINE
  5
215
330
1F
100
AcDbEntity
  8
0
  6
Continuous
 62
     7
370
    25
100
AcDbLine
 10
0.1092510086
 20
0.2007406939
 30
0.0
 11
0.1092357505
 21
0.2006847728
 31
0.0
  0
LINE
  5
216
330
1F
100
AcDbEntity
  8
0
  6
Continuous
 62
     7
370
    25
100
AcDbLine
 10
0.1092102079
 20
0.2007818688
 30
0.0
 11
0.1092510086
 21
0.2007406939
 31
0.0
  0
LINE
  5
217
330
1F
100
AcDbEntity
  8
0
  6
Continuous
 62
     7
370
    25
100
AcDbLine
 10
0.1091541492
 20
0.2007671226
 30
0.0
 11
0.1092102079
 21
0.2007818688
 31
0.0
  0
CIRCLE
  5
218
330
1F
100
AcDbEntity
  8
0
  6
Continuous
 62
     7
370
    25
100
AcDbCircle
 10
0.1091949498
 20
0.2007259472
 30
0.0
 40
0.0001557
  0
ARC
  5
219
330
1F
100
AcDbEntity
  8
0
  6
Continuous
 62
     7
370
    25
100
AcDbCircle
 10
0.1091949498
 20
0.2007259472
 30
0.0
 40
0.0000502
100
AcDbArc
 50
104.7385195751
 51
164.7385195751
  0
ARC
  5
21A
330
1F
100
AcDbEntity
  8
0
  6
Continuous
 62
     7
370
    25
100
AcDbCircle
 10
0.1091949498
 20
0.2007259472
 30
0.0
 40
0.0000502
100
AcDbArc
 50
344.7385195751
 51
44.7385195752
  0
ARC
  5
21B
330
1F
100
AcDbEntity
  8
0
  6
Continuous
 62
     7
370
    25
100
AcDbCircle
 10
0.1091949498
 20
0.2007259472
 30
0.0
 40
0.0000502
100
AcDbArc
 50
44.7385195752
 51
104.7385195751
  0
ARC
  5
21C
330
1F
100
AcDbEntity
  8
0
  6
Continuous
 62
     7
370
    25
100
AcDbCircle
 10
0.1091949498
 20
0.2007259472
 30
0.0
 40
0.0000502
100
AcDbArc
 50
284.7385195751
 51
344.7385195751
  0
ARC
  5
21D
330
1F
100
AcDbEntity
  8
0
  6
Continuous
 62
     7
370
    25
100
AcDbCircle
 10
0.1091949498
 20
0.2007259472
 30
0.0
 40
0.0000502
100
AcDbArc
 50
224.7385195751
 51
284.7385195751
  0
ARC
  5
21E
330
1F
100
AcDbEntity
  8
0
  6
Continuous
 62
     7
370
    25
100
AcDbCircle
 10
0.1091949498
 20
0.2007259472
 30
0.0
 40
0.0000502
100
AcDbArc
 50
164.7385195751
 51
224.7385195751
  0
LINE
  5
21F
330
1F
100
AcDbEntity
  8
0
  6
Continuous
 62
     7
370
    25
100
AcDbLine
 10
0.0873341472
 20
0.124467944
 30
0.0
 11
0.08727722
 21
0.1244570197
 31
0.0
  0
LINE
  5
220
330
1F
100
AcDbEntity
  8
0
  6
Continuous
 62
     7
370
    25
100
AcDbLine
 10
0.0873531492
 20
0.1245227064
 30
0.0
 11
0.0873341472
 21
0.124467944
 31
0.0
  0
LINE
  5
221
330
1F
100
AcDbEntity
  8
0
  6
Continuous
 62
     7
370
    25
100
AcDbLine
 10
0.0873152263
 20
0.1245665444
 30
0.0
 11
0.0873531492
 21
0.1245227064
 31
0.0
  0
LINE
  5
222
330
1F
100
AcDbEntity
  8
0
  6
Continuous
 62
     7
370
    25
100
AcDbLine
 10
0.0872582991
 20
0.1245556201
 30
0.0
 11
0.0873152263
 21
0.1245665444
 31
0.0
  0
LINE
  5
223
330
1F
100
AcDbEntity
  8
0
  6
Continuous
 62
     7
370
    25
100
AcDbLine
 10
0.0872392948
 20
0.1245008577
 30
0.0
 11
0.0872582991
 21
0.1245556201
 31
0.0
  0
LINE
  5
224
330
1F
100
AcDbEntity
  8
0
  6
Continuous
 62
     7
370
    25
100
AcDbLine
 10
0.08727722
 20
0.1244570197
 30
0.0
 11
0.0872392948
 21
0.1245008577
 31
0.0
  0
CIRCLE
  5
225
330
1F
100
AcDbEntity
  8
0
  6
Continuous
 62
     7
370
    25
100
AcDbCircle
 10
0.0872962224
 20
0.1245117815
 30
0.0
 40
0.0001557
  0
ARC
  5
226
330
1F
100
AcDbEntity
  8
0
  6
Continuous
 62
     7
370
    25
100
AcDbCircle
 10
0.0872962224
 20
0.1245117815
 30
0.0
 40
0.0000502
100
AcDbArc
 50
40.8626260897
 51
100.8626260897
  0
ARC
  5
227
330
1F
100
AcDbEntity
  8
0
  6
Continuous
 62
     7
370
    25
100
AcDbCircle
 10
0.0872962224
 20
0.1245117815
 30
0.0
 40
0.0000502
100
AcDbArc
 50
160.8626260897
 51
220.8626260897
  0
ARC
  5
228
330
1F
100
AcDbEntity
  8
0
  6
Continuous
 62
     7
370
    25
100
AcDbCircle
 10
0.0872962224
 20
0.1245117815
 30
0.0
 40
0.0000502
100
AcDbArc
 50
340.8626260897
 51
40.8626260897
  0
ARC
  5
229
330
1F
100
AcDbEntity
  8
0
  6
Continuous
 62
     7
370
    25
100
AcDbCircle
 10
0.0872962224
 20
0.1245117815
 30
0.0
 40
0.0000502
100
AcDbArc
 50
100.8626260897
 51
160.8626260897
  0
ARC
  5
22A
330
1F
100
AcDbEntity
  8
0
  6
Continuous
 62
     7
370
    25
100
AcDbCircle
 10
0.0872962224
 20
0.1245117815
 30
0.0
 40
0.0000502
100
AcDbArc
 50
220.8626260897
 51
280.8626260897
  0
ARC
  5
22B
330
1F
100
AcDbEntity
  8
0
  6
Continuous
 62
     7
370
    25
100
AcDbCircle
 10
0.0872962224
 20
0.1245117815
 30
0.0
 40
0.0000502
100
AcDbArc
 50
280.8626260897
 51
340.8626260897
  0
LINE
  5
22C
330
1F
100
AcDbEntity
  8
0
  6
Continuous
 62
     7
370
    25
100
AcDbLine
 10
0.139887863
 20
0.1456593443
 30
0.0
 11
0.1399199946
 21
0.1456110991
 31
0.0
  0
LINE
  5
22D
330
1F
100
AcDbEntity
  8
0
  6
Continuous
 62
     7
370
    25
100
AcDbLine
 10
0.1398300155
 20
0.1456556393
 30
0.0
 11
0.139887863
 21
0.1456593443
 31
0.0
  0
LINE
  5
22E
330
1F
100
AcDbEntity
  8
0
  6
Continuous
 62
     7
370
    25
100
AcDbLine
 10
0.1398042996
 20
0.1456036903
 30
0.0
 11
0.1398300155
 21
0.1456556393
 31
0.0
  0
LINE
  5
22F
330
1F
100
AcDbEntity
  8
0
  6
Continuous
 62
     7
370
    25
100
AcDbLine
 10
0.1398364313
 20
0.1455554451
 30
0.0
 11
0.1398042996
 21
0.1456036903
 31
0.0
  0
LINE
  5
230
330
1F
100
AcDbEntity
  8
0
  6
Continuous
 62
     7
370
    25
100
AcDbLine
 10
0.1398942788
 20
0.1455591501
 30
0.0
 11
0.1398364313
 21
0.1455554451
 31
0.0
  0
LINE
  5
231
330
1F
100
AcDbEntity
  8
0
  6
Continuous
 62
     7
370
    25
100
AcDbLine
 10
0.1399199946
 20
0.1456110991
 30
0.0
 11
0.1398942788
 21
0.1455591501
 31
0.0
  0
CIRCLE
  5
232
330
1F
100
AcDbEntity
  8
0
  6
Continuous
 62
     7
370
    25
100
AcDbCircle
 10
0.1398621469
 20
0.1456073945
 30
0.0
 40
0.0001557
  0
ARC
  5
233
330
1F
100
AcDbEntity
  8
0
  6
Continuous
 62
     7
370
    25
100
AcDbCircle
 10
0.1398621469
 20
0.1456073945
 30
0.0
 40
0.0000502
100
AcDbArc
 50
213.664344673
 51
273.664344673
  0
ARC
  5
234
330
1F
100
AcDbEntity
  8
0
  6
Continuous
 62
     7
370
    25
100
AcDbCircle
 10
0.1398621469
 20
0.1456073945
 30
0.0
 40
0.0000502
100
AcDbArc
 50
333.664344673
 51
33.664344673
  0
ARC
  5
235
330
1F
100
AcDbEntity
  8
0
  6
Continuous
 62
     7
370
    25
100
AcDbCircle
 10
0.1398621469
 20
0.1456073945
 30
0.0
 40
0.0000502
100
AcDbArc
 50
153.664344673
 51
213.664344673
  0
ARC
  5
236
330
1F
100
AcDbEntity
  8
0
  6
Continuous
 62
     7
370
    25
100
AcDbCircle
 10
0.1398621469
 20
0.1456073945
 30
0.0
 40
0.0000502
100
AcDbArc
 50
93.6643446729
 51
153.664344673
  0
ARC
  5
237
330
1F
100
AcDbEntity
  8
0
  6
Continuous
 62
     7
370
    25
100
AcDbCircle
 10
0.1398621469
 20
0.1456073945
 30
0.0
 40
0.0000502
100
AcDbArc
 50
273.664344673
 51
333.664344673
  0
ARC
  5
238
330
1F
100
AcDbEntity
  8
0
  6
Continuous
 62
     7
370
    25
100
AcDbCircle
 10
0.1398621469
 20
0.1456073945
 30
0.0
 40
0.0000502
100
AcDbArc
 50
33.664344673
 51
93.6643446729
  0
LINE
  5
239
330
1F
100
AcDbEntity
  8
0
  6
Continuous
 62
     7
370
    25
100
AcDbLine
 10
0.0855931552
 20
0.1254615821
 30
0.0
 11
0.0855351885
 21
0.1254615821
 31
0.0
  0
LINE
  5
23A
330
1F
100
AcDbEntity
  8
0
  6
Continuous
 62
     7
370
    25
100
AcDbLine
 10
0.0855062063
 20
0.1255117811
 30
0.0
 11
0.0855351885
 21
0.1255619825
 31
0.0
  0
CIRCLE
  5
23B
330
1F
100
AcDbEntity
  8
0
  6
Continuous
 62
     7
370
    25
100
AcDbCircle
 10
0.0855641716
 20
0.1255117815
 30
0.0
 40
0.0001557
  0
LINE
  5
23C
330
1F
100
AcDbEntity
  8
0
  6
Continuous
 62
     7
370
    25
100
AcDbLine
 10
0.0856221373
 20
0.1255117811
 30
0.0
 11
0.0855931552
 21
0.1254615821
 31
0.0
  0
LINE
  5
23D
330
1F
100
AcDbEntity
  8
0
  6
Continuous
 62
     7
370
    25
100
AcDbLine
 10
0.0855351885
 20
0.1254615821
 30
0.0
 11
0.0855062063
 21
0.1255117811
 31
0.0
  0
LINE
  5
23E
330
1F
100
AcDbEntity
  8
0
  6
Continuous
 62
     7
370
    25
100
AcDbLine
 10
0.0855351885
 20
0.1255619825
 30
0.0
 11
0.0855931552
 21
0.1255619825
 31
0.0
  0
LINE
  5
23F
330
1F
100
AcDbEntity
  8
0
  6
Continuous
 62
     7
370
    25
100
AcDbLine
 10
0.0855931552
 20
0.1255619825
 30
0.0
 11
0.0856221373
 21
0.1255117811
 31
0.0
  0
ARC
  5
240
330
1F
100
AcDbEntity
  8
0
  6
Continuous
 62
     7
370
    25
100
AcDbCircle
 10
0.0855641716
 20
0.1255117815
 30
0.0
 40
0.0000502
100
AcDbArc
 50
90.0
 51
150.0
  0
ARC
  5
241
330
1F
100
AcDbEntity
  8
0
  6
Continuous
 62
     7
370
    25
100
AcDbCircle
 10
0.0855641716
 20
0.1255117815
 30
0.0
 40
0.0000502
100
AcDbArc
 50
330.0
 51
30.0
  0
ARC
  5
242
330
1F
100
AcDbEntity
  8
0
  6
Continuous
 62
     7
370
    25
100
AcDbCircle
 10
0.0855641716
 20
0.1255117815
 30
0.0
 40
0.0000502
100
AcDbArc
 50
150.0
 51
210.0
  0
ARC
  5
243
330
1F
100
AcDbEntity
  8
0
  6
Continuous
 62
     7
370
    25
100
AcDbCircle
 10
0.0855641716
 20
0.1255117815
 30
0.0
 40
0.0000502
100
AcDbArc
 50
270.0
 51
330.0
  0
ARC
  5
244
330
1F
100
AcDbEntity
  8
0
  6
Continuous
 62
     7
370
    25
100
AcDbCircle
 10
0.0855641716
 20
0.1255117815
 30
0.0
 40
0.0000502
100
AcDbArc
 50
30.0
 51
90.0
  0
ARC
  5
245
330
1F
100
AcDbEntity
  8
0
  6
Continuous
 62
     7
370
    25
100
AcDbCircle
 10
0.0855641716
 20
0.1255117815
 30
0.0
 40
0.0000502
100
AcDbArc
 50
210.0
 51
270.0
  0
LINE
  5
246
330
1F
100
AcDbEntity
  8
0
  6
Continuous
 62
     7
370
    25
100
AcDbLine
 10
0.1072704748
 20
0.1987121285
 30
0.0
 11
0.1072447594
 21
0.1986601795
 31
0.0
  0
LINE
  5
247
330
1F
100
AcDbEntity
  8
0
  6
Continuous
 62
     7
370
    25
100
AcDbLine
 10
0.1072383427
 20
0.1987603749
 30
0.0
 11
0.1072704748
 21
0.1987121285
 31
0.0
  0
CIRCLE
  5
248
330
1F
100
AcDbEntity
  8
0
  6
Continuous
 62
     7
370
    25
100
AcDbCircle
 10
0.1072126273
 20
0.1987084246
 30
0.0
 40
0.0001557
  0
LINE
  5
249
330
1F
100
AcDbEntity
  8
0
  6
Continuous
 62
     7
370
    25
100
AcDbLine
 10
0.1072447594
 20
0.1986601795
 30
0.0
 11
0.1071869119
 21
0.1986564745
 31
0.0
  0
LINE
  5
24A
330
1F
100
AcDbEntity
  8
0
  6
Continuous
 62
     7
370
    25
100
AcDbLine
 10
0.1071869119
 20
0.1986564745
 30
0.0
 11
0.1071547799
 21
0.1987047208
 31
0.0
  0
LINE
  5
24B
330
1F
100
AcDbEntity
  8
0
  6
Continuous
 62
     7
370
    25
100
AcDbLine
 10
0.1071547799
 20
0.1987047208
 30
0.0
 11
0.1071804953
 21
0.1987566699
 31
0.0
  0
LINE
  5
24C
330
1F
100
AcDbEntity
  8
0
  6
Continuous
 62
     7
370
    25
100
AcDbLine
 10
0.1071804953
 20
0.1987566699
 30
0.0
 11
0.1072383427
 21
0.1987603749
 31
0.0
  0
ARC
  5
24D
330
1F
100
AcDbEntity
  8
0
  6
Continuous
 62
     7
370
    25
100
AcDbCircle
 10
0.1072126273
 20
0.1987084246
 30
0.0
 40
0.0000502
100
AcDbArc
 50
273.664344673
 51
333.664344673
  0
ARC
  5
24E
330
1F
100
AcDbEntity
  8
0
  6
Continuous
 62
     7
370
    25
100
AcDbCircle
 10
0.1072126273
 20
0.1987084246
 30
0.0
 40
0.0000502
100
AcDbArc
 50
333.664344673
 51
33.664344673
  0
ARC
  5
24F
330
1F
100
AcDbEntity
  8
0
  6
Continuous
 62
     7
370
    25
100
AcDbCircle
 10
0.1072126273
 20
0.1987084246
 30
0.0
 40
0.0000502
100
AcDbArc
 50
33.664344673
 51
93.664344673
  0
ARC
  5
250
330
1F
100
AcDbEntity
  8
0
  6
Continuous
 62
     7
370
    25
100
AcDbCircle
 10
0.1072126273
 20
0.1987084246
 30
0.0
 40
0.0000502
100
AcDbArc
 50
93.664344673
 51
153.664344673
  0
ARC
  5
251
330
1F
100
AcDbEntity
  8
0
  6
Continuous
 62
     7
370
    25
100
AcDbCircle
 10
0.1072126273
 20
0.1987084246
 30
0.0
 40
0.0000502
100
AcDbArc
 50
213.664344673
 51
273.664344673
  0
ARC
  5
252
330
1F
100
AcDbEntity
  8
0
  6
Continuous
 62
     7
370
    25
100
AcDbCircle
 10
0.1072126273
 20
0.1987084246
 30
0.0
 40
0.0000502
100
AcDbArc
 50
153.664344673
 51
213.664344673
  0
LINE
  5
253
330
1F
100
AcDbEntity
  8
0
  6
Continuous
 62
     7
370
    25
100
AcDbLine
 10
0.1406590112
 20
0.1428407169
 30
0.0
 11
0.1406029542
 21
0.1428259696
 31
0.0
  0
LINE
  5
254
330
1F
100
AcDbEntity
  8
0
  6
Continuous
 62
     7
370
    25
100
AcDbLine
 10
0.1405621536
 20
0.1428671445
 30
0.0
 11
0.14057741
 21
0.1429230667
 31
0.0
  0
CIRCLE
  5
255
330
1F
100
AcDbEntity
  8
0
  6
Continuous
 62
     7
370
    25
100
AcDbCircle
 10
0.1406182115
 20
0.1428818916
 30
0.0
 40
0.0001557
  0
LINE
  5
256
330
1F
100
AcDbEntity
  8
0
  6
Continuous
 62
     7
370
    25
100
AcDbLine
 10
0.1406029542
 20
0.1428259696
 30
0.0
 11
0.1405621536
 21
0.1428671445
 31
0.0
  0
LINE
  5
257
330
1F
100
AcDbEntity
  8
0
  6
Continuous
 62
     7
370
    25
100
AcDbLine
 10
0.14057741
 20
0.1429230667
 30
0.0
 11
0.1406334694
 21
0.1429378129
 31
0.0
  0
LINE
  5
258
330
1F
100
AcDbEntity
  8
0
  6
Continuous
 62
     7
370
    25
100
AcDbLine
 10
0.1406742699
 20
0.142896638
 30
0.0
 11
0.1406590112
 21
0.1428407169
 31
0.0
  0
LINE
  5
259
330
1F
100
AcDbEntity
  8
0
  6
Continuous
 62
     7
370
    25
100
AcDbLine
 10
0.1406334694
 20
0.1429378129
 30
0.0
 11
0.1406742699
 21
0.142896638
 31
0.0
  0
ARC
  5
25A
330
1F
100
AcDbEntity
  8
0
  6
Continuous
 62
     7
370
    25
100
AcDbCircle
 10
0.1406182115
 20
0.1428818916
 30
0.0
 40
0.0000502
100
AcDbArc
 50
344.7385195751
 51
44.7385195751
  0
ARC
  5
25B
330
1F
100
AcDbEntity
  8
0
  6
Continuous
 62
     7
370
    25
100
AcDbCircle
 10
0.1406182115
 20
0.1428818916
 30
0.0
 40
0.0000502
100
AcDbArc
 50
284.7385195752
 51
344.7385195751
  0
ARC
  5
25C
330
1F
100
AcDbEntity
  8
0
  6
Continuous
 62
     7
370
    25
100
AcDbCircle
 10
0.1406182115
 20
0.1428818916
 30
0.0
 40
0.0000502
100
AcDbArc
 50
224.7385195752
 51
284.7385195752
  0
ARC
  5
25D
330
1F
100
AcDbEntity
  8
0
  6
Continuous
 62
     7
370
    25
100
AcDbCircle
 10
0.1406182115
 20
0.1428818916
 30
0.0
 40
0.0000502
100
AcDbArc
 50
164.7385195751
 51
224.7385195752
  0
ARC
  5
25E
330
1F
100
AcDbEntity
  8
0
  6
Continuous
 62
     7
370
    25
100
AcDbCircle
 10
0.1406182115
 20
0.1428818916
 30
0.0
 40
0.0000502
100
AcDbArc
 50
104.7385195751
 51
164.7385195751
  0
ARC
  5
25F
330
1F
100
AcDbEntity
  8
0
  6
Continuous
 62
     7
370
    25
100
AcDbCircle
 10
0.1406182115
 20
0.1428818916
 30
0.0
 40
0.0000502
100
AcDbArc
 50
44.7385195751
 51
104.7385195751
  0
LINE
  5
260
330
1F
100
AcDbEntity
  8
0
  6
Continuous
 62
     7
370
    25
100
AcDbLine
 10
0.0775826772
 20
0.1438343514
 30
0.0
 11
0.0775248297
 21
0.1438306464
 31
0.0
  0
LINE
  5
261
330
1F
100
AcDbEntity
  8
0
  6
Continuous
 62
     7
370
    25
100
AcDbLine
 10
0.0775184138
 20
0.1439308418
 30
0.0
 11
0.0775762613
 21
0.1439345456
 31
0.0
  0
LINE
  5
262
330
1F
100
AcDbEntity
  8
0
  6
Continuous
 62
     7
370
    25
100
AcDbLine
 10
0.077492698
 20
0.1438788916
 30
0.0
 11
0.0775184138
 21
0.1439308418
 31
0.0
  0
LINE
  5
263
330
1F
100
AcDbEntity
  8
0
  6
Continuous
 62
     7
370
    25
100
AcDbLine
 10
0.0775248297
 20
0.1438306464
 30
0.0
 11
0.077492698
 21
0.1438788916
 31
0.0
  0
CIRCLE
  5
264
330
1F
100
AcDbEntity
  8
0
  6
Continuous
 62
     7
370
    25
100
AcDbCircle
 10
0.0775505461
 20
0.1438825962
 30
0.0
 40
0.0001557
  0
LINE
  5
265
330
1F
100
AcDbEntity
  8
0
  6
Continuous
 62
     7
370
    25
100
AcDbLine
 10
0.077608393
 20
0.1438863004
 30
0.0
 11
0.0775826772
 21
0.1438343514
 31
0.0
  0
LINE
  5
266
330
1F
100
AcDbEntity
  8
0
  6
Continuous
 62
     7
370
    25
100
AcDbLine
 10
0.0775762613
 20
0.1439345456
 30
0.0
 11
0.077608393
 21
0.1438863004
 31
0.0
  0
ARC
  5
267
330
1F
100
AcDbEntity
  8
0
  6
Continuous
 62
     7
370
    25
100
AcDbCircle
 10
0.0775505461
 20
0.1438825962
 30
0.0
 40
0.0000502
100
AcDbArc
 50
333.664344673
 51
33.664344673
  0
ARC
  5
268
330
1F
100
AcDbEntity
  8
0
  6
Continuous
 62
     7
370
    25
100
AcDbCircle
 10
0.0775505461
 20
0.1438825962
 30
0.0
 40
0.0000502
100
AcDbArc
 50
33.664344673
 51
93.664344673
  0
ARC
  5
269
330
1F
100
AcDbEntity
  8
0
  6
Continuous
 62
     7
370
    25
100
AcDbCircle
 10
0.0775505461
 20
0.1438825962
 30
0.0
 40
0.0000502
100
AcDbArc
 50
213.664344673
 51
273.664344673
  0
ARC
  5
26A
330
1F
100
AcDbEntity
  8
0
  6
Continuous
 62
     7
370
    25
100
AcDbCircle
 10
0.0775505461
 20
0.1438825962
 30
0.0
 40
0.0000502
100
AcDbArc
 50
153.664344673
 51
213.664344673
  0
ARC
  5
26B
330
1F
100
AcDbEntity
  8
0
  6
Continuous
 62
     7
370
    25
100
AcDbCircle
 10
0.0775505461
 20
0.1438825962
 30
0.0
 40
0.0000502
100
AcDbArc
 50
93.664344673
 51
153.664344673
  0
ARC
  5
26C
330
1F
100
AcDbEntity
  8
0
  6
Continuous
 62
     7
370
    25
100
AcDbCircle
 10
0.0775505461
 20
0.1438825962
 30
0.0
 40
0.0000502
100
AcDbArc
 50
273.664344673
 51
333.664344673
  0
LINE
  5
26D
330
1F
100
AcDbEntity
  8
0
  6
Continuous
 62
     7
370
    25
100
AcDbLine
 10
0.1415565784
 20
0.1446574808
 30
0.0
 11
0.141609896
 21
0.1446802212
 31
0.0
  0
LINE
  5
26E
330
1F
100
AcDbEntity
  8
0
  6
Continuous
 62
     7
370
    25
100
AcDbLine
 10
0.1416492827
 20
0.1445878698
 30
0.0
 11
0.1415959652
 21
0.1445651294
 31
0.0
  0
CIRCLE
  5
26F
330
1F
100
AcDbEntity
  8
0
  6
Continuous
 62
     7
370
    25
100
AcDbCircle
 10
0.1416029307
 20
0.1446226753
 30
0.0
 40
0.0001557
  0
LINE
  5
270
330
1F
100
AcDbEntity
  8
0
  6
Continuous
 62
     7
370
    25
100
AcDbLine
 10
0.1415496118
 20
0.1445999349
 30
0.0
 11
0.1415565784
 21
0.1446574808
 31
0.0
  0
LINE
  5
271
330
1F
100
AcDbEntity
  8
0
  6
Continuous
 62
     7
370
    25
100
AcDbLine
 10
0.141609896
 20
0.1446802212
 30
0.0
 11
0.1416562493
 21
0.1446454157
 31
0.0
  0
LINE
  5
272
330
1F
100
AcDbEntity
  8
0
  6
Continuous
 62
     7
370
    25
100
AcDbLine
 10
0.1416562493
 20
0.1446454157
 30
0.0
 11
0.1416492827
 21
0.1445878698
 31
0.0
  0
LINE
  5
273
330
1F
100
AcDbEntity
  8
0
  6
Continuous
 62
     7
370
    25
100
AcDbLine
 10
0.1415959652
 20
0.1445651294
 30
0.0
 11
0.1415496118
 21
0.1445999349
 31
0.0
  0
ARC
  5
274
330
1F
100
AcDbEntity
  8
0
  6
Continuous
 62
     7
370
    25
100
AcDbCircle
 10
0.1416029307
 20
0.1446226753
 30
0.0
 40
0.0000502
100
AcDbArc
 50
353.097643206
 51
53.097643206
  0
ARC
  5
275
330
1F
100
AcDbEntity
  8
0
  6
Continuous
 62
     7
370
    25
100
AcDbCircle
 10
0.1416029307
 20
0.1446226753
 30
0.0
 40
0.0000502
100
AcDbArc
 50
293.0976432059
 51
353.097643206
  0
ARC
  5
276
330
1F
100
AcDbEntity
  8
0
  6
Continuous
 62
     7
370
    25
100
AcDbCircle
 10
0.1416029307
 20
0.1446226753
 30
0.0
 40
0.0000502
100
AcDbArc
 50
233.097643206
 51
293.0976432059
  0
ARC
  5
277
330
1F
100
AcDbEntity
  8
0
  6
Continuous
 62
     7
370
    25
100
AcDbCircle
 10
0.1416029307
 20
0.1446226753
 30
0.0
 40
0.0000502
100
AcDbArc
 50
173.097643206
 51
233.097643206
  0
ARC
  5
278
330
1F
100
AcDbEntity
  8
0
  6
Continuous
 62
     7
370
    25
100
AcDbCircle
 10
0.1416029307
 20
0.1446226753
 30
0.0
 40
0.0000502
100
AcDbArc
 50
113.097643206
 51
173.097643206
  0
ARC
  5
279
330
1F
100
AcDbEntity
  8
0
  6
Continuous
 62
     7
370
    25
100
AcDbCircle
 10
0.1416029307
 20
0.1446226753
 30
0.0
 40
0.0000502
100
AcDbArc
 50
53.097643206
 51
113.097643206
  0
LINE
  5
27A
330
1F
100
AcDbEntity
  8
0
  6
Continuous
 62
     7
370
    25
100
AcDbLine
 10
0.0748672684
 20
0.1808656753
 30
0.0
 11
0.0748603018
 21
0.1808081294
 31
0.0
  0
LINE
  5
27B
330
1F
100
AcDbEntity
  8
0
  6
Continuous
 62
     7
370
    25
100
AcDbLine
 10
0.0747675975
 20
0.1808777405
 30
0.0
 11
0.074820915
 21
0.1809004809
 31
0.0
  0
LINE
  5
27C
330
1F
100
AcDbEntity
  8
0
  6
Continuous
 62
     7
370
    25
100
AcDbLine
 10
0.0747606309
 20
0.1808201946
 30
0.0
 11
0.0747675975
 21
0.1808777405
 31
0.0
  0
LINE
  5
27D
330
1F
100
AcDbEntity
  8
0
  6
Continuous
 62
     7
370
    25
100
AcDbLine
 10
0.074820915
 20
0.1809004809
 30
0.0
 11
0.0748672684
 21
0.1808656753
 31
0.0
  0
CIRCLE
  5
27E
330
1F
100
AcDbEntity
  8
0
  6
Continuous
 62
     7
370
    25
100
AcDbCircle
 10
0.0748139495
 20
0.1808429349
 30
0.0
 40
0.0001557
  0
LINE
  5
27F
330
1F
100
AcDbEntity
  8
0
  6
Continuous
 62
     7
370
    25
100
AcDbLine
 10
0.0748603018
 20
0.1808081294
 30
0.0
 11
0.0748069842
 21
0.1807853891
 31
0.0
  0
LINE
  5
280
330
1F
100
AcDbEntity
  8
0
  6
Continuous
 62
     7
370
    25
100
AcDbLine
 10
0.0748069842
 20
0.1807853891
 30
0.0
 11
0.0747606309
 21
0.1808201946
 31
0.0
  0
ARC
  5
281
330
1F
100
AcDbEntity
  8
0
  6
Continuous
 62
     7
370
    25
100
AcDbCircle
 10
0.0748139495
 20
0.1808429349
 30
0.0
 40
0.0000502
100
AcDbArc
 50
53.097643206
 51
113.097643206
  0
ARC
  5
282
330
1F
100
AcDbEntity
  8
0
  6
Continuous
 62
     7
370
    25
100
AcDbCircle
 10
0.0748139495
 20
0.1808429349
 30
0.0
 40
0.0000502
100
AcDbArc
 50
173.097643206
 51
233.097643206
  0
ARC
  5
283
330
1F
100
AcDbEntity
  8
0
  6
Continuous
 62
     7
370
    25
100
AcDbCircle
 10
0.0748139495
 20
0.1808429349
 30
0.0
 40
0.0000502
100
AcDbArc
 50
113.097643206
 51
173.097643206
  0
ARC
  5
284
330
1F
100
AcDbEntity
  8
0
  6
Continuous
 62
     7
370
    25
100
AcDbCircle
 10
0.0748139495
 20
0.1808429349
 30
0.0
 40
0.0000502
100
AcDbArc
 50
353.097643206
 51
53.097643206
  0
ARC
  5
285
330
1F
100
AcDbEntity
  8
0
  6
Continuous
 62
     7
370
    25
100
AcDbCircle
 10
0.0748139495
 20
0.1808429349
 30
0.0
 40
0.0000502
100
AcDbArc
 50
293.097643206
 51
353.097643206
  0
ARC
  5
286
330
1F
100
AcDbEntity
  8
0
  6
Continuous
 62
     7
370
    25
100
AcDbCircle
 10
0.0748139495
 20
0.1808429349
 30
0.0
 40
0.0000502
100
AcDbArc
 50
233.097643206
 51
293.097643206
  0
CIRCLE
  5
287
330
1F
100
AcDbEntity
  8
0
  6
Continuous
 62
     7
370
    25
100
AcDbCircle
 10
0.0765353427
 20
0.1456057799
 30
0.0
 40
0.0001557
  0
LINE
  5
288
330
1F
100
AcDbEntity
  8
0
  6
Continuous
 62
     7
370
    25
100
AcDbLine
 10
0.0764986165
 20
0.1455609335
 30
0.0
 11
0.0764781411
 21
0.1456151618
 31
0.0
  0
LINE
  5
289
330
1F
100
AcDbEntity
  8
0
  6
Continuous
 62
     7
370
    25
100
AcDbLine
 10
0.0765925439
 20
0.1455963982
 30
0.0
 11
0.0765558179
 21
0.1455515505
 31
0.0
  0
LINE
  5
28A
330
1F
100
AcDbEntity
  8
0
  6
Continuous
 62
     7
370
    25
100
AcDbLine
 10
0.0765148671
 20
0.1456600095
 30
0.0
 11
0.0765720685
 21
0.1456506265
 31
0.0
  0
LINE
  5
28B
330
1F
100
AcDbEntity
  8
0
  6
Continuous
 62
     7
370
    25
100
AcDbLine
 10
0.0765558179
 20
0.1455515505
 30
0.0
 11
0.0764986165
 21
0.1455609335
 31
0.0
  0
LINE
  5
28C
330
1F
100
AcDbEntity
  8
0
  6
Continuous
 62
     7
370
    25
100
AcDbLine
 10
0.0764781411
 20
0.1456151618
 30
0.0
 11
0.0765148671
 21
0.1456600095
 31
0.0
  0
LINE
  5
28D
330
1F
100
AcDbEntity
  8
0
  6
Continuous
 62
     7
370
    25
100
AcDbLine
 10
0.0765720685
 20
0.1456506265
 30
0.0
 11
0.0765925439
 21
0.1455963982
 31
0.0
  0
ARC
  5
28E
330
1F
100
AcDbEntity
  8
0
  6
Continuous
 62
     7
370
    25
100
AcDbCircle
 10
0.0765353427
 20
0.1456057799
 30
0.0
 40
0.0000502
100
AcDbArc
 50
80.6852854729
 51
140.6852854729
  0
ARC
  5
28F
330
1F
100
AcDbEntity
  8
0
  6
Continuous
 62
     7
370
    25
100
AcDbCircle
 10
0.0765353427
 20
0.1456057799
 30
0.0
 40
0.0000502
100
AcDbArc
 50
140.6852854729
 51
200.6852854729
  0
ARC
  5
290
330
1F
100
AcDbEntity
  8
0
  6
Continuous
 62
     7
370
    25
100
AcDbCircle
 10
0.0765353427
 20
0.1456057799
 30
0.0
 40
0.0000502
100
AcDbArc
 50
320.6852854729
 51
20.6852854729
  0
ARC
  5
291
330
1F
100
AcDbEntity
  8
0
  6
Continuous
 62
     7
370
    25
100
AcDbCircle
 10
0.0765353427
 20
0.1456057799
 30
0.0
 40
0.0000502
100
AcDbArc
 50
20.6852854729
 51
80.6852854729
  0
ARC
  5
292
330
1F
100
AcDbEntity
  8
0
  6
Continuous
 62
     7
370
    25
100
AcDbCircle
 10
0.0765353427
 20
0.1456057799
 30
0.0
 40
0.0000502
100
AcDbArc
 50
200.6852854729
 51
260.6852854729
  0
ARC
  5
293
330
1F
100
AcDbEntity
  8
0
  6
Continuous
 62
     7
370
    25
100
AcDbCircle
 10
0.0765353427
 20
0.1456057799
 30
0.0
 40
0.0000502
100
AcDbArc
 50
260.6852854729
 51
320.6852854729
  0
LINE
  5
294
330
1F
100
AcDbEntity
  8
0
  6
Continuous
 62
     7
370
    25
100
AcDbLine
 10
0.0765290172
 20
0.1798062659
 30
0.0
 11
0.0764968856
 21
0.1798545111
 31
0.0
  0
LINE
  5
295
330
1F
100
AcDbEntity
  8
0
  6
Continuous
 62
     7
370
    25
100
AcDbLine
 10
0.0765868647
 20
0.179809971
 30
0.0
 11
0.0765290172
 21
0.1798062659
 31
0.0
  0
LINE
  5
296
330
1F
100
AcDbEntity
  8
0
  6
Continuous
 62
     7
370
    25
100
AcDbLine
 10
0.0766125806
 20
0.17986192
 30
0.0
 11
0.0765868647
 21
0.179809971
 31
0.0
  0
LINE
  5
297
330
1F
100
AcDbEntity
  8
0
  6
Continuous
 62
     7
370
    25
100
AcDbLine
 10
0.0765804489
 20
0.1799101652
 30
0.0
 11
0.0766125806
 21
0.17986192
 31
0.0
  0
LINE
  5
298
330
1F
100
AcDbEntity
  8
0
  6
Continuous
 62
     7
370
    25
100
AcDbLine
 10
0.0765226014
 20
0.1799064602
 30
0.0
 11
0.0765804489
 21
0.1799101652
 31
0.0
  0
LINE
  5
299
330
1F
100
AcDbEntity
  8
0
  6
Continuous
 62
     7
370
    25
100
AcDbLine
 10
0.0764968856
 20
0.1798545111
 30
0.0
 11
0.0765226014
 21
0.1799064602
 31
0.0
  0
CIRCLE
  5
29A
330
1F
100
AcDbEntity
  8
0
  6
Continuous
 62
     7
370
    25
100
AcDbCircle
 10
0.0765547333
 20
0.1798582157
 30
0.0
 40
0.0001557
  0
ARC
  5
29B
330
1F
100
AcDbEntity
  8
0
  6
Continuous
 62
     7
370
    25
100
AcDbCircle
 10
0.0765547333
 20
0.1798582157
 30
0.0
 40
0.0000502
100
AcDbArc
 50
93.664344673
 51
153.664344673
  0
ARC
  5
29C
330
1F
100
AcDbEntity
  8
0
  6
Continuous
 62
     7
370
    25
100
AcDbCircle
 10
0.0765547333
 20
0.1798582157
 30
0.0
 40
0.0000502
100
AcDbArc
 50
153.664344673
 51
213.664344673
  0
ARC
  5
29D
330
1F
100
AcDbEntity
  8
0
  6
Continuous
 62
     7
370
    25
100
AcDbCircle
 10
0.0765547333
 20
0.1798582157
 30
0.0
 40
0.0000502
100
AcDbArc
 50
33.664344673
 51
93.664344673
  0
ARC
  5
29E
330
1F
100
AcDbEntity
  8
0
  6
Continuous
 62
     7
370
    25
100
AcDbCircle
 10
0.0765547333
 20
0.1798582157
 30
0.0
 40
0.0000502
100
AcDbArc
 50
213.664344673
 51
273.664344673
  0
ARC
  5
29F
330
1F
100
AcDbEntity
  8
0
  6
Continuous
 62
     7
370
    25
100
AcDbCircle
 10
0.0765547333
 20
0.1798582157
 30
0.0
 40
0.0000502
100
AcDbArc
 50
273.664344673
 51
333.664344673
  0
ARC
  5
2A0
330
1F
100
AcDbEntity
  8
0
  6
Continuous
 62
     7
370
    25
100
AcDbCircle
 10
0.0765547333
 20
0.1798582157
 30
0.0
 40
0.0000502
100
AcDbArc
 50
333.664344673
 51
33.664344673
  0
LINE
  5
2A1
330
1F
100
AcDbEntity
  8
0
  6
Continuous
 62
     7
370
    25
100
AcDbLine
 10
0.0775599273
 20
0.1815447701
 30
0.0
 11
0.0775027259
 21
0.1815541531
 31
0.0
  0
LINE
  5
2A2
330
1F
100
AcDbEntity
  8
0
  6
Continuous
 62
     7
370
    25
100
AcDbLine
 10
0.0774822505
 20
0.1816083814
 30
0.0
 11
0.0775189765
 21
0.1816532291
 31
0.0
  0
CIRCLE
  5
2A3
330
1F
100
AcDbEntity
  8
0
  6
Continuous
 62
     7
370
    25
100
AcDbCircle
 10
0.0775394525
 20
0.1815989995
 30
0.0
 40
0.0001557
  0
LINE
  5
2A4
330
1F
100
AcDbEntity
  8
0
  6
Continuous
 62
     7
370
    25
100
AcDbLine
 10
0.0775027259
 20
0.1815541531
 30
0.0
 11
0.0774822505
 21
0.1816083814
 31
0.0
  0
LINE
  5
2A5
330
1F
100
AcDbEntity
  8
0
  6
Continuous
 62
     7
370
    25
100
AcDbLine
 10
0.0775966533
 20
0.1815896178
 30
0.0
 11
0.0775599273
 21
0.1815447701
 31
0.0
  0
LINE
  5
2A6
330
1F
100
AcDbEntity
  8
0
  6
Continuous
 62
     7
370
    25
100
AcDbLine
 10
0.0775761779
 20
0.1816438461
 30
0.0
 11
0.0775966533
 21
0.1815896178
 31
0.0
  0
LINE
  5
2A7
330
1F
100
AcDbEntity
  8
0
  6
Continuous
 62
     7
370
    25
100
AcDbLine
 10
0.0775189765
 20
0.1816532291
 30
0.0
 11
0.0775761779
 21
0.1816438461
 31
0.0
  0
ARC
  5
2A8
330
1F
100
AcDbEntity
  8
0
  6
Continuous
 62
     7
370
    25
100
AcDbCircle
 10
0.0775394525
 20
0.1815989995
 30
0.0
 40
0.0000502
100
AcDbArc
 50
20.6852854729
 51
80.6852854729
  0
ARC
  5
2A9
330
1F
100
AcDbEntity
  8
0
  6
Continuous
 62
     7
370
    25
100
AcDbCircle
 10
0.0775394525
 20
0.1815989995
 30
0.0
 40
0.0000502
100
AcDbArc
 50
260.6852854729
 51
320.6852854729
  0
ARC
  5
2AA
330
1F
100
AcDbEntity
  8
0
  6
Continuous
 62
     7
370
    25
100
AcDbCircle
 10
0.0775394525
 20
0.1815989995
 30
0.0
 40
0.0000502
100
AcDbArc
 50
140.6852854729
 51
200.6852854729
  0
ARC
  5
2AB
330
1F
100
AcDbEntity
  8
0
  6
Continuous
 62
     7
370
    25
100
AcDbCircle
 10
0.0775394525
 20
0.1815989995
 30
0.0
 40
0.0000502
100
AcDbArc
 50
80.6852854729
 51
140.6852854729
  0
ARC
  5
2AC
330
1F
100
AcDbEntity
  8
0
  6
Continuous
 62
     7
370
    25
100
AcDbCircle
 10
0.0775394525
 20
0.1815989995
 30
0.0
 40
0.0000502
100
AcDbArc
 50
320.6852854729
 51
20.6852854729
  0
ARC
  5
2AD
330
1F
100
AcDbEntity
  8
0
  6
Continuous
 62
     7
370
    25
100
AcDbCircle
 10
0.0775394525
 20
0.1815989995
 30
0.0
 40
0.0000502
100
AcDbArc
 50
200.6852854729
 51
260.6852854729
  0
LINE
  5
2AE
330
1F
100
AcDbEntity
  8
0
  6
Continuous
 62
     7
370
    25
100
AcDbLine
 10
0.1398610623
 20
0.1799140597
 30
0.0
 11
0.1399182637
 21
0.1799046768
 31
0.0
  0
LINE
  5
2AF
330
1F
100
AcDbEntity
  8
0
  6
Continuous
 62
     7
370
    25
100
AcDbLine
 10
0.1398243363
 20
0.179869212
 30
0.0
 11
0.1398610623
 21
0.1799140597
 31
0.0
  0
LINE
  5
2B0
330
1F
100
AcDbEntity
  8
0
  6
Continuous
 62
     7
370
    25
100
AcDbLine
 10
0.1398448117
 20
0.1798149837
 30
0.0
 11
0.1398243363
 21
0.179869212
 31
0.0
  0
LINE
  5
2B1
330
1F
100
AcDbEntity
  8
0
  6
Continuous
 62
     7
370
    25
100
AcDbLine
 10
0.1399020131
 20
0.1798056008
 30
0.0
 11
0.1398448117
 21
0.1798149837
 31
0.0
  0
LINE
  5
2B2
330
1F
100
AcDbEntity
  8
0
  6
Continuous
 62
     7
370
    25
100
AcDbLine
 10
0.1399387391
 20
0.1798504485
 30
0.0
 11
0.1399020131
 21
0.1798056008
 31
0.0
  0
LINE
  5
2B3
330
1F
100
AcDbEntity
  8
0
  6
Continuous
 62
     7
370
    25
100
AcDbLine
 10
0.1399182637
 20
0.1799046768
 30
0.0
 11
0.1399387391
 21
0.1798504485
 31
0.0
  0
CIRCLE
  5
2B4
330
1F
100
AcDbEntity
  8
0
  6
Continuous
 62
     7
370
    25
100
AcDbCircle
 10
0.1398815375
 20
0.1798598303
 30
0.0
 40
0.0001557
  0
ARC
  5
2B5
330
1F
100
AcDbEntity
  8
0
  6
Continuous
 62
     7
370
    25
100
AcDbCircle
 10
0.1398815375
 20
0.1798598303
 30
0.0
 40
0.0000502
100
AcDbArc
 50
20.6852854729
 51
80.6852854729
  0
ARC
  5
2B6
330
1F
100
AcDbEntity
  8
0
  6
Continuous
 62
     7
370
    25
100
AcDbCircle
 10
0.1398815375
 20
0.1798598303
 30
0.0
 40
0.0000502
100
AcDbArc
 50
320.6852854729
 51
20.6852854729
  0
ARC
  5
2B7
330
1F
100
AcDbEntity
  8
0
  6
Continuous
 62
     7
370
    25
100
AcDbCircle
 10
0.1398815375
 20
0.1798598303
 30
0.0
 40
0.0000502
100
AcDbArc
 50
260.6852854729
 51
320.6852854729
  0
ARC
  5
2B8
330
1F
100
AcDbEntity
  8
0
  6
Continuous
 62
     7
370
    25
100
AcDbCircle
 10
0.1398815375
 20
0.1798598303
 30
0.0
 40
0.0000502
100
AcDbArc
 50
200.6852854729
 51
260.6852854729
  0
ARC
  5
2B9
330
1F
100
AcDbEntity
  8
0
  6
Continuous
 62
     7
370
    25
100
AcDbCircle
 10
0.1398815375
 20
0.1798598303
 30
0.0
 40
0.0000502
100
AcDbArc
 50
140.6852854729
 51
200.6852854729
  0
ARC
  5
2BA
330
1F
100
AcDbEntity
  8
0
  6
Continuous
 62
     7
370
    25
100
AcDbCircle
 10
0.1398815375
 20
0.1798598303
 30
0.0
 40
0.0000502
100
AcDbArc
 50
80.6852854729
 51
140.6852854729
  0
LINE
  5
2BB
330
1F
100
AcDbEntity
  8
0
  6
Continuous
 62
     7
370
    25
100
AcDbLine
 10
0.0748529585
 20
0.1445494021
 30
0.0
 11
0.0747969015
 21
0.1445346547
 31
0.0
  0
LINE
  5
2BC
330
1F
100
AcDbEntity
  8
0
  6
Continuous
 62
     7
370
    25
100
AcDbLine
 10
0.0748682173
 20
0.1446053232
 30
0.0
 11
0.0748529585
 21
0.1445494021
 31
0.0
  0
LINE
  5
2BD
330
1F
100
AcDbEntity
  8
0
  6
Continuous
 62
     7
370
    25
100
AcDbLine
 10
0.0748274167
 20
0.1446464981
 30
0.0
 11
0.0748682173
 21
0.1446053232
 31
0.0
  0
LINE
  5
2BE
330
1F
100
AcDbEntity
  8
0
  6
Continuous
 62
     7
370
    25
100
AcDbLine
 10
0.0747713573
 20
0.1446317519
 30
0.0
 11
0.0748274167
 21
0.1446464981
 31
0.0
  0
LINE
  5
2BF
330
1F
100
AcDbEntity
  8
0
  6
Continuous
 62
     7
370
    25
100
AcDbLine
 10
0.0747561009
 20
0.1445758296
 30
0.0
 11
0.0747713573
 21
0.1446317519
 31
0.0
  0
LINE
  5
2C0
330
1F
100
AcDbEntity
  8
0
  6
Continuous
 62
     7
370
    25
100
AcDbLine
 10
0.0747969015
 20
0.1445346547
 30
0.0
 11
0.0747561009
 21
0.1445758296
 31
0.0
  0
CIRCLE
  5
2C1
330
1F
100
AcDbEntity
  8
0
  6
Continuous
 62
     7
370
    25
100
AcDbCircle
 10
0.074812159
 20
0.1445905766
 30
0.0
 40
0.0001557
  0
ARC
  5
2C2
330
1F
100
AcDbEntity
  8
0
  6
Continuous
 62
     7
370
    25
100
AcDbCircle
 10
0.074812159
 20
0.1445905766
 30
0.0
 40
0.0000502
100
AcDbArc
 50
224.7385195751
 51
284.7385195752
  0
ARC
  5
2C3
330
1F
100
AcDbEntity
  8
0
  6
Continuous
 62
     7
370
    25
100
AcDbCircle
 10
0.074812159
 20
0.1445905766
 30
0.0
 40
0.0000502
100
AcDbArc
 50
164.7385195751
 51
224.7385195751
  0
ARC
  5
2C4
330
1F
100
AcDbEntity
  8
0
  6
Continuous
 62
     7
370
    25
100
AcDbCircle
 10
0.074812159
 20
0.1445905766
 30
0.0
 40
0.0000502
100
AcDbArc
 50
104.7385195751
 51
164.7385195751
  0
ARC
  5
2C5
330
1F
100
AcDbEntity
  8
0
  6
Continuous
 62
     7
370
    25
100
AcDbCircle
 10
0.074812159
 20
0.1445905766
 30
0.0
 40
0.0000502
100
AcDbArc
 50
44.7385195751
 51
104.7385195751
  0
ARC
  5
2C6
330
1F
100
AcDbEntity
  8
0
  6
Continuous
 62
     7
370
    25
100
AcDbCircle
 10
0.074812159
 20
0.1445905766
 30
0.0
 40
0.0000502
100
AcDbArc
 50
344.7385195751
 51
44.7385195751
  0
ARC
  5
2C7
330
1F
100
AcDbEntity
  8
0
  6
Continuous
 62
     7
370
    25
100
AcDbCircle
 10
0.074812159
 20
0.1445905766
 30
0.0
 40
0.0000502
100
AcDbArc
 50
284.7385195752
 51
344.7385195751
  0
LINE
  5
2C8
330
1F
100
AcDbEntity
  8
0
  6
Continuous
 62
     7
370
    25
100
AcDbLine
 10
0.1415639217
 20
0.1809162081
 30
0.0
 11
0.1416199787
 21
0.1809309555
 31
0.0
  0
LINE
  5
2C9
330
1F
100
AcDbEntity
  8
0
  6
Continuous
 62
     7
370
    25
100
AcDbLine
 10
0.1415486629
 20
0.1808602871
 30
0.0
 11
0.1415639217
 21
0.1809162081
 31
0.0
  0
LINE
  5
2CA
330
1F
100
AcDbEntity
  8
0
  6
Continuous
 62
     7
370
    25
100
AcDbLine
 10
0.1415894635
 20
0.1808191122
 30
0.0
 11
0.1415486629
 21
0.1808602871
 31
0.0
  0
LINE
  5
2CB
330
1F
100
AcDbEntity
  8
0
  6
Continuous
 62
     7
370
    25
100
AcDbLine
 10
0.1416455229
 20
0.1808338584
 30
0.0
 11
0.1415894635
 21
0.1808191122
 31
0.0
  0
LINE
  5
2CC
330
1F
100
AcDbEntity
  8
0
  6
Continuous
 62
     7
370
    25
100
AcDbLine
 10
0.1416607793
 20
0.1808897806
 30
0.0
 11
0.1416455229
 21
0.1808338584
 31
0.0
  0
CIRCLE
  5
2CD
330
1F
100
AcDbEntity
  8
0
  6
Continuous
 62
     7
370
    25
100
AcDbCircle
 10
0.1416047212
 20
0.1808750337
 30
0.0
 40
0.0001557
  0
LINE
  5
2CE
330
1F
100
AcDbEntity
  8
0
  6
Continuous
 62
     7
370
    25
100
AcDbLine
 10
0.1416199787
 20
0.1809309555
 30
0.0
 11
0.1416607793
 21
0.1808897806
 31
0.0
  0
ARC
  5
2CF
330
1F
100
AcDbEntity
  8
0
  6
Continuous
 62
     7
370
    25
100
AcDbCircle
 10
0.1416047212
 20
0.1808750337
 30
0.0
 40
0.0000502
100
AcDbArc
 50
104.7385195752
 51
164.7385195751
  0
ARC
  5
2D0
330
1F
100
AcDbEntity
  8
0
  6
Continuous
 62
     7
370
    25
100
AcDbCircle
 10
0.1416047212
 20
0.1808750337
 30
0.0
 40
0.0000502
100
AcDbArc
 50
164.7385195751
 51
224.7385195752
  0
ARC
  5
2D1
330
1F
100
AcDbEntity
  8
0
  6
Continuous
 62
     7
370
    25
100
AcDbCircle
 10
0.1416047212
 20
0.1808750337
 30
0.0
 40
0.0000502
100
AcDbArc
 50
44.7385195751
 51
104.7385195752
  0
ARC
  5
2D2
330
1F
100
AcDbEntity
  8
0
  6
Continuous
 62
     7
370
    25
100
AcDbCircle
 10
0.1416047212
 20
0.1808750337
 30
0.0
 40
0.0000502
100
AcDbArc
 50
344.7385195751
 51
44.7385195751
  0
ARC
  5
2D3
330
1F
100
AcDbEntity
  8
0
  6
Continuous
 62
     7
370
    25
100
AcDbCircle
 10
0.1416047212
 20
0.1808750337
 30
0.0
 40
0.0000502
100
AcDbArc
 50
284.7385195751
 51
344.7385195751
  0
ARC
  5
2D4
330
1F
100
AcDbEntity
  8
0
  6
Continuous
 62
     7
370
    25
100
AcDbCircle
 10
0.1416047212
 20
0.1808750337
 30
0.0
 40
0.0000502
100
AcDbArc
 50
224.7385195752
 51
284.7385195751
  0
LINE
  5
2D5
330
1F
100
AcDbEntity
  8
0
  6
Continuous
 62
     7
370
    25
100
AcDbLine
 10
0.138834203
 20
0.1816312588
 30
0.0
 11
0.1388920505
 21
0.1816349639
 31
0.0
  0
LINE
  5
2D6
330
1F
100
AcDbEntity
  8
0
  6
Continuous
 62
     7
370
    25
100
AcDbLine
 10
0.1388084872
 20
0.1815793098
 30
0.0
 11
0.138834203
 21
0.1816312588
 31
0.0
  0
LINE
  5
2D7
330
1F
100
AcDbEntity
  8
0
  6
Continuous
 62
     7
370
    25
100
AcDbLine
 10
0.1388406189
 20
0.1815310646
 30
0.0
 11
0.1388084872
 21
0.1815793098
 31
0.0
  0
LINE
  5
2D8
330
1F
100
AcDbEntity
  8
0
  6
Continuous
 62
     7
370
    25
100
AcDbLine
 10
0.1388984664
 20
0.1815347685
 30
0.0
 11
0.1388406189
 21
0.1815310646
 31
0.0
  0
LINE
  5
2D9
330
1F
100
AcDbEntity
  8
0
  6
Continuous
 62
     7
370
    25
100
AcDbLine
 10
0.1389241822
 20
0.1815867187
 30
0.0
 11
0.1388984664
 21
0.1815347685
 31
0.0
  0
LINE
  5
2DA
330
1F
100
AcDbEntity
  8
0
  6
Continuous
 62
     7
370
    25
100
AcDbLine
 10
0.1388920505
 20
0.1816349639
 30
0.0
 11
0.1389241822
 21
0.1815867187
 31
0.0
  0
CIRCLE
  5
2DB
330
1F
100
AcDbEntity
  8
0
  6
Continuous
 62
     7
370
    25
100
AcDbCircle
 10
0.1388663341
 20
0.181583014
 30
0.0
 40
0.0001557
  0
ARC
  5
2DC
330
1F
100
AcDbEntity
  8
0
  6
Continuous
 62
     7
370
    25
100
AcDbCircle
 10
0.1388663341
 20
0.181583014
 30
0.0
 40
0.0000502
100
AcDbArc
 50
33.664344673
 51
93.664344673
  0
ARC
  5
2DD
330
1F
100
AcDbEntity
  8
0
  6
Continuous
 62
     7
370
    25
100
AcDbCircle
 10
0.1388663341
 20
0.181583014
 30
0.0
 40
0.0000502
100
AcDbArc
 50
93.664344673
 51
153.664344673
  0
ARC
  5
2DE
330
1F
100
AcDbEntity
  8
0
  6
Continuous
 62
     7
370
    25
100
AcDbCircle
 10
0.1388663341
 20
0.181583014
 30
0.0
 40
0.0000502
100
AcDbArc
 50
153.664344673
 51
213.664344673
  0
ARC
  5
2DF
330
1F
100
AcDbEntity
  8
0
  6
Continuous
 62
     7
370
    25
100
AcDbCircle
 10
0.1388663341
 20
0.181583014
 30
0.0
 40
0.0000502
100
AcDbArc
 50
333.664344673
 51
33.664344673
  0
ARC
  5
2E0
330
1F
100
AcDbEntity
  8
0
  6
Continuous
 62
     7
370
    25
100
AcDbCircle
 10
0.1388663341
 20
0.181583014
 30
0.0
 40
0.0000502
100
AcDbArc
 50
273.664344673
 51
333.664344673
  0
ARC
  5
2E1
330
1F
100
AcDbEntity
  8
0
  6
Continuous
 62
     7
370
    25
100
AcDbCircle
 10
0.1388663341
 20
0.181583014
 30
0.0
 40
0.0000502
100
AcDbArc
 50
213.664344673
 51
273.664344673
  0
LINE
  5
2E2
330
1F
100
AcDbEntity
  8
0
  6
Continuous
 62
     7
370
    25
100
AcDbLine
 10
0.1389141543
 20
0.1439114572
 30
0.0
 11
0.1389346297
 21
0.1438572289
 31
0.0
  0
LINE
  5
2E3
330
1F
100
AcDbEntity
  8
0
  6
Continuous
 62
     7
370
    25
100
AcDbLine
 10
0.1388569529
 20
0.1439208401
 30
0.0
 11
0.1389141543
 21
0.1439114572
 31
0.0
  0
LINE
  5
2E4
330
1F
100
AcDbEntity
  8
0
  6
Continuous
 62
     7
370
    25
100
AcDbLine
 10
0.1388202269
 20
0.1438759924
 30
0.0
 11
0.1388569529
 21
0.1439208401
 31
0.0
  0
LINE
  5
2E5
330
1F
100
AcDbEntity
  8
0
  6
Continuous
 62
     7
370
    25
100
AcDbLine
 10
0.1388407023
 20
0.1438217641
 30
0.0
 11
0.1388202269
 21
0.1438759924
 31
0.0
  0
LINE
  5
2E6
330
1F
100
AcDbEntity
  8
0
  6
Continuous
 62
     7
370
    25
100
AcDbLine
 10
0.1388979037
 20
0.1438123811
 30
0.0
 11
0.1388407023
 21
0.1438217641
 31
0.0
  0
CIRCLE
  5
2E7
330
1F
100
AcDbEntity
  8
0
  6
Continuous
 62
     7
370
    25
100
AcDbCircle
 10
0.1388774277
 20
0.1438666108
 30
0.0
 40
0.0001557
  0
LINE
  5
2E8
330
1F
100
AcDbEntity
  8
0
  6
Continuous
 62
     7
370
    25
100
AcDbLine
 10
0.1389346297
 20
0.1438572289
 30
0.0
 11
0.1388979037
 21
0.1438123811
 31
0.0
  0
ARC
  5
2E9
330
1F
100
AcDbEntity
  8
0
  6
Continuous
 62
     7
370
    25
100
AcDbCircle
 10
0.1388774277
 20
0.1438666108
 30
0.0
 40
0.0000502
100
AcDbArc
 50
200.6852854729
 51
260.6852854729
  0
ARC
  5
2EA
330
1F
100
AcDbEntity
  8
0
  6
Continuous
 62
     7
370
    25
100
AcDbCircle
 10
0.1388774277
 20
0.1438666108
 30
0.0
 40
0.0000502
100
AcDbArc
 50
260.6852854729
 51
320.6852854729
  0
ARC
  5
2EB
330
1F
100
AcDbEntity
  8
0
  6
Continuous
 62
     7
370
    25
100
AcDbCircle
 10
0.1388774277
 20
0.1438666108
 30
0.0
 40
0.0000502
100
AcDbArc
 50
320.6852854729
 51
20.6852854729
  0
ARC
  5
2EC
330
1F
100
AcDbEntity
  8
0
  6
Continuous
 62
     7
370
    25
100
AcDbCircle
 10
0.1388774277
 20
0.1438666108
 30
0.0
 40
0.0000502
100
AcDbArc
 50
20.6852854729
 51
80.6852854729
  0
ARC
  5
2ED
330
1F
100
AcDbEntity
  8
0
  6
Continuous
 62
     7
370
    25
100
AcDbCircle
 10
0.1388774277
 20
0.1438666108
 30
0.0
 40
0.0000502
100
AcDbArc
 50
80.6852854729
 51
140.6852854729
  0
ARC
  5
2EE
330
1F
100
AcDbEntity
  8
0
  6
Continuous
 62
     7
370
    25
100
AcDbCircle
 10
0.1388774277
 20
0.1438666108
 30
0.0
 40
0.0000502
100
AcDbArc
 50
140.6852854729
 51
200.6852854729
  0
ARC
  5
2EF
330
1F
100
AcDbEntity
  8
0
  6
Continuous
 62
     7
370
    25
100
AcDbCircle
 10
0.1294866832
 20
0.1955878033
 30
0.0
 40
0.0019430400324355
100
AcDbArc
 50
154.584660462
 51
25.415339538
  0
LINE
  5
2F0
330
1F
100
AcDbEntity
  8
0
  6
Continuous
 62
     7
370
    25
100
AcDbLine
 10
0.1312416776
 20
0.1964217104
 30
0.0
 11
0.1314259227
 21
0.1960893239
 31
0.0
  0
ARC
  5
2F1
330
1F
100
AcDbEntity
  8
0
  6
Continuous
 62
     7
370
    25
100
AcDbCircle
 10
0.1294866832
 20
0.1955878033
 30
0.0
 40
0.0020030400324355
100
AcDbArc
 50
165.5
 51
14.5
  0
LINE
  5
2F2
330
1F
100
AcDbEntity
  8
0
  6
Continuous
 62
     7
370
    25
100
AcDbLine
 10
0.1275474449
 20
0.1960893239
 30
0.0
 11
0.12773169
 21
0.1964217104
 31
0.0
  0
ARC
  5
2F3
330
1F
100
AcDbEntity
  8
0
  6
Continuous
 62
     7
370
    25
100
AcDbCircle
 10
0.1329507848
 20
0.1975878033
 30
0.0
 40
0.0019430400324355
100
AcDbArc
 50
214.584660462
 51
85.415339538
  0
LINE
  5
2F4
330
1F
100
AcDbEntity
  8
0
  6
Continuous
 62
     7
370
    25
100
AcDbLine
 10
0.1331060965
 20
0.1995246256
 30
0.0
 11
0.1334860738
 21
0.1995179928
 31
0.0
  0
ARC
  5
2F5
330
1F
100
AcDbEntity
  8
0
  6
Continuous
 62
     7
370
    25
100
AcDbCircle
 10
0.1329507848
 20
0.1975878033
 30
0.0
 40
0.0020030400324355
100
AcDbArc
 50
225.5
 51
74.5
  0
LINE
  5
2F6
330
1F
100
AcDbEntity
  8
0
  6
Continuous
 62
     7
370
    25
100
AcDbLine
 10
0.1315468366
 20
0.1961591352
 30
0.0
 11
0.1313511021
 21
0.1964848889
 31
0.0
  0
ARC
  5
2F7
330
1F
100
AcDbEntity
  8
0
  6
Continuous
 62
     7
370
    25
100
AcDbCircle
 10
0.1260225816
 20
0.1975878033
 30
0.0
 40
0.0019430400324355
100
AcDbArc
 50
94.584660462
 51
325.415339538
  0
LINE
  5
2F8
330
1F
100
AcDbEntity
  8
0
  6
Continuous
 62
     7
370
    25
100
AcDbLine
 10
0.1276222642
 20
0.1964848889
 30
0.0
 11
0.1274265309
 21
0.1961591352
 31
0.0
  0
ARC
  5
2F9
330
1F
100
AcDbEntity
  8
0
  6
Continuous
 62
     7
370
    25
100
AcDbCircle
 10
0.1260225816
 20
0.1975878033
 30
0.0
 40
0.0020030400324356
100
AcDbArc
 50
105.5
 51
314.5
  0
LINE
  5
2FA
330
1F
100
AcDbEntity
  8
0
  6
Continuous
 62
     7
370
    25
100
AcDbLine
 10
0.1254872926
 20
0.1995179928
 30
0.0
 11
0.125867271
 21
0.1995246256
 31
0.0
  0
ARC
  5
2FB
330
1F
100
AcDbEntity
  8
0
  6
Continuous
 62
     7
370
    25
100
AcDbCircle
 10
0.1329507848
 20
0.2015878033
 30
0.0
 40
0.0019430400324355
100
AcDbArc
 50
274.584660462
 51
145.415339538
  0
LINE
  5
2FC
330
1F
100
AcDbEntity
  8
0
  6
Continuous
 62
     7
370
    25
100
AcDbLine
 10
0.1313511021
 20
0.2026907171
 30
0.0
 11
0.1315468366
 21
0.2030164708
 31
0.0
  0
ARC
  5
2FD
330
1F
100
AcDbEntity
  8
0
  6
Continuous
 62
     7
370
    25
100
AcDbCircle
 10
0.1329507848
 20
0.2015878033
 30
0.0
 40
0.0020030400324355
100
AcDbArc
 50
285.5
 51
134.5
  0
LINE
  5
2FE
330
1F
100
AcDbEntity
  8
0
  6
Continuous
 62
     7
370
    25
100
AcDbLine
 10
0.1334860738
 20
0.1996576131
 30
0.0
 11
0.1331060965
 21
0.1996509803
 31
0.0
  0
ARC
  5
2FF
330
1F
100
AcDbEntity
  8
0
  6
Continuous
 62
     7
370
    25
100
AcDbCircle
 10
0.1260225816
 20
0.2015878033
 30
0.0
 40
0.0019430400324355
100
AcDbArc
 50
34.584660462
 51
265.415339538
  0
LINE
  5
300
330
1F
100
AcDbEntity
  8
0
  6
Continuous
 62
     7
370
    25
100
AcDbLine
 10
0.125867271
 20
0.1996509803
 30
0.0
 11
0.1254872926
 21
0.1996576131
 31
0.0
  0
ARC
  5
301
330
1F
100
AcDbEntity
  8
0
  6
Continuous
 62
     7
370
    25
100
AcDbCircle
 10
0.1260225816
 20
0.2015878033
 30
0.0
 40
0.0020030400324355
100
AcDbArc
 50
45.5
 51
254.5
  0
LINE
  5
302
330
1F
100
AcDbEntity
  8
0
  6
Continuous
 62
     7
370
    25
100
AcDbLine
 10
0.1274265309
 20
0.2030164708
 30
0.0
 11
0.1276222642
 21
0.2026907171
 31
0.0
  0
ARC
  5
303
330
1F
100
AcDbEntity
  8
0
  6
Continuous
 62
     7
370
    25
100
AcDbCircle
 10
0.1294866832
 20
0.2035878033
 30
0.0
 40
0.0019430400324356
100
AcDbArc
 50
334.584660462
 51
205.415339538
  0
LINE
  5
304
330
1F
100
AcDbEntity
  8
0
  6
Continuous
 62
     7
370
    25
100
AcDbLine
 10
0.12773169
 20
0.2027538956
 30
0.0
 11
0.1275474449
 21
0.2030862845
 31
0.0
  0
ARC
  5
305
330
1F
100
AcDbEntity
  8
0
  6
Continuous
 62
     7
370
    25
100
AcDbCircle
 10
0.1294866832
 20
0.2035878033
 30
0.0
 40
0.0020030400324356
100
AcDbArc
 50
345.5
 51
194.5
  0
LINE
  5
306
330
1F
100
AcDbEntity
  8
0
  6
Continuous
 62
     7
370
    25
100
AcDbLine
 10
0.1314259227
 20
0.2030862845
 30
0.0
 11
0.1312416776
 21
0.2027538956
 31
0.0
  0
ARC
  5
307
330
1F
100
AcDbEntity
  8
0
  6
Continuous
 62
     7
370
    25
100
AcDbCircle
 10
0.1287074187
 20
0.1980994664
 30
0.0
 40
0.00004
100
AcDbArc
 50
62.3643141507
 51
151.0
  0
ARC
  5
308
330
1F
100
AcDbEntity
  8
0
  6
Continuous
 62
     7
370
    25
100
AcDbCircle
 10
0.1294866832
 20
0.1995878033
 30
0.0
 40
0.00164
100
AcDbArc
 50
242.3643141507
 51
297.6356858493
  0
ARC
  5
309
330
1F
100
AcDbEntity
  8
0
  6
Continuous
 62
     7
370
    25
100
AcDbCircle
 10
0.1302659477
 20
0.1980994664
 30
0.0
 40
0.00004
100
AcDbArc
 50
29.0
 51
117.6356858493
  0
LINE
  5
30A
330
1F
100
AcDbEntity
  8
0
  6
Continuous
 62
     7
370
    25
100
AcDbLine
 10
0.1303009327
 20
0.1981188596
 30
0.0
 11
0.1312416776
 21
0.1964217104
 31
0.0
  0
LINE
  5
30B
330
1F
100
AcDbEntity
  8
0
  6
Continuous
 62
     7
370
    25
100
AcDbLine
 10
0.12773169
 20
0.1964217104
 30
0.0
 11
0.1286724336
 21
0.1981188596
 31
0.0
  0
ARC
  5
30C
330
1F
100
AcDbEntity
  8
0
  6
Continuous
 62
     7
370
    25
100
AcDbCircle
 10
0.1303859886
 20
0.198168772
 30
0.0
 40
0.00004
100
AcDbArc
 50
122.3643141507
 51
211.0
  0
ARC
  5
30D
330
1F
100
AcDbEntity
  8
0
  6
Continuous
 62
     7
370
    25
100
AcDbCircle
 10
0.1294866832
 20
0.1995878033
 30
0.0
 40
0.00164
100
AcDbArc
 50
302.3643141507
 51
357.6356858493
  0
ARC
  5
30E
330
1F
100
AcDbEntity
  8
0
  6
Continuous
 62
     7
370
    25
100
AcDbCircle
 10
0.1311652531
 20
0.1995184977
 30
0.0
 40
0.00004
100
AcDbArc
 50
89.0
 51
177.6356858493
  0
LINE
  5
30F
330
1F
100
AcDbEntity
  8
0
  6
Continuous
 62
     7
370
    25
100
AcDbLine
 10
0.131165951
 20
0.1995584906
 30
0.0
 11
0.1331060965
 21
0.1995246256
 31
0.0
  0
LINE
  5
310
330
1F
100
AcDbEntity
  8
0
  6
Continuous
 62
     7
370
    25
100
AcDbLine
 10
0.1313511021
 20
0.1964848889
 30
0.0
 11
0.1303517015
 21
0.1981481708
 31
0.0
  0
ARC
  5
311
330
1F
100
AcDbEntity
  8
0
  6
Continuous
 62
     7
370
    25
100
AcDbCircle
 10
0.1311652531
 20
0.199657109
 30
0.0
 40
0.00004
100
AcDbArc
 50
182.3643141507
 51
271.0
  0
ARC
  5
312
330
1F
100
AcDbEntity
  8
0
  6
Continuous
 62
     7
370
    25
100
AcDbCircle
 10
0.1294866832
 20
0.1995878033
 30
0.0
 40
0.00164
100
AcDbArc
 50
2.3643141507
 51
57.6356858493
  0
ARC
  5
313
330
1F
100
AcDbEntity
  8
0
  6
Continuous
 62
     7
370
    25
100
AcDbCircle
 10
0.1303859886
 20
0.2010068346
 30
0.0
 40
0.00004
100
AcDbArc
 50
149.0
 51
237.6356858493
  0
LINE
  5
314
330
1F
100
AcDbEntity
  8
0
  6
Continuous
 62
     7
370
    25
100
AcDbLine
 10
0.1303517015
 20
0.2010274352
 30
0.0
 11
0.1313511021
 21
0.2026907171
 31
0.0
  0
LINE
  5
315
330
1F
100
AcDbEntity
  8
0
  6
Continuous
 62
     7
370
    25
100
AcDbLine
 10
0.1331060965
 20
0.1996509803
 30
0.0
 11
0.131165951
 21
0.1996171154
 31
0.0
  0
ARC
  5
316
330
1F
100
AcDbEntity
  8
0
  6
Continuous
 62
     7
370
    25
100
AcDbCircle
 10
0.1278081134
 20
0.1995184977
 30
0.0
 40
0.00004
100
AcDbArc
 50
2.3643141506
 51
91.0
  0
ARC
  5
317
330
1F
100
AcDbEntity
  8
0
  6
Continuous
 62
     7
370
    25
100
AcDbCircle
 10
0.1294866832
 20
0.1995878033
 30
0.0
 40
0.00164
100
AcDbArc
 50
182.3643141507
 51
237.6356858493
  0
ARC
  5
318
330
1F
100
AcDbEntity
  8
0
  6
Continuous
 62
     7
370
    25
100
AcDbCircle
 10
0.1285873779
 20
0.198168772
 30
0.0
 40
0.00004
100
AcDbArc
 50
329.0
 51
57.6356858494
  0
LINE
  5
319
330
1F
100
AcDbEntity
  8
0
  6
Continuous
 62
     7
370
    25
100
AcDbLine
 10
0.1286216648
 20
0.1981481708
 30
0.0
 11
0.1276222642
 21
0.1964848889
 31
0.0
  0
LINE
  5
31A
330
1F
100
AcDbEntity
  8
0
  6
Continuous
 62
     7
370
    25
100
AcDbLine
 10
0.125867271
 20
0.1995246256
 30
0.0
 11
0.1278074153
 21
0.1995584906
 31
0.0
  0
CIRCLE
  5
31B
330
1F
100
AcDbEntity
  8
0
  6
Continuous
 62
     7
370
    25
100
AcDbCircle
 10
0.1291206578
 20
0.2009538287
 30
0.0
 40
0.000173
  0
CIRCLE
  5
31C
330
1F
100
AcDbEntity
  8
0
  6
Continuous
 62
     7
370
    25
100
AcDbCircle
 10
0.1281206578
 20
0.1992217779
 30
0.0
 40
0.000173
  0
CIRCLE
  5
31D
330
1F
100
AcDbEntity
  8
0
  6
Continuous
 62
     7
370
    25
100
AcDbCircle
 10
0.1298527086
 20
0.1982217779
 30
0.0
 40
0.000173
  0
CIRCLE
  5
31E
330
1F
100
AcDbEntity
  8
0
  6
Continuous
 62
     7
370
    25
100
AcDbCircle
 10
0.1308527086
 20
0.1999538287
 30
0.0
 40
0.000173
  0
CIRCLE
  5
31F
330
1F
100
AcDbEntity
  8
0
  6
Continuous
 62
     7
370
    25
100
AcDbCircle
 10
0.1294866832
 20
0.1995878033
 30
0.0
 40
0.0016
  0
ARC
  5
320
330
1F
100
AcDbEntity
  8
0
  6
Continuous
 62
     7
370
    25
100
AcDbCircle
 10
0.1285873779
 20
0.2010068346
 30
0.0
 40
0.00004
100
AcDbArc
 50
302.3643141506
 51
31.0
  0
ARC
  5
321
330
1F
100
AcDbEntity
  8
0
  6
Continuous
 62
     7
370
    25
100
AcDbCircle
 10
0.1294866832
 20
0.1995878033
 30
0.0
 40
0.00164
100
AcDbArc
 50
122.3643141507
 51
177.6356858493
  0
ARC
  5
322
330
1F
100
AcDbEntity
  8
0
  6
Continuous
 62
     7
370
    25
100
AcDbCircle
 10
0.1278081134
 20
0.199657109
 30
0.0
 40
0.00004
100
AcDbArc
 50
269.0
 51
357.6356858494
  0
LINE
  5
323
330
1F
100
AcDbEntity
  8
0
  6
Continuous
 62
     7
370
    25
100
AcDbLine
 10
0.1278074153
 20
0.1996171154
 30
0.0
 11
0.125867271
 21
0.1996509803
 31
0.0
  0
LINE
  5
324
330
1F
100
AcDbEntity
  8
0
  6
Continuous
 62
     7
370
    25
100
AcDbLine
 10
0.1276222642
 20
0.2026907171
 30
0.0
 11
0.1286216648
 21
0.2010274352
 31
0.0
  0
ARC
  5
325
330
1F
100
AcDbEntity
  8
0
  6
Continuous
 62
     7
370
    25
100
AcDbCircle
 10
0.1302659477
 20
0.2010761403
 30
0.0
 40
0.00004
100
AcDbArc
 50
242.3643141507
 51
331.0
  0
ARC
  5
326
330
1F
100
AcDbEntity
  8
0
  6
Continuous
 62
     7
370
    25
100
AcDbCircle
 10
0.1287074187
 20
0.2010761403
 30
0.0
 40
0.00004
100
AcDbArc
 50
209.0
 51
297.6356858493
  0
ARC
  5
327
330
1F
100
AcDbEntity
  8
0
  6
Continuous
 62
     7
370
    25
100
AcDbCircle
 10
0.1294866832
 20
0.1995878033
 30
0.0
 40
0.00164
100
AcDbArc
 50
62.3643141507
 51
117.6356858493
  0
LINE
  5
328
330
1F
100
AcDbEntity
  8
0
  6
Continuous
 62
     7
370
    25
100
AcDbLine
 10
0.1286724336
 20
0.2010567487
 30
0.0
 11
0.12773169
 21
0.2027538956
 31
0.0
  0
LINE
  5
329
330
1F
100
AcDbEntity
  8
0
  6
Continuous
 62
     7
370
    25
100
AcDbLine
 10
0.1312416776
 20
0.2027538956
 30
0.0
 11
0.1303009327
 21
0.2010567487
 31
0.0
  0
ARC
  5
32A
330
1F
100
AcDbEntity
  8
0
  6
Continuous
 62
     7
370
    25
100
AcDbCircle
 10
0.1294866832
 20
0.1995878033
 30
0.0
 40
0.004
100
AcDbArc
 50
299.0
 51
301.0
  0
ARC
  5
32B
330
1F
100
AcDbEntity
  8
0
  6
Continuous
 62
     7
370
    25
100
AcDbCircle
 10
0.1294866832
 20
0.1995878033
 30
0.0
 40
0.004
100
AcDbArc
 50
239.0
 51
241.0
  0
ARC
  5
32C
330
1F
100
AcDbEntity
  8
0
  6
Continuous
 62
     7
370
    25
100
AcDbCircle
 10
0.1294866832
 20
0.1995878033
 30
0.0
 40
0.004
100
AcDbArc
 50
179.0
 51
181.0
  0
ARC
  5
32D
330
1F
100
AcDbEntity
  8
0
  6
Continuous
 62
     7
370
    25
100
AcDbCircle
 10
0.1294866832
 20
0.1995878033
 30
0.0
 40
0.004
100
AcDbArc
 50
119.0
 51
121.0
  0
ARC
  5
32E
330
1F
100
AcDbEntity
  8
0
  6
Continuous
 62
     7
370
    25
100
AcDbCircle
 10
0.1294866832
 20
0.1995878033
 30
0.0
 40
0.004
100
AcDbArc
 50
59.0
 51
61.0
  0
ARC
  5
32F
330
1F
100
AcDbEntity
  8
0
  6
Continuous
 62
     7
370
    25
100
AcDbCircle
 10
0.1294866832
 20
0.1995878033
 30
0.0
 40
0.004
100
AcDbArc
 50
359.0
 51
1.0
  0
ARC
  5
330
330
1F
100
AcDbEntity
  8
0
  6
Continuous
 62
     7
370
    25
100
AcDbCircle
 10
0.0691160554
 20
0.1647328051
 30
0.0
 40
0.0019430400324355
100
AcDbArc
 50
274.584660462
 51
145.415339538
  0
LINE
  5
331
330
1F
100
AcDbEntity
  8
0
  6
Continuous
 62
     7
370
    25
100
AcDbLine
 10
0.0675163729
 20
0.1658357201
 30
0.0
 11
0.0677121051
 21
0.1661614744
 31
0.0
  0
ARC
  5
332
330
1F
100
AcDbEntity
  8
0
  6
Continuous
 62
     7
370
    25
100
AcDbCircle
 10
0.0691160554
 20
0.1647328051
 30
0.0
 40
0.0020030400324356
100
AcDbArc
 50
285.5
 51
134.5
  0
LINE
  5
333
330
1F
100
AcDbEntity
  8
0
  6
Continuous
 62
     7
370
    25
100
AcDbLine
 10
0.0696513446
 20
0.1628026147
 30
0.0
 11
0.0692713673
 21
0.1627959822
 31
0.0
  0
ARC
  5
334
330
1F
100
AcDbEntity
  8
0
  6
Continuous
 62
     7
370
    25
100
AcDbCircle
 10
0.0656519538
 20
0.1667328051
 30
0.0
 40
0.0019430400324355
100
AcDbArc
 50
334.584660462
 51
205.415339538
  0
LINE
  5
335
330
1F
100
AcDbEntity
  8
0
  6
Continuous
 62
     7
370
    25
100
AcDbLine
 10
0.0638969596
 20
0.1658988972
 30
0.0
 11
0.0637127145
 21
0.166231284
 31
0.0
  0
ARC
  5
336
330
1F
100
AcDbEntity
  8
0
  6
Continuous
 62
     7
370
    25
100
AcDbCircle
 10
0.0656519538
 20
0.1667328051
 30
0.0
 40
0.0020030400324355
100
AcDbArc
 50
345.5
 51
194.5
  0
LINE
  5
337
330
1F
100
AcDbEntity
  8
0
  6
Continuous
 62
     7
370
    25
100
AcDbLine
 10
0.0675911935
 20
0.166231284
 30
0.0
 11
0.0674069484
 21
0.1658988972
 31
0.0
  0
ARC
  5
338
330
1F
100
AcDbEntity
  8
0
  6
Continuous
 62
     7
370
    25
100
AcDbCircle
 10
0.0691160554
 20
0.1607328051
 30
0.0
 40
0.0019430400324355
100
AcDbArc
 50
214.584660462
 51
85.415339538
  0
LINE
  5
339
330
1F
100
AcDbEntity
  8
0
  6
Continuous
 62
     7
370
    25
100
AcDbLine
 10
0.0692713673
 20
0.162669628
 30
0.0
 11
0.0696513446
 21
0.1626629955
 31
0.0
  0
ARC
  5
33A
330
1F
100
AcDbEntity
  8
0
  6
Continuous
 62
     7
370
    25
100
AcDbCircle
 10
0.0691160554
 20
0.1607328051
 30
0.0
 40
0.0020030400324355
100
AcDbArc
 50
225.5
 51
74.5
  0
LINE
  5
33B
330
1F
100
AcDbEntity
  8
0
  6
Continuous
 62
     7
370
    25
100
AcDbLine
 10
0.0677121051
 20
0.1593041358
 30
0.0
 11
0.0675163729
 21
0.1596298901
 31
0.0
  0
ARC
  5
33C
330
1F
100
AcDbEntity
  8
0
  6
Continuous
 62
     7
370
    25
100
AcDbCircle
 10
0.0621878522
 20
0.1647328051
 30
0.0
 40
0.0019430400324355
100
AcDbArc
 50
34.584660462
 51
265.415339538
  0
LINE
  5
33D
330
1F
100
AcDbEntity
  8
0
  6
Continuous
 62
     7
370
    25
100
AcDbLine
 10
0.0620325406
 20
0.1627959822
 30
0.0
 11
0.0616525634
 21
0.1628026147
 31
0.0
  0
ARC
  5
33E
330
1F
100
AcDbEntity
  8
0
  6
Continuous
 62
     7
370
    25
100
AcDbCircle
 10
0.0621878522
 20
0.1647328051
 30
0.0
 40
0.0020030400324355
100
AcDbArc
 50
45.5
 51
254.5
  0
LINE
  5
33F
330
1F
100
AcDbEntity
  8
0
  6
Continuous
 62
     7
370
    25
100
AcDbLine
 10
0.0635918029
 20
0.1661614744
 30
0.0
 11
0.063787535
 21
0.1658357201
 31
0.0
  0
ARC
  5
340
330
1F
100
AcDbEntity
  8
0
  6
Continuous
 62
     7
370
    25
100
AcDbCircle
 10
0.0656519538
 20
0.1587328051
 30
0.0
 40
0.0019430400324355
100
AcDbArc
 50
154.584660462
 51
25.415339538
  0
LINE
  5
341
330
1F
100
AcDbEntity
  8
0
  6
Continuous
 62
     7
370
    25
100
AcDbLine
 10
0.0674069484
 20
0.1595667131
 30
0.0
 11
0.0675911935
 21
0.1592343263
 31
0.0
  0
ARC
  5
342
330
1F
100
AcDbEntity
  8
0
  6
Continuous
 62
     7
370
    25
100
AcDbCircle
 10
0.0656519538
 20
0.1587328051
 30
0.0
 40
0.0020030400324355
100
AcDbArc
 50
165.5
 51
14.5
  0
LINE
  5
343
330
1F
100
AcDbEntity
  8
0
  6
Continuous
 62
     7
370
    25
100
AcDbLine
 10
0.0637127145
 20
0.1592343263
 30
0.0
 11
0.0638969596
 21
0.1595667131
 31
0.0
  0
ARC
  5
344
330
1F
100
AcDbEntity
  8
0
  6
Continuous
 62
     7
370
    25
100
AcDbCircle
 10
0.0621878522
 20
0.1607328051
 30
0.0
 40
0.0019430400324355
100
AcDbArc
 50
94.584660462
 51
325.415339538
  0
LINE
  5
345
330
1F
100
AcDbEntity
  8
0
  6
Continuous
 62
     7
370
    25
100
AcDbLine
 10
0.063787535
 20
0.1596298901
 30
0.0
 11
0.0635918029
 21
0.1593041358
 31
0.0
  0
ARC
  5
346
330
1F
100
AcDbEntity
  8
0
  6
Continuous
 62
     7
370
    25
100
AcDbCircle
 10
0.0621878522
 20
0.1607328051
 30
0.0
 40
0.0020030400324355
100
AcDbArc
 50
105.5
 51
314.5
  0
LINE
  5
347
330
1F
100
AcDbEntity
  8
0
  6
Continuous
 62
     7
370
    25
100
AcDbLine
 10
0.0616525634
 20
0.1626629955
 30
0.0
 11
0.0620325406
 21
0.162669628
 31
0.0
  0
ARC
  5
348
330
1F
100
AcDbEntity
  8
0
  6
Continuous
 62
     7
370
    25
100
AcDbCircle
 10
0.0673305237
 20
0.1628021108
 30
0.0
 40
0.00004
100
AcDbArc
 50
182.3643141506
 51
271.0
  0
ARC
  5
349
330
1F
100
AcDbEntity
  8
0
  6
Continuous
 62
     7
370
    25
100
AcDbCircle
 10
0.0656519538
 20
0.1627328051
 30
0.0
 40
0.00164
100
AcDbArc
 50
2.3643141507
 51
57.6356858493
  0
ARC
  5
34A
330
1F
100
AcDbEntity
  8
0
  6
Continuous
 62
     7
370
    25
100
AcDbCircle
 10
0.0665512592
 20
0.1641518364
 30
0.0
 40
0.00004
100
AcDbArc
 50
149.0
 51
237.6356858493
  0
LINE
  5
34B
330
1F
100
AcDbEntity
  8
0
  6
Continuous
 62
     7
370
    25
100
AcDbLine
 10
0.0665169747
 20
0.1641724379
 30
0.0
 11
0.0675163729
 21
0.1658357201
 31
0.0
  0
LINE
  5
34C
330
1F
100
AcDbEntity
  8
0
  6
Continuous
 62
     7
370
    25
100
AcDbLine
 10
0.0692713673
 20
0.1627959822
 30
0.0
 11
0.0673312218
 21
0.1627621169
 31
0.0
  0
ARC
  5
34D
330
1F
100
AcDbEntity
  8
0
  6
Continuous
 62
     7
370
    25
100
AcDbCircle
 10
0.0664312183
 20
0.1642211421
 30
0.0
 40
0.00004
100
AcDbArc
 50
242.3643141507
 51
331.0
  0
ARC
  5
34E
330
1F
100
AcDbEntity
  8
0
  6
Continuous
 62
     7
370
    25
100
AcDbCircle
 10
0.0656519538
 20
0.1627328051
 30
0.0
 40
0.00164
100
AcDbArc
 50
62.3643141507
 51
117.6356858493
  0
ARC
  5
34F
330
1F
100
AcDbEntity
  8
0
  6
Continuous
 62
     7
370
    25
100
AcDbCircle
 10
0.0648726894
 20
0.1642211421
 30
0.0
 40
0.00004
100
AcDbArc
 50
209.0
 51
297.6356858493
  0
LINE
  5
350
330
1F
100
AcDbEntity
  8
0
  6
Continuous
 62
     7
370
    25
100
AcDbLine
 10
0.0648377068
 20
0.1642017497
 30
0.0
 11
0.0638969596
 21
0.1658988972
 31
0.0
  0
LINE
  5
351
330
1F
100
AcDbEntity
  8
0
  6
Continuous
 62
     7
370
    25
100
AcDbLine
 10
0.0674069484
 20
0.1658988972
 30
0.0
 11
0.0664662011
 21
0.1642017497
 31
0.0
  0
ARC
  5
352
330
1F
100
AcDbEntity
  8
0
  6
Continuous
 62
     7
370
    25
100
AcDbCircle
 10
0.0665512592
 20
0.1613137738
 30
0.0
 40
0.00004
100
AcDbArc
 50
122.3643141506
 51
211.0
  0
ARC
  5
353
330
1F
100
AcDbEntity
  8
0
  6
Continuous
 62
     7
370
    25
100
AcDbCircle
 10
0.0656519538
 20
0.1627328051
 30
0.0
 40
0.00164
100
AcDbArc
 50
302.3643141507
 51
357.6356858493
  0
ARC
  5
354
330
1F
100
AcDbEntity
  8
0
  6
Continuous
 62
     7
370
    25
100
AcDbCircle
 10
0.0673305237
 20
0.1626634995
 30
0.0
 40
0.00004
100
AcDbArc
 50
89.0
 51
177.6356858493
  0
LINE
  5
355
330
1F
100
AcDbEntity
  8
0
  6
Continuous
 62
     7
370
    25
100
AcDbLine
 10
0.0673312218
 20
0.1627034934
 30
0.0
 11
0.0692713673
 21
0.162669628
 31
0.0
  0
LINE
  5
356
330
1F
100
AcDbEntity
  8
0
  6
Continuous
 62
     7
370
    25
100
AcDbLine
 10
0.0675163729
 20
0.1596298901
 30
0.0
 11
0.0665169747
 21
0.1612931724
 31
0.0
  0
ARC
  5
357
330
1F
100
AcDbEntity
  8
0
  6
Continuous
 62
     7
370
    25
100
AcDbCircle
 10
0.0647526485
 20
0.1641518364
 30
0.0
 40
0.00004
100
AcDbArc
 50
302.3643141507
 51
31.0
  0
ARC
  5
358
330
1F
100
AcDbEntity
  8
0
  6
Continuous
 62
     7
370
    25
100
AcDbCircle
 10
0.0656519538
 20
0.1627328051
 30
0.0
 40
0.00164
100
AcDbArc
 50
122.3643141507
 51
177.6356858493
  0
ARC
  5
359
330
1F
100
AcDbEntity
  8
0
  6
Continuous
 62
     7
370
    25
100
AcDbCircle
 10
0.063973384
 20
0.1628021108
 30
0.0
 40
0.00004
100
AcDbArc
 50
269.0
 51
357.6356858494
  0
LINE
  5
35A
330
1F
100
AcDbEntity
  8
0
  6
Continuous
 62
     7
370
    25
100
AcDbLine
 10
0.0639726861
 20
0.1627621169
 30
0.0
 11
0.0620325406
 21
0.1627959822
 31
0.0
  0
LINE
  5
35B
330
1F
100
AcDbEntity
  8
0
  6
Continuous
 62
     7
370
    25
100
AcDbLine
 10
0.063787535
 20
0.1658357201
 30
0.0
 11
0.0647869332
 21
0.1641724379
 31
0.0
  0
CIRCLE
  5
35C
330
1F
100
AcDbEntity
  8
0
  6
Continuous
 62
     7
370
    25
100
AcDbCircle
 10
0.0656519538
 20
0.1627328051
 30
0.0
 40
0.0016
  0
CIRCLE
  5
35D
330
1F
100
AcDbEntity
  8
0
  6
Continuous
 62
     7
370
    25
100
AcDbCircle
 10
0.0646519538
 20
0.1617328051
 30
0.0
 40
0.000173
  0
CIRCLE
  5
35E
330
1F
100
AcDbEntity
  8
0
  6
Continuous
 62
     7
370
    25
100
AcDbCircle
 10
0.0666519538
 20
0.1617328051
 30
0.0
 40
0.000173
  0
CIRCLE
  5
35F
330
1F
100
AcDbEntity
  8
0
  6
Continuous
 62
     7
370
    25
100
AcDbCircle
 10
0.0666519538
 20
0.1637328051
 30
0.0
 40
0.000173
  0
CIRCLE
  5
360
330
1F
100
AcDbEntity
  8
0
  6
Continuous
 62
     7
370
    25
100
AcDbCircle
 10
0.0646519538
 20
0.1637328051
 30
0.0
 40
0.000173
  0
ARC
  5
361
330
1F
100
AcDbEntity
  8
0
  6
Continuous
 62
     7
370
    25
100
AcDbCircle
 10
0.0648726894
 20
0.1612444682
 30
0.0
 40
0.00004
100
AcDbArc
 50
62.3643141507
 51
151.0
  0
ARC
  5
362
330
1F
100
AcDbEntity
  8
0
  6
Continuous
 62
     7
370
    25
100
AcDbCircle
 10
0.0656519538
 20
0.1627328051
 30
0.0
 40
0.00164
100
AcDbArc
 50
242.3643141507
 51
297.6356858493
  0
ARC
  5
363
330
1F
100
AcDbEntity
  8
0
  6
Continuous
 62
     7
370
    25
100
AcDbCircle
 10
0.0664312183
 20
0.1612444682
 30
0.0
 40
0.00004
100
AcDbArc
 50
29.0
 51
117.6356858493
  0
LINE
  5
364
330
1F
100
AcDbEntity
  8
0
  6
Continuous
 62
     7
370
    25
100
AcDbLine
 10
0.0664662011
 20
0.1612638606
 30
0.0
 11
0.0674069484
 21
0.1595667131
 31
0.0
  0
LINE
  5
365
330
1F
100
AcDbEntity
  8
0
  6
Continuous
 62
     7
370
    25
100
AcDbLine
 10
0.0638969596
 20
0.1595667131
 30
0.0
 11
0.0648377068
 21
0.1612638606
 31
0.0
  0
ARC
  5
366
330
1F
100
AcDbEntity
  8
0
  6
Continuous
 62
     7
370
    25
100
AcDbCircle
 10
0.063973384
 20
0.1626634995
 30
0.0
 40
0.00004
100
AcDbArc
 50
2.3643141507
 51
91.0
  0
ARC
  5
367
330
1F
100
AcDbEntity
  8
0
  6
Continuous
 62
     7
370
    25
100
AcDbCircle
 10
0.0647526485
 20
0.1613137738
 30
0.0
 40
0.00004
100
AcDbArc
 50
329.0
 51
57.6356858494
  0
ARC
  5
368
330
1F
100
AcDbEntity
  8
0
  6
Continuous
 62
     7
370
    25
100
AcDbCircle
 10
0.0656519538
 20
0.1627328051
 30
0.0
 40
0.00164
100
AcDbArc
 50
182.3643141507
 51
237.6356858493
  0
LINE
  5
369
330
1F
100
AcDbEntity
  8
0
  6
Continuous
 62
     7
370
    25
100
AcDbLine
 10
0.0647869332
 20
0.1612931724
 30
0.0
 11
0.063787535
 21
0.1596298901
 31
0.0
  0
LINE
  5
36A
330
1F
100
AcDbEntity
  8
0
  6
Continuous
 62
     7
370
    25
100
AcDbLine
 10
0.0620325406
 20
0.162669628
 30
0.0
 11
0.0639726861
 21
0.1627034934
 31
0.0
  0
ARC
  5
36B
330
1F
100
AcDbEntity
  8
0
  6
Continuous
 62
     7
370
    25
100
AcDbCircle
 10
0.0656519538
 20
0.1627328051
 30
0.0
 40
0.004
100
AcDbArc
 50
59.0
 51
61.0
  0
ARC
  5
36C
330
1F
100
AcDbEntity
  8
0
  6
Continuous
 62
     7
370
    25
100
AcDbCircle
 10
0.0656519538
 20
0.1627328051
 30
0.0
 40
0.004
100
AcDbArc
 50
359.0
 51
1.0
  0
ARC
  5
36D
330
1F
100
AcDbEntity
  8
0
  6
Continuous
 62
     7
370
    25
100
AcDbCircle
 10
0.0656519538
 20
0.1627328051
 30
0.0
 40
0.004
100
AcDbArc
 50
299.0
 51
301.0
  0
ARC
  5
36E
330
1F
100
AcDbEntity
  8
0
  6
Continuous
 62
     7
370
    25
100
AcDbCircle
 10
0.0656519538
 20
0.1627328051
 30
0.0
 40
0.004
100
AcDbArc
 50
239.0
 51
241.0
  0
ARC
  5
36F
330
1F
100
AcDbEntity
  8
0
  6
Continuous
 62
     7
370
    25
100
AcDbCircle
 10
0.0656519538
 20
0.1627328051
 30
0.0
 40
0.004
100
AcDbArc
 50
179.0
 51
181.0
  0
ARC
  5
370
330
1F
100
AcDbEntity
  8
0
  6
Continuous
 62
     7
370
    25
100
AcDbCircle
 10
0.0656519538
 20
0.1627328051
 30
0.0
 40
0.004
100
AcDbArc
 50
119.0
 51
121.0
  0
ARC
  5
371
330
1F
100
AcDbEntity
  8
0
  6
Continuous
 62
     7
370
    25
100
AcDbCircle
 10
0.086930197
 20
0.1298778069
 30
0.0
 40
0.0019430400324355
100
AcDbArc
 50
334.584660462
 51
205.415339538
  0
LINE
  5
372
330
1F
100
AcDbEntity
  8
0
  6
Continuous
 62
     7
370
    25
100
AcDbLine
 10
0.0851752026
 20
0.1290438999
 30
0.0
 11
0.0849909575
 21
0.1293762864
 31
0.0
  0
ARC
  5
373
330
1F
100
AcDbEntity
  8
0
  6
Continuous
 62
     7
370
    25
100
AcDbCircle
 10
0.086930197
 20
0.1298778069
 30
0.0
 40
0.0020030400324355
100
AcDbArc
 50
345.5
 51
194.5
  0
LINE
  5
374
330
1F
100
AcDbEntity
  8
0
  6
Continuous
 62
     7
370
    25
100
AcDbLine
 10
0.0888694353
 20
0.1293762864
 30
0.0
 11
0.0886851902
 21
0.1290438999
 31
0.0
  0
ARC
  5
375
330
1F
100
AcDbEntity
  8
0
  6
Continuous
 62
     7
370
    25
100
AcDbCircle
 10
0.0834660953
 20
0.1278778069
 30
0.0
 40
0.0019430400324355
100
AcDbArc
 50
34.584660462
 51
265.415339538
  0
LINE
  5
376
330
1F
100
AcDbEntity
  8
0
  6
Continuous
 62
     7
370
    25
100
AcDbLine
 10
0.0833107837
 20
0.1259409846
 30
0.0
 11
0.0829308064
 21
0.1259476174
 31
0.0
  0
ARC
  5
377
330
1F
100
AcDbEntity
  8
0
  6
Continuous
 62
     7
370
    25
100
AcDbCircle
 10
0.0834660953
 20
0.1278778069
 30
0.0
 40
0.0020030400324355
100
AcDbArc
 50
45.5
 51
254.5
  0
LINE
  5
378
330
1F
100
AcDbEntity
  8
0
  6
Continuous
 62
     7
370
    25
100
AcDbLine
 10
0.0848700435
 20
0.129306475
 30
0.0
 11
0.085065778
 21
0.1289807213
 31
0.0
  0
ARC
  5
379
330
1F
100
AcDbEntity
  8
0
  6
Continuous
 62
     7
370
    25
100
AcDbCircle
 10
0.0903942986
 20
0.1278778069
 30
0.0
 40
0.0019430400324356
100
AcDbArc
 50
274.584660462
 51
145.415339538
  0
LINE
  5
37A
330
1F
100
AcDbEntity
  8
0
  6
Continuous
 62
     7
370
    25
100
AcDbLine
 10
0.088794616
 20
0.1289807213
 30
0.0
 11
0.0889903493
 21
0.129306475
 31
0.0
  0
ARC
  5
37B
330
1F
100
AcDbEntity
  8
0
  6
Continuous
 62
     7
370
    25
100
AcDbCircle
 10
0.0903942986
 20
0.1278778069
 30
0.0
 40
0.0020030400324356
100
AcDbArc
 50
285.5
 51
134.5
  0
LINE
  5
37C
330
1F
100
AcDbEntity
  8
0
  6
Continuous
 62
     7
370
    25
100
AcDbLine
 10
0.0909295876
 20
0.1259476174
 30
0.0
 11
0.0905496092
 21
0.1259409846
 31
0.0
  0
ARC
  5
37D
330
1F
100
AcDbEntity
  8
0
  6
Continuous
 62
     7
370
    25
100
AcDbCircle
 10
0.0834660953
 20
0.1238778069
 30
0.0
 40
0.0019430400324356
100
AcDbArc
 50
94.584660462
 51
325.415339538
  0
LINE
  5
37E
330
1F
100
AcDbEntity
  8
0
  6
Continuous
 62
     7
370
    25
100
AcDbLine
 10
0.085065778
 20
0.1227748932
 30
0.0
 11
0.0848700435
 21
0.1224491395
 31
0.0
  0
ARC
  5
37F
330
1F
100
AcDbEntity
  8
0
  6
Continuous
 62
     7
370
    25
100
AcDbCircle
 10
0.0834660953
 20
0.1238778069
 30
0.0
 40
0.0020030400324355
100
AcDbArc
 50
105.5
 51
314.5
  0
LINE
  5
380
330
1F
100
AcDbEntity
  8
0
  6
Continuous
 62
     7
370
    25
100
AcDbLine
 10
0.0829308064
 20
0.1258079971
 30
0.0
 11
0.0833107837
 21
0.1258146299
 31
0.0
  0
ARC
  5
381
330
1F
100
AcDbEntity
  8
0
  6
Continuous
 62
     7
370
    25
100
AcDbCircle
 10
0.0903942986
 20
0.1238778069
 30
0.0
 40
0.0019430400324355
100
AcDbArc
 50
214.584660462
 51
85.415339538
  0
LINE
  5
382
330
1F
100
AcDbEntity
  8
0
  6
Continuous
 62
     7
370
    25
100
AcDbLine
 10
0.0905496092
 20
0.1258146299
 30
0.0
 11
0.0909295876
 21
0.1258079971
 31
0.0
  0
ARC
  5
383
330
1F
100
AcDbEntity
  8
0
  6
Continuous
 62
     7
370
    25
100
AcDbCircle
 10
0.0903942986
 20
0.1238778069
 30
0.0
 40
0.0020030400324355
100
AcDbArc
 50
225.5
 51
74.5
  0
LINE
  5
384
330
1F
100
AcDbEntity
  8
0
  6
Continuous
 62
     7
370
    25
100
AcDbLine
 10
0.0889903493
 20
0.1224491395
 30
0.0
 11
0.088794616
 21
0.1227748932
 31
0.0
  0
ARC
  5
385
330
1F
100
AcDbEntity
  8
0
  6
Continuous
 62
     7
370
    25
100
AcDbCircle
 10
0.086930197
 20
0.1218778069
 30
0.0
 40
0.0019430400324355
100
AcDbArc
 50
154.584660462
 51
25.415339538
  0
LINE
  5
386
330
1F
100
AcDbEntity
  8
0
  6
Continuous
 62
     7
370
    25
100
AcDbLine
 10
0.0886851902
 20
0.1227117146
 30
0.0
 11
0.0888694353
 21
0.1223793257
 31
0.0
  0
ARC
  5
387
330
1F
100
AcDbEntity
  8
0
  6
Continuous
 62
     7
370
    25
100
AcDbCircle
 10
0.086930197
 20
0.1218778069
 30
0.0
 40
0.0020030400324355
100
AcDbArc
 50
165.5
 51
14.5
  0
LINE
  5
388
330
1F
100
AcDbEntity
  8
0
  6
Continuous
 62
     7
370
    25
100
AcDbLine
 10
0.0849909575
 20
0.1223793257
 30
0.0
 11
0.0851752026
 21
0.1227117146
 31
0.0
  0
ARC
  5
389
330
1F
100
AcDbEntity
  8
0
  6
Continuous
 62
     7
370
    25
100
AcDbCircle
 10
0.0877094614
 20
0.1273661439
 30
0.0
 40
0.00004
100
AcDbArc
 50
242.3643141507
 51
331.0
  0
ARC
  5
38A
330
1F
100
AcDbEntity
  8
0
  6
Continuous
 62
     7
370
    25
100
AcDbCircle
 10
0.086930197
 20
0.1258778069
 30
0.0
 40
0.00164
100
AcDbArc
 50
62.3643141507
 51
117.6356858493
  0
ARC
  5
38B
330
1F
100
AcDbEntity
  8
0
  6
Continuous
 62
     7
370
    25
100
AcDbCircle
 10
0.0861509325
 20
0.1273661439
 30
0.0
 40
0.00004
100
AcDbArc
 50
209.0
 51
297.6356858493
  0
LINE
  5
38C
330
1F
100
AcDbEntity
  8
0
  6
Continuous
 62
     7
370
    25
100
AcDbLine
 10
0.0861159475
 20
0.1273467506
 30
0.0
 11
0.0851752026
 21
0.1290438999
 31
0.0
  0
LINE
  5
38D
330
1F
100
AcDbEntity
  8
0
  6
Continuous
 62
     7
370
    25
100
AcDbLine
 10
0.0886851902
 20
0.1290438999
 30
0.0
 11
0.0877444465
 21
0.1273467506
 31
0.0
  0
ARC
  5
38E
330
1F
100
AcDbEntity
  8
0
  6
Continuous
 62
     7
370
    25
100
AcDbCircle
 10
0.0860308916
 20
0.1272968382
 30
0.0
 40
0.00004
100
AcDbArc
 50
302.3643141507
 51
31.0
  0
ARC
  5
38F
330
1F
100
AcDbEntity
  8
0
  6
Continuous
 62
     7
370
    25
100
AcDbCircle
 10
0.086930197
 20
0.1258778069
 30
0.0
 40
0.00164
100
AcDbArc
 50
122.3643141507
 51
177.6356858493
  0
ARC
  5
390
330
1F
100
AcDbEntity
  8
0
  6
Continuous
 62
     7
370
    25
100
AcDbCircle
 10
0.0852516271
 20
0.1259471126
 30
0.0
 40
0.00004
100
AcDbArc
 50
269.0
 51
357.6356858494
  0
LINE
  5
391
330
1F
100
AcDbEntity
  8
0
  6
Continuous
 62
     7
370
    25
100
AcDbLine
 10
0.0852509291
 20
0.1259071196
 30
0.0
 11
0.0833107837
 21
0.1259409846
 31
0.0
  0
LINE
  5
392
330
1F
100
AcDbEntity
  8
0
  6
Continuous
 62
     7
370
    25
100
AcDbLine
 10
0.085065778
 20
0.1289807213
 30
0.0
 11
0.0860651787
 21
0.1273174394
 31
0.0
  0
ARC
  5
393
330
1F
100
AcDbEntity
  8
0
  6
Continuous
 62
     7
370
    25
100
AcDbCircle
 10
0.0886087668
 20
0.1259471126
 30
0.0
 40
0.00004
100
AcDbArc
 50
182.3643141506
 51
271.0
  0
ARC
  5
394
330
1F
100
AcDbEntity
  8
0
  6
Continuous
 62
     7
370
    25
100
AcDbCircle
 10
0.086930197
 20
0.1258778069
 30
0.0
 40
0.00164
100
AcDbArc
 50
2.3643141507
 51
57.6356858493
  0
ARC
  5
395
330
1F
100
AcDbEntity
  8
0
  6
Continuous
 62
     7
370
    25
100
AcDbCircle
 10
0.0878295023
 20
0.1272968382
 30
0.0
 40
0.00004
100
AcDbArc
 50
149.0
 51
237.6356858493
  0
LINE
  5
396
330
1F
100
AcDbEntity
  8
0
  6
Continuous
 62
     7
370
    25
100
AcDbLine
 10
0.0877952154
 20
0.1273174394
 30
0.0
 11
0.088794616
 21
0.1289807213
 31
0.0
  0
LINE
  5
397
330
1F
100
AcDbEntity
  8
0
  6
Continuous
 62
     7
370
    25
100
AcDbLine
 10
0.0905496092
 20
0.1259409846
 30
0.0
 11
0.0886094649
 21
0.1259071196
 31
0.0
  0
ARC
  5
398
330
1F
100
AcDbEntity
  8
0
  6
Continuous
 62
     7
370
    25
100
AcDbCircle
 10
0.0852516271
 20
0.1258085013
 30
0.0
 40
0.00004
100
AcDbArc
 50
2.3643141507
 51
91.0
  0
ARC
  5
399
330
1F
100
AcDbEntity
  8
0
  6
Continuous
 62
     7
370
    25
100
AcDbCircle
 10
0.086930197
 20
0.1258778069
 30
0.0
 40
0.00164
100
AcDbArc
 50
182.3643141507
 51
237.6356858493
  0
ARC
  5
39A
330
1F
100
AcDbEntity
  8
0
  6
Continuous
 62
     7
370
    25
100
AcDbCircle
 10
0.0860308916
 20
0.1244587756
 30
0.0
 40
0.00004
100
AcDbArc
 50
329.0
 51
57.6356858493
  0
LINE
  5
39B
330
1F
100
AcDbEntity
  8
0
  6
Continuous
 62
     7
370
    25
100
AcDbLine
 10
0.0860651787
 20
0.1244381751
 30
0.0
 11
0.085065778
 21
0.1227748932
 31
0.0
  0
LINE
  5
39C
330
1F
100
AcDbEntity
  8
0
  6
Continuous
 62
     7
370
    25
100
AcDbLine
 10
0.0833107837
 20
0.1258146299
 30
0.0
 11
0.0852509291
 21
0.1258484949
 31
0.0
  0
CIRCLE
  5
39D
330
1F
100
AcDbEntity
  8
0
  6
Continuous
 62
     7
370
    25
100
AcDbCircle
 10
0.086930197
 20
0.1258778069
 30
0.0
 40
0.0016
  0
CIRCLE
  5
39E
330
1F
100
AcDbEntity
  8
0
  6
Continuous
 62
     7
370
    25
100
AcDbCircle
 10
0.0872962224
 20
0.1245117815
 30
0.0
 40
0.000173
  0
CIRCLE
  5
39F
330
1F
100
AcDbEntity
  8
0
  6
Continuous
 62
     7
370
    25
100
AcDbCircle
 10
0.0882962224
 20
0.1262438323
 30
0.0
 40
0.000173
  0
CIRCLE
  5
3A0
330
1F
100
AcDbEntity
  8
0
  6
Continuous
 62
     7
370
    25
100
AcDbCircle
 10
0.0865641716
 20
0.1272438323
 30
0.0
 40
0.000173
  0
CIRCLE
  5
3A1
330
1F
100
AcDbEntity
  8
0
  6
Continuous
 62
     7
370
    25
100
AcDbCircle
 10
0.0855641716
 20
0.1255117815
 30
0.0
 40
0.000173
  0
ARC
  5
3A2
330
1F
100
AcDbEntity
  8
0
  6
Continuous
 62
     7
370
    25
100
AcDbCircle
 10
0.0861509325
 20
0.12438947
 30
0.0
 40
0.00004
100
AcDbArc
 50
62.3643141507
 51
151.0
  0
ARC
  5
3A3
330
1F
100
AcDbEntity
  8
0
  6
Continuous
 62
     7
370
    25
100
AcDbCircle
 10
0.086930197
 20
0.1258778069
 30
0.0
 40
0.00164
100
AcDbArc
 50
242.3643141507
 51
297.6356858493
  0
ARC
  5
3A4
330
1F
100
AcDbEntity
  8
0
  6
Continuous
 62
     7
370
    25
100
AcDbCircle
 10
0.0877094614
 20
0.12438947
 30
0.0
 40
0.00004
100
AcDbArc
 50
29.0
 51
117.6356858493
  0
LINE
  5
3A5
330
1F
100
AcDbEntity
  8
0
  6
Continuous
 62
     7
370
    25
100
AcDbLine
 10
0.0877444465
 20
0.1244088615
 30
0.0
 11
0.0886851902
 21
0.1227117146
 31
0.0
  0
LINE
  5
3A6
330
1F
100
AcDbEntity
  8
0
  6
Continuous
 62
     7
370
    25
100
AcDbLine
 10
0.0851752026
 20
0.1227117146
 30
0.0
 11
0.0861159475
 21
0.1244088615
 31
0.0
  0
ARC
  5
3A7
330
1F
100
AcDbEntity
  8
0
  6
Continuous
 62
     7
370
    25
100
AcDbCircle
 10
0.0878295023
 20
0.1244587756
 30
0.0
 40
0.00004
100
AcDbArc
 50
122.3643141507
 51
211.0
  0
ARC
  5
3A8
330
1F
100
AcDbEntity
  8
0
  6
Continuous
 62
     7
370
    25
100
AcDbCircle
 10
0.086930197
 20
0.1258778069
 30
0.0
 40
0.00164
100
AcDbArc
 50
302.3643141507
 51
357.6356858493
  0
ARC
  5
3A9
330
1F
100
AcDbEntity
  8
0
  6
Continuous
 62
     7
370
    25
100
AcDbCircle
 10
0.0886087668
 20
0.1258085013
 30
0.0
 40
0.00004
100
AcDbArc
 50
89.0
 51
177.6356858494
  0
LINE
  5
3AA
330
1F
100
AcDbEntity
  8
0
  6
Continuous
 62
     7
370
    25
100
AcDbLine
 10
0.0886094649
 20
0.1258484949
 30
0.0
 11
0.0905496092
 21
0.1258146299
 31
0.0
  0
LINE
  5
3AB
330
1F
100
AcDbEntity
  8
0
  6
Continuous
 62
     7
370
    25
100
AcDbLine
 10
0.088794616
 20
0.1227748932
 30
0.0
 11
0.0877952154
 21
0.1244381751
 31
0.0
  0
ARC
  5
3AC
330
1F
100
AcDbEntity
  8
0
  6
Continuous
 62
     7
370
    25
100
AcDbCircle
 10
0.086930197
 20
0.1258778069
 30
0.0
 40
0.004
100
AcDbArc
 50
119.0
 51
121.0
  0
ARC
  5
3AD
330
1F
100
AcDbEntity
  8
0
  6
Continuous
 62
     7
370
    25
100
AcDbCircle
 10
0.086930197
 20
0.1258778069
 30
0.0
 40
0.004
100
AcDbArc
 50
59.0
 51
61.0
  0
ARC
  5
3AE
330
1F
100
AcDbEntity
  8
0
  6
Continuous
 62
     7
370
    25
100
AcDbCircle
 10
0.086930197
 20
0.1258778069
 30
0.0
 40
0.004
100
AcDbArc
 50
359.0
 51
1.0
  0
ARC
  5
3AF
330
1F
100
AcDbEntity
  8
0
  6
Continuous
 62
     7
370
    25
100
AcDbCircle
 10
0.086930197
 20
0.1258778069
 30
0.0
 40
0.004
100
AcDbArc
 50
299.0
 51
301.0
  0
ARC
  5
3B0
330
1F
100
AcDbEntity
  8
0
  6
Continuous
 62
     7
370
    25
100
AcDbCircle
 10
0.086930197
 20
0.1258778069
 30
0.0
 40
0.004
100
AcDbArc
 50
239.0
 51
241.0
  0
ARC
  5
3B1
330
1F
100
AcDbEntity
  8
0
  6
Continuous
 62
     7
370
    25
100
AcDbCircle
 10
0.086930197
 20
0.1258778069
 30
0.0
 40
0.004
100
AcDbArc
 50
179.0
 51
181.0
  0
ARC
  5
3B2
330
1F
100
AcDbEntity
  8
0
  6
Continuous
 62
     7
370
    25
100
AcDbCircle
 10
0.1260225816
 20
0.1278778069
 30
0.0
 40
0.0019430400324355
100
AcDbArc
 50
34.584660462
 51
265.415339538
  0
LINE
  5
3B3
330
1F
100
AcDbEntity
  8
0
  6
Continuous
 62
     7
370
    25
100
AcDbLine
 10
0.125867271
 20
0.1259409846
 30
0.0
 11
0.1254872926
 21
0.1259476174
 31
0.0
  0
ARC
  5
3B4
330
1F
100
AcDbEntity
  8
0
  6
Continuous
 62
     7
370
    25
100
AcDbCircle
 10
0.1260225816
 20
0.1278778069
 30
0.0
 40
0.0020030400324356
100
AcDbArc
 50
45.5
 51
254.5
  0
LINE
  5
3B5
330
1F
100
AcDbEntity
  8
0
  6
Continuous
 62
     7
370
    25
100
AcDbLine
 10
0.1274265309
 20
0.129306475
 30
0.0
 11
0.1276222642
 21
0.1289807213
 31
0.0
  0
ARC
  5
3B6
330
1F
100
AcDbEntity
  8
0
  6
Continuous
 62
     7
370
    25
100
AcDbCircle
 10
0.1260225816
 20
0.1238778069
 30
0.0
 40
0.0019430400324355
100
AcDbArc
 50
94.584660462
 51
325.415339538
  0
LINE
  5
3B7
330
1F
100
AcDbEntity
  8
0
  6
Continuous
 62
     7
370
    25
100
AcDbLine
 10
0.1276222642
 20
0.1227748932
 30
0.0
 11
0.1274265309
 21
0.1224491395
 31
0.0
  0
ARC
  5
3B8
330
1F
100
AcDbEntity
  8
0
  6
Continuous
 62
     7
370
    25
100
AcDbCircle
 10
0.1260225816
 20
0.1238778069
 30
0.0
 40
0.0020030400324355
100
AcDbArc
 50
105.5
 51
314.5
  0
LINE
  5
3B9
330
1F
100
AcDbEntity
  8
0
  6
Continuous
 62
     7
370
    25
100
AcDbLine
 10
0.1254872926
 20
0.1258079971
 30
0.0
 11
0.125867271
 21
0.1258146299
 31
0.0
  0
ARC
  5
3BA
330
1F
100
AcDbEntity
  8
0
  6
Continuous
 62
     7
370
    25
100
AcDbCircle
 10
0.1294866832
 20
0.1218778069
 30
0.0
 40
0.0019430400324355
100
AcDbArc
 50
154.584660462
 51
25.415339538
  0
LINE
  5
3BB
330
1F
100
AcDbEntity
  8
0
  6
Continuous
 62
     7
370
    25
100
AcDbLine
 10
0.1312416776
 20
0.1227117146
 30
0.0
 11
0.1314259227
 21
0.1223793257
 31
0.0
  0
ARC
  5
3BC
330
1F
100
AcDbEntity
  8
0
  6
Continuous
 62
     7
370
    25
100
AcDbCircle
 10
0.1294866832
 20
0.1218778069
 30
0.0
 40
0.0020030400324355
100
AcDbArc
 50
165.5
 51
14.5
  0
LINE
  5
3BD
330
1F
100
AcDbEntity
  8
0
  6
Continuous
 62
     7
370
    25
100
AcDbLine
 10
0.1275474449
 20
0.1223793257
 30
0.0
 11
0.12773169
 21
0.1227117146
 31
0.0
  0
ARC
  5
3BE
330
1F
100
AcDbEntity
  8
0
  6
Continuous
 62
     7
370
    25
100
AcDbCircle
 10
0.1294866832
 20
0.1298778069
 30
0.0
 40
0.0019430400324355
100
AcDbArc
 50
334.584660462
 51
205.415339538
  0
LINE
  5
3BF
330
1F
100
AcDbEntity
  8
0
  6
Continuous
 62
     7
370
    25
100
AcDbLine
 10
0.12773169
 20
0.1290438999
 30
0.0
 11
0.1275474449
 21
0.1293762864
 31
0.0
  0
ARC
  5
3C0
330
1F
100
AcDbEntity
  8
0
  6
Continuous
 62
     7
370
    25
100
AcDbCircle
 10
0.1294866832
 20
0.1298778069
 30
0.0
 40
0.0020030400324355
100
AcDbArc
 50
345.5
 51
194.5
  0
LINE
  5
3C1
330
1F
100
AcDbEntity
  8
0
  6
Continuous
 62
     7
370
    25
100
AcDbLine
 10
0.1314259227
 20
0.1293762864
 30
0.0
 11
0.1312416776
 21
0.1290438999
 31
0.0
  0
ARC
  5
3C2
330
1F
100
AcDbEntity
  8
0
  6
Continuous
 62
     7
370
    25
100
AcDbCircle
 10
0.1329507848
 20
0.1278778069
 30
0.0
 40
0.0019430400324355
100
AcDbArc
 50
274.584660462
 51
145.415339538
  0
LINE
  5
3C3
330
1F
100
AcDbEntity
  8
0
  6
Continuous
 62
     7
370
    25
100
AcDbLine
 10
0.1313511021
 20
0.1289807213
 30
0.0
 11
0.1315468366
 21
0.129306475
 31
0.0
  0
ARC
  5
3C4
330
1F
100
AcDbEntity
  8
0
  6
Continuous
 62
     7
370
    25
100
AcDbCircle
 10
0.1329507848
 20
0.1278778069
 30
0.0
 40
0.0020030400324356
100
AcDbArc
 50
285.5
 51
134.5
  0
LINE
  5
3C5
330
1F
100
AcDbEntity
  8
0
  6
Continuous
 62
     7
370
    25
100
AcDbLine
 10
0.1334860738
 20
0.1259476174
 30
0.0
 11
0.1331060965
 21
0.1259409846
 31
0.0
  0
ARC
  5
3C6
330
1F
100
AcDbEntity
  8
0
  6
Continuous
 62
     7
370
    25
100
AcDbCircle
 10
0.1329507848
 20
0.1238778069
 30
0.0
 40
0.0019430400324355
100
AcDbArc
 50
214.584660462
 51
85.415339538
  0
LINE
  5
3C7
330
1F
100
AcDbEntity
  8
0
  6
Continuous
 62
     7
370
    25
100
AcDbLine
 10
0.1331060965
 20
0.1258146299
 30
0.0
 11
0.1334860738
 21
0.1258079971
 31
0.0
  0
ARC
  5
3C8
330
1F
100
AcDbEntity
  8
0
  6
Continuous
 62
     7
370
    25
100
AcDbCircle
 10
0.1329507848
 20
0.1238778069
 30
0.0
 40
0.0020030400324355
100
AcDbArc
 50
225.5
 51
74.5
  0
LINE
  5
3C9
330
1F
100
AcDbEntity
  8
0
  6
Continuous
 62
     7
370
    25
100
AcDbLine
 10
0.1315468366
 20
0.1224491395
 30
0.0
 11
0.1313511021
 21
0.1227748932
 31
0.0
  0
ARC
  5
3CA
330
1F
100
AcDbEntity
  8
0
  6
Continuous
 62
     7
370
    25
100
AcDbCircle
 10
0.1285873779
 20
0.1272968382
 30
0.0
 40
0.00004
100
AcDbArc
 50
302.3643141507
 51
31.0
  0
ARC
  5
3CB
330
1F
100
AcDbEntity
  8
0
  6
Continuous
 62
     7
370
    25
100
AcDbCircle
 10
0.1294866832
 20
0.1258778069
 30
0.0
 40
0.00164
100
AcDbArc
 50
122.3643141507
 51
177.6356858493
  0
ARC
  5
3CC
330
1F
100
AcDbEntity
  8
0
  6
Continuous
 62
     7
370
    25
100
AcDbCircle
 10
0.1278081134
 20
0.1259471126
 30
0.0
 40
0.00004
100
AcDbArc
 50
269.0
 51
357.6356858494
  0
LINE
  5
3CD
330
1F
100
AcDbEntity
  8
0
  6
Continuous
 62
     7
370
    25
100
AcDbLine
 10
0.1278074153
 20
0.1259071196
 30
0.0
 11
0.125867271
 21
0.1259409846
 31
0.0
  0
LINE
  5
3CE
330
1F
100
AcDbEntity
  8
0
  6
Continuous
 62
     7
370
    25
100
AcDbLine
 10
0.1276222642
 20
0.1289807213
 30
0.0
 11
0.1286216648
 21
0.1273174394
 31
0.0
  0
ARC
  5
3CF
330
1F
100
AcDbEntity
  8
0
  6
Continuous
 62
     7
370
    25
100
AcDbCircle
 10
0.1278081134
 20
0.1258085013
 30
0.0
 40
0.00004
100
AcDbArc
 50
2.3643141507
 51
91.0
  0
ARC
  5
3D0
330
1F
100
AcDbEntity
  8
0
  6
Continuous
 62
     7
370
    25
100
AcDbCircle
 10
0.1294866832
 20
0.1258778069
 30
0.0
 40
0.00164
100
AcDbArc
 50
182.3643141507
 51
237.6356858493
  0
ARC
  5
3D1
330
1F
100
AcDbEntity
  8
0
  6
Continuous
 62
     7
370
    25
100
AcDbCircle
 10
0.1285873779
 20
0.1244587756
 30
0.0
 40
0.00004
100
AcDbArc
 50
329.0
 51
57.6356858493
  0
LINE
  5
3D2
330
1F
100
AcDbEntity
  8
0
  6
Continuous
 62
     7
370
    25
100
AcDbLine
 10
0.1286216648
 20
0.1244381751
 30
0.0
 11
0.1276222642
 21
0.1227748932
 31
0.0
  0
LINE
  5
3D3
330
1F
100
AcDbEntity
  8
0
  6
Continuous
 62
     7
370
    25
100
AcDbLine
 10
0.125867271
 20
0.1258146299
 30
0.0
 11
0.1278074153
 21
0.1258484949
 31
0.0
  0
ARC
  5
3D4
330
1F
100
AcDbEntity
  8
0
  6
Continuous
 62
     7
370
    25
100
AcDbCircle
 10
0.1302659477
 20
0.1273661439
 30
0.0
 40
0.00004
100
AcDbArc
 50
242.3643141507
 51
331.0
  0
ARC
  5
3D5
330
1F
100
AcDbEntity
  8
0
  6
Continuous
 62
     7
370
    25
100
AcDbCircle
 10
0.1294866832
 20
0.1258778069
 30
0.0
 40
0.00164
100
AcDbArc
 50
62.3643141507
 51
117.6356858493
  0
ARC
  5
3D6
330
1F
100
AcDbEntity
  8
0
  6
Continuous
 62
     7
370
    25
100
AcDbCircle
 10
0.1287074187
 20
0.1273661439
 30
0.0
 40
0.00004
100
AcDbArc
 50
209.0
 51
297.6356858493
  0
LINE
  5
3D7
330
1F
100
AcDbEntity
  8
0
  6
Continuous
 62
     7
370
    25
100
AcDbLine
 10
0.1286724336
 20
0.1273467506
 30
0.0
 11
0.12773169
 21
0.1290438999
 31
0.0
  0
LINE
  5
3D8
330
1F
100
AcDbEntity
  8
0
  6
Continuous
 62
     7
370
    25
100
AcDbLine
 10
0.1312416776
 20
0.1290438999
 30
0.0
 11
0.1303009327
 21
0.1273467506
 31
0.0
  0
ARC
  5
3D9
330
1F
100
AcDbEntity
  8
0
  6
Continuous
 62
     7
370
    25
100
AcDbCircle
 10
0.1287074187
 20
0.12438947
 30
0.0
 40
0.00004
100
AcDbArc
 50
62.3643141507
 51
151.0
  0
ARC
  5
3DA
330
1F
100
AcDbEntity
  8
0
  6
Continuous
 62
     7
370
    25
100
AcDbCircle
 10
0.1294866832
 20
0.1258778069
 30
0.0
 40
0.00164
100
AcDbArc
 50
242.3643141507
 51
297.6356858493
  0
ARC
  5
3DB
330
1F
100
AcDbEntity
  8
0
  6
Continuous
 62
     7
370
    25
100
AcDbCircle
 10
0.1302659477
 20
0.12438947
 30
0.0
 40
0.00004
100
AcDbArc
 50
29.0
 51
117.6356858493
  0
LINE
  5
3DC
330
1F
100
AcDbEntity
  8
0
  6
Continuous
 62
     7
370
    25
100
AcDbLine
 10
0.1303009327
 20
0.1244088615
 30
0.0
 11
0.1312416776
 21
0.1227117146
 31
0.0
  0
LINE
  5
3DD
330
1F
100
AcDbEntity
  8
0
  6
Continuous
 62
     7
370
    25
100
AcDbLine
 10
0.12773169
 20
0.1227117146
 30
0.0
 11
0.1286724336
 21
0.1244088615
 31
0.0
  0
CIRCLE
  5
3DE
330
1F
100
AcDbEntity
  8
0
  6
Continuous
 62
     7
370
    25
100
AcDbCircle
 10
0.1294866832
 20
0.1258778069
 30
0.0
 40
0.0016
  0
CIRCLE
  5
3DF
330
1F
100
AcDbEntity
  8
0
  6
Continuous
 62
     7
370
    25
100
AcDbCircle
 10
0.1308527086
 20
0.1255117815
 30
0.0
 40
0.000173
  0
CIRCLE
  5
3E0
330
1F
100
AcDbEntity
  8
0
  6
Continuous
 62
     7
370
    25
100
AcDbCircle
 10
0.1298527086
 20
0.1272438323
 30
0.0
 40
0.000173
  0
CIRCLE
  5
3E1
330
1F
100
AcDbEntity
  8
0
  6
Continuous
 62
     7
370
    25
100
AcDbCircle
 10
0.1281206578
 20
0.1262438323
 30
0.0
 40
0.000173
  0
CIRCLE
  5
3E2
330
1F
100
AcDbEntity
  8
0
  6
Continuous
 62
     7
370
    25
100
AcDbCircle
 10
0.1291206578
 20
0.1245117815
 30
0.0
 40
0.000173
  0
ARC
  5
3E3
330
1F
100
AcDbEntity
  8
0
  6
Continuous
 62
     7
370
    25
100
AcDbCircle
 10
0.1303859886
 20
0.1244587756
 30
0.0
 40
0.00004
100
AcDbArc
 50
122.3643141507
 51
211.0
  0
ARC
  5
3E4
330
1F
100
AcDbEntity
  8
0
  6
Continuous
 62
     7
370
    25
100
AcDbCircle
 10
0.1311652531
 20
0.1258085013
 30
0.0
 40
0.00004
100
AcDbArc
 50
89.0
 51
177.6356858493
  0
ARC
  5
3E5
330
1F
100
AcDbEntity
  8
0
  6
Continuous
 62
     7
370
    25
100
AcDbCircle
 10
0.1294866832
 20
0.1258778069
 30
0.0
 40
0.00164
100
AcDbArc
 50
302.3643141507
 51
357.6356858493
  0
LINE
  5
3E6
330
1F
100
AcDbEntity
  8
0
  6
Continuous
 62
     7
370
    25
100
AcDbLine
 10
0.131165951
 20
0.1258484949
 30
0.0
 11
0.1331060965
 21
0.1258146299
 31
0.0
  0
LINE
  5
3E7
330
1F
100
AcDbEntity
  8
0
  6
Continuous
 62
     7
370
    25
100
AcDbLine
 10
0.1313511021
 20
0.1227748932
 30
0.0
 11
0.1303517015
 21
0.1244381751
 31
0.0
  0
ARC
  5
3E8
330
1F
100
AcDbEntity
  8
0
  6
Continuous
 62
     7
370
    25
100
AcDbCircle
 10
0.1311652531
 20
0.1259471126
 30
0.0
 40
0.00004
100
AcDbArc
 50
182.3643141506
 51
271.0
  0
ARC
  5
3E9
330
1F
100
AcDbEntity
  8
0
  6
Continuous
 62
     7
370
    25
100
AcDbCircle
 10
0.1294866832
 20
0.1258778069
 30
0.0
 40
0.00164
100
AcDbArc
 50
2.3643141507
 51
57.6356858493
  0
ARC
  5
3EA
330
1F
100
AcDbEntity
  8
0
  6
Continuous
 62
     7
370
    25
100
AcDbCircle
 10
0.1303859886
 20
0.1272968382
 30
0.0
 40
0.00004
100
AcDbArc
 50
149.0
 51
237.6356858493
  0
LINE
  5
3EB
330
1F
100
AcDbEntity
  8
0
  6
Continuous
 62
     7
370
    25
100
AcDbLine
 10
0.1303517015
 20
0.1273174394
 30
0.0
 11
0.1313511021
 21
0.1289807213
 31
0.0
  0
LINE
  5
3EC
330
1F
100
AcDbEntity
  8
0
  6
Continuous
 62
     7
370
    25
100
AcDbLine
 10
0.1331060965
 20
0.1259409846
 30
0.0
 11
0.131165951
 21
0.1259071196
 31
0.0
  0
ARC
  5
3ED
330
1F
100
AcDbEntity
  8
0
  6
Continuous
 62
     7
370
    25
100
AcDbCircle
 10
0.1294866832
 20
0.1258778069
 30
0.0
 40
0.004
100
AcDbArc
 50
179.0
 51
181.0
  0
ARC
  5
3EE
330
1F
100
AcDbEntity
  8
0
  6
Continuous
 62
     7
370
    25
100
AcDbCircle
 10
0.1294866832
 20
0.1258778069
 30
0.0
 40
0.004
100
AcDbArc
 50
119.0
 51
121.0
  0
ARC
  5
3EF
330
1F
100
AcDbEntity
  8
0
  6
Continuous
 62
     7
370
    25
100
AcDbCircle
 10
0.1294866832
 20
0.1258778069
 30
0.0
 40
0.004
100
AcDbArc
 50
59.0
 51
61.0
  0
ARC
  5
3F0
330
1F
100
AcDbEntity
  8
0
  6
Continuous
 62
     7
370
    25
100
AcDbCircle
 10
0.1294866832
 20
0.1258778069
 30
0.0
 40
0.004
100
AcDbArc
 50
359.0
 51
1.0
  0
ARC
  5
3F1
330
1F
100
AcDbEntity
  8
0
  6
Continuous
 62
     7
370
    25
100
AcDbCircle
 10
0.1294866832
 20
0.1258778069
 30
0.0
 40
0.004
100
AcDbArc
 50
299.0
 51
301.0
  0
ARC
  5
3F2
330
1F
100
AcDbEntity
  8
0
  6
Continuous
 62
     7
370
    25
100
AcDbCircle
 10
0.1294866832
 20
0.1258778069
 30
0.0
 40
0.004
100
AcDbArc
 50
239.0
 51
241.0
  0
ARC
  5
3F3
330
1F
100
AcDbEntity
  8
0
  6
Continuous
 62
     7
370
    25
100
AcDbCircle
 10
0.1473008247
 20
0.1607328051
 30
0.0
 40
0.0019430400324355
100
AcDbArc
 50
94.584660462
 51
325.415339538
  0
LINE
  5
3F4
330
1F
100
AcDbEntity
  8
0
  6
Continuous
 62
     7
370
    25
100
AcDbLine
 10
0.1489005072
 20
0.1596298901
 30
0.0
 11
0.1487047751
 21
0.1593041358
 31
0.0
  0
ARC
  5
3F5
330
1F
100
AcDbEntity
  8
0
  6
Continuous
 62
     7
370
    25
100
AcDbCircle
 10
0.1473008247
 20
0.1607328051
 30
0.0
 40
0.0020030400324355
100
AcDbArc
 50
105.5
 51
314.5
  0
LINE
  5
3F6
330
1F
100
AcDbEntity
  8
0
  6
Continuous
 62
     7
370
    25
100
AcDbLine
 10
0.1467655356
 20
0.1626629955
 30
0.0
 11
0.1471455129
 21
0.162669628
 31
0.0
  0
ARC
  5
3F7
330
1F
100
AcDbEntity
  8
0
  6
Continuous
 62
     7
370
    25
100
AcDbCircle
 10
0.1507649264
 20
0.1587328051
 30
0.0
 40
0.0019430400324355
100
AcDbArc
 50
154.584660462
 51
25.415339538
  0
LINE
  5
3F8
330
1F
100
AcDbEntity
  8
0
  6
Continuous
 62
     7
370
    25
100
AcDbLine
 10
0.1525199206
 20
0.1595667131
 30
0.0
 11
0.1527041657
 21
0.1592343263
 31
0.0
  0
ARC
  5
3F9
330
1F
100
AcDbEntity
  8
0
  6
Continuous
 62
     7
370
    25
100
AcDbCircle
 10
0.1507649264
 20
0.1587328051
 30
0.0
 40
0.0020030400324355
100
AcDbArc
 50
165.5
 51
14.5
  0
LINE
  5
3FA
330
1F
100
AcDbEntity
  8
0
  6
Continuous
 62
     7
370
    25
100
AcDbLine
 10
0.1488256867
 20
0.1592343263
 30
0.0
 11
0.1490099318
 21
0.1595667131
 31
0.0
  0
ARC
  5
3FB
330
1F
100
AcDbEntity
  8
0
  6
Continuous
 62
     7
370
    25
100
AcDbCircle
 10
0.154229028
 20
0.1607328051
 30
0.0
 40
0.0019430400324355
100
AcDbArc
 50
214.584660462
 51
85.415339538
  0
LINE
  5
3FC
330
1F
100
AcDbEntity
  8
0
  6
Continuous
 62
     7
370
    25
100
AcDbLine
 10
0.1543843396
 20
0.162669628
 30
0.0
 11
0.1547643168
 21
0.1626629955
 31
0.0
  0
ARC
  5
3FD
330
1F
100
AcDbEntity
  8
0
  6
Continuous
 62
     7
370
    25
100
AcDbCircle
 10
0.154229028
 20
0.1607328051
 30
0.0
 40
0.0020030400324355
100
AcDbArc
 50
225.5
 51
74.5
  0
LINE
  5
3FE
330
1F
100
AcDbEntity
  8
0
  6
Continuous
 62
     7
370
    25
100
AcDbLine
 10
0.1528250773
 20
0.1593041358
 30
0.0
 11
0.1526293452
 21
0.1596298901
 31
0.0
  0
ARC
  5
3FF
330
1F
100
AcDbEntity
  8
0
  6
Continuous
 62
     7
370
    25
100
AcDbCircle
 10
0.1473008247
 20
0.1647328051
 30
0.0
 40
0.0019430400324356
100
AcDbArc
 50
34.584660462
 51
265.415339538
  0
LINE
  5
400
330
1F
100
AcDbEntity
  8
0
  6
Continuous
 62
     7
370
    25
100
AcDbLine
 10
0.1471455129
 20
0.1627959822
 30
0.0
 11
0.1467655356
 21
0.1628026147
 31
0.0
  0
ARC
  5
401
330
1F
100
AcDbEntity
  8
0
  6
Continuous
 62
     7
370
    25
100
AcDbCircle
 10
0.1473008247
 20
0.1647328051
 30
0.0
 40
0.0020030400324355
100
AcDbArc
 50
45.5
 51
254.5
  0
LINE
  5
402
330
1F
100
AcDbEntity
  8
0
  6
Continuous
 62
     7
370
    25
100
AcDbLine
 10
0.1487047751
 20
0.1661614744
 30
0.0
 11
0.1489005072
 21
0.1658357201
 31
0.0
  0
ARC
  5
403
330
1F
100
AcDbEntity
  8
0
  6
Continuous
 62
     7
370
    25
100
AcDbCircle
 10
0.154229028
 20
0.1647328051
 30
0.0
 40
0.0019430400324355
100
AcDbArc
 50
274.584660462
 51
145.415339538
  0
LINE
  5
404
330
1F
100
AcDbEntity
  8
0
  6
Continuous
 62
     7
370
    25
100
AcDbLine
 10
0.1526293452
 20
0.1658357201
 30
0.0
 11
0.1528250773
 21
0.1661614744
 31
0.0
  0
ARC
  5
405
330
1F
100
AcDbEntity
  8
0
  6
Continuous
 62
     7
370
    25
100
AcDbCircle
 10
0.154229028
 20
0.1647328051
 30
0.0
 40
0.0020030400324356
100
AcDbArc
 50
285.5
 51
134.5
  0
LINE
  5
406
330
1F
100
AcDbEntity
  8
0
  6
Continuous
 62
     7
370
    25
100
AcDbLine
 10
0.1547643168
 20
0.1628026147
 30
0.0
 11
0.1543843396
 21
0.1627959822
 31
0.0
  0
ARC
  5
407
330
1F
100
AcDbEntity
  8
0
  6
Continuous
 62
     7
370
    25
100
AcDbCircle
 10
0.1507649264
 20
0.1667328051
 30
0.0
 40
0.0019430400324355
100
AcDbArc
 50
334.584660462
 51
205.415339538
  0
LINE
  5
408
330
1F
100
AcDbEntity
  8
0
  6
Continuous
 62
     7
370
    25
100
AcDbLine
 10
0.1490099318
 20
0.1658988972
 30
0.0
 11
0.1488256867
 21
0.166231284
 31
0.0
  0
ARC
  5
409
330
1F
100
AcDbEntity
  8
0
  6
Continuous
 62
     7
370
    25
100
AcDbCircle
 10
0.1507649264
 20
0.1667328051
 30
0.0
 40
0.0020030400324356
100
AcDbArc
 50
345.5
 51
194.5
  0
LINE
  5
40A
330
1F
100
AcDbEntity
  8
0
  6
Continuous
 62
     7
370
    25
100
AcDbLine
 10
0.1527041657
 20
0.166231284
 30
0.0
 11
0.1525199206
 21
0.1658988972
 31
0.0
  0
ARC
  5
40B
330
1F
100
AcDbEntity
  8
0
  6
Continuous
 62
     7
370
    25
100
AcDbCircle
 10
0.1490863565
 20
0.1626634995
 30
0.0
 40
0.00004
100
AcDbArc
 50
2.3643141507
 51
91.0
  0
ARC
  5
40C
330
1F
100
AcDbEntity
  8
0
  6
Continuous
 62
     7
370
    25
100
AcDbCircle
 10
0.1507649264
 20
0.1627328051
 30
0.0
 40
0.00164
100
AcDbArc
 50
182.3643141507
 51
237.6356858493
  0
ARC
  5
40D
330
1F
100
AcDbEntity
  8
0
  6
Continuous
 62
     7
370
    25
100
AcDbCircle
 10
0.149865621
 20
0.1613137738
 30
0.0
 40
0.00004
100
AcDbArc
 50
329.0
 51
57.6356858493
  0
LINE
  5
40E
330
1F
100
AcDbEntity
  8
0
  6
Continuous
 62
     7
370
    25
100
AcDbLine
 10
0.1498999055
 20
0.1612931724
 30
0.0
 11
0.1489005072
 21
0.1596298901
 31
0.0
  0
LINE
  5
40F
330
1F
100
AcDbEntity
  8
0
  6
Continuous
 62
     7
370
    25
100
AcDbLine
 10
0.1471455129
 20
0.162669628
 30
0.0
 11
0.1490856583
 21
0.1627034934
 31
0.0
  0
ARC
  5
410
330
1F
100
AcDbEntity
  8
0
  6
Continuous
 62
     7
370
    25
100
AcDbCircle
 10
0.1499856619
 20
0.1612444682
 30
0.0
 40
0.00004
100
AcDbArc
 50
62.3643141506
 51
151.0
  0
ARC
  5
411
330
1F
100
AcDbEntity
  8
0
  6
Continuous
 62
     7
370
    25
100
AcDbCircle
 10
0.1507649264
 20
0.1627328051
 30
0.0
 40
0.00164
100
AcDbArc
 50
242.3643141507
 51
297.6356858493
  0
ARC
  5
412
330
1F
100
AcDbEntity
  8
0
  6
Continuous
 62
     7
370
    25
100
AcDbCircle
 10
0.1515441908
 20
0.1612444682
 30
0.0
 40
0.00004
100
AcDbArc
 50
29.0
 51
117.6356858493
  0
LINE
  5
413
330
1F
100
AcDbEntity
  8
0
  6
Continuous
 62
     7
370
    25
100
AcDbLine
 10
0.1515791734
 20
0.1612638606
 30
0.0
 11
0.1525199206
 21
0.1595667131
 31
0.0
  0
LINE
  5
414
330
1F
100
AcDbEntity
  8
0
  6
Continuous
 62
     7
370
    25
100
AcDbLine
 10
0.1490099318
 20
0.1595667131
 30
0.0
 11
0.1499506791
 21
0.1612638606
 31
0.0
  0
ARC
  5
415
330
1F
100
AcDbEntity
  8
0
  6
Continuous
 62
     7
370
    25
100
AcDbCircle
 10
0.149865621
 20
0.1641518364
 30
0.0
 40
0.00004
100
AcDbArc
 50
302.3643141506
 51
31.0
  0
ARC
  5
416
330
1F
100
AcDbEntity
  8
0
  6
Continuous
 62
     7
370
    25
100
AcDbCircle
 10
0.1507649264
 20
0.1627328051
 30
0.0
 40
0.00164
100
AcDbArc
 50
122.3643141507
 51
177.6356858493
  0
ARC
  5
417
330
1F
100
AcDbEntity
  8
0
  6
Continuous
 62
     7
370
    25
100
AcDbCircle
 10
0.1490863565
 20
0.1628021108
 30
0.0
 40
0.00004
100
AcDbArc
 50
269.0
 51
357.6356858493
  0
LINE
  5
418
330
1F
100
AcDbEntity
  8
0
  6
Continuous
 62
     7
370
    25
100
AcDbLine
 10
0.1490856583
 20
0.1627621169
 30
0.0
 11
0.1471455129
 21
0.1627959822
 31
0.0
  0
LINE
  5
419
330
1F
100
AcDbEntity
  8
0
  6
Continuous
 62
     7
370
    25
100
AcDbLine
 10
0.1489005072
 20
0.1658357201
 30
0.0
 11
0.1498999055
 21
0.1641724379
 31
0.0
  0
ARC
  5
41A
330
1F
100
AcDbEntity
  8
0
  6
Continuous
 62
     7
370
    25
100
AcDbCircle
 10
0.1516642317
 20
0.1613137738
 30
0.0
 40
0.00004
100
AcDbArc
 50
122.3643141507
 51
211.0
  0
ARC
  5
41B
330
1F
100
AcDbEntity
  8
0
  6
Continuous
 62
     7
370
    25
100
AcDbCircle
 10
0.1507649264
 20
0.1627328051
 30
0.0
 40
0.00164
100
AcDbArc
 50
302.3643141507
 51
357.6356858493
  0
ARC
  5
41C
330
1F
100
AcDbEntity
  8
0
  6
Continuous
 62
     7
370
    25
100
AcDbCircle
 10
0.1524434962
 20
0.1626634995
 30
0.0
 40
0.00004
100
AcDbArc
 50
89.0
 51
177.6356858493
  0
LINE
  5
41D
330
1F
100
AcDbEntity
  8
0
  6
Continuous
 62
     7
370
    25
100
AcDbLine
 10
0.1524441941
 20
0.1627034934
 30
0.0
 11
0.1543843396
 21
0.162669628
 31
0.0
  0
LINE
  5
41E
330
1F
100
AcDbEntity
  8
0
  6
Continuous
 62
     7
370
    25
100
AcDbLine
 10
0.1526293452
 20
0.1596298901
 30
0.0
 11
0.151629947
 21
0.1612931724
 31
0.0
  0
CIRCLE
  5
41F
330
1F
100
AcDbEntity
  8
0
  6
Continuous
 62
     7
370
    25
100
AcDbCircle
 10
0.1507649264
 20
0.1627328051
 30
0.0
 40
0.0016
  0
CIRCLE
  5
420
330
1F
100
AcDbEntity
  8
0
  6
Continuous
 62
     7
370
    25
100
AcDbCircle
 10
0.1517649264
 20
0.1637328051
 30
0.0
 40
0.000173
  0
CIRCLE
  5
421
330
1F
100
AcDbEntity
  8
0
  6
Continuous
 62
     7
370
    25
100
AcDbCircle
 10
0.1497649264
 20
0.1637328051
 30
0.0
 40
0.000173
  0
CIRCLE
  5
422
330
1F
100
AcDbEntity
  8
0
  6
Continuous
 62
     7
370
    25
100
AcDbCircle
 10
0.1497649264
 20
0.1617328051
 30
0.0
 40
0.000173
  0
CIRCLE
  5
423
330
1F
100
AcDbEntity
  8
0
  6
Continuous
 62
     7
370
    25
100
AcDbCircle
 10
0.1517649264
 20
0.1617328051
 30
0.0
 40
0.000173
  0
ARC
  5
424
330
1F
100
AcDbEntity
  8
0
  6
Continuous
 62
     7
370
    25
100
AcDbCircle
 10
0.1524434962
 20
0.1628021108
 30
0.0
 40
0.00004
100
AcDbArc
 50
182.3643141506
 51
271.0
  0
ARC
  5
425
330
1F
100
AcDbEntity
  8
0
  6
Continuous
 62
     7
370
    25
100
AcDbCircle
 10
0.1507649264
 20
0.1627328051
 30
0.0
 40
0.00164
100
AcDbArc
 50
2.3643141507
 51
57.6356858493
  0
ARC
  5
426
330
1F
100
AcDbEntity
  8
0
  6
Continuous
 62
     7
370
    25
100
AcDbCircle
 10
0.1516642317
 20
0.1641518364
 30
0.0
 40
0.00004
100
AcDbArc
 50
149.0
 51
237.6356858493
  0
LINE
  5
427
330
1F
100
AcDbEntity
  8
0
  6
Continuous
 62
     7
370
    25
100
AcDbLine
 10
0.151629947
 20
0.1641724379
 30
0.0
 11
0.1526293452
 21
0.1658357201
 31
0.0
  0
LINE
  5
428
330
1F
100
AcDbEntity
  8
0
  6
Continuous
 62
     7
370
    25
100
AcDbLine
 10
0.1543843396
 20
0.1627959822
 30
0.0
 11
0.1524441941
 21
0.1627621169
 31
0.0
  0
ARC
  5
429
330
1F
100
AcDbEntity
  8
0
  6
Continuous
 62
     7
370
    25
100
AcDbCircle
 10
0.1515441908
 20
0.1642211421
 30
0.0
 40
0.00004
100
AcDbArc
 50
242.3643141507
 51
331.0
  0
ARC
  5
42A
330
1F
100
AcDbEntity
  8
0
  6
Continuous
 62
     7
370
    25
100
AcDbCircle
 10
0.1507649264
 20
0.1627328051
 30
0.0
 40
0.00164
100
AcDbArc
 50
62.3643141507
 51
117.6356858493
  0
ARC
  5
42B
330
1F
100
AcDbEntity
  8
0
  6
Continuous
 62
     7
370
    25
100
AcDbCircle
 10
0.1499856619
 20
0.1642211421
 30
0.0
 40
0.00004
100
AcDbArc
 50
209.0
 51
297.6356858493
  0
LINE
  5
42C
330
1F
100
AcDbEntity
  8
0
  6
Continuous
 62
     7
370
    25
100
AcDbLine
 10
0.1499506791
 20
0.1642017497
 30
0.0
 11
0.1490099318
 21
0.1658988972
 31
0.0
  0
LINE
  5
42D
330
1F
100
AcDbEntity
  8
0
  6
Continuous
 62
     7
370
    25
100
AcDbLine
 10
0.1525199206
 20
0.1658988972
 30
0.0
 11
0.1515791734
 21
0.1642017497
 31
0.0
  0
ARC
  5
42E
330
1F
100
AcDbEntity
  8
0
  6
Continuous
 62
     7
370
    25
100
AcDbCircle
 10
0.1507649264
 20
0.1627328051
 30
0.0
 40
0.004
100
AcDbArc
 50
239.0
 51
241.0
  0
ARC
  5
42F
330
1F
100
AcDbEntity
  8
0
  6
Continuous
 62
     7
370
    25
100
AcDbCircle
 10
0.1507649264
 20
0.1627328051
 30
0.0
 40
0.004
100
AcDbArc
 50
179.0
 51
181.0
  0
ARC
  5
430
330
1F
100
AcDbEntity
  8
0
  6
Continuous
 62
     7
370
    25
100
AcDbCircle
 10
0.1507649264
 20
0.1627328051
 30
0.0
 40
0.004
100
AcDbArc
 50
119.0
 51
121.0
  0
ARC
  5
431
330
1F
100
AcDbEntity
  8
0
  6
Continuous
 62
     7
370
    25
100
AcDbCircle
 10
0.1507649264
 20
0.1627328051
 30
0.0
 40
0.004
100
AcDbArc
 50
59.0
 51
61.0
  0
ARC
  5
432
330
1F
100
AcDbEntity
  8
0
  6
Continuous
 62
     7
370
    25
100
AcDbCircle
 10
0.1507649264
 20
0.1627328051
 30
0.0
 40
0.004
100
AcDbArc
 50
359.0
 51
1.0
  0
ARC
  5
433
330
1F
100
AcDbEntity
  8
0
  6
Continuous
 62
     7
370
    25
100
AcDbCircle
 10
0.1507649264
 20
0.1627328051
 30
0.0
 40
0.004
100
AcDbArc
 50
299.0
 51
301.0
  0
ARC
  5
434
330
1F
100
AcDbEntity
  8
0
  6
Continuous
 62
     7
370
    25
100
AcDbCircle
 10
0.0903942986
 20
0.1975878033
 30
0.0
 40
0.0019430400324356
100
AcDbArc
 50
214.584660462
 51
85.415339538
  0
LINE
  5
435
330
1F
100
AcDbEntity
  8
0
  6
Continuous
 62
     7
370
    25
100
AcDbLine
 10
0.0905496092
 20
0.1995246256
 30
0.0
 11
0.0909295876
 21
0.1995179928
 31
0.0
  0
ARC
  5
436
330
1F
100
AcDbEntity
  8
0
  6
Continuous
 62
     7
370
    25
100
AcDbCircle
 10
0.0903942986
 20
0.1975878033
 30
0.0
 40
0.0020030400324356
100
AcDbArc
 50
225.5
 51
74.5
  0
LINE
  5
437
330
1F
100
AcDbEntity
  8
0
  6
Continuous
 62
     7
370
    25
100
AcDbLine
 10
0.0889903493
 20
0.1961591352
 30
0.0
 11
0.088794616
 21
0.1964848889
 31
0.0
  0
ARC
  5
438
330
1F
100
AcDbEntity
  8
0
  6
Continuous
 62
     7
370
    25
100
AcDbCircle
 10
0.0903942986
 20
0.2015878033
 30
0.0
 40
0.0019430400324355
100
AcDbArc
 50
274.584660462
 51
145.415339538
  0
LINE
  5
439
330
1F
100
AcDbEntity
  8
0
  6
Continuous
 62
     7
370
    25
100
AcDbLine
 10
0.088794616
 20
0.2026907171
 30
0.0
 11
0.0889903493
 21
0.2030164708
 31
0.0
  0
ARC
  5
43A
330
1F
100
AcDbEntity
  8
0
  6
Continuous
 62
     7
370
    25
100
AcDbCircle
 10
0.0903942986
 20
0.2015878033
 30
0.0
 40
0.0020030400324356
100
AcDbArc
 50
285.5
 51
134.5
  0
LINE
  5
43B
330
1F
100
AcDbEntity
  8
0
  6
Continuous
 62
     7
370
    25
100
AcDbLine
 10
0.0909295876
 20
0.1996576131
 30
0.0
 11
0.0905496092
 21
0.1996509803
 31
0.0
  0
ARC
  5
43C
330
1F
100
AcDbEntity
  8
0
  6
Continuous
 62
     7
370
    25
100
AcDbCircle
 10
0.086930197
 20
0.2035878033
 30
0.0
 40
0.0019430400324355
100
AcDbArc
 50
334.584660462
 51
205.415339538
  0
LINE
  5
43D
330
1F
100
AcDbEntity
  8
0
  6
Continuous
 62
     7
370
    25
100
AcDbLine
 10
0.0851752026
 20
0.2027538956
 30
0.0
 11
0.0849909575
 21
0.2030862845
 31
0.0
  0
ARC
  5
43E
330
1F
100
AcDbEntity
  8
0
  6
Continuous
 62
     7
370
    25
100
AcDbCircle
 10
0.086930197
 20
0.2035878033
 30
0.0
 40
0.0020030400324355
100
AcDbArc
 50
345.5
 51
194.5
  0
LINE
  5
43F
330
1F
100
AcDbEntity
  8
0
  6
Continuous
 62
     7
370
    25
100
AcDbLine
 10
0.0888694353
 20
0.2030862845
 30
0.0
 11
0.0886851902
 21
0.2027538956
 31
0.0
  0
ARC
  5
440
330
1F
100
AcDbEntity
  8
0
  6
Continuous
 62
     7
370
    25
100
AcDbCircle
 10
0.086930197
 20
0.1955878033
 30
0.0
 40
0.0019430400324355
100
AcDbArc
 50
154.584660462
 51
25.415339538
  0
LINE
  5
441
330
1F
100
AcDbEntity
  8
0
  6
Continuous
 62
     7
370
    25
100
AcDbLine
 10
0.0886851902
 20
0.1964217104
 30
0.0
 11
0.0888694353
 21
0.1960893239
 31
0.0
  0
ARC
  5
442
330
1F
100
AcDbEntity
  8
0
  6
Continuous
 62
     7
370
    25
100
AcDbCircle
 10
0.086930197
 20
0.1955878033
 30
0.0
 40
0.0020030400324356
100
AcDbArc
 50
165.5
 51
14.5
  0
LINE
  5
443
330
1F
100
AcDbEntity
  8
0
  6
Continuous
 62
     7
370
    25
100
AcDbLine
 10
0.0849909575
 20
0.1960893239
 30
0.0
 11
0.0851752026
 21
0.1964217104
 31
0.0
  0
ARC
  5
444
330
1F
100
AcDbEntity
  8
0
  6
Continuous
 62
     7
370
    25
100
AcDbCircle
 10
0.0834660953
 20
0.1975878033
 30
0.0
 40
0.0019430400324356
100
AcDbArc
 50
94.584660462
 51
325.415339538
  0
LINE
  5
445
330
1F
100
AcDbEntity
  8
0
  6
Continuous
 62
     7
370
    25
100
AcDbLine
 10
0.085065778
 20
0.1964848889
 30
0.0
 11
0.0848700435
 21
0.1961591352
 31
0.0
  0
ARC
  5
446
330
1F
100
AcDbEntity
  8
0
  6
Continuous
 62
     7
370
    25
100
AcDbCircle
 10
0.0834660953
 20
0.1975878033
 30
0.0
 40
0.0020030400324355
100
AcDbArc
 50
105.5
 51
314.5
  0
LINE
  5
447
330
1F
100
AcDbEntity
  8
0
  6
Continuous
 62
     7
370
    25
100
AcDbLine
 10
0.0829308064
 20
0.1995179928
 30
0.0
 11
0.0833107837
 21
0.1995246256
 31
0.0
  0
ARC
  5
448
330
1F
100
AcDbEntity
  8
0
  6
Continuous
 62
     7
370
    25
100
AcDbCircle
 10
0.0834660953
 20
0.2015878033
 30
0.0
 40
0.0019430400324355
100
AcDbArc
 50
34.584660462
 51
265.415339538
  0
LINE
  5
449
330
1F
100
AcDbEntity
  8
0
  6
Continuous
 62
     7
370
    25
100
AcDbLine
 10
0.0833107837
 20
0.1996509803
 30
0.0
 11
0.0829308064
 21
0.1996576131
 31
0.0
  0
ARC
  5
44A
330
1F
100
AcDbEntity
  8
0
  6
Continuous
 62
     7
370
    25
100
AcDbCircle
 10
0.0834660953
 20
0.2015878033
 30
0.0
 40
0.0020030400324355
100
AcDbArc
 50
45.5
 51
254.5
  0
LINE
  5
44B
330
1F
100
AcDbEntity
  8
0
  6
Continuous
 62
     7
370
    25
100
AcDbLine
 10
0.0848700435
 20
0.2030164708
 30
0.0
 11
0.085065778
 21
0.2026907171
 31
0.0
  0
ARC
  5
44C
330
1F
100
AcDbEntity
  8
0
  6
Continuous
 62
     7
370
    25
100
AcDbCircle
 10
0.0878295023
 20
0.198168772
 30
0.0
 40
0.00004
100
AcDbArc
 50
122.3643141506
 51
211.0
  0
ARC
  5
44D
330
1F
100
AcDbEntity
  8
0
  6
Continuous
 62
     7
370
    25
100
AcDbCircle
 10
0.086930197
 20
0.1995878033
 30
0.0
 40
0.00164
100
AcDbArc
 50
302.3643141507
 51
357.6356858493
  0
ARC
  5
44E
330
1F
100
AcDbEntity
  8
0
  6
Continuous
 62
     7
370
    25
100
AcDbCircle
 10
0.0886087668
 20
0.1995184977
 30
0.0
 40
0.00004
100
AcDbArc
 50
89.0
 51
177.6356858494
  0
LINE
  5
44F
330
1F
100
AcDbEntity
  8
0
  6
Continuous
 62
     7
370
    25
100
AcDbLine
 10
0.0886094649
 20
0.1995584906
 30
0.0
 11
0.0905496092
 21
0.1995246256
 31
0.0
  0
LINE
  5
450
330
1F
100
AcDbEntity
  8
0
  6
Continuous
 62
     7
370
    25
100
AcDbLine
 10
0.088794616
 20
0.1964848889
 30
0.0
 11
0.0877952154
 21
0.1981481708
 31
0.0
  0
ARC
  5
451
330
1F
100
AcDbEntity
  8
0
  6
Continuous
 62
     7
370
    25
100
AcDbCircle
 10
0.0886087668
 20
0.199657109
 30
0.0
 40
0.00004
100
AcDbArc
 50
182.3643141506
 51
271.0
  0
ARC
  5
452
330
1F
100
AcDbEntity
  8
0
  6
Continuous
 62
     7
370
    25
100
AcDbCircle
 10
0.086930197
 20
0.1995878033
 30
0.0
 40
0.00164
100
AcDbArc
 50
2.3643141507
 51
57.6356858493
  0
ARC
  5
453
330
1F
100
AcDbEntity
  8
0
  6
Continuous
 62
     7
370
    25
100
AcDbCircle
 10
0.0878295023
 20
0.2010068346
 30
0.0
 40
0.00004
100
AcDbArc
 50
149.0
 51
237.6356858493
  0
LINE
  5
454
330
1F
100
AcDbEntity
  8
0
  6
Continuous
 62
     7
370
    25
100
AcDbLine
 10
0.0877952154
 20
0.2010274352
 30
0.0
 11
0.088794616
 21
0.2026907171
 31
0.0
  0
LINE
  5
455
330
1F
100
AcDbEntity
  8
0
  6
Continuous
 62
     7
370
    25
100
AcDbLine
 10
0.0905496092
 20
0.1996509803
 30
0.0
 11
0.0886094649
 21
0.1996171154
 31
0.0
  0
ARC
  5
456
330
1F
100
AcDbEntity
  8
0
  6
Continuous
 62
     7
370
    25
100
AcDbCircle
 10
0.0877094614
 20
0.2010761403
 30
0.0
 40
0.00004
100
AcDbArc
 50
242.3643141507
 51
331.0
  0
ARC
  5
457
330
1F
100
AcDbEntity
  8
0
  6
Continuous
 62
     7
370
    25
100
AcDbCircle
 10
0.086930197
 20
0.1995878033
 30
0.0
 40
0.00164
100
AcDbArc
 50
62.3643141507
 51
117.6356858493
  0
ARC
  5
458
330
1F
100
AcDbEntity
  8
0
  6
Continuous
 62
     7
370
    25
100
AcDbCircle
 10
0.0861509325
 20
0.2010761403
 30
0.0
 40
0.00004
100
AcDbArc
 50
209.0
 51
297.6356858493
  0
LINE
  5
459
330
1F
100
AcDbEntity
  8
0
  6
Continuous
 62
     7
370
    25
100
AcDbLine
 10
0.0861159475
 20
0.2010567487
 30
0.0
 11
0.0851752026
 21
0.2027538956
 31
0.0
  0
LINE
  5
45A
330
1F
100
AcDbEntity
  8
0
  6
Continuous
 62
     7
370
    25
100
AcDbLine
 10
0.0886851902
 20
0.2027538956
 30
0.0
 11
0.0877444465
 21
0.2010567487
 31
0.0
  0
ARC
  5
45B
330
1F
100
AcDbEntity
  8
0
  6
Continuous
 62
     7
370
    25
100
AcDbCircle
 10
0.0861509325
 20
0.1980994664
 30
0.0
 40
0.00004
100
AcDbArc
 50
62.3643141507
 51
151.0
  0
ARC
  5
45C
330
1F
100
AcDbEntity
  8
0
  6
Continuous
 62
     7
370
    25
100
AcDbCircle
 10
0.086930197
 20
0.1995878033
 30
0.0
 40
0.00164
100
AcDbArc
 50
242.3643141507
 51
297.6356858493
  0
ARC
  5
45D
330
1F
100
AcDbEntity
  8
0
  6
Continuous
 62
     7
370
    25
100
AcDbCircle
 10
0.0877094614
 20
0.1980994664
 30
0.0
 40
0.00004
100
AcDbArc
 50
29.0
 51
117.6356858493
  0
LINE
  5
45E
330
1F
100
AcDbEntity
  8
0
  6
Continuous
 62
     7
370
    25
100
AcDbLine
 10
0.0877444465
 20
0.1981188596
 30
0.0
 11
0.0886851902
 21
0.1964217104
 31
0.0
  0
LINE
  5
45F
330
1F
100
AcDbEntity
  8
0
  6
Continuous
 62
     7
370
    25
100
AcDbLine
 10
0.0851752026
 20
0.1964217104
 30
0.0
 11
0.0861159475
 21
0.1981188596
 31
0.0
  0
CIRCLE
  5
460
330
1F
100
AcDbEntity
  8
0
  6
Continuous
 62
     7
370
    25
100
AcDbCircle
 10
0.086930197
 20
0.1995878033
 30
0.0
 40
0.0016
  0
CIRCLE
  5
461
330
1F
100
AcDbEntity
  8
0
  6
Continuous
 62
     7
370
    25
100
AcDbCircle
 10
0.0855641716
 20
0.1999538287
 30
0.0
 40
0.000173
  0
CIRCLE
  5
462
330
1F
100
AcDbEntity
  8
0
  6
Continuous
 62
     7
370
    25
100
AcDbCircle
 10
0.0865641716
 20
0.1982217779
 30
0.0
 40
0.000173
  0
CIRCLE
  5
463
330
1F
100
AcDbEntity
  8
0
  6
Continuous
 62
     7
370
    25
100
AcDbCircle
 10
0.0882962224
 20
0.1992217779
 30
0.0
 40
0.000173
  0
CIRCLE
  5
464
330
1F
100
AcDbEntity
  8
0
  6
Continuous
 62
     7
370
    25
100
AcDbCircle
 10
0.0872962224
 20
0.2009538287
 30
0.0
 40
0.000173
  0
ARC
  5
465
330
1F
100
AcDbEntity
  8
0
  6
Continuous
 62
     7
370
    25
100
AcDbCircle
 10
0.0852516271
 20
0.1995184977
 30
0.0
 40
0.00004
100
AcDbArc
 50
2.3643141506
 51
91.0
  0
ARC
  5
466
330
1F
100
AcDbEntity
  8
0
  6
Continuous
 62
     7
370
    25
100
AcDbCircle
 10
0.086930197
 20
0.1995878033
 30
0.0
 40
0.00164
100
AcDbArc
 50
182.3643141507
 51
237.6356858493
  0
ARC
  5
467
330
1F
100
AcDbEntity
  8
0
  6
Continuous
 62
     7
370
    25
100
AcDbCircle
 10
0.0860308916
 20
0.198168772
 30
0.0
 40
0.00004
100
AcDbArc
 50
329.0
 51
57.6356858493
  0
LINE
  5
468
330
1F
100
AcDbEntity
  8
0
  6
Continuous
 62
     7
370
    25
100
AcDbLine
 10
0.0860651787
 20
0.1981481708
 30
0.0
 11
0.085065778
 21
0.1964848889
 31
0.0
  0
LINE
  5
469
330
1F
100
AcDbEntity
  8
0
  6
Continuous
 62
     7
370
    25
100
AcDbLine
 10
0.0833107837
 20
0.1995246256
 30
0.0
 11
0.0852509291
 21
0.1995584906
 31
0.0
  0
ARC
  5
46A
330
1F
100
AcDbEntity
  8
0
  6
Continuous
 62
     7
370
    25
100
AcDbCircle
 10
0.0860308916
 20
0.2010068346
 30
0.0
 40
0.00004
100
AcDbArc
 50
302.3643141507
 51
31.0
  0
ARC
  5
46B
330
1F
100
AcDbEntity
  8
0
  6
Continuous
 62
     7
370
    25
100
AcDbCircle
 10
0.0852516271
 20
0.199657109
 30
0.0
 40
0.00004
100
AcDbArc
 50
269.0
 51
357.6356858493
  0
ARC
  5
46C
330
1F
100
AcDbEntity
  8
0
  6
Continuous
 62
     7
370
    25
100
AcDbCircle
 10
0.086930197
 20
0.1995878033
 30
0.0
 40
0.00164
100
AcDbArc
 50
122.3643141507
 51
177.6356858493
  0
LINE
  5
46D
330
1F
100
AcDbEntity
  8
0
  6
Continuous
 62
     7
370
    25
100
AcDbLine
 10
0.0852509291
 20
0.1996171154
 30
0.0
 11
0.0833107837
 21
0.1996509803
 31
0.0
  0
LINE
  5
46E
330
1F
100
AcDbEntity
  8
0
  6
Continuous
 62
     7
370
    25
100
AcDbLine
 10
0.085065778
 20
0.2026907171
 30
0.0
 11
0.0860651787
 21
0.2010274352
 31
0.0
  0
ARC
  5
46F
330
1F
100
AcDbEntity
  8
0
  6
Continuous
 62
     7
370
    25
100
AcDbCircle
 10
0.086930197
 20
0.1995878033
 30
0.0
 40
0.004
100
AcDbArc
 50
359.0
 51
1.0
  0
ARC
  5
470
330
1F
100
AcDbEntity
  8
0
  6
Continuous
 62
     7
370
    25
100
AcDbCircle
 10
0.086930197
 20
0.1995878033
 30
0.0
 40
0.004
100
AcDbArc
 50
299.0
 51
301.0
  0
ARC
  5
471
330
1F
100
AcDbEntity
  8
0
  6
Continuous
 62
     7
370
    25
100
AcDbCircle
 10
0.086930197
 20
0.1995878033
 30
0.0
 40
0.004
100
AcDbArc
 50
239.0
 51
241.0
  0
ARC
  5
472
330
1F
100
AcDbEntity
  8
0
  6
Continuous
 62
     7
370
    25
100
AcDbCircle
 10
0.086930197
 20
0.1995878033
 30
0.0
 40
0.004
100
AcDbArc
 50
179.0
 51
181.0
  0
ARC
  5
473
330
1F
100
AcDbEntity
  8
0
  6
Continuous
 62
     7
370
    25
100
AcDbCircle
 10
0.086930197
 20
0.1995878033
 30
0.0
 40
0.004
100
AcDbArc
 50
119.0
 51
121.0
  0
ARC
  5
474
330
1F
100
AcDbEntity
  8
0
  6
Continuous
 62
     7
370
    25
100
AcDbCircle
 10
0.086930197
 20
0.1995878033
 30
0.0
 40
0.004
100
AcDbArc
 50
59.0
 51
61.0
  0
CIRCLE
  5
475
330
1F
100
AcDbEntity
  8
0
  6
Continuous
 62
     7
370
    25
100
AcDbCircle
 10
0.1072126273
 20
0.1987084246
 30
0.0
 40
0.0001792
  0
CIRCLE
  5
476
330
1F
100
AcDbEntity
  8
0
  6
Continuous
 62
     7
370
    25
100
AcDbCircle
 10
0.1091949498
 20
0.2007259472
 30
0.0
 40
0.0001792
  0
CIRCLE
  5
477
330
1F
100
AcDbEntity
  8
0
  6
Continuous
 62
     7
370
    25
100
AcDbCircle
 10
0.1082037886
 20
0.1997171859
 30
0.0
 40
0.00394
  0
CIRCLE
  5
478
330
1F
100
AcDbEntity
  8
0
  6
Continuous
 62
     7
370
    25
100
AcDbCircle
 10
0.1082037886
 20
0.1997171859
 30
0.0
 40
0.004
  0
CIRCLE
  5
479
330
1F
100
AcDbEntity
  8
0
  6
Continuous
 62
     7
370
    25
100
AcDbCircle
 10
0.1092125499
 20
0.1987260247
 30
0.0
 40
0.0001792
  0
CIRCLE
  5
47A
330
1F
100
AcDbEntity
  8
0
  6
Continuous
 62
     7
370
    25
100
AcDbCircle
 10
0.1071950273
 20
0.2007083472
 30
0.0
 40
0.0001792
  0
CIRCLE
  5
47B
330
1F
100
AcDbEntity
  8
0
  6
Continuous
 62
     7
370
    25
100
AcDbCircle
 10
0.1398815375
 20
0.1798598303
 30
0.0
 40
0.0001792
  0
CIRCLE
  5
47C
330
1F
100
AcDbEntity
  8
0
  6
Continuous
 62
     7
370
    25
100
AcDbCircle
 10
0.1402355277
 20
0.1812290239
 30
0.0
 40
0.00394
  0
CIRCLE
  5
47D
330
1F
100
AcDbEntity
  8
0
  6
Continuous
 62
     7
370
    25
100
AcDbCircle
 10
0.1402355277
 20
0.1812290239
 30
0.0
 40
0.004
  0
CIRCLE
  5
47E
330
1F
100
AcDbEntity
  8
0
  6
Continuous
 62
     7
370
    25
100
AcDbCircle
 10
0.1405895178
 20
0.1825982174
 30
0.0
 40
0.0001792
  0
CIRCLE
  5
47F
330
1F
100
AcDbEntity
  8
0
  6
Continuous
 62
     7
370
    25
100
AcDbCircle
 10
0.1388663341
 20
0.181583014
 30
0.0
 40
0.0001792
  0
CIRCLE
  5
480
330
1F
100
AcDbEntity
  8
0
  6
Continuous
 62
     7
370
    25
100
AcDbCircle
 10
0.1416047212
 20
0.1808750337
 30
0.0
 40
0.0001792
  0
CIRCLE
  5
481
330
1F
100
AcDbEntity
  8
0
  6
Continuous
 62
     7
370
    25
100
AcDbCircle
 10
0.0761813525
 20
0.1442365864
 30
0.0
 40
0.00394
  0
CIRCLE
  5
482
330
1F
100
AcDbEntity
  8
0
  6
Continuous
 62
     7
370
    25
100
AcDbCircle
 10
0.0775505461
 20
0.1438825962
 30
0.0
 40
0.0001792
  0
CIRCLE
  5
483
330
1F
100
AcDbEntity
  8
0
  6
Continuous
 62
     7
370
    25
100
AcDbCircle
 10
0.0765353427
 20
0.1456057799
 30
0.0
 40
0.0001792
  0
CIRCLE
  5
484
330
1F
100
AcDbEntity
  8
0
  6
Continuous
 62
     7
370
    25
100
AcDbCircle
 10
0.074812159
 20
0.1445905766
 30
0.0
 40
0.0001792
  0
CIRCLE
  5
485
330
1F
100
AcDbEntity
  8
0
  6
Continuous
 62
     7
370
    25
100
AcDbCircle
 10
0.0758273623
 20
0.1428673928
 30
0.0
 40
0.0001792
  0
CIRCLE
  5
486
330
1F
100
AcDbEntity
  8
0
  6
Continuous
 62
     7
370
    25
100
AcDbCircle
 10
0.0761813525
 20
0.1442365864
 30
0.0
 40
0.004
  0
CIRCLE
  5
487
330
1F
100
AcDbEntity
  8
0
  6
Continuous
 62
     7
370
    25
100
AcDbCircle
 10
0.1402401792
 20
0.1442446431
 30
0.0
 40
0.00394
  0
CIRCLE
  5
488
330
1F
100
AcDbEntity
  8
0
  6
Continuous
 62
     7
370
    25
100
AcDbCircle
 10
0.1398621469
 20
0.1456073945
 30
0.0
 40
0.0001792
  0
CIRCLE
  5
489
330
1F
100
AcDbEntity
  8
0
  6
Continuous
 62
     7
370
    25
100
AcDbCircle
 10
0.1388774277
 20
0.1438666108
 30
0.0
 40
0.0001792
  0
CIRCLE
  5
48A
330
1F
100
AcDbEntity
  8
0
  6
Continuous
 62
     7
370
    25
100
AcDbCircle
 10
0.1406182115
 20
0.1428818916
 30
0.0
 40
0.0001792
  0
CIRCLE
  5
48B
330
1F
100
AcDbEntity
  8
0
  6
Continuous
 62
     7
370
    25
100
AcDbCircle
 10
0.1416029307
 20
0.1446226753
 30
0.0
 40
0.0001792
  0
CIRCLE
  5
48C
330
1F
100
AcDbEntity
  8
0
  6
Continuous
 62
     7
370
    25
100
AcDbCircle
 10
0.1402401792
 20
0.1442446431
 30
0.0
 40
0.004
  0
CIRCLE
  5
48D
330
1F
100
AcDbEntity
  8
0
  6
Continuous
 62
     7
370
    25
100
AcDbCircle
 10
0.1072219304
 20
0.124739663
 30
0.0
 40
0.0001792
  0
CIRCLE
  5
48E
330
1F
100
AcDbEntity
  8
0
  6
Continuous
 62
     7
370
    25
100
AcDbCircle
 10
0.1092042529
 20
0.1267571856
 30
0.0
 40
0.0001792
  0
CIRCLE
  5
48F
330
1F
100
AcDbEntity
  8
0
  6
Continuous
 62
     7
370
    25
100
AcDbCircle
 10
0.1092218529
 20
0.1247572631
 30
0.0
 40
0.0001792
  0
CIRCLE
  5
490
330
1F
100
AcDbEntity
  8
0
  6
Continuous
 62
     7
370
    25
100
AcDbCircle
 10
0.1072043303
 20
0.1267395856
 30
0.0
 40
0.0001792
  0
CIRCLE
  5
491
330
1F
100
AcDbEntity
  8
0
  6
Continuous
 62
     7
370
    25
100
AcDbCircle
 10
0.1082130916
 20
0.1257484243
 30
0.0
 40
0.00394
  0
CIRCLE
  5
492
330
1F
100
AcDbEntity
  8
0
  6
Continuous
 62
     7
370
    25
100
AcDbCircle
 10
0.1082130916
 20
0.1257484243
 30
0.0
 40
0.004
  0
CIRCLE
  5
493
330
1F
100
AcDbEntity
  8
0
  6
Continuous
 62
     7
370
    25
100
AcDbCircle
 10
0.076176701
 20
0.1812209672
 30
0.0
 40
0.00394
  0
CIRCLE
  5
494
330
1F
100
AcDbEntity
  8
0
  6
Continuous
 62
     7
370
    25
100
AcDbCircle
 10
0.076176701
 20
0.1812209672
 30
0.0
 40
0.004
  0
CIRCLE
  5
495
330
1F
100
AcDbEntity
  8
0
  6
Continuous
 62
     7
370
    25
100
AcDbCircle
 10
0.0775394525
 20
0.1815989995
 30
0.0
 40
0.0001792
  0
CIRCLE
  5
496
330
1F
100
AcDbEntity
  8
0
  6
Continuous
 62
     7
370
    25
100
AcDbCircle
 10
0.0757986687
 20
0.1825837187
 30
0.0
 40
0.0001792
  0
CIRCLE
  5
497
330
1F
100
AcDbEntity
  8
0
  6
Continuous
 62
     7
370
    25
100
AcDbCircle
 10
0.0748139495
 20
0.1808429349
 30
0.0
 40
0.0001792
  0
CIRCLE
  5
498
330
1F
100
AcDbEntity
  8
0
  6
Continuous
 62
     7
370
    25
100
AcDbCircle
 10
0.0765547333
 20
0.1798582157
 30
0.0
 40
0.0001792
  0
CIRCLE
  5
499
330
1F
100
AcDbEntity
  8
0
  6
Continuous
 62
     7
370
    25
100
AcDbCircle
 10
0.1346125384
 20
0.1394278936
 30
0.0
 40
0.0003523792084572
  0
CIRCLE
  5
49A
330
1F
100
AcDbEntity
  8
0
  6
Continuous
 62
     7
370
    25
100
AcDbCircle
 10
0.1346125384
 20
0.1394278936
 30
0.0
 40
0.0004123792084572
  0
CIRCLE
  5
49B
330
1F
100
AcDbEntity
  8
0
  6
Continuous
 62
     7
370
    25
100
AcDbCircle
 10
0.136374235
 20
0.1418573961
 30
0.0
 40
0.0003709228309916
  0
CIRCLE
  5
49C
330
1F
100
AcDbEntity
  8
0
  6
Continuous
 62
     7
370
    25
100
AcDbCircle
 10
0.1324781064
 20
0.1364357074
 30
0.0
 40
0.0004495851905887
  0
CIRCLE
  5
49D
330
1F
100
AcDbEntity
  8
0
  6
Continuous
 62
     7
370
    25
100
AcDbCircle
 10
0.1309540131
 20
0.1330911419
 30
0.0
 40
0.0004123792084572
  0
CIRCLE
  5
49E
330
1F
100
AcDbEntity
  8
0
  6
Continuous
 62
     7
370
    25
100
AcDbCircle
 10
0.1336630905
 20
0.1357515565
 30
0.0
 40
0.000173
  0
CIRCLE
  5
49F
330
1F
100
AcDbEntity
  8
0
  6
Continuous
 62
     7
370
    25
100
AcDbCircle
 10
0.1309540131
 20
0.1330911419
 30
0.0
 40
0.0003523792084572
  0
CIRCLE
  5
4A0
330
1F
100
AcDbEntity
  8
0
  6
Continuous
 62
     7
370
    25
100
AcDbCircle
 10
0.136374235
 20
0.1418573961
 30
0.0
 40
0.0003109228309916
  0
ARC
  5
4A1
330
1F
100
AcDbEntity
  8
0
  6
Continuous
 62
     7
370
    25
100
AcDbCircle
 10
0.1087507121
 20
0.1501347248
 30
0.0
 40
0.032
100
AcDbArc
 50
320.5750077975
 51
342.2429235419
  0
CIRCLE
  5
4A2
330
1F
100
AcDbEntity
  8
0
  6
Continuous
 62
     7
370
    25
100
AcDbCircle
 10
0.1336630905
 20
0.1357515565
 30
0.0
 40
0.00009
  0
CIRCLE
  5
4A3
330
1F
100
AcDbEntity
  8
0
  6
Continuous
 62
     7
370
    25
100
AcDbCircle
 10
0.1324781064
 20
0.1364357074
 30
0.0
 40
0.0003895851905887
  0
ARC
  5
4A4
330
1F
100
AcDbEntity
  8
0
  6
Continuous
 62
     7
370
    25
100
AcDbCircle
 10
0.1595444123
 20
0.1208089683
 30
0.0
 40
0.032
100
AcDbArc
 50
136.1907766064
 51
159.7579332921
  0
ARC
  5
4A5
330
1F
100
AcDbEntity
  8
0
  6
Continuous
 62
     7
370
    25
100
AcDbCircle
 10
0.0975693185
 20
0.1695014666
 30
0.0
 40
0.032
100
AcDbArc
 50
77.7731643256
 51
99.4249922025
  0
CIRCLE
  5
4A6
330
1F
100
AcDbEntity
  8
0
  6
Continuous
 62
     7
370
    25
100
AcDbCircle
 10
0.0939107932
 20
0.1972518808
 30
0.0
 40
0.0004123792084572
  0
CIRCLE
  5
4A7
330
1F
100
AcDbEntity
  8
0
  6
Continuous
 62
     7
370
    25
100
AcDbCircle
 10
0.0975693185
 20
0.1968995016
 30
0.0
 40
0.0004495851905887
  0
CIRCLE
  5
4A8
330
1F
100
AcDbEntity
  8
0
  6
Continuous
 62
     7
370
    25
100
AcDbCircle
 10
0.1012278438
 20
0.1972518808
 30
0.0
 40
0.0004123792084572
  0
CIRCLE
  5
4A9
330
1F
100
AcDbEntity
  8
0
  6
Continuous
 62
     7
370
    25
100
AcDbCircle
 10
0.104212703
 20
0.1975628036
 30
0.0
 40
0.0003709228309916
  0
CIRCLE
  5
4AA
330
1F
100
AcDbEntity
  8
0
  6
Continuous
 62
     7
370
    25
100
AcDbCircle
 10
0.0975693185
 20
0.1982678033
 30
0.0
 40
0.000173
  0
ARC
  5
4AB
330
1F
100
AcDbEntity
  8
0
  6
Continuous
 62
     7
370
    25
100
AcDbCircle
 10
0.0975693185
 20
0.2281529796
 30
0.0
 40
0.032
100
AcDbArc
 50
260.2420667079
 51
283.7951161556
  0
CIRCLE
  5
4AC
330
1F
100
AcDbEntity
  8
0
  6
Continuous
 62
     7
370
    25
100
AcDbCircle
 10
0.0975693185
 20
0.1982678033
 30
0.0
 40
0.00009
  0
CIRCLE
  5
4AD
330
1F
100
AcDbEntity
  8
0
  6
Continuous
 62
     7
370
    25
100
AcDbCircle
 10
0.0975693185
 20
0.1968995016
 30
0.0
 40
0.0003895851905887
  0
CIRCLE
  5
4AE
330
1F
100
AcDbEntity
  8
0
  6
Continuous
 62
     7
370
    25
100
AcDbCircle
 10
0.104212703
 20
0.1975628036
 30
0.0
 40
0.0003109228309916
  0
CIRCLE
  5
4AF
330
1F
100
AcDbEntity
  8
0
  6
Continuous
 62
     7
370
    25
100
AcDbCircle
 10
0.1012278438
 20
0.1972518808
 30
0.0
 40
0.0003523792084572
  0
CIRCLE
  5
4B0
330
1F
100
AcDbEntity
  8
0
  6
Continuous
 62
     7
370
    25
100
AcDbCircle
 10
0.0939107932
 20
0.1972518808
 30
0.0
 40
0.0003523792084572
  0
CIRCLE
  5
4B1
330
1F
100
AcDbEntity
  8
0
  6
Continuous
 62
     7
370
    25
100
AcDbCircle
 10
0.1012278438
 20
0.1282137295
 30
0.0
 40
0.0003523792084572
  0
CIRCLE
  5
4B2
330
1F
100
AcDbEntity
  8
0
  6
Continuous
 62
     7
370
    25
100
AcDbCircle
 10
0.1012278438
 20
0.1282137295
 30
0.0
 40
0.0004123792084572
  0
ARC
  5
4B3
330
1F
100
AcDbEntity
  8
0
  6
Continuous
 62
     7
370
    25
100
AcDbCircle
 10
0.0975693185
 20
0.0973126307
 30
0.0
 40
0.032
100
AcDbArc
 50
76.1907766064
 51
99.7579332921
  0
ARC
  5
4B4
330
1F
100
AcDbEntity
  8
0
  6
Continuous
 62
     7
370
    25
100
AcDbCircle
 10
0.0975693185
 20
0.1559641436
 30
0.0
 40
0.032
100
AcDbArc
 50
260.5750077975
 51
282.2429235419
  0
CIRCLE
  5
4B5
330
1F
100
AcDbEntity
  8
0
  6
Continuous
 62
     7
370
    25
100
AcDbCircle
 10
0.104212703
 20
0.1279028067
 30
0.0
 40
0.0003109228309916
  0
CIRCLE
  5
4B6
330
1F
100
AcDbEntity
  8
0
  6
Continuous
 62
     7
370
    25
100
AcDbCircle
 10
0.104212703
 20
0.1279028067
 30
0.0
 40
0.0003709228309916
  0
CIRCLE
  5
4B7
330
1F
100
AcDbEntity
  8
0
  6
Continuous
 62
     7
370
    25
100
AcDbCircle
 10
0.0975693185
 20
0.1285661087
 30
0.0
 40
0.0004495851905887
  0
CIRCLE
  5
4B8
330
1F
100
AcDbEntity
  8
0
  6
Continuous
 62
     7
370
    25
100
AcDbCircle
 10
0.0939107932
 20
0.1282137295
 30
0.0
 40
0.0004123792084572
  0
CIRCLE
  5
4B9
330
1F
100
AcDbEntity
  8
0
  6
Continuous
 62
     7
370
    25
100
AcDbCircle
 10
0.0975693185
 20
0.1271978069
 30
0.0
 40
0.000173
  0
CIRCLE
  5
4BA
330
1F
100
AcDbEntity
  8
0
  6
Continuous
 62
     7
370
    25
100
AcDbCircle
 10
0.0975693185
 20
0.1271978069
 30
0.0
 40
0.00009
  0
CIRCLE
  5
4BB
330
1F
100
AcDbEntity
  8
0
  6
Continuous
 62
     7
370
    25
100
AcDbCircle
 10
0.0975693185
 20
0.1285661087
 30
0.0
 40
0.0003895851905887
  0
CIRCLE
  5
4BC
330
1F
100
AcDbEntity
  8
0
  6
Continuous
 62
     7
370
    25
100
AcDbCircle
 10
0.0939107932
 20
0.1282137295
 30
0.0
 40
0.0003523792084572
  0
CIRCLE
  5
4BD
330
1F
100
AcDbEntity
  8
0
  6
Continuous
 62
     7
370
    25
100
AcDbCircle
 10
0.1122041772
 20
0.1975628036
 30
0.0
 40
0.0003109228309916
  0
CIRCLE
  5
4BE
330
1F
100
AcDbEntity
  8
0
  6
Continuous
 62
     7
370
    25
100
AcDbCircle
 10
0.1122041772
 20
0.1975628036
 30
0.0
 40
0.0003709228309916
  0
CIRCLE
  5
4BF
330
1F
100
AcDbEntity
  8
0
  6
Continuous
 62
     7
370
    25
100
AcDbCircle
 10
0.122506087
 20
0.1972518808
 30
0.0
 40
0.0003523792084572
  0
CIRCLE
  5
4C0
330
1F
100
AcDbEntity
  8
0
  6
Continuous
 62
     7
370
    25
100
AcDbCircle
 10
0.122506087
 20
0.1972518808
 30
0.0
 40
0.0004123792084572
  0
CIRCLE
  5
4C1
330
1F
100
AcDbEntity
  8
0
  6
Continuous
 62
     7
370
    25
100
AcDbCircle
 10
0.1188475617
 20
0.1982678033
 30
0.0
 40
0.000173
  0
CIRCLE
  5
4C2
330
1F
100
AcDbEntity
  8
0
  6
Continuous
 62
     7
370
    25
100
AcDbCircle
 10
0.1188475617
 20
0.1982678033
 30
0.0
 40
0.00009
  0
CIRCLE
  5
4C3
330
1F
100
AcDbEntity
  8
0
  6
Continuous
 62
     7
370
    25
100
AcDbCircle
 10
0.1188475617
 20
0.1968995016
 30
0.0
 40
0.0003895851905887
  0
CIRCLE
  5
4C4
330
1F
100
AcDbEntity
  8
0
  6
Continuous
 62
     7
370
    25
100
AcDbCircle
 10
0.1188475617
 20
0.1968995016
 30
0.0
 40
0.0004495851905887
  0
ARC
  5
4C5
330
1F
100
AcDbEntity
  8
0
  6
Continuous
 62
     7
370
    25
100
AcDbCircle
 10
0.1188475617
 20
0.1695014666
 30
0.0
 40
0.032
100
AcDbArc
 50
80.5750077975
 51
102.2429235419
  0
CIRCLE
  5
4C6
330
1F
100
AcDbEntity
  8
0
  6
Continuous
 62
     7
370
    25
100
AcDbCircle
 10
0.1151890364
 20
0.1972518808
 30
0.0
 40
0.0003523792084572
  0
CIRCLE
  5
4C7
330
1F
100
AcDbEntity
  8
0
  6
Continuous
 62
     7
370
    25
100
AcDbCircle
 10
0.1151890364
 20
0.1972518808
 30
0.0
 40
0.0004123792084572
  0
ARC
  5
4C8
330
1F
100
AcDbEntity
  8
0
  6
Continuous
 62
     7
370
    25
100
AcDbCircle
 10
0.1188475617
 20
0.2281529796
 30
0.0
 40
0.032
100
AcDbArc
 50
256.1907766064
 51
279.7579332921
  0
ARC
  5
4C9
330
1F
100
AcDbEntity
  8
0
  6
Continuous
 62
     7
370
    25
100
AcDbCircle
 10
0.1087507121
 20
0.1753308854
 30
0.0
 40
0.032
100
AcDbArc
 50
17.7731643256
 51
39.4249922025
  0
CIRCLE
  5
4CA
330
1F
100
AcDbEntity
  8
0
  6
Continuous
 62
     7
370
    25
100
AcDbCircle
 10
0.1309540131
 20
0.1923744684
 30
0.0
 40
0.0004123792084572
  0
CIRCLE
  5
4CB
330
1F
100
AcDbEntity
  8
0
  6
Continuous
 62
     7
370
    25
100
AcDbCircle
 10
0.1324781064
 20
0.1890299029
 30
0.0
 40
0.0004495851905887
  0
CIRCLE
  5
4CC
330
1F
100
AcDbEntity
  8
0
  6
Continuous
 62
     7
370
    25
100
AcDbCircle
 10
0.1346125384
 20
0.1860377166
 30
0.0
 40
0.0004123792084572
  0
CIRCLE
  5
4CD
330
1F
100
AcDbEntity
  8
0
  6
Continuous
 62
     7
370
    25
100
AcDbCircle
 10
0.136374235
 20
0.1836082142
 30
0.0
 40
0.0003709228309917
  0
CIRCLE
  5
4CE
330
1F
100
AcDbEntity
  8
0
  6
Continuous
 62
     7
370
    25
100
AcDbCircle
 10
0.1336630905
 20
0.1897140538
 30
0.0
 40
0.000173
  0
ARC
  5
4CF
330
1F
100
AcDbEntity
  8
0
  6
Continuous
 62
     7
370
    25
100
AcDbCircle
 10
0.1595444123
 20
0.2046566419
 30
0.0
 40
0.032
100
AcDbArc
 50
200.2420667079
 51
223.7951161556
  0
CIRCLE
  5
4D0
330
1F
100
AcDbEntity
  8
0
  6
Continuous
 62
     7
370
    25
100
AcDbCircle
 10
0.1324781064
 20
0.1890299029
 30
0.0
 40
0.0003895851905887
  0
CIRCLE
  5
4D1
330
1F
100
AcDbEntity
  8
0
  6
Continuous
 62
     7
370
    25
100
AcDbCircle
 10
0.1346125384
 20
0.1860377166
 30
0.0
 40
0.0003523792084572
  0
CIRCLE
  5
4D2
330
1F
100
AcDbEntity
  8
0
  6
Continuous
 62
     7
370
    25
100
AcDbCircle
 10
0.1336630905
 20
0.1897140538
 30
0.0
 40
0.00009
  0
CIRCLE
  5
4D3
330
1F
100
AcDbEntity
  8
0
  6
Continuous
 62
     7
370
    25
100
AcDbCircle
 10
0.136374235
 20
0.1836082142
 30
0.0
 40
0.0003109228309917
  0
CIRCLE
  5
4D4
330
1F
100
AcDbEntity
  8
0
  6
Continuous
 62
     7
370
    25
100
AcDbCircle
 10
0.1309540131
 20
0.1923744684
 30
0.0
 40
0.0003523792084572
  0
ARC
  5
4D5
330
1F
100
AcDbEntity
  8
0
  6
Continuous
 62
     7
370
    25
100
AcDbCircle
 10
0.1188475617
 20
0.1559641436
 30
0.0
 40
0.032
100
AcDbArc
 50
257.7731643256
 51
279.4249922025
  0
ARC
  5
4D6
330
1F
100
AcDbEntity
  8
0
  6
Continuous
 62
     7
370
    25
100
AcDbCircle
 10
0.1188475617
 20
0.0973126307
 30
0.0
 40
0.032
100
AcDbArc
 50
80.2420667079
 51
103.7951161556
  0
CIRCLE
  5
4D7
330
1F
100
AcDbEntity
  8
0
  6
Continuous
 62
     7
370
    25
100
AcDbCircle
 10
0.122506087
 20
0.1282137295
 30
0.0
 40
0.0004123792084572
  0
CIRCLE
  5
4D8
330
1F
100
AcDbEntity
  8
0
  6
Continuous
 62
     7
370
    25
100
AcDbCircle
 10
0.1188475617
 20
0.1285661087
 30
0.0
 40
0.0004495851905887
  0
CIRCLE
  5
4D9
330
1F
100
AcDbEntity
  8
0
  6
Continuous
 62
     7
370
    25
100
AcDbCircle
 10
0.1151890364
 20
0.1282137295
 30
0.0
 40
0.0004123792084572
  0
CIRCLE
  5
4DA
330
1F
100
AcDbEntity
  8
0
  6
Continuous
 62
     7
370
    25
100
AcDbCircle
 10
0.1122041772
 20
0.1279028067
 30
0.0
 40
0.0003709228309916
  0
CIRCLE
  5
4DB
330
1F
100
AcDbEntity
  8
0
  6
Continuous
 62
     7
370
    25
100
AcDbCircle
 10
0.1188475617
 20
0.1271978069
 30
0.0
 40
0.000173
  0
CIRCLE
  5
4DC
330
1F
100
AcDbEntity
  8
0
  6
Continuous
 62
     7
370
    25
100
AcDbCircle
 10
0.1188475617
 20
0.1271978069
 30
0.0
 40
0.00009
  0
CIRCLE
  5
4DD
330
1F
100
AcDbEntity
  8
0
  6
Continuous
 62
     7
370
    25
100
AcDbCircle
 10
0.1151890364
 20
0.1282137295
 30
0.0
 40
0.0003523792084572
  0
CIRCLE
  5
4DE
330
1F
100
AcDbEntity
  8
0
  6
Continuous
 62
     7
370
    25
100
AcDbCircle
 10
0.1188475617
 20
0.1285661087
 30
0.0
 40
0.0003895851905887
  0
CIRCLE
  5
4DF
330
1F
100
AcDbEntity
  8
0
  6
Continuous
 62
     7
370
    25
100
AcDbCircle
 10
0.1122041772
 20
0.1279028067
 30
0.0
 40
0.0003109228309916
  0
CIRCLE
  5
4E0
330
1F
100
AcDbEntity
  8
0
  6
Continuous
 62
     7
370
    25
100
AcDbCircle
 10
0.122506087
 20
0.1282137295
 30
0.0
 40
0.0003523792084572
  0
CIRCLE
  5
4E1
330
1F
100
AcDbEntity
  8
0
  6
Continuous
 62
     7
370
    25
100
AcDbCircle
 10
0.0711652202
 20
0.1676102175
 30
0.0
 40
0.0004123792084572
  0
CIRCLE
  5
4E2
330
1F
100
AcDbEntity
  8
0
  6
Continuous
 62
     7
370
    25
100
AcDbCircle
 10
0.0732996522
 20
0.1706024038
 30
0.0
 40
0.0004495851905887
  0
CIRCLE
  5
4E3
330
1F
100
AcDbEntity
  8
0
  6
Continuous
 62
     7
370
    25
100
AcDbCircle
 10
0.0748237456
 20
0.1739469693
 30
0.0
 40
0.0004123792084572
  0
CIRCLE
  5
4E4
330
1F
100
AcDbEntity
  8
0
  6
Continuous
 62
     7
370
    25
100
AcDbCircle
 10
0.0760469081
 20
0.1766873945
 30
0.0
 40
0.0003709228309917
  0
CIRCLE
  5
4E5
330
1F
100
AcDbEntity
  8
0
  6
Continuous
 62
     7
370
    25
100
AcDbCircle
 10
0.0721146681
 20
0.1712865547
 30
0.0
 40
0.000173
  0
ARC
  5
4E6
330
1F
100
AcDbEntity
  8
0
  6
Continuous
 62
     7
370
    25
100
AcDbCircle
 10
0.0970270465
 20
0.1569033863
 30
0.0
 40
0.032
100
AcDbArc
 50
137.7731643256
 51
159.4249922025
  0
ARC
  5
4E7
330
1F
100
AcDbEntity
  8
0
  6
Continuous
 62
     7
370
    25
100
AcDbCircle
 10
0.0462333463
 20
0.1862291428
 30
0.0
 40
0.032
100
AcDbArc
 50
320.2420667079
 51
343.7951161556
  0
CIRCLE
  5
4E8
330
1F
100
AcDbEntity
  8
0
  6
Continuous
 62
     7
370
    25
100
AcDbCircle
 10
0.0748237456
 20
0.1739469693
 30
0.0
 40
0.0003523792084572
  0
CIRCLE
  5
4E9
330
1F
100
AcDbEntity
  8
0
  6
Continuous
 62
     7
370
    25
100
AcDbCircle
 10
0.0732996522
 20
0.1706024038
 30
0.0
 40
0.0003895851905887
  0
CIRCLE
  5
4EA
330
1F
100
AcDbEntity
  8
0
  6
Continuous
 62
     7
370
    25
100
AcDbCircle
 10
0.0760469081
 20
0.1766873945
 30
0.0
 40
0.0003109228309917
  0
CIRCLE
  5
4EB
330
1F
100
AcDbEntity
  8
0
  6
Continuous
 62
     7
370
    25
100
AcDbCircle
 10
0.0721146681
 20
0.1712865547
 30
0.0
 40
0.00009
  0
CIRCLE
  5
4EC
330
1F
100
AcDbEntity
  8
0
  6
Continuous
 62
     7
370
    25
100
AcDbCircle
 10
0.0711652202
 20
0.1676102175
 30
0.0
 40
0.0003523792084572
  0
CIRCLE
  5
4ED
330
1F
100
AcDbEntity
  8
0
  6
Continuous
 62
     7
370
    25
100
AcDbCircle
 10
0.144302212
 20
0.1712865547
 30
0.0
 40
0.000173
  0
CIRCLE
  5
4EE
330
1F
100
AcDbEntity
  8
0
  6
Continuous
 62
     7
370
    25
100
AcDbCircle
 10
0.144302212
 20
0.1712865547
 30
0.0
 40
0.00009
  0
CIRCLE
  5
4EF
330
1F
100
AcDbEntity
  8
0
  6
Continuous
 62
     7
370
    25
100
AcDbCircle
 10
0.1415931346
 20
0.1739469693
 30
0.0
 40
0.0003523792084572
  0
CIRCLE
  5
4F0
330
1F
100
AcDbEntity
  8
0
  6
Continuous
 62
     7
370
    25
100
AcDbCircle
 10
0.1415931346
 20
0.1739469693
 30
0.0
 40
0.0004123792084572
  0
ARC
  5
4F1
330
1F
100
AcDbEntity
  8
0
  6
Continuous
 62
     7
370
    25
100
AcDbCircle
 10
0.1701835339
 20
0.1862291428
 30
0.0
 40
0.032
100
AcDbArc
 50
196.1907766064
 51
219.7579332921
  0
ARC
  5
4F2
330
1F
100
AcDbEntity
  8
0
  6
Continuous
 62
     7
370
    25
100
AcDbCircle
 10
0.1193898337
 20
0.1569033863
 30
0.0
 40
0.032
100
AcDbArc
 50
20.5750077975
 51
42.2429235419
  0
CIRCLE
  5
4F3
330
1F
100
AcDbEntity
  8
0
  6
Continuous
 62
     7
370
    25
100
AcDbCircle
 10
0.1431172279
 20
0.1706024038
 30
0.0
 40
0.0003895851905887
  0
CIRCLE
  5
4F4
330
1F
100
AcDbEntity
  8
0
  6
Continuous
 62
     7
370
    25
100
AcDbCircle
 10
0.1431172279
 20
0.1706024038
 30
0.0
 40
0.0004495851905887
  0
CIRCLE
  5
4F5
330
1F
100
AcDbEntity
  8
0
  6
Continuous
 62
     7
370
    25
100
AcDbCircle
 10
0.1403699721
 20
0.1766873945
 30
0.0
 40
0.0003109228309916
  0
CIRCLE
  5
4F6
330
1F
100
AcDbEntity
  8
0
  6
Continuous
 62
     7
370
    25
100
AcDbCircle
 10
0.1403699721
 20
0.1766873945
 30
0.0
 40
0.0003709228309916
  0
CIRCLE
  5
4F7
330
1F
100
AcDbEntity
  8
0
  6
Continuous
 62
     7
370
    25
100
AcDbCircle
 10
0.14525166
 20
0.1676102175
 30
0.0
 40
0.0003523792084572
  0
CIRCLE
  5
4F8
330
1F
100
AcDbEntity
  8
0
  6
Continuous
 62
     7
370
    25
100
AcDbCircle
 10
0.14525166
 20
0.1676102175
 30
0.0
 40
0.0004123792084572
  0
CIRCLE
  5
4F9
330
1F
100
AcDbEntity
  8
0
  6
Continuous
 62
     7
370
    25
100
AcDbCircle
 10
0.0711652202
 20
0.1578553927
 30
0.0
 40
0.0003523792084572
  0
CIRCLE
  5
4FA
330
1F
100
AcDbEntity
  8
0
  6
Continuous
 62
     7
370
    25
100
AcDbCircle
 10
0.0711652202
 20
0.1578553927
 30
0.0
 40
0.0004123792084572
  0
CIRCLE
  5
4FB
330
1F
100
AcDbEntity
  8
0
  6
Continuous
 62
     7
370
    25
100
AcDbCircle
 10
0.0748237456
 20
0.151518641
 30
0.0
 40
0.0003523792084572
  0
CIRCLE
  5
4FC
330
1F
100
AcDbEntity
  8
0
  6
Continuous
 62
     7
370
    25
100
AcDbCircle
 10
0.0748237456
 20
0.151518641
 30
0.0
 40
0.0004123792084572
  0
CIRCLE
  5
4FD
330
1F
100
AcDbEntity
  8
0
  6
Continuous
 62
     7
370
    25
100
AcDbCircle
 10
0.0732996522
 20
0.1548632065
 30
0.0
 40
0.0003895851905887
  0
CIRCLE
  5
4FE
330
1F
100
AcDbEntity
  8
0
  6
Continuous
 62
     7
370
    25
100
AcDbCircle
 10
0.0732996522
 20
0.1548632065
 30
0.0
 40
0.0004495851905887
  0
CIRCLE
  5
4FF
330
1F
100
AcDbEntity
  8
0
  6
Continuous
 62
     7
370
    25
100
AcDbCircle
 10
0.0760469081
 20
0.1487782157
 30
0.0
 40
0.0003109228309917
  0
CIRCLE
  5
500
330
1F
100
AcDbEntity
  8
0
  6
Continuous
 62
     7
370
    25
100
AcDbCircle
 10
0.0760469081
 20
0.1487782157
 30
0.0
 40
0.0003709228309917
  0
CIRCLE
  5
501
330
1F
100
AcDbEntity
  8
0
  6
Continuous
 62
     7
370
    25
100
AcDbCircle
 10
0.0721146681
 20
0.1541790556
 30
0.0
 40
0.000173
  0
CIRCLE
  5
502
330
1F
100
AcDbEntity
  8
0
  6
Continuous
 62
     7
370
    25
100
AcDbCircle
 10
0.0721146681
 20
0.1541790556
 30
0.0
 40
0.00009
  0
ARC
  5
503
330
1F
100
AcDbEntity
  8
0
  6
Continuous
 62
     7
370
    25
100
AcDbCircle
 10
0.0970270465
 20
0.1685622239
 30
0.0
 40
0.032
100
AcDbArc
 50
200.5750077975
 51
222.2429235419
  0
ARC
  5
504
330
1F
100
AcDbEntity
  8
0
  6
Continuous
 62
     7
370
    25
100
AcDbCircle
 10
0.0462333463
 20
0.1392364674
 30
0.0
 40
0.032
100
AcDbArc
 50
16.1907766064
 51
39.7579332921
  0
ARC
  5
505
330
1F
100
AcDbEntity
  8
0
  6
Continuous
 62
     7
370
    25
100
AcDbCircle
 10
0.1701835339
 20
0.1392364674
 30
0.0
 40
0.032
100
AcDbArc
 50
140.2420667079
 51
163.7951161556
  0
ARC
  5
506
330
1F
100
AcDbEntity
  8
0
  6
Continuous
 62
     7
370
    25
100
AcDbCircle
 10
0.1193898337
 20
0.1685622239
 30
0.0
 40
0.032
100
AcDbArc
 50
317.7731643256
 51
339.4249922025
  0
CIRCLE
  5
507
330
1F
100
AcDbEntity
  8
0
  6
Continuous
 62
     7
370
    25
100
AcDbCircle
 10
0.14525166
 20
0.1578553927
 30
0.0
 40
0.0004123792084572
  0
CIRCLE
  5
508
330
1F
100
AcDbEntity
  8
0
  6
Continuous
 62
     7
370
    25
100
AcDbCircle
 10
0.1431172279
 20
0.1548632065
 30
0.0
 40
0.0004495851905887
  0
CIRCLE
  5
509
330
1F
100
AcDbEntity
  8
0
  6
Continuous
 62
     7
370
    25
100
AcDbCircle
 10
0.1415931346
 20
0.151518641
 30
0.0
 40
0.0004123792084572
  0
CIRCLE
  5
50A
330
1F
100
AcDbEntity
  8
0
  6
Continuous
 62
     7
370
    25
100
AcDbCircle
 10
0.1403699721
 20
0.1487782157
 30
0.0
 40
0.0003709228309916
  0
CIRCLE
  5
50B
330
1F
100
AcDbEntity
  8
0
  6
Continuous
 62
     7
370
    25
100
AcDbCircle
 10
0.144302212
 20
0.1541790556
 30
0.0
 40
0.000173
  0
CIRCLE
  5
50C
330
1F
100
AcDbEntity
  8
0
  6
Continuous
 62
     7
370
    25
100
AcDbCircle
 10
0.144302212
 20
0.1541790556
 30
0.0
 40
0.00009
  0
CIRCLE
  5
50D
330
1F
100
AcDbEntity
  8
0
  6
Continuous
 62
     7
370
    25
100
AcDbCircle
 10
0.1403699721
 20
0.1487782157
 30
0.0
 40
0.0003109228309916
  0
CIRCLE
  5
50E
330
1F
100
AcDbEntity
  8
0
  6
Continuous
 62
     7
370
    25
100
AcDbCircle
 10
0.1415931346
 20
0.151518641
 30
0.0
 40
0.0003523792084572
  0
CIRCLE
  5
50F
330
1F
100
AcDbEntity
  8
0
  6
Continuous
 62
     7
370
    25
100
AcDbCircle
 10
0.1431172279
 20
0.1548632065
 30
0.0
 40
0.0003895851905887
  0
CIRCLE
  5
510
330
1F
100
AcDbEntity
  8
0
  6
Continuous
 62
     7
370
    25
100
AcDbCircle
 10
0.14525166
 20
0.1578553927
 30
0.0
 40
0.0003523792084572
  0
CIRCLE
  5
511
330
1F
100
AcDbEntity
  8
0
  6
Continuous
 62
     7
370
    25
100
AcDbCircle
 10
0.0800426451
 20
0.1836082142
 30
0.0
 40
0.0003709228309916
  0
CIRCLE
  5
512
330
1F
100
AcDbEntity
  8
0
  6
Continuous
 62
     7
370
    25
100
AcDbCircle
 10
0.0818043418
 20
0.1860377166
 30
0.0
 40
0.0004123792084572
  0
CIRCLE
  5
513
330
1F
100
AcDbEntity
  8
0
  6
Continuous
 62
     7
370
    25
100
AcDbCircle
 10
0.0839387738
 20
0.1890299029
 30
0.0
 40
0.0004495851905887
  0
CIRCLE
  5
514
330
1F
100
AcDbEntity
  8
0
  6
Continuous
 62
     7
370
    25
100
AcDbCircle
 10
0.0854628671
 20
0.1923744684
 30
0.0
 40
0.0004123792084572
  0
CIRCLE
  5
515
330
1F
100
AcDbEntity
  8
0
  6
Continuous
 62
     7
370
    25
100
AcDbCircle
 10
0.0827537897
 20
0.1897140538
 30
0.0
 40
0.000173
  0
CIRCLE
  5
516
330
1F
100
AcDbEntity
  8
0
  6
Continuous
 62
     7
370
    25
100
AcDbCircle
 10
0.0839387738
 20
0.1890299029
 30
0.0
 40
0.0003895851905887
  0
CIRCLE
  5
517
330
1F
100
AcDbEntity
  8
0
  6
Continuous
 62
     7
370
    25
100
AcDbCircle
 10
0.0818043418
 20
0.1860377166
 30
0.0
 40
0.0003523792084572
  0
ARC
  5
518
330
1F
100
AcDbEntity
  8
0
  6
Continuous
 62
     7
370
    25
100
AcDbCircle
 10
0.1076661681
 20
0.1753308854
 30
0.0
 40
0.032
100
AcDbArc
 50
140.5750077975
 51
162.2429235419
  0
ARC
  5
519
330
1F
100
AcDbEntity
  8
0
  6
Continuous
 62
     7
370
    25
100
AcDbCircle
 10
0.0568724679
 20
0.2046566419
 30
0.0
 40
0.032
100
AcDbArc
 50
316.1907766064
 51
339.7579332921
  0
CIRCLE
  5
51A
330
1F
100
AcDbEntity
  8
0
  6
Continuous
 62
     7
370
    25
100
AcDbCircle
 10
0.0800426451
 20
0.1836082142
 30
0.0
 40
0.0003109228309916
  0
CIRCLE
  5
51B
330
1F
100
AcDbEntity
  8
0
  6
Continuous
 62
     7
370
    25
100
AcDbCircle
 10
0.0827537897
 20
0.1897140538
 30
0.0
 40
0.00009
  0
CIRCLE
  5
51C
330
1F
100
AcDbEntity
  8
0
  6
Continuous
 62
     7
370
    25
100
AcDbCircle
 10
0.0854628671
 20
0.1923744684
 30
0.0
 40
0.0003523792084572
  0
ARC
  5
51D
330
1F
100
AcDbEntity
  8
0
  6
Continuous
 62
     7
370
    25
100
AcDbCircle
 10
0.1076661681
 20
0.1501347248
 30
0.0
 40
0.032
100
AcDbArc
 50
197.7731643256
 51
219.4249922025
  0
ARC
  5
51E
330
1F
100
AcDbEntity
  8
0
  6
Continuous
 62
     7
370
    25
100
AcDbCircle
 10
0.0568724679
 20
0.1208089683
 30
0.0
 40
0.032
100
AcDbArc
 50
20.2420667079
 51
43.7951161556
  0
CIRCLE
  5
51F
330
1F
100
AcDbEntity
  8
0
  6
Continuous
 62
     7
370
    25
100
AcDbCircle
 10
0.0854628671
 20
0.1330911419
 30
0.0
 40
0.0004123792084572
  0
CIRCLE
  5
520
330
1F
100
AcDbEntity
  8
0
  6
Continuous
 62
     7
370
    25
100
AcDbCircle
 10
0.0839387738
 20
0.1364357074
 30
0.0
 40
0.0004495851905887
  0
CIRCLE
  5
521
330
1F
100
AcDbEntity
  8
0
  6
Continuous
 62
     7
370
    25
100
AcDbCircle
 10
0.0818043418
 20
0.1394278936
 30
0.0
 40
0.0004123792084572
  0
CIRCLE
  5
522
330
1F
100
AcDbEntity
  8
0
  6
Continuous
 62
     7
370
    25
100
AcDbCircle
 10
0.0800426451
 20
0.1418573961
 30
0.0
 40
0.0003709228309916
  0
CIRCLE
  5
523
330
1F
100
AcDbEntity
  8
0
  6
Continuous
 62
     7
370
    25
100
AcDbCircle
 10
0.0827537897
 20
0.1357515565
 30
0.0
 40
0.000173
  0
CIRCLE
  5
524
330
1F
100
AcDbEntity
  8
0
  6
Continuous
 62
     7
370
    25
100
AcDbCircle
 10
0.0818043418
 20
0.1394278936
 30
0.0
 40
0.0003523792084572
  0
CIRCLE
  5
525
330
1F
100
AcDbEntity
  8
0
  6
Continuous
 62
     7
370
    25
100
AcDbCircle
 10
0.0827537897
 20
0.1357515565
 30
0.0
 40
0.00009
  0
CIRCLE
  5
526
330
1F
100
AcDbEntity
  8
0
  6
Continuous
 62
     7
370
    25
100
AcDbCircle
 10
0.0800426451
 20
0.1418573961
 30
0.0
 40
0.0003109228309916
  0
CIRCLE
  5
527
330
1F
100
AcDbEntity
  8
0
  6
Continuous
 62
     7
370
    25
100
AcDbCircle
 10
0.0839387738
 20
0.1364357074
 30
0.0
 40
0.0003895851905887
  0
CIRCLE
  5
528
330
1F
100
AcDbEntity
  8
0
  6
Continuous
 62
     7
370
    25
100
AcDbCircle
 10
0.0854628671
 20
0.1330911419
 30
0.0
 40
0.0003523792084572
  0
ARC
  5
529
330
1F
100
AcDbEntity
  8
0
  6
Continuous
 62
     1
370
    25
100
AcDbCircle
 10
0.1087507121
 20
0.1501347248
 30
0.0
 40
0.03194
100
AcDbArc
 50
320.5239552733
 51
342.2379568111
  0
ARC
  5
52A
330
1F
100
AcDbEntity
  8
0
  6
Continuous
 62
     1
370
    25
100
AcDbCircle
 10
0.1595444123
 20
0.1208089683
 30
0.0
 40
0.03194
100
AcDbArc
 50
136.2456177349
 51
159.7222024154
  0
ARC
  5
52B
330
1F
100
AcDbEntity
  8
0
  6
Continuous
 62
     1
370
    25
100
AcDbCircle
 10
0.0975693185
 20
0.1695014666
 30
0.0
 40
0.03194
100
AcDbArc
 50
77.7782145558
 51
99.4760447267
  0
ARC
  5
52C
330
1F
100
AcDbEntity
  8
0
  6
Continuous
 62
     1
370
    25
100
AcDbCircle
 10
0.0975693185
 20
0.2281529796
 30
0.0
 40
0.03194
100
AcDbArc
 50
260.2777975846
 51
283.7401572181
  0
ARC
  5
52D
330
1F
100
AcDbEntity
  8
0
  6
Continuous
 62
     1
370
    25
100
AcDbCircle
 10
0.0975693185
 20
0.0973126307
 30
0.0
 40
0.03194
100
AcDbArc
 50
76.2456177349
 51
99.7222024154
  0
ARC
  5
52E
330
1F
100
AcDbEntity
  8
0
  6
Continuous
 62
     1
370
    25
100
AcDbCircle
 10
0.0975693185
 20
0.1559641436
 30
0.0
 40
0.03194
100
AcDbArc
 50
260.5239552733
 51
282.2379568111
  0
ARC
  5
52F
330
1F
100
AcDbEntity
  8
0
  6
Continuous
 62
     1
370
    25
100
AcDbCircle
 10
0.1188475617
 20
0.1695014666
 30
0.0
 40
0.03194
100
AcDbArc
 50
80.5239552733
 51
102.2379568111
  0
ARC
  5
530
330
1F
100
AcDbEntity
  8
0
  6
Continuous
 62
     1
370
    25
100
AcDbCircle
 10
0.1188475617
 20
0.2281529796
 30
0.0
 40
0.03194
100
AcDbArc
 50
256.2456177349
 51
279.7222024154
  0
ARC
  5
531
330
1F
100
AcDbEntity
  8
0
  6
Continuous
 62
     1
370
    25
100
AcDbCircle
 10
0.1087507121
 20
0.1753308854
 30
0.0
 40
0.03194
100
AcDbArc
 50
17.7782145558
 51
39.4760447267
  0
ARC
  5
532
330
1F
100
AcDbEntity
  8
0
  6
Continuous
 62
     1
370
    25
100
AcDbCircle
 10
0.1595444123
 20
0.2046566419
 30
0.0
 40
0.03194
100
AcDbArc
 50
200.2777975846
 51
223.7401572181
  0
ARC
  5
533
330
1F
100
AcDbEntity
  8
0
  6
Continuous
 62
     1
370
    25
100
AcDbCircle
 10
0.1188475617
 20
0.1559641436
 30
0.0
 40
0.03194
100
AcDbArc
 50
257.7782145558
 51
279.4760447267
  0
ARC
  5
534
330
1F
100
AcDbEntity
  8
0
  6
Continuous
 62
     1
370
    25
100
AcDbCircle
 10
0.1188475617
 20
0.0973126307
 30
0.0
 40
0.03194
100
AcDbArc
 50
80.2777975846
 51
103.7401572181
  0
ARC
  5
535
330
1F
100
AcDbEntity
  8
0
  6
Continuous
 62
     1
370
    25
100
AcDbCircle
 10
0.0970270465
 20
0.1569033863
 30
0.0
 40
0.03194
100
AcDbArc
 50
137.7782145558
 51
159.4760447267
  0
ARC
  5
536
330
1F
100
AcDbEntity
  8
0
  6
Continuous
 62
     1
370
    25
100
AcDbCircle
 10
0.0462333463
 20
0.1862291428
 30
0.0
 40
0.03194
100
AcDbArc
 50
320.2777975846
 51
343.7401572181
  0
ARC
  5
537
330
1F
100
AcDbEntity
  8
0
  6
Continuous
 62
     1
370
    25
100
AcDbCircle
 10
0.1701835339
 20
0.1862291428
 30
0.0
 40
0.03194
100
AcDbArc
 50
196.2456177349
 51
219.7222024154
  0
ARC
  5
538
330
1F
100
AcDbEntity
  8
0
  6
Continuous
 62
     1
370
    25
100
AcDbCircle
 10
0.1193898337
 20
0.1569033863
 30
0.0
 40
0.03194
100
AcDbArc
 50
20.5239552733
 51
42.2379568111
  0
ARC
  5
539
330
1F
100
AcDbEntity
  8
0
  6
Continuous
 62
     1
370
    25
100
AcDbCircle
 10
0.0970270465
 20
0.1685622239
 30
0.0
 40
0.03194
100
AcDbArc
 50
200.5239552733
 51
222.2379568111
  0
ARC
  5
53A
330
1F
100
AcDbEntity
  8
0
  6
Continuous
 62
     1
370
    25
100
AcDbCircle
 10
0.0462333463
 20
0.1392364674
 30
0.0
 40
0.03194
100
AcDbArc
 50
16.2456177349
 51
39.7222024154
  0
ARC
  5
53B
330
1F
100
AcDbEntity
  8
0
  6
Continuous
 62
     1
370
    25
100
AcDbCircle
 10
0.1701835339
 20
0.1392364674
 30
0.0
 40
0.03194
100
AcDbArc
 50
140.2777975846
 51
163.7401572181
  0
ARC
  5
53C
330
1F
100
AcDbEntity
  8
0
  6
Continuous
 62
     1
370
    25
100
AcDbCircle
 10
0.1193898337
 20
0.1685622239
 30
0.0
 40
0.03194
100
AcDbArc
 50
317.7782145558
 51
339.4760447267
  0
ARC
  5
53D
330
1F
100
AcDbEntity
  8
0
  6
Continuous
 62
     1
370
    25
100
AcDbCircle
 10
0.1076661681
 20
0.1753308854
 30
0.0
 40
0.03194
100
AcDbArc
 50
140.5239552733
 51
162.2379568111
  0
ARC
  5
53E
330
1F
100
AcDbEntity
  8
0
  6
Continuous
 62
     1
370
    25
100
AcDbCircle
 10
0.0568724679
 20
0.2046566419
 30
0.0
 40
0.03194
100
AcDbArc
 50
316.2456177349
 51
339.7222024154
  0
ARC
  5
53F
330
1F
100
AcDbEntity
  8
0
  6
Continuous
 62
     1
370
    25
100
AcDbCircle
 10
0.1076661681
 20
0.1501347248
 30
0.0
 40
0.03194
100
AcDbArc
 50
197.7782145558
 51
219.4760447267
  0
ARC
  5
540
330
1F
100
AcDbEntity
  8
0
  6
Continuous
 62
     1
370
    25
100
AcDbCircle
 10
0.0568724679
 20
0.1208089683
 30
0.0
 40
0.03194
100
AcDbArc
 50
20.2777975846
 51
43.7401572181
  0
ENDSEC
  0
SECTION
  2
OBJECTS
  0
DICTIONARY
  5
C
330
0
100
AcDbDictionary
281
     1
  3
ACAD_DETAILVIEWSTYLE
350
549
  3
ACAD_GROUP
350
D
  3
ACAD_LAYOUT
350
1A
  3
ACAD_MATERIAL
350
43
  3
ACAD_MLEADERSTYLE
350
6B
  3
ACAD_MLINESTYLE
350
17
  3
ACAD_PLOTSETTINGS
350
19
  3
ACAD_PLOTSTYLENAME
350
E
  3
ACAD_SCALELIST
350
47
  3
ACAD_SECTIONVIEWSTYLE
350
54A
  3
ACAD_TABLESTYLE
350
69
  3
ACAD_VISUALSTYLE
350
2A
  3
ACDB_RECOMPOSE_DATA
350
546
  3
AcDbVariableDictionary
350
541
  0
SUN
  5
6D
330
29
100
AcDbSun
 90
        1
290
     0
 63
     7
421
 16777215
 40
1.0
291
     1
 91
  2455826
 92
 54000000
292
     0
 70
     2
 71
   256
280
     1
  0
DICTIONARY
  5
549
102
{ACAD_REACTORS
330
C
102
}
330
C
100
AcDbDictionary
281
     1
  0
DICTIONARY
  5
D
102
{ACAD_REACTORS
330
C
102
}
330
C
100
AcDbDictionary
281
     1
  0
DICTIONARY
  5
1A
102
{ACAD_REACTORS
330
C
102
}
330
C
100
AcDbDictionary
281
     1
  3
Layout1
350
1E
  3
Layout2
350
26
  3
Model
350
22
  0
DICTIONARY
  5
43
102
{ACAD_REACTORS
330
C
102
}
330
C
100
AcDbDictionary
281
     1
  3
ByBlock
350
45
  3
ByLayer
350
44
  3
Global
350
46
  0
DICTIONARY
  5
6B
102
{ACAD_REACTORS
330
C
102
}
330
C
100
AcDbDictionary
281
     1
  3
Standard
350
6C
  0
DICTIONARY
  5
17
102
{ACAD_REACTORS
330
C
102
}
330
C
100
AcDbDictionary
281
     1
  3
Standard
350
18
  0
DICTIONARY
  5
19
102
{ACAD_REACTORS
330
C
102
}
330
C
100
AcDbDictionary
281
     1
  0
ACDBDICTIONARYWDFLT
  5
E
102
{ACAD_REACTORS
330
C
102
}
330
C
100
AcDbDictionary
281
     1
  3
Normal
350
F
100
AcDbDictionaryWithDefault
340
F
  0
DICTIONARY
  5
47
102
{ACAD_REACTORS
330
C
102
}
330
C
100
AcDbDictionary
281
     1
  3
A0
350
48
  3
A1
350
49
  3
A2
350
4A
  3
A3
350
4B
  3
A4
350
4C
  3
A5
350
4D
  3
A6
350
4E
  3
A7
350
4F
  3
A8
350
50
  3
A9
350
51
  3
B0
350
52
  3
B1
350
53
  3
B2
350
54
  3
B3
350
55
  3
B4
350
56
  3
B5
350
57
  3
B6
350
58
  3
B7
350
59
  3
B8
350
5A
  3
B9
350
5B
  3
C0
350
5C
  3
C1
350
5D
  3
C2
350
5E
  3
C3
350
5F
  3
C4
350
60
  3
C5
350
61
  3
C6
350
62
  3
C7
350
63
  3
C8
350
64
  3
C9
350
65
  3
D0
350
66
  3
D1
350
67
  3
D2
350
68
  0
DICTIONARY
  5
54A
102
{ACAD_REACTORS
330
C
102
}
330
C
100
AcDbDictionary
281
     1
  0
DICTIONARY
  5
69
102
{ACAD_REACTORS
330
C
102
}
330
C
100
AcDbDictionary
281
     1
  3
Standard
350
6A
  0
DICTIONARY
  5
2A
102
{ACAD_REACTORS
330
C
102
}
330
C
100
AcDbDictionary
281
     1
  3
2dWireframe
350
2F
  3
Basic
350
32
  3
Brighten
350
36
  3
ColorChange
350
3A
  3
Conceptual
350
34
  3
Dim
350
35
  3
EdgeColorOff
350
3D
  3
Facepattern
350
39
  3
Flat
350
2B
  3
FlatWithEdges
350
2C
  3
Gouraud
350
2D
  3
GouraudWithEdges
350
2E
  3
Hidden
350
31
  3
JitterOff
350
3B
  3
Linepattern
350
38
  3
OverhangOff
350
3C
  3
Realistic
350
33
  3
Shaded
350
42
  3
Shaded with edges
350
41
  3
Shades of Gray
350
3E
  3
Sketchy
350
3F
  3
Thicken
350
37
  3
Wireframe
350
30
  3
X-Ray
350
40
  0
XRECORD
  5
546
102
{ACAD_REACTORS
330
C
102
}
330
C
100
AcDbXrecord
280
     1
 90
        1
330
6A
  0
DICTIONARY
  5
541
102
{ACAD_REACTORS
330
C
102
}
330
C
100
AcDbDictionary
281
     1
  3
CANNOSCALE
350
542
  3
CMLEADERSTYLE
350
548
  3
CTABLESTYLE
350
547
  0
LAYOUT
  5
1E
102
{ACAD_REACTORS
330
1A
102
}
330
1A
100
AcDbPlotSettings
  1

  2
none_device
  4

  6

 40
0.0
 41
0.0
 42
0.0
 43
0.0
 44
0.0
 45
0.0
 46
0.0
 47
0.0
 48
0.0
 49
0.0
140
0.0
141
0.0
142
1.0
143
1.0
 70
   688
 72
     1
 73
     0
 74
     5
  7

 75
    16
 76
     0
 77
     2
 78
   300
147
1.0
148
0.0
149
0.0
100
AcDbLayout
  1
Layout1
 70
     1
 71
     1
 10
0.0
 20
0.0
 11
420.0
 21
297.0
 12
0.0
 22
0.0
 32
0.0
 14
1.0000000000E+20
 24
1.0000000000E+20
 34
1.0000000000E+20
 15
-1.0000000000E+20
 25
-1.0000000000E+20
 35
-1.0000000000E+20
146
0.0
 13
0.0
 23
0.0
 33
0.0
 16
1.0
 26
0.0
 36
0.0
 17
0.0
 27
1.0
 37
0.0
 76
     0
330
1B
  0
LAYOUT
  5
26
102
{ACAD_REACTORS
330
1A
102
}
330
1A
100
AcDbPlotSettings
  1

  2
none_device
  4

  6

 40
0.0
 41
0.0
 42
0.0
 43
0.0
 44
0.0
 45
0.0
 46
0.0
 47
0.0
 48
0.0
 49
0.0
140
0.0
141
0.0
142
1.0
143
1.0
 70
   688
 72
     1
 73
     0
 74
     5
  7

 75
    16
 76
     0
 77
     2
 78
   300
147
1.0
148
0.0
149
0.0
100
AcDbLayout
  1
Layout2
 70
     1
 71
     2
 10
0.0
 20
0.0
 11
0.0
 21
0.0
 12
0.0
 22
0.0
 32
0.0
 14
0.0
 24
0.0
 34
0.0
 15
0.0
 25
0.0
 35
0.0
146
0.0
 13
0.0
 23
0.0
 33
0.0
 16
1.0
 26
0.0
 36
0.0
 17
0.0
 27
1.0
 37
0.0
 76
     0
330
23
  0
LAYOUT
  5
22
102
{ACAD_REACTORS
330
1A
102
}
330
1A
100
AcDbPlotSettings
  1

  2
none_device
  4
Letter_(8.50_x_11.00_Inches)
  6

 40
6.35
 41
6.35
 42
6.35000508
 43
6.35000508
 44
215.9
 45
279.4
 46
0.0
 47
0.0
 48
0.0
 49
0.0
140
0.0
141
0.0
142
1.0
143
1.0
 70
  1712
 72
     1
 73
     0
 74
     0
  7

 75
     0
 76
     0
 77
     2
 78
   300
147
1.0
148
0.0
149
0.0
100
AcDbLayout
  1
Model
 70
     1
 71
     0
 10
0.0
 20
0.0
 11
0.21
 21
0.297
 12
0.0
 22
0.0
 32
0.0
 14
0.0
 24
0.0
 34
0.0
 15
0.21
 25
0.297
 35
0.0
146
0.0
 13
0.0
 23
0.0
 33
0.0
 16
1.0
 26
0.0
 36
0.0
 17
0.0
 27
1.0
 37
0.0
 76
     0
330
1F
331
29
  0
MATERIAL
  5
45
102
{ACAD_REACTORS
330
43
102
}
330
43
100
AcDbMaterial
  1
ByBlock
 72
     1
 94
      127
  0
MATERIAL
  5
44
102
{ACAD_REACTORS
330
43
102
}
330
43
100
AcDbMaterial
  1
ByLayer
 72
     1
 94
      127
  0
MATERIAL
  5
46
102
{ACAD_REACTORS
330
43
102
}
330
43
100
AcDbMaterial
  1
Global
 72
     1
 94
      127
  0
MLEADERSTYLE
  5
6C
102
{ACAD_REACTORS
330
6B
102
}
330
6B
100
AcDbMLeaderStyle
170
     2
171
     1
172
     0
 90
        2
 40
0.0
 41
0.0
173
     1
 91
-1056964608
340
14
 92
       -2
290
     1
 42
2.0
291
     1
 43
8.0
  3
Standard
341
0
 44
4.0
300

342
11
174
     1
178
     6
175
     1
176
     0
 93
-1056964608
 45
4.0
292
     0
297
     0
 46
4.0
343
0
 94
-1056964608
 47
1.0
 49
1.0
140
1.0
293
     1
141
0.0
294
     1
177
     0
142
1.0
295
     0
296
     0
143
3.75
1001
ACAD_MLEADERVER
1070
     2
  0
MLINESTYLE
  5
18
102
{ACAD_REACTORS
330
17
102
}
330
17
100
AcDbMlineStyle
  2
Standard
 70
     0
  3

 62
   256
 51
90.0
 52
90.0
 71
     2
 49
0.5
 62
   256
  6
BYLAYER
 49
-0.5
 62
   256
  6
BYLAYER
  0
ACDBPLACEHOLDER
  5
F
102
{ACAD_REACTORS
330
E
102
}
330
E
  0
SCALE
  5
48
102
{ACAD_REACTORS
330
47
102
}
330
47
100
AcDbScale
 70
     0
300
1:1
140
1.0
141
1.0
290
     1
  0
SCALE
  5
49
102
{ACAD_REACTORS
330
47
102
}
330
47
100
AcDbScale
 70
     0
300
1:2
140
1.0
141
2.0
290
     0
  0
SCALE
  5
4A
102
{ACAD_REACTORS
330
47
102
}
330
47
100
AcDbScale
 70
     0
300
1:4
140
1.0
141
4.0
290
     0
  0
SCALE
  5
4B
102
{ACAD_REACTORS
330
47
102
}
330
47
100
AcDbScale
 70
     0
300
1:5
140
1.0
141
5.0
290
     0
  0
SCALE
  5
4C
102
{ACAD_REACTORS
330
47
102
}
330
47
100
AcDbScale
 70
     0
300
1:8
140
1.0
141
8.0
290
     0
  0
SCALE
  5
4D
102
{ACAD_REACTORS
330
47
102
}
330
47
100
AcDbScale
 70
     0
300
1:10
140
1.0
141
10.0
290
     0
  0
SCALE
  5
4E
102
{ACAD_REACTORS
330
47
102
}
330
47
100
AcDbScale
 70
     0
300
1:16
140
1.0
141
16.0
290
     0
  0
SCALE
  5
4F
102
{ACAD_REACTORS
330
47
102
}
330
47
100
AcDbScale
 70
     0
300
1:20
140
1.0
141
20.0
290
     0
  0
SCALE
  5
50
102
{ACAD_REACTORS
330
47
102
}
330
47
100
AcDbScale
 70
     0
300
1:30
140
1.0
141
30.0
290
     0
  0
SCALE
  5
51
102
{ACAD_REACTORS
330
47
102
}
330
47
100
AcDbScale
 70
     0
300
1:40
140
1.0
141
40.0
290
     0
  0
SCALE
  5
52
102
{ACAD_REACTORS
330
47
102
}
330
47
100
AcDbScale
 70
     0
300
1:50
140
1.0
141
50.0
290
     0
  0
SCALE
  5
53
102
{ACAD_REACTORS
330
47
102
}
330
47
100
AcDbScale
 70
     0
300
1:100
140
1.0
141
100.0
290
     0
  0
SCALE
  5
54
102
{ACAD_REACTORS
330
47
102
}
330
47
100
AcDbScale
 70
     0
300
2:1
140
2.0
141
1.0
290
     0
  0
SCALE
  5
55
102
{ACAD_REACTORS
330
47
102
}
330
47
100
AcDbScale
 70
     0
300
4:1
140
4.0
141
1.0
290
     0
  0
SCALE
  5
56
102
{ACAD_REACTORS
330
47
102
}
330
47
100
AcDbScale
 70
     0
300
8:1
140
8.0
141
1.0
290
     0
  0
SCALE
  5
57
102
{ACAD_REACTORS
330
47
102
}
330
47
100
AcDbScale
 70
     0
300
10:1
140
10.0
141
1.0
290
     0
  0
SCALE
  5
58
102
{ACAD_REACTORS
330
47
102
}
330
47
100
AcDbScale
 70
     0
300
100:1
140
100.0
141
1.0
290
     0
  0
SCALE
  5
59
102
{ACAD_REACTORS
330
47
102
}
330
47
100
AcDbScale
 70
     0
300
1/128" = 1'-0"
140
0.0078125
141
12.0
290
     0
  0
SCALE
  5
5A
102
{ACAD_REACTORS
330
47
102
}
330
47
100
AcDbScale
 70
     0
300
1/64" = 1'-0"
140
0.015625
141
12.0
290
     0
  0
SCALE
  5
5B
102
{ACAD_REACTORS
330
47
102
}
330
47
100
AcDbScale
 70
     0
300
1/32" = 1'-0"
140
0.03125
141
12.0
290
     0
  0
SCALE
  5
5C
102
{ACAD_REACTORS
330
47
102
}
330
47
100
AcDbScale
 70
     0
300
1/16" = 1'-0"
140
0.0625
141
12.0
290
     0
  0
SCALE
  5
5D
102
{ACAD_REACTORS
330
47
102
}
330
47
100
AcDbScale
 70
     0
300
3/32" = 1'-0"
140
0.09375
141
12.0
290
     0
  0
SCALE
  5
5E
102
{ACAD_REACTORS
330
47
102
}
330
47
100
AcDbScale
 70
     0
300
1/8" = 1'-0"
140
0.125
141
12.0
290
     0
  0
SCALE
  5
5F
102
{ACAD_REACTORS
330
47
102
}
330
47
100
AcDbScale
 70
     0
300
3/16" = 1'-0"
140
0.1875
141
12.0
290
     0
  0
SCALE
  5
60
102
{ACAD_REACTORS
330
47
102
}
330
47
100
AcDbScale
 70
     0
300
1/4" = 1'-0"
140
0.25
141
12.0
290
     0
  0
SCALE
  5
61
102
{ACAD_REACTORS
330
47
102
}
330
47
100
AcDbScale
 70
     0
300
3/8" = 1'-0"
140
0.375
141
12.0
290
     0
  0
SCALE
  5
62
102
{ACAD_REACTORS
330
47
102
}
330
47
100
AcDbScale
 70
     0
300
1/2" = 1'-0"
140
0.5
141
12.0
290
     0
  0
SCALE
  5
63
102
{ACAD_REACTORS
330
47
102
}
330
47
100
AcDbScale
 70
     0
300
3/4" = 1'-0"
140
0.75
141
12.0
290
     0
  0
SCALE
  5
64
102
{ACAD_REACTORS
330
47
102
}
330
47
100
AcDbScale
 70
     0
300
1" = 1'-0"
140
1.0
141
12.0
290
     0
  0
SCALE
  5
65
102
{ACAD_REACTORS
330
47
102
}
330
47
100
AcDbScale
 70
     0
300
1-1/2" = 1'-0"
140
1.5
141
12.0
290
     0
  0
SCALE
  5
66
102
{ACAD_REACTORS
330
47
102
}
330
47
100
AcDbScale
 70
     0
300
3" = 1'-0"
140
3.0
141
12.0
290
     0
  0
SCALE
  5
67
102
{ACAD_REACTORS
330
47
102
}
330
47
100
AcDbScale
 70
     0
300
6" = 1'-0"
140
6.0
141
12.0
290
     0
  0
SCALE
  5
68
102
{ACAD_REACTORS
330
47
102
}
330
47
100
AcDbScale
 70
     0
300
1'-0" = 1'-0"
140
12.0
141
12.0
290
     0
  0
TABLESTYLE
  5
6A
102
{ACAD_REACTORS
330
69
102
}
102
{ACAD_XDICTIONARY
360
543
102
}
330
69
100
AcDbTableStyle
  3
Standard
 70
     0
 71
     0
 40
0.06
 41
0.06
280
     0
281
     0
  7
Standard
140
4.5
170
     2
 62
     0
 63
   257
283
     0
 90
        4
 91
        0
  1

274
    -2
284
     1
 64
     0
275
    -2
285
     1
 65
     0
276
    -2
286
     1
 66
     0
277
    -2
287
     1
 67
     0
278
    -2
288
     1
 68
     0
279
    -2
289
     1
 69
     0
  7
Standard
140
6.0
170
     5
 62
     0
 63
   257
283
     0
 90
        4
 91
        0
  1

274
    -2
284
     1
 64
     0
275
    -2
285
     1
 65
     0
276
    -2
286
     1
 66
     0
277
    -2
287
     1
 67
     0
278
    -2
288
     1
 68
     0
279
    -2
289
     1
 69
     0
  7
Standard
140
4.5
170
     5
 62
     0
 63
   257
283
     0
 90
        4
 91
        0
  1

274
    -2
284
     1
 64
     0
275
    -2
285
     1
 65
     0
276
    -2
286
     1
 66
     0
277
    -2
287
     1
 67
     0
278
    -2
288
     1
 68
     0
279
    -2
289
     1
 69
     0
  0
VISUALSTYLE
  5
2F
102
{ACAD_REACTORS
330
2A
102
}
330
2A
100
AcDbVisualStyle
  2
2dWireframe
 70
     4
 71
     0
 72
     2
 73
     0
 90
        0
 40
0.6
 41
30.0
 62
     5
 63
     7
421
 16777215
 74
     1
 91
        4
 64
     7
 65
   257
 75
     1
175
     1
 42
1.0
 92
        0
 66
   257
 43
1.0
 76
     1
 77
     6
 78
     2
 67
     7
 79
     5
170
     0
171
     0
290
     0
174
     0
 93
        1
 44
0.0
173
     0
291
     0
 45
0.0
  0
VISUALSTYLE
  5
32
102
{ACAD_REACTORS
330
2A
102
}
330
2A
100
AcDbVisualStyle
  2
Basic
 70
     7
 71
     1
 72
     0
 73
     1
 90
        0
 40
0.6
 41
30.0
 62
     5
 63
     7
421
 16777215
 74
     0
 91
        4
 64
     7
 65
   257
 75
     1
175
     1
 42
1.0
 92
        8
 66
     7
 43
1.0
 76
     1
 77
     6
 78
     2
 67
     7
 79
     5
170
     0
171
     0
290
     0
174
     0
 93
        1
 44
0.0
173
     0
291
     1
 45
0.0
  0
VISUALSTYLE
  5
36
102
{ACAD_REACTORS
330
2A
102
}
330
2A
100
AcDbVisualStyle
  2
Brighten
 70
    12
 71
     2
 72
     2
 73
     0
 90
        0
 40
0.6
 41
30.0
 62
     5
 63
     7
421
 16777215
 74
     1
 91
        4
 64
     7
 65
   257
 75
     1
175
     1
 42
1.0
 92
        8
 66
     7
 43
1.0
 76
     1
 77
     6
 78
     2
 67
     7
 79
     5
170
     0
171
     0
290
     0
174
     0
 93
        1
 44
50.0
173
     0
291
     1
 45
0.0
  0
VISUALSTYLE
  5
3A
102
{ACAD_REACTORS
330
2A
102
}
330
2A
100
AcDbVisualStyle
  2
ColorChange
 70
    16
 71
     2
 72
     2
 73
     3
 90
        0
 40
0.6
 41
30.0
 62
     5
 63
     8
421
  8421504
 74
     1
 91
        4
 64
     7
 65
   257
 75
     1
175
     1
 42
1.0
 92
        8
 66
     8
424
  8421504
 43
1.0
 76
     1
 77
     6
 78
     2
 67
     7
 79
     5
170
     0
171
     0
290
     0
174
     0
 93
        1
 44
0.0
173
     0
291
     1
 45
0.0
  0
VISUALSTYLE
  5
34
102
{ACAD_REACTORS
330
2A
102
}
330
2A
100
AcDbVisualStyle
  2
Conceptual
 70
     9
 71
     3
 72
     2
 73
     0
 90
        0
 40
0.6
 41
30.0
 62
     5
 63
     7
421
 16777215
 74
     2
 91
        2
 64
     7
 65
   257
 75
     1
175
     1
 42
179.0
 92
        8
 66
     7
 43
1.0
 76
     1
 77
     6
 78
     2
 67
     7
 79
     3
170
     0
171
     0
290
     0
174
     0
 93
        1
 44
0.0
173
     0
291
     0
 45
0.0
  0
VISUALSTYLE
  5
35
102
{ACAD_REACTORS
330
2A
102
}
330
2A
100
AcDbVisualStyle
  2
Dim
 70
    11
 71
     2
 72
     2
 73
     0
 90
        0
 40
0.6
 41
30.0
 62
     5
 63
     7
421
 16777215
 74
     1
 91
        4
 64
     7
 65
   257
 75
     1
175
     1
 42
1.0
 92
        8
 66
     7
 43
1.0
 76
     1
 77
     6
 78
     2
 67
     7
 79
     5
170
     0
171
     0
290
     0
174
     0
 93
        1
 44
-50.0
173
     0
291
     1
 45
0.0
  0
VISUALSTYLE
  5
3D
102
{ACAD_REACTORS
330
2A
102
}
330
2A
100
AcDbVisualStyle
  2
EdgeColorOff
 70
    22
 71
     2
 72
     2
 73
     0
 90
        0
 40
0.6
 41
30.0
 62
     5
 63
     7
421
 16777215
 74
     1
 91
        4
 64
     7
 65
   257
 75
     1
175
     1
 42
1.0
 92
        8
 66
     7
 43
1.0
 76
     1
 77
     6
 78
     2
 67
     7
 79
     5
170
     0
171
     0
290
     0
174
     0
 93
        1
 44
0.0
173
     0
291
     1
 45
0.0
  0
VISUALSTYLE
  5
39
102
{ACAD_REACTORS
330
2A
102
}
330
2A
100
AcDbVisualStyle
  2
Facepattern
 70
    15
 71
     2
 72
     2
 73
     0
 90
        0
 40
0.6
 41
30.0
 62
     5
 63
     7
421
 16777215
 74
     1
 91
        4
 64
     7
 65
   257
 75
     1
175
     1
 42
1.0
 92
        8
 66
     7
 43
1.0
 76
     1
 77
     6
 78
     2
 67
     7
 79
     5
170
     0
171
     0
290
     0
174
     0
 93
        1
 44
0.0
173
     0
291
     1
 45
0.0
  0
VISUALSTYLE
  5
2B
102
{ACAD_REACTORS
330
2A
102
}
330
2A
100
AcDbVisualStyle
  2
Flat
 70
     0
 71
     2
 72
     1
 73
     1
 90
        2
 40
0.6
 41
30.0
 62
     5
 63
     7
421
 16777215
 74
     0
 91
        0
 64
     7
 65
   257
 75
     1
175
     1
 42
1.0
 92
        8
 66
     7
 43
1.0
 76
     1
 77
     6
 78
     2
 67
     7
 79
     5
170
     0
171
     0
290
     0
174
     0
 93
       13
 44
0.0
173
     0
291
     1
 45
0.0
  0
VISUALSTYLE
  5
2C
102
{ACAD_REACTORS
330
2A
102
}
330
2A
100
AcDbVisualStyle
  2
FlatWithEdges
 70
     1
 71
     2
 72
     1
 73
     1
 90
        2
 40
0.6
 41
30.0
 62
     5
 63
     7
421
 16777215
 74
     1
 91
        0
 64
     7
 65
   257
 75
     1
175
     1
 42
1.0
 92
        0
 66
   257
 43
1.0
 76
     1
 77
     6
 78
     2
 67
     7
 79
     5
170
     0
171
     0
290
     0
174
     0
 93
       13
 44
0.0
173
     0
291
     1
 45
0.0
  0
VISUALSTYLE
  5
2D
102
{ACAD_REACTORS
330
2A
102
}
330
2A
100
AcDbVisualStyle
  2
Gouraud
 70
     2
 71
     2
 72
     2
 73
     1
 90
        2
 40
0.6
 41
30.0
 62
     5
 63
     7
421
 16777215
 74
     0
 91
        0
 64
     7
 65
   257
 75
     1
175
     1
 42
1.0
 92
        0
 66
     7
 43
1.0
 76
     1
 77
     6
 78
     2
 67
     7
 79
     5
170
     0
171
     0
290
     0
174
     0
 93
       13
 44
0.0
173
     0
291
     1
 45
0.0
  0
VISUALSTYLE
  5
2E
102
{ACAD_REACTORS
330
2A
102
}
330
2A
100
AcDbVisualStyle
  2
GouraudWithEdges
 70
     3
 71
     2
 72
     2
 73
     1
 90
        2
 40
0.6
 41
30.0
 62
     5
 63
     7
421
 16777215
 74
     1
 91
        0
 64
     7
 65
   257
 75
     1
175
     1
 42
1.0
 92
        0
 66
   257
 43
1.0
 76
     1
 77
     6
 78
     2
 67
     7
 79
     5
170
     0
171
     0
290
     0
174
     0
 93
       13
 44
0.0
173
     0
291
     1
 45
0.0
  0
VISUALSTYLE
  5
31
102
{ACAD_REACTORS
330
2A
102
}
330
2A
100
AcDbVisualStyle
  2
Hidden
 70
     6
 71
     1
 72
     2
 73
     2
 90
        0
 40
0.6
 41
30.0
 62
     5
 63
     7
421
 16777215
 74
     2
 91
        2
 64
     7
 65
   257
 75
     2
175
     1
 42
40.0
 92
        0
 66
   257
 43
1.0
 76
     1
 77
     6
 78
     2
 67
     7
 79
     3
170
     0
171
     0
290
     0
174
     0
 93
        1
 44
0.0
173
     0
291
     0
 45
0.0
  0
VISUALSTYLE
  5
3B
102
{ACAD_REACTORS
330
2A
102
}
330
2A
100
AcDbVisualStyle
  2
JitterOff
 70
    20
 71
     2
 72
     2
 73
     0
 90
        0
 40
0.6
 41
30.0
 62
     5
 63
     7
421
 16777215
 74
     1
 91
        4
 64
     7
 65
   257
 75
     1
175
     1
 42
1.0
 92
       10
 66
     7
 43
1.0
 76
     1
 77
     6
 78
     2
 67
     7
 79
     5
170
     0
171
     0
290
     0
174
     0
 93
        1
 44
0.0
173
     0
291
     1
 45
0.0
  0
VISUALSTYLE
  5
38
102
{ACAD_REACTORS
330
2A
102
}
330
2A
100
AcDbVisualStyle
  2
Linepattern
 70
    14
 71
     2
 72
     2
 73
     0
 90
        0
 40
0.6
 41
30.0
 62
     5
 63
     7
421
 16777215
 74
     1
 91
        4
 64
     7
 65
   257
 75
     7
175
     7
 42
1.0
 92
        8
 66
     7
 43
1.0
 76
     1
 77
     6
 78
     2
 67
     7
 79
     5
170
     0
171
     0
290
     0
174
     0
 93
        1
 44
0.0
173
     0
291
     1
 45
0.0
  0
VISUALSTYLE
  5
3C
102
{ACAD_REACTORS
330
2A
102
}
330
2A
100
AcDbVisualStyle
  2
OverhangOff
 70
    21
 71
     2
 72
     2
 73
     0
 90
        0
 40
0.6
 41
30.0
 62
     5
 63
     7
421
 16777215
 74
     1
 91
        4
 64
     7
 65
   257
 75
     1
175
     1
 42
1.0
 92
        9
 66
     7
 43
1.0
 76
     1
 77
     6
 78
     2
 67
     7
 79
     5
170
     0
171
     0
290
     0
174
     0
 93
        1
 44
0.0
173
     0
291
     1
 45
0.0
  0
VISUALSTYLE
  5
33
102
{ACAD_REACTORS
330
2A
102
}
330
2A
100
AcDbVisualStyle
  2
Realistic
 70
     8
 71
     2
 72
     3
 73
     0
 90
        2
 40
0.6
 41
30.0
 62
     5
 63
     7
421
 16777215
 74
     0
 91
        0
 64
     7
 65
   257
 75
     1
175
     1
 42
1.0
 92
        8
 66
   257
 43
1.0
 76
     1
 77
     6
 78
     2
 67
     7
 79
     3
170
     0
171
     0
290
     0
174
     0
 93
       13
 44
0.0
173
     0
291
     0
 45
0.0
  0
VISUALSTYLE
  5
42
102
{ACAD_REACTORS
330
2A
102
}
330
2A
100
AcDbVisualStyle
  2
Shaded
 70
    27
 71
     2
 72
     2
 73
     1
 90
        2
 40
0.6
 41
30.0
 62
     5
 63
     7
421
 16777215
 74
     0
 91
        4
 64
     7
 65
   257
 75
     1
175
     1
 42
1.0
 92
        8
 66
   257
 43
1.0
 76
     1
 77
     6
 78
     2
 67
     8
425
  7895160
 79
     3
170
     0
171
     0
290
     0
174
     0
 93
        5
 44
0.0
173
     0
291
     0
 45
0.0
  0
VISUALSTYLE
  5
41
102
{ACAD_REACTORS
330
2A
102
}
330
2A
100
AcDbVisualStyle
  2
Shaded with edges
 70
    26
 71
     2
 72
     2
 73
     1
 90
        2
 40
0.6
 41
30.0
 62
     5
 63
     7
421
 16777215
 74
     1
 91
       10
 64
     7
 65
   257
 75
     2
175
     1
 42
1.0
 92
        8
 66
   257
 43
1.0
 76
     1
 77
     6
 78
     2
 67
     7
 79
     3
170
     0
171
     0
290
     0
174
     0
 93
        5
 44
0.0
173
     0
291
     0
 45
0.0
  0
VISUALSTYLE
  5
3E
102
{ACAD_REACTORS
330
2A
102
}
330
2A
100
AcDbVisualStyle
  2
Shades of Gray
 70
    23
 71
     2
 72
     2
 73
     3
 90
        0
 40
0.6
 41
30.0
 62
     5
 63
     7
421
 16777215
 74
     2
 91
        2
 64
     7
 65
     7
 75
     1
175
     1
 42
40.0
 92
        8
 66
     7
 43
1.0
 76
     1
 77
     6
 78
     2
 67
     7
 79
     3
170
     0
171
     0
290
     0
174
     0
 93
        1
 44
0.0
173
     0
291
     0
 45
0.0
  0
VISUALSTYLE
  5
3F
102
{ACAD_REACTORS
330
2A
102
}
330
2A
100
AcDbVisualStyle
  2
Sketchy
 70
    24
 71
     1
 72
     2
 73
     2
 90
        0
 40
0.6
 41
30.0
 62
     5
 63
     7
421
 16777215
 74
     2
 91
        2
 64
     7
 65
     7
 75
     1
175
     1
 42
40.0
 92
       11
 66
     7
 43
1.0
 76
     1
 77
     6
 78
     2
 67
     7
 79
     6
170
     0
171
     0
290
     0
174
     0
 93
        1
 44
0.0
173
     0
291
     0
 45
0.0
  0
VISUALSTYLE
  5
37
102
{ACAD_REACTORS
330
2A
102
}
330
2A
100
AcDbVisualStyle
  2
Thicken
 70
    13
 71
     2
 72
     2
 73
     0
 90
        0
 40
0.6
 41
30.0
 62
     5
 63
     7
421
 16777215
 74
     1
 91
        4
 64
     7
 65
   257
 75
     1
175
     1
 42
1.0
 92
       12
 66
     7
 43
1.0
 76
     1
 77
     6
 78
     2
 67
     7
 79
     5
170
     0
171
     0
290
     0
174
     0
 93
        1
 44
0.0
173
     0
291
     1
 45
0.0
  0
VISUALSTYLE
  5
30
102
{ACAD_REACTORS
330
2A
102
}
330
2A
100
AcDbVisualStyle
  2
Wireframe
 70
     5
 71
     0
 72
     2
 73
     0
 90
        0
 40
0.6
 41
30.0
 62
     5
 63
     7
421
 16777215
 74
     1
 91
        4
 64
     7
 65
   257
 75
     1
175
     1
 42
1.0
 92
        0
 66
   257
 43
1.0
 76
     1
 77
     6
 78
     2
 67
     7
 79
     3
170
     0
171
     0
290
     0
174
     0
 93
        1
 44
0.0
173
     0
291
     0
 45
0.0
  0
VISUALSTYLE
  5
40
102
{ACAD_REACTORS
330
2A
102
}
330
2A
100
AcDbVisualStyle
  2
X-Ray
 70
    25
 71
     2
 72
     2
 73
     1
 90
        1
 40
0.5
 41
30.0
 62
     5
 63
     7
421
 16777215
 74
     1
 91
        0
 64
     7
 65
   257
 75
     1
175
     1
 42
1.0
 92
        8
 66
     7
 43
1.0
 76
     1
 77
     6
 78
     2
 67
     7
 79
     3
170
     0
171
     0
290
     0
174
     0
 93
       13
 44
0.0
173
     0
291
     0
 45
0.0
  0
DICTIONARYVAR
  5
542
102
{ACAD_REACTORS
330
541
102
}
330
541
100
DictionaryVariables
280
     0
  1
1:1
  0
DICTIONARYVAR
  5
548
102
{ACAD_REACTORS
330
541
102
}
330
541
100
DictionaryVariables
280
     0
  1
Standard
  0
DICTIONARYVAR
  5
547
102
{ACAD_REACTORS
330
541
102
}
330
541
100
DictionaryVariables
280
     0
  1
Standard
  0
DICTIONARY
  5
543
330
6A
100
AcDbDictionary
280
     1
281
     1
  3
ACAD_ROUNDTRIP_2008_TABLESTYLE_CELLSTYLEMAP
360
544
  0
CELLSTYLEMAP
  5
544
102
{ACAD_REACTORS
330
543
102
}
330
543
100
AcDbCellStyleMap
 90
        3
300
CELLSTYLE
  1
TABLEFORMAT_BEGIN
 90
        5
170
     1
 91
        0
 92
    32768
 62
   257
 93
        1
300
CONTENTFORMAT
  1
CONTENTFORMAT_BEGIN
 90
        0
 91
        0
 92
        4
 93
        0
300

 40
0.0
140
1.0
 94
        5
 62
     0
340
11
144
6.0
309
CONTENTFORMAT_END
171
     1
301
MARGIN
  1
CELLMARGIN_BEGIN
 40
1.5
 40
1.5
 40
1.5
 40
1.5
 40
1.5
 40
1.5
309
CELLMARGIN_END
 94
        6
 95
        1
302
GRIDFORMAT
  1
GRIDFORMAT_BEGIN
 90
        0
 91
        1
 62
     0
 92
       -2
340
14
 93
        0
 40
0.045
309
GRIDFORMAT_END
 95
        2
302
GRIDFORMAT
  1
GRIDFORMAT_BEGIN
 90
        0
 91
        1
 62
     0
 92
       -2
340
14
 93
        0
 40
0.045
309
GRIDFORMAT_END
 95
        4
302
GRIDFORMAT
  1
GRIDFORMAT_BEGIN
 90
        0
 91
        1
 62
     0
 92
       -2
340
14
 93
        0
 40
0.045
309
GRIDFORMAT_END
 95
        8
302
GRIDFORMAT
  1
GRIDFORMAT_BEGIN
 90
        0
 91
        1
 62
     0
 92
       -2
340
14
 93
        0
 40
0.045
309
GRIDFORMAT_END
 95
       16
302
GRIDFORMAT
  1
GRIDFORMAT_BEGIN
 90
        0
 91
        1
 62
     0
 92
       -2
340
14
 93
        0
 40
0.045
309
GRIDFORMAT_END
 95
       32
302
GRIDFORMAT
  1
GRIDFORMAT_BEGIN
 90
        0
 91
        1
 62
     0
 92
       -2
340
14
 93
        0
 40
0.045
309
GRIDFORMAT_END
309
TABLEFORMAT_END
  1
CELLSTYLE_BEGIN
 90
        1
 91
        1
300
_TITLE
309
CELLSTYLE_END
300
CELLSTYLE
  1
TABLEFORMAT_BEGIN
 90
        5
170
     1
 91
        0
 92
        0
 62
   257
 93
        1
300
CONTENTFORMAT
  1
CONTENTFORMAT_BEGIN
 90
        0
 91
        0
 92
        4
 93
        0
300

 40
0.0
140
1.0
 94
        5
 62
     0
340
11
144
4.5
309
CONTENTFORMAT_END
171
     1
301
MARGIN
  1
CELLMARGIN_BEGIN
 40
1.5
 40
1.5
 40
1.5
 40
1.5
 40
1.5
 40
1.5
309
CELLMARGIN_END
 94
        6
 95
        1
302
GRIDFORMAT
  1
GRIDFORMAT_BEGIN
 90
        0
 91
        1
 62
     0
 92
       -2
340
14
 93
        0
 40
0.045
309
GRIDFORMAT_END
 95
        2
302
GRIDFORMAT
  1
GRIDFORMAT_BEGIN
 90
        0
 91
        1
 62
     0
 92
       -2
340
14
 93
        0
 40
0.045
309
GRIDFORMAT_END
 95
        4
302
GRIDFORMAT
  1
GRIDFORMAT_BEGIN
 90
        0
 91
        1
 62
     0
 92
       -2
340
14
 93
        0
 40
0.045
309
GRIDFORMAT_END
 95
        8
302
GRIDFORMAT
  1
GRIDFORMAT_BEGIN
 90
        0
 91
        1
 62
     0
 92
       -2
340
14
 93
        0
 40
0.045
309
GRIDFORMAT_END
 95
       16
302
GRIDFORMAT
  1
GRIDFORMAT_BEGIN
 90
        0
 91
        1
 62
     0
 92
       -2
340
14
 93
        0
 40
0.045
309
GRIDFORMAT_END
 95
       32
302
GRIDFORMAT
  1
GRIDFORMAT_BEGIN
 90
        0
 91
        1
 62
     0
 92
       -2
340
14
 93
        0
 40
0.045
309
GRIDFORMAT_END
309
TABLEFORMAT_END
  1
CELLSTYLE_BEGIN
 90
        2
 91
        1
300
_HEADER
309
CELLSTYLE_END
300
CELLSTYLE
  1
TABLEFORMAT_BEGIN
 90
        5
170
     1
 91
        0
 92
        0
 62
   257
 93
        1
300
CONTENTFORMAT
  1
CONTENTFORMAT_BEGIN
 90
        0
 91
        0
 92
        4
 93
        0
300

 40
0.0
140
1.0
 94
        2
 62
     0
340
11
144
4.5
309
CONTENTFORMAT_END
171
     1
301
MARGIN
  1
CELLMARGIN_BEGIN
 40
1.5
 40
1.5
 40
1.5
 40
1.5
 40
1.5
 40
1.5
309
CELLMARGIN_END
 94
        6
 95
        1
302
GRIDFORMAT
  1
GRIDFORMAT_BEGIN
 90
        0
 91
        1
 62
     0
 92
       -2
340
14
 93
        0
 40
0.045
309
GRIDFORMAT_END
 95
        2
302
GRIDFORMAT
  1
GRIDFORMAT_BEGIN
 90
        0
 91
        1
 62
     0
 92
       -2
340
14
 93
        0
 40
0.045
309
GRIDFORMAT_END
 95
        4
302
GRIDFORMAT
  1
GRIDFORMAT_BEGIN
 90
        0
 91
        1
 62
     0
 92
       -2
340
14
 93
        0
 40
0.045
309
GRIDFORMAT_END
 95
        8
302
GRIDFORMAT
  1
GRIDFORMAT_BEGIN
 90
        0
 91
        1
 62
     0
 92
       -2
340
14
 93
        0
 40
0.045
309
GRIDFORMAT_END
 95
       16
302
GRIDFORMAT
  1
GRIDFORMAT_BEGIN
 90
        0
 91
        1
 62
     0
 92
       -2
340
14
 93
        0
 40
0.045
309
GRIDFORMAT_END
 95
       32
302
GRIDFORMAT
  1
GRIDFORMAT_BEGIN
 90
        0
 91
        1
 62
     0
 92
       -2
340
14
 93
        0
 40
0.045
309
GRIDFORMAT_END
309
TABLEFORMAT_END
  1
CELLSTYLE_BEGIN
 90
        3
 91
        2
300
_DATA
309
CELLSTYLE_END
  0
ENDSEC
  0
EOF
