  0
SECTION
  2
HEADER
  9
$ACADVER
  1
AC1021
  9
$ACADMAINTVER
 70
    25
  9
$DWGCODEPAGE
  3
ANSI_1250
  9
$INSBASE
 10
0.0
 20
0.0
 30
0.0
  9
$EXTMIN
 10
0.0
 20
0.0
 30
0.0
  9
$EXTMAX
 10
210.0
 20
297.0
 30
0.0
  9
$LIMMIN
 10
0.0
 20
0.0
  9
$LIMMAX
 10
210.0
 20
297.0
  9
$ORTHOMODE
 70
     0
  9
$REGENMODE
 70
     1
  9
$FILLMODE
 70
     1
  9
$QTEXTMODE
 70
     0
  9
$MIRRTEXT
 70
     1
  9
$LTSCALE
 40
1.0
  9
$ATTMODE
 70
     1
  9
$TEXTSIZE
 40
3.5
  9
$TRACEWID
 40
1.0
  9
$TEXTSTYLE
  7
Standard
  9
$CLAYER
  8
0
  9
$CELTYPE
  6
ByLayer
  9
$CECOLOR
 62
   256
  9
$CELTSCALE
 40
1.0
  9
$DISPSILH
 70
     0
  9
$DIMSCALE
 40
1.0
  9
$DIMASZ
 40
3.302
  9
$DIMEXO
 40
1.0
  9
$DIMDLI
 40
3.75
  9
$DIMRND
 40
0.0
  9
$DIMDLE
 40
0.0
  9
$DIMEXE
 40
1.0
  9
$DIMTP
 40
0.0
  9
$DIMTM
 40
0.0
  9
$DIMTXT
 40
3.5
  9
$DIMCEN
 40
2.5
  9
$DIMTSZ
 40
0.0
  9
$DIMTOL
 70
     0
  9
$DIMLIM
 70
     0
  9
$DIMTIH
 70
     1
  9
$DIMTOH
 70
     1
  9
$DIMSE1
 70
     0
  9
$DIMSE2
 70
     0
  9
$DIMTAD
 70
     1
  9
$DIMZIN
 70
     0
  9
$DIMBLK
  1

  9
$DIMASO
 70
     1
  9
$DIMSHO
 70
     1
  9
$DIMPOST
  1

  9
$DIMAPOST
  1

  9
$DIMALT
 70
     0
  9
$DIMALTD
 70
     3
  9
$DIMALTF
 40
0.0393700787
  9
$DIMLFAC
 40
1.0
  9
$DIMTOFL
 70
     1
  9
$DIMTVP
 40
0.0
  9
$DIMTIX
 70
     0
  9
$DIMSOXD
 70
     0
  9
$DIMSAH
 70
     0
  9
$DIMBLK1
  1

  9
$DIMBLK2
  1

  9
$DIMSTYLE
  2
ISO-25
  9
$DIMCLRD
 70
     0
  9
$DIMCLRE
 70
     0
  9
$DIMCLRT
 70
     0
  9
$DIMTFAC
 40
1.0
  9
$DIMGAP
 40
1.524
  9
$DIMJUST
 70
     0
  9
$DIMSD1
 70
     0
  9
$DIMSD2
 70
     0
  9
$DIMTOLJ
 70
     0
  9
$DIMTZIN
 70
     0
  9
$DIMALTZ
 70
     0
  9
$DIMALTTZ
 70
     0
  9
$DIMUPT
 70
     0
  9
$DIMDEC
 70
     2
  9
$DIMTDEC
 70
     2
  9
$DIMALTU
 70
     2
  9
$DIMALTTD
 70
     3
  9
$DIMTXSTY
  7
Standard
  9
$DIMAUNIT
 70
     0
  9
$DIMADEC
 70
     2
  9
$DIMALTRND
 40
0.0
  9
$DIMAZIN
 70
     0
  9
$DIMDSEP
 70
    44
  9
$DIMATFIT
 70
     3
  9
$DIMFRAC
 70
     0
  9
$DIMLDRBLK
  1

  9
$DIMLUNIT
 70
     2
  9
$DIMLWD
 70
    -2
  9
$DIMLWE
 70
    -2
  9
$DIMTMOVE
 70
     0
  9
$DIMFXL
 40
1.0
  9
$DIMFXLON
 70
     0
  9
$DIMJOGANG
 40
0.7853981634
  9
$DIMTFILL
 70
     0
  9
$DIMTFILLCLR
 70
     0
  9
$DIMARCSYM
 70
     0
  9
$DIMLTYPE
  6

  9
$DIMLTEX1
  6

  9
$DIMLTEX2
  6

  9
$LUNITS
 70
     2
  9
$LUPREC
 70
     2
  9
$SKETCHINC
 40
1.0
  9
$FILLETRAD
 40
10.0
  9
$AUNITS
 70
     0
  9
$AUPREC
 70
     2
  9
$MENU
  1
.
  9
$ELEVATION
 40
0.0
  9
$PELEVATION
 40
0.0
  9
$THICKNESS
 40
0.0
  9
$LIMCHECK
 70
     0
  9
$CHAMFERA
 40
0.0
  9
$CHAMFERB
 40
0.0
  9
$CHAMFERC
 40
0.0
  9
$CHAMFERD
 40
0.0
  9
$SKPOLY
 70
     0
  9
$TDCREATE
 40
2458501.623370301
  9
$TDUCREATE
 40
2458501.581703634
  9
$TDUPDATE
 40
2458501.623370683
  9
$TDUUPDATE
 40
2458501.581704016
  9
$TDINDWG
 40
0.0000000116
  9
$TDUSRTIMER
 40
0.0000000116
  9
$USRTIMER
 70
     1
  9
$ANGBASE
 50
0.0
  9
$ANGDIR
 70
     0
  9
$PDMODE
 70
     0
  9
$PDSIZE
 40
-1.0
  9
$PLINEWID
 40
0.0
  9
$SPLFRAME
 70
     0
  9
$SPLINETYPE
 70
     6
  9
$SPLINESEGS
 70
     8
  9
$HANDSEED
  5
308
  9
$SURFTAB1
 70
     6
  9
$SURFTAB2
 70
     6
  9
$SURFTYPE
 70
     6
  9
$SURFU
 70
     6
  9
$SURFV
 70
     6
  9
$UCSBASE
  2

  9
$UCSNAME
  2

  9
$UCSORG
 10
0.0
 20
0.0
 30
0.0
  9
$UCSXDIR
 10
1.0
 20
0.0
 30
0.0
  9
$UCSYDIR
 10
0.0
 20
1.0
 30
0.0
  9
$UCSORTHOREF
  2

  9
$UCSORTHOVIEW
 70
     0
  9
$UCSORGTOP
 10
0.0
 20
0.0
 30
0.0
  9
$UCSORGBOTTOM
 10
0.0
 20
0.0
 30
0.0
  9
$UCSORGLEFT
 10
0.0
 20
0.0
 30
0.0
  9
$UCSORGRIGHT
 10
0.0
 20
0.0
 30
0.0
  9
$UCSORGFRONT
 10
0.0
 20
0.0
 30
0.0
  9
$UCSORGBACK
 10
0.0
 20
0.0
 30
0.0
  9
$PUCSBASE
  2

  9
$PUCSNAME
  2

  9
$PUCSORG
 10
0.0
 20
0.0
 30
0.0
  9
$PUCSXDIR
 10
1.0
 20
0.0
 30
0.0
  9
$PUCSYDIR
 10
0.0
 20
1.0
 30
0.0
  9
$PUCSORTHOREF
  2

  9
$PUCSORTHOVIEW
 70
     0
  9
$PUCSORGTOP
 10
0.0
 20
0.0
 30
0.0
  9
$PUCSORGBOTTOM
 10
0.0
 20
0.0
 30
0.0
  9
$PUCSORGLEFT
 10
0.0
 20
0.0
 30
0.0
  9
$PUCSORGRIGHT
 10
0.0
 20
0.0
 30
0.0
  9
$PUCSORGFRONT
 10
0.0
 20
0.0
 30
0.0
  9
$PUCSORGBACK
 10
0.0
 20
0.0
 30
0.0
  9
$USERI1
 70
     0
  9
$USERI2
 70
     0
  9
$USERI3
 70
     0
  9
$USERI4
 70
     0
  9
$USERI5
 70
     0
  9
$USERR1
 40
0.0
  9
$USERR2
 40
0.0
  9
$USERR3
 40
0.0
  9
$USERR4
 40
0.0
  9
$USERR5
 40
0.0
  9
$WORLDVIEW
 70
     1
  9
$SHADEDGE
 70
     3
  9
$SHADEDIF
 70
    70
  9
$TILEMODE
 70
     1
  9
$MAXACTVP
 70
    64
  9
$PINSBASE
 10
0.0
 20
0.0
 30
0.0
  9
$PLIMCHECK
 70
     0
  9
$PEXTMIN
 10
1.0000000000E+20
 20
1.0000000000E+20
 30
1.0000000000E+20
  9
$PEXTMAX
 10
-1.0000000000E+20
 20
-1.0000000000E+20
 30
-1.0000000000E+20
  9
$PLIMMIN
 10
0.0
 20
0.0
  9
$PLIMMAX
 10
420.0
 20
297.0
  9
$UNITMODE
 70
     0
  9
$VISRETAIN
 70
     1
  9
$PLINEGEN
 70
     0
  9
$PSLTSCALE
 70
     1
  9
$TREEDEPTH
 70
  3020
  9
$CMLSTYLE
  2
Standard
  9
$CMLJUST
 70
     0
  9
$CMLSCALE
 40
20.0
  9
$PROXYGRAPHICS
 70
     1
  9
$MEASUREMENT
 70
     1
  9
$CELWEIGHT
370
    -1
  9
$ENDCAPS
280
     0
  9
$JOINSTYLE
280
     0
  9
$LWDISPLAY
290
     1
  9
$INSUNITS
 70
     4
  9
$HYPERLINKBASE
  1

  9
$STYLESHEET
  1

  9
$XEDIT
290
     1
  9
$CEPSNTYPE
380
     0
  9
$PSTYLEMODE
290
     1
  9
$FINGERPRINTGUID
  2
{339928F9-AEC1-49DF-838C-6C2B6D56F828}
  9
$VERSIONGUID
  2
{FAEB1C32-E019-11D5-929B-00C0DF256EC4}
  9
$EXTNAMES
290
     1
  9
$PSVPSCALE
 40
0.0
  9
$OLESTARTUP
290
     0
  9
$SORTENTS
280
   127
  9
$INDEXCTL
280
     0
  9
$HIDETEXT
280
     1
  9
$XCLIPFRAME
290
     0
  9
$HALOGAP
280
     0
  9
$OBSCOLOR
 70
   257
  9
$OBSLTYPE
280
     0
  9
$INTERSECTIONDISPLAY
280
     0
  9
$INTERSECTIONCOLOR
 70
   257
  9
$DIMASSOC
280
     2
  9
$PROJECTNAME
  1

  9
$CAMERADISPLAY
290
     0
  9
$LENSLENGTH
 40
50.0
  9
$CAMERAHEIGHT
 40
0.0
  9
$STEPSPERSEC
 40
2.0
  9
$STEPSIZE
 40
6.0
  9
$3DDWFPREC
 40
2.0
  9
$PSOLWIDTH
 40
5.0
  9
$PSOLHEIGHT
 40
80.0
  9
$LOFTANG1
 40
1.5707963268
  9
$LOFTANG2
 40
1.5707963268
  9
$LOFTMAG1
 40
0.0
  9
$LOFTMAG2
 40
0.0
  9
$LOFTPARAM
 70
     7
  9
$LOFTNORMALS
280
     1
  9
$LATITUDE
 40
37.795
  9
$LONGITUDE
 40
-122.394
  9
$NORTHDIRECTION
 40
0.0
  9
$TIMEZONE
 70
 -8000
  9
$LIGHTGLYPHDISPLAY
280
     1
  9
$TILEMODELIGHTSYNCH
280
     1
  9
$CMATERIAL
347
44
  9
$SOLIDHIST
280
     0
  9
$SHOWHIST
280
     1
  9
$DWFFRAME
280
     2
  9
$DGNFRAME
280
     2
  9
$REALWORLDSCALE
290
     1
  9
$INTERFERECOLOR
 62
   256
  9
$CSHADOW
280
     0
  9
$SHADOWPLANELOCATION
 40
0.0
  0
ENDSEC
  0
SECTION
  2
CLASSES
  0
CLASS
  1
ACDBDICTIONARYWDFLT
  2
AcDbDictionaryWithDefault
  3
ObjectDBX Classes
 90
        0
 91
        4
280
     0
281
     0
  0
CLASS
  1
VISUALSTYLE
  2
AcDbVisualStyle
  3
ObjectDBX Classes
 90
     4095
 91
        4
280
     0
281
     0
  0
CLASS
  1
MATERIAL
  2
AcDbMaterial
  3
ObjectDBX Classes
 90
     1153
 91
        4
280
     0
281
     0
  0
CLASS
  1
SCALE
  2
AcDbScale
  3
ObjectDBX Classes
 90
     1153
 91
        4
280
     0
281
     0
  0
CLASS
  1
TABLESTYLE
  2
AcDbTableStyle
  3
ObjectDBX Classes
 90
     4095
 91
        4
280
     0
281
     0
  0
CLASS
  1
MLEADERSTYLE
  2
AcDbMLeaderStyle
  3
ACDB_MLEADERSTYLE_CLASS
 90
     4095
 91
        4
280
     0
281
     0
  0
CLASS
  1
SUN
  2
AcDbSun
  3
SCENEOE
 90
     1153
 91
        4
280
     0
281
     0
  0
CLASS
  1
DICTIONARYVAR
  2
AcDbDictionaryVar
  3
ObjectDBX Classes
 90
        0
 91
        4
280
     0
281
     0
  0
CLASS
  1
CELLSTYLEMAP
  2
AcDbCellStyleMap
  3
ObjectDBX Classes
 90
     1152
 91
        4
280
     0
281
     0
  0
ENDSEC
  0
SECTION
  2
TABLES
  0
TABLE
  2
VPORT
  5
8
330
0
100
AcDbSymbolTable
 70
     1
  0
VPORT
  5
29
330
8
100
AcDbSymbolTableRecord
100
AcDbViewportTableRecord
  2
*Active
 70
     0
 10
0.0
 20
0.0
 11
1.0
 21
1.0
 12
105.0
 22
148.5
 13
0.0
 23
0.0
 14
10.0
 24
10.0
 15
10.0
 25
10.0
 16
0.0
 26
0.0
 36
1.0
 17
0.0
 27
0.0
 37
0.0
 40
297.0
 41
0.7070707071
 42
50.0
 43
0.0
 44
0.0
 50
0.0
 51
0.0
 71
     0
 72
  2000
 73
     1
 74
     3
 75
     0
 76
     0
 77
     0
 78
     0
281
     0
 65
     1
110
0.0
120
0.0
130
0.0
111
1.0
121
0.0
131
0.0
112
0.0
122
1.0
132
0.0
 79
     0
146
0.0
 60
     3
 61
     5
292
     1
282
     1
141
0.0
142
0.0
 63
   250
361
6D
  0
ENDTAB
  0
TABLE
  2
LTYPE
  5
5
330
0
100
AcDbSymbolTable
 70
     6
  0
LTYPE
  5
14
330
5
100
AcDbSymbolTableRecord
100
AcDbLinetypeTableRecord
  2
ByBlock
 70
     0
  3

 72
    65
 73
     0
 40
0.0
  0
LTYPE
  5
15
330
5
100
AcDbSymbolTableRecord
100
AcDbLinetypeTableRecord
  2
ByLayer
 70
     0
  3

 72
    65
 73
     0
 40
0.0
  0
LTYPE
  5
16
330
5
100
AcDbSymbolTableRecord
100
AcDbLinetypeTableRecord
  2
Continuous
 70
     0
  3
Solid line
 72
    65
 73
     0
 40
0.0
  0
LTYPE
  5
6E
330
5
100
AcDbSymbolTableRecord
100
AcDbLinetypeTableRecord
  2
HIDDEN
 70
     0
  3
Hidden __ __ __ __ __ __ __ __ __ __ __ __ __ __
 72
    65
 73
     2
 40
1.905
 49
1.27
 74
     0
 49
-0.635
 74
     0
  0
LTYPE
  5
6F
330
5
100
AcDbSymbolTableRecord
100
AcDbLinetypeTableRecord
  2
PHANTOM
 70
     0
  3
Phantom ______  __  __  ______  __  __  ______
 72
    65
 73
     6
 40
12.7
 49
6.35
 74
     0
 49
-1.27
 74
     0
 49
1.27
 74
     0
 49
-1.27
 74
     0
 49
1.27
 74
     0
 49
-1.27
 74
     0
  0
LTYPE
  5
70
330
5
100
AcDbSymbolTableRecord
100
AcDbLinetypeTableRecord
  2
CENTER
 70
     0
  3
Center ____ _ ____ _ ____ _ ____ _ ____ _ ____
 72
    65
 73
     4
 40
10.16
 49
6.35
 74
     0
 49
-1.27
 74
     0
 49
1.27
 74
     0
 49
-1.27
 74
     0
  0
LTYPE
  5
71
330
5
100
AcDbSymbolTableRecord
100
AcDbLinetypeTableRecord
  2
CENTERX2
 70
     0
  3
Center (2x) ________  __  ________  __  _____
 72
    65
 73
     4
 40
20.32
 49
12.7
 74
     0
 49
-2.54
 74
     0
 49
2.54
 74
     0
 49
-2.54
 74
     0
  0
LTYPE
  5
72
330
5
100
AcDbSymbolTableRecord
100
AcDbLinetypeTableRecord
  2
DOT2
 70
     0
  3
Dot (.5x) ........................................
 72
    65
 73
     2
 40
0.635
 49
0.0
 74
     0
 49
-0.635
 74
     0
  0
ENDTAB
  0
TABLE
  2
LAYER
  5
2
330
0
100
AcDbSymbolTable
 70
     1
  0
LAYER
  5
10
330
2
100
AcDbSymbolTableRecord
100
AcDbLayerTableRecord
  2
0
 70
     0
 62
     7
  6
Continuous
370
    -3
390
F
347
46
  0
ENDTAB
  0
TABLE
  2
STYLE
  5
3
330
0
100
AcDbSymbolTable
 70
     1
  0
STYLE
  5
11
330
3
100
AcDbSymbolTableRecord
100
AcDbTextStyleTableRecord
  2
Standard
 70
     0
 40
0.0
 41
1.0
 50
0.0
 71
     0
 42
3.5
  3
txt
  4

  0
ENDTAB
  0
TABLE
  2
VIEW
  5
6
330
0
100
AcDbSymbolTable
 70
     0
  0
ENDTAB
  0
TABLE
  2
UCS
  5
7
330
0
100
AcDbSymbolTable
 70
     0
  0
ENDTAB
  0
TABLE
  2
APPID
  5
9
330
0
100
AcDbSymbolTable
 70
     2
  0
APPID
  5
12
330
9
100
AcDbSymbolTableRecord
100
AcDbRegAppTableRecord
  2
ACAD
 70
     0
  0
APPID
  5
302
330
9
100
AcDbSymbolTableRecord
100
AcDbRegAppTableRecord
  2
ACAD_MLEADERVER
 70
     0
  0
ENDTAB
  0
TABLE
  2
DIMSTYLE
  5
A
330
0
100
AcDbSymbolTable
 70
     1
100
AcDbDimStyleTable
  0
DIMSTYLE
105
27
330
A
100
AcDbSymbolTableRecord
100
AcDbDimStyleTableRecord
  2
ISO-25
 70
     0
 41
2.5
 42
0.625
 43
3.75
 44
1.25
 73
     0
 74
     0
 77
     1
 78
     8
140
2.5
141
2.5
143
0.0393700787
147
0.625
171
     3
172
     1
178
     0
271
     2
272
     2
274
     3
278
    44
283
     0
284
     8
340
11
  0
ENDTAB
  0
TABLE
  2
BLOCK_RECORD
  5
1
330
0
100
AcDbSymbolTable
 70
     1
  0
BLOCK_RECORD
  5
1F
330
1
100
AcDbSymbolTableRecord
100
AcDbBlockTableRecord
  2
*Model_Space
340
22
 70
     0
280
     1
281
     0
  0
BLOCK_RECORD
  5
1B
330
1
100
AcDbSymbolTableRecord
100
AcDbBlockTableRecord
  2
*Paper_Space
340
1E
 70
     0
280
     1
281
     0
  0
BLOCK_RECORD
  5
23
330
1
100
AcDbSymbolTableRecord
100
AcDbBlockTableRecord
  2
*Paper_Space0
340
26
 70
     0
280
     1
281
     0
  0
ENDTAB
  0
ENDSEC
  0
SECTION
  2
BLOCKS
  0
BLOCK
  5
20
330
1F
100
AcDbEntity
  8
0
100
AcDbBlockBegin
  2
*Model_Space
 70
     0
 10
0.0
 20
0.0
 30
0.0
  3
*Model_Space
  1

  0
ENDBLK
  5
21
330
1F
100
AcDbEntity
  8
0
100
AcDbBlockEnd
  0
BLOCK
  5
1C
330
1B
100
AcDbEntity
 67
     1
  8
0
100
AcDbBlockBegin
  2
*Paper_Space
 70
     0
 10
0.0
 20
0.0
 30
0.0
  3
*Paper_Space
  1

  0
ENDBLK
  5
1D
330
1B
100
AcDbEntity
 67
     1
  8
0
100
AcDbBlockEnd
  0
BLOCK
  5
24
330
23
100
AcDbEntity
  8
0
100
AcDbBlockBegin
  2
*Paper_Space0
 70
     0
 10
0.0
 20
0.0
 30
0.0
  3
*Paper_Space0
  1

  0
ENDBLK
  5
25
330
23
100
AcDbEntity
  8
0
100
AcDbBlockEnd
  0
ENDSEC
  0
SECTION
  2
ENTITIES
  0
LINE
  5
73
330
1F
100
AcDbEntity
  8
0
  6
Continuous
 62
     7
370
    25
100
AcDbLine
 10
-2514.0921075088
 20
2787.3327795088
 30
0.0
 11
-2514.0930611831
 21
2787.3319450438
 31
0.0
  0
LINE
  5
74
330
1F
100
AcDbEntity
  8
0
  6
Continuous
 62
     7
370
    25
100
AcDbLine
 10
2757.2274010438
 20
-2483.9885171831
 30
0.0
 11
2757.2282355088
 21
-2483.9875635088
 31
0.0
  0
LINE
  5
75
330
1F
100
AcDbEntity
  8
0
  6
Continuous
 62
     7
370
    25
100
AcDbLine
 10
3196.5671580094
 20
1726.67170946
 30
0.0
 11
3196.5679924744
 21
1726.6725886285
 31
0.0
  0
ARC
  5
76
330
1F
100
AcDbEntity
  8
0
  6
Continuous
 62
     7
370
    25
100
AcDbCircle
 10
1696.5671742643
 20
1726.6717182643
 30
0.0
 40
1500.0
100
AcDbArc
 50
359.9949716928
 51
90.0000002206
  0
LINE
  5
77
330
1F
100
AcDbEntity
  8
0
  6
Continuous
 62
     7
370
    25
100
AcDbLine
 10
1696.56716546
 20
3226.6717020094
 30
0.0
 11
1696.5680446285
 21
3226.6725364744
 31
0.0
  0
ARC
  5
78
330
1F
100
AcDbEntity
  8
0
  6
Continuous
 62
     7
370
    25
100
AcDbCircle
 10
1696.5680518695
 20
1726.6725958695
 30
0.0
 40
1500.0
100
AcDbArc
 50
359.9949716928
 51
90.0000002206
  0
LINE
  5
79
330
1F
100
AcDbEntity
  8
0
  6
Continuous
 62
     7
370
    25
100
AcDbLine
 10
-2953.4326989395
 20
1726.6717392623
 30
0.0
 11
-2953.4326989395
 21
-1423.3281549394
 31
0.0
  0
ARC
  5
7A
330
1F
100
AcDbEntity
  8
0
  6
Continuous
 62
     7
370
    25
100
AcDbCircle
 10
-1453.4328136052
 20
1726.6717303948
 30
0.0
 40
1500.0
100
AcDbArc
 50
90.0000002206
 51
179.9949716928
  0
LINE
  5
7B
330
1F
100
AcDbEntity
  8
0
  6
Continuous
 62
     7
370
    25
100
AcDbLine
 10
1696.56716546
 20
3226.6717020094
 30
0.0
 11
-1453.432937358
 21
3226.6717020094
 31
0.0
  0
LINE
  5
7C
330
1F
100
AcDbEntity
  8
0
  6
Continuous
 62
     7
370
    25
100
AcDbLine
 10
3196.5671580094
 20
-1423.328393358
 30
0.0
 11
3196.5671580094
 21
1726.67170946
 31
0.0
  0
ARC
  5
7D
330
1F
100
AcDbEntity
  8
0
  6
Continuous
 62
     7
370
    25
100
AcDbCircle
 10
1696.5671863948
 20
-1423.3282696052
 30
0.0
 40
1500.0
100
AcDbArc
 50
270.0000002206
 51
359.9949716928
  0
LINE
  5
7E
330
1F
100
AcDbEntity
  8
0
  6
Continuous
 62
     7
370
    25
100
AcDbLine
 10
-1453.4326989395
 20
-2923.3281549394
 30
0.0
 11
1696.5671952623
 21
-2923.3281549394
 31
0.0
  0
ARC
  5
7F
330
1F
100
AcDbEntity
  8
0
  6
Continuous
 62
     7
370
    25
100
AcDbCircle
 10
-1453.4328014747
 20
-1423.3282574746
 30
0.0
 40
1500.0
100
AcDbArc
 50
179.9949716928
 51
270.0000002206
  0
LINE
  5
80
330
1F
100
AcDbEntity
  8
0
  6
Continuous
 62
     7
370
    25
100
AcDbLine
 10
-1453.432937358
 20
3226.6717020094
 30
0.0
 11
-1453.4319836837
 21
3226.6726556837
 31
0.0
  0
LINE
  5
81
330
1F
100
AcDbEntity
  8
0
  6
Continuous
 62
     7
370
    25
100
AcDbLine
 10
1696.5680446285
 20
3226.6725364744
 30
0.0
 11
-1453.4319836837
 21
3226.6726556837
 31
0.0
  0
LINE
  5
82
330
1F
100
AcDbEntity
  8
0
  6
Continuous
 62
     7
370
    25
100
AcDbLine
 10
3196.5671580094
 20
-1423.328393358
 30
0.0
 11
3196.5681116837
 21
-1423.3274396837
 31
0.0
  0
LINE
  5
83
330
1F
100
AcDbEntity
  8
0
  6
Continuous
 62
     7
370
    25
100
AcDbLine
 10
3196.5681116837
 20
-1423.3274396837
 30
0.0
 11
3196.5679924744
 21
1726.6725886285
 31
0.0
  0
ARC
  5
84
330
1F
100
AcDbEntity
  8
0
  6
Continuous
 62
     7
370
    25
100
AcDbCircle
 10
-1453.431936
 20
1726.672608
 30
0.0
 40
1500.0
100
AcDbArc
 50
90.0000002206
 51
135.0
  0
ARC
  5
85
330
1F
100
AcDbEntity
  8
0
  6
Continuous
 62
     7
370
    25
100
AcDbCircle
 10
1696.568064
 20
-1423.327392
 30
0.0
 40
1500.0
100
AcDbArc
 50
315.0
 51
359.9949716928
  0
LINE
  5
86
330
1F
100
AcDbEntity
  8
0
  6
Continuous
 62
     7
370
    25
100
AcDbLine
 10
1569.3761359709
 20
-1400.2234872759
 30
0.0
 11
1568.8299376327
 21
-1397.3772462786
 31
0.0
  0
LINE
  5
87
330
1F
100
AcDbEntity
  8
0
  6
Continuous
 62
     7
370
    25
100
AcDbLine
 10
1573.7599905389
 20
-1396.4312013567
 30
0.0
 11
1574.3061888772
 21
-1399.277442354
 31
0.0
  0
LINE
  5
88
330
1F
100
AcDbEntity
  8
0
  6
Continuous
 62
     7
370
    25
100
AcDbLine
 10
1571.0218649167
 20
-1395.481103319
 30
0.0
 11
1573.7599905389
 21
-1396.4312013567
 31
0.0
  0
LINE
  5
89
330
1F
100
AcDbEntity
  8
0
  6
Continuous
 62
     7
370
    25
100
AcDbLine
 10
1568.8299376327
 20
-1397.3772462786
 30
0.0
 11
1571.0218649167
 21
-1395.481103319
 31
0.0
  0
CIRCLE
  5
8A
330
1F
100
AcDbEntity
  8
0
  6
Continuous
 62
     7
370
    25
100
AcDbCircle
 10
1571.568064
 20
-1398.327392
 30
0.0
 40
7.784999999999793
  0
LINE
  5
8B
330
1F
100
AcDbEntity
  8
0
  6
Continuous
 62
     7
370
    25
100
AcDbLine
 10
1574.3061888772
 20
-1399.277442354
 30
0.0
 11
1572.1142615932
 21
-1401.1738237322
 31
0.0
  0
LINE
  5
8C
330
1F
100
AcDbEntity
  8
0
  6
Continuous
 62
     7
370
    25
100
AcDbLine
 10
1572.1142615932
 20
-1401.1738237322
 30
0.0
 11
1569.3761359709
 21
-1400.2234872759
 31
0.0
  0
ARC
  5
8D
330
1F
100
AcDbEntity
  8
0
  6
Continuous
 62
     7
370
    25
100
AcDbCircle
 10
1571.568064
 20
-1398.327392
 30
0.0
 40
2.510000000001355
100
AcDbArc
 50
250.8626260897
 51
310.8626260897
  0
ARC
  5
8E
330
1F
100
AcDbEntity
  8
0
  6
Continuous
 62
     7
370
    25
100
AcDbCircle
 10
1571.568064
 20
-1398.327392
 30
0.0
 40
2.50999999999871
100
AcDbArc
 50
130.8626260897
 51
190.8626260897
  0
ARC
  5
8F
330
1F
100
AcDbEntity
  8
0
  6
Continuous
 62
     7
370
    25
100
AcDbCircle
 10
1571.568064
 20
-1398.327392
 30
0.0
 40
2.509999999999046
100
AcDbArc
 50
70.8626260897
 51
130.8626260897
  0
ARC
  5
90
330
1F
100
AcDbEntity
  8
0
  6
Continuous
 62
     7
370
    25
100
AcDbCircle
 10
1571.568064
 20
-1398.327392
 30
0.0
 40
2.509999999999681
100
AcDbArc
 50
10.8626260897
 51
70.8626260897
  0
ARC
  5
91
330
1F
100
AcDbEntity
  8
0
  6
Continuous
 62
     7
370
    25
100
AcDbCircle
 10
1571.568064
 20
-1398.327392
 30
0.0
 40
2.510000000001355
100
AcDbArc
 50
310.8626260897
 51
10.8626260897
  0
ARC
  5
92
330
1F
100
AcDbEntity
  8
0
  6
Continuous
 62
     7
370
    25
100
AcDbCircle
 10
1571.568064
 20
-1398.327392
 30
0.0
 40
2.510000000000252
100
AcDbArc
 50
190.8626260897
 51
250.8626260897
  0
LINE
  5
93
330
1F
100
AcDbEntity
  8
0
  6
Continuous
 62
     7
370
    25
100
AcDbLine
 10
-1425.9218175155
 20
1703.121757847
 30
0.0
 11
-1425.9218175155
 21
1700.2234596431
 31
0.0
  0
LINE
  5
94
330
1F
100
AcDbEntity
  8
0
  6
Continuous
 62
     7
370
    25
100
AcDbLine
 10
-1430.9419591171
 20
1700.2234596431
 30
0.0
 11
-1430.9419591171
 21
1703.121757847
 31
0.0
  0
LINE
  5
95
330
1F
100
AcDbEntity
  8
0
  6
Continuous
 62
     7
370
    25
100
AcDbLine
 10
-1428.4318883163
 20
1698.7743105411
 30
0.0
 11
-1430.9419591171
 21
1700.2234596431
 31
0.0
  0
LINE
  5
96
330
1F
100
AcDbEntity
  8
0
  6
Continuous
 62
     7
370
    25
100
AcDbLine
 10
-1425.9218175155
 20
1700.2234596431
 30
0.0
 11
-1428.4318883163
 21
1698.7743105411
 31
0.0
  0
CIRCLE
  5
97
330
1F
100
AcDbEntity
  8
0
  6
Continuous
 62
     7
370
    25
100
AcDbCircle
 10
-1428.431936
 20
1701.672608
 30
0.0
 40
7.785000000000309
  0
LINE
  5
98
330
1F
100
AcDbEntity
  8
0
  6
Continuous
 62
     7
370
    25
100
AcDbLine
 10
-1428.4318883163
 20
1704.570906949
 30
0.0
 11
-1425.9218175155
 21
1703.121757847
 31
0.0
  0
LINE
  5
99
330
1F
100
AcDbEntity
  8
0
  6
Continuous
 62
     7
370
    25
100
AcDbLine
 10
-1430.9419591171
 20
1703.121757847
 30
0.0
 11
-1428.4318883163
 21
1704.570906949
 31
0.0
  0
ARC
  5
9A
330
1F
100
AcDbEntity
  8
0
  6
Continuous
 62
     7
370
    25
100
AcDbCircle
 10
-1428.431936
 20
1701.672608
 30
0.0
 40
2.51000000000114
100
AcDbArc
 50
60.0
 51
120.0
  0
ARC
  5
9B
330
1F
100
AcDbEntity
  8
0
  6
Continuous
 62
     7
370
    25
100
AcDbCircle
 10
-1428.431936
 20
1701.672608
 30
0.0
 40
2.510000000000344
100
AcDbArc
 50
0.0
 51
60.0
  0
ARC
  5
9C
330
1F
100
AcDbEntity
  8
0
  6
Continuous
 62
     7
370
    25
100
AcDbCircle
 10
-1428.431936
 20
1701.672608
 30
0.0
 40
2.509999999999132
100
AcDbArc
 50
300.0
 51
0.0
  0
ARC
  5
9D
330
1F
100
AcDbEntity
  8
0
  6
Continuous
 62
     7
370
    25
100
AcDbCircle
 10
-1428.431936
 20
1701.672608
 30
0.0
 40
2.509999999999132
100
AcDbArc
 50
240.0
 51
300.0
  0
ARC
  5
9E
330
1F
100
AcDbEntity
  8
0
  6
Continuous
 62
     7
370
    25
100
AcDbCircle
 10
-1428.431936
 20
1701.672608
 30
0.0
 40
2.509999999999536
100
AcDbArc
 50
180.0
 51
240.0
  0
ARC
  5
9F
330
1F
100
AcDbEntity
  8
0
  6
Continuous
 62
     7
370
    25
100
AcDbCircle
 10
-1428.431936
 20
1701.672608
 30
0.0
 40
2.51000000000114
100
AcDbArc
 50
120.0
 51
180.0
  0
LINE
  5
A0
330
1F
100
AcDbEntity
  8
0
  6
Continuous
 62
     7
370
    25
100
AcDbLine
 10
-1330.7560879928
 20
-1296.5958055437
 30
0.0
 11
-1328.0943829757
 21
-1295.4487737596
 31
0.0
  0
LINE
  5
A1
330
1F
100
AcDbEntity
  8
0
  6
Continuous
 62
     7
370
    25
100
AcDbLine
 10
-1328.7695843917
 20
-1301.2058671892
 30
0.0
 11
-1331.0936887008
 21
-1299.4742330492
 31
0.0
  0
LINE
  5
A2
330
1F
100
AcDbEntity
  8
0
  6
Continuous
 62
     7
370
    25
100
AcDbLine
 10
-1326.1078793746
 20
-1300.0590738237
 30
0.0
 11
-1328.7695843917
 21
-1301.2058671892
 31
0.0
  0
LINE
  5
A3
330
1F
100
AcDbEntity
  8
0
  6
Continuous
 62
     7
370
    25
100
AcDbLine
 10
-1325.7702786666
 20
-1297.1804078997
 30
0.0
 11
-1326.1078793746
 21
-1300.0590738237
 31
0.0
  0
LINE
  5
A4
330
1F
100
AcDbEntity
  8
0
  6
Continuous
 62
     7
370
    25
100
AcDbLine
 10
-1328.0943829757
 20
-1295.4487737596
 30
0.0
 11
-1325.7702786666
 21
-1297.1804078997
 31
0.0
  0
CIRCLE
  5
A5
330
1F
100
AcDbEntity
  8
0
  6
Continuous
 62
     7
370
    25
100
AcDbCircle
 10
-1328.431936
 20
-1298.327392
 30
0.0
 40
7.784999999999885
  0
LINE
  5
A6
330
1F
100
AcDbEntity
  8
0
  6
Continuous
 62
     7
370
    25
100
AcDbLine
 10
-1331.0936887008
 20
-1299.4742330492
 30
0.0
 11
-1330.7560879928
 21
-1296.5958055437
 31
0.0
  0
ARC
  5
A7
330
1F
100
AcDbEntity
  8
0
  6
Continuous
 62
     7
370
    25
100
AcDbCircle
 10
-1328.431936
 20
-1298.327392
 30
0.0
 40
2.51000000000047
100
AcDbArc
 50
113.3117780349
 51
173.3117780349
  0
ARC
  5
A8
330
1F
100
AcDbEntity
  8
0
  6
Continuous
 62
     7
370
    25
100
AcDbCircle
 10
-1328.431936
 20
-1298.327392
 30
0.0
 40
2.509999999998922
100
AcDbArc
 50
53.3117780349
 51
113.3117780349
  0
ARC
  5
A9
330
1F
100
AcDbEntity
  8
0
  6
Continuous
 62
     7
370
    25
100
AcDbCircle
 10
-1328.431936
 20
-1298.327392
 30
0.0
 40
2.509999999999221
100
AcDbArc
 50
353.3117780349
 51
53.3117780349
  0
ARC
  5
AA
330
1F
100
AcDbEntity
  8
0
  6
Continuous
 62
     7
370
    25
100
AcDbCircle
 10
-1328.431936
 20
-1298.327392
 30
0.0
 40
2.509999999999578
100
AcDbArc
 50
293.3117780349
 51
353.3117780349
  0
ARC
  5
AB
330
1F
100
AcDbEntity
  8
0
  6
Continuous
 62
     7
370
    25
100
AcDbCircle
 10
-1328.431936
 20
-1298.327392
 30
0.0
 40
2.510000000001018
100
AcDbArc
 50
233.3117780349
 51
293.3117780349
  0
ARC
  5
AC
330
1F
100
AcDbEntity
  8
0
  6
Continuous
 62
     7
370
    25
100
AcDbCircle
 10
-1328.431936
 20
-1298.327392
 30
0.0
 40
2.510000000001018
100
AcDbArc
 50
173.3117780349
 51
233.3117780349
  0
LINE
  5
AD
330
1F
100
AcDbEntity
  8
0
  6
Continuous
 62
     7
370
    25
100
AcDbLine
 10
1669.0580647248
 20
-1399.7764524401
 30
0.0
 11
1669.0580647248
 21
-1396.8782361925
 31
0.0
  0
LINE
  5
AE
330
1F
100
AcDbEntity
  8
0
  6
Continuous
 62
     7
370
    25
100
AcDbLine
 10
1674.0780647653
 20
-1396.8782361925
 30
0.0
 11
1674.0780647653
 21
-1399.7764524401
 31
0.0
  0
LINE
  5
AF
330
1F
100
AcDbEntity
  8
0
  6
Continuous
 62
     7
370
    25
100
AcDbLine
 10
1671.5680647451
 20
-1395.4291280687
 30
0.0
 11
1674.0780647653
 21
-1396.8782361925
 31
0.0
  0
LINE
  5
B0
330
1F
100
AcDbEntity
  8
0
  6
Continuous
 62
     7
370
    25
100
AcDbLine
 10
1669.0580647248
 20
-1396.8782361925
 30
0.0
 11
1671.5680647451
 21
-1395.4291280687
 31
0.0
  0
CIRCLE
  5
B1
330
1F
100
AcDbEntity
  8
0
  6
Continuous
 62
     7
370
    25
100
AcDbCircle
 10
1671.568064
 20
-1398.327392
 30
0.0
 40
7.785000000000082
  0
LINE
  5
B2
330
1F
100
AcDbEntity
  8
0
  6
Continuous
 62
     7
370
    25
100
AcDbLine
 10
1674.0780647653
 20
-1399.7764524401
 30
0.0
 11
1671.5680647451
 21
-1401.2257989824
 31
0.0
  0
LINE
  5
B3
330
1F
100
AcDbEntity
  8
0
  6
Continuous
 62
     7
370
    25
100
AcDbLine
 10
1671.5680647451
 20
-1401.2257989824
 30
0.0
 11
1669.0580647248
 21
-1399.7764524401
 31
0.0
  0
ARC
  5
B4
330
1F
100
AcDbEntity
  8
0
  6
Continuous
 62
     7
370
    25
100
AcDbCircle
 10
1671.568064
 20
-1398.327392
 30
0.0
 40
2.510000000000427
100
AcDbArc
 50
180.0
 51
240.0
  0
ARC
  5
B5
330
1F
100
AcDbEntity
  8
0
  6
Continuous
 62
     7
370
    25
100
AcDbCircle
 10
1671.568064
 20
-1398.327392
 30
0.0
 40
2.510000000001057
100
AcDbArc
 50
240.0
 51
300.0
  0
ARC
  5
B6
330
1F
100
AcDbEntity
  8
0
  6
Continuous
 62
     7
370
    25
100
AcDbCircle
 10
1671.568064
 20
-1398.327392
 30
0.0
 40
2.509999999998625
100
AcDbArc
 50
120.0
 51
180.0
  0
ARC
  5
B7
330
1F
100
AcDbEntity
  8
0
  6
Continuous
 62
     7
370
    25
100
AcDbCircle
 10
1671.568064
 20
-1398.327392
 30
0.0
 40
2.509999999999193
100
AcDbArc
 50
60.0
 51
120.0
  0
ARC
  5
B8
330
1F
100
AcDbEntity
  8
0
  6
Continuous
 62
     7
370
    25
100
AcDbCircle
 10
1671.568064
 20
-1398.327392
 30
0.0
 40
2.509999999999536
100
AcDbArc
 50
360.0
 51
60.0
  0
ARC
  5
B9
330
1F
100
AcDbEntity
  8
0
  6
Continuous
 62
     7
370
    25
100
AcDbCircle
 10
1671.568064
 20
-1398.327392
 30
0.0
 40
2.510000000001057
100
AcDbArc
 50
300.0
 51
360.0
  0
LINE
  5
BA
330
1F
100
AcDbEntity
  8
0
  6
Continuous
 62
     7
370
    25
100
AcDbLine
 10
-1430.3280312759
 20
-1296.1354192674
 30
0.0
 11
-1427.4817902786
 21
-1295.5892023027
 31
0.0
  0
LINE
  5
BB
330
1F
100
AcDbEntity
  8
0
  6
Continuous
 62
     7
370
    25
100
AcDbLine
 10
-1429.381986354
 20
-1301.0654386461
 30
0.0
 11
-1431.2783677322
 21
-1298.8736566484
 31
0.0
  0
LINE
  5
BC
330
1F
100
AcDbEntity
  8
0
  6
Continuous
 62
     7
370
    25
100
AcDbLine
 10
-1426.5357453567
 20
-1300.5192216814
 30
0.0
 11
-1429.381986354
 21
-1301.0654386461
 31
0.0
  0
LINE
  5
BD
330
1F
100
AcDbEntity
  8
0
  6
Continuous
 62
     7
370
    25
100
AcDbLine
 10
-1425.585647319
 20
-1297.781222719
 30
0.0
 11
-1426.5357453567
 21
-1300.5192216814
 31
0.0
  0
LINE
  5
BE
330
1F
100
AcDbEntity
  8
0
  6
Continuous
 62
     7
370
    25
100
AcDbLine
 10
-1427.4817902786
 20
-1295.5892023027
 30
0.0
 11
-1425.585647319
 21
-1297.781222719
 31
0.0
  0
CIRCLE
  5
BF
330
1F
100
AcDbEntity
  8
0
  6
Continuous
 62
     7
370
    25
100
AcDbCircle
 10
-1428.431936
 20
-1298.327392
 30
0.0
 40
7.784999999999793
  0
LINE
  5
C0
330
1F
100
AcDbEntity
  8
0
  6
Continuous
 62
     7
370
    25
100
AcDbLine
 10
-1431.2783677322
 20
-1298.8736566484
 30
0.0
 11
-1430.3280312759
 21
-1296.1354192674
 31
0.0
  0
ARC
  5
C1
330
1F
100
AcDbEntity
  8
0
  6
Continuous
 62
     7
370
    25
100
AcDbCircle
 10
-1428.431936
 20
-1298.327392
 30
0.0
 40
2.50999999999871
100
AcDbArc
 50
40.8626260897
 51
100.8626260897
  0
ARC
  5
C2
330
1F
100
AcDbEntity
  8
0
  6
Continuous
 62
     7
370
    25
100
AcDbCircle
 10
-1428.431936
 20
-1298.327392
 30
0.0
 40
2.509999999999046
100
AcDbArc
 50
340.8626260897
 51
40.8626260897
  0
ARC
  5
C3
330
1F
100
AcDbEntity
  8
0
  6
Continuous
 62
     7
370
    25
100
AcDbCircle
 10
-1428.431936
 20
-1298.327392
 30
0.0
 40
2.509999999999681
100
AcDbArc
 50
280.8626260897
 51
340.8626260897
  0
ARC
  5
C4
330
1F
100
AcDbEntity
  8
0
  6
Continuous
 62
     7
370
    25
100
AcDbCircle
 10
-1428.431936
 20
-1298.327392
 30
0.0
 40
2.510000000001355
100
AcDbArc
 50
220.8626260897
 51
280.8626260897
  0
ARC
  5
C5
330
1F
100
AcDbEntity
  8
0
  6
Continuous
 62
     7
370
    25
100
AcDbCircle
 10
-1428.431936
 20
-1298.327392
 30
0.0
 40
2.510000000001355
100
AcDbArc
 50
160.8626260897
 51
220.8626260897
  0
ARC
  5
C6
330
1F
100
AcDbEntity
  8
0
  6
Continuous
 62
     7
370
    25
100
AcDbCircle
 10
-1428.431936
 20
-1298.327392
 30
0.0
 40
2.510000000000401
100
AcDbArc
 50
100.8626260897
 51
160.8626260897
  0
LINE
  5
C7
330
1F
100
AcDbEntity
  8
0
  6
Continuous
 62
     7
370
    25
100
AcDbLine
 10
1673.017213847
 20
1699.1626087248
 30
0.0
 11
1670.1189156431
 21
1699.1626087248
 31
0.0
  0
LINE
  5
C8
330
1F
100
AcDbEntity
  8
0
  6
Continuous
 62
     7
370
    25
100
AcDbLine
 10
1674.466362949
 20
1701.6726087451
 30
0.0
 11
1673.017213847
 21
1699.1626087248
 31
0.0
  0
LINE
  5
C9
330
1F
100
AcDbEntity
  8
0
  6
Continuous
 62
     7
370
    25
100
AcDbLine
 10
1673.017213847
 20
1704.1826087653
 30
0.0
 11
1674.466362949
 21
1701.6726087451
 31
0.0
  0
LINE
  5
CA
330
1F
100
AcDbEntity
  8
0
  6
Continuous
 62
     7
370
    25
100
AcDbLine
 10
1670.1189156431
 20
1704.1826087653
 30
0.0
 11
1673.017213847
 21
1704.1826087653
 31
0.0
  0
LINE
  5
CB
330
1F
100
AcDbEntity
  8
0
  6
Continuous
 62
     7
370
    25
100
AcDbLine
 10
1668.6697665411
 20
1701.6726087451
 30
0.0
 11
1670.1189156431
 21
1704.1826087653
 31
0.0
  0
LINE
  5
CC
330
1F
100
AcDbEntity
  8
0
  6
Continuous
 62
     7
370
    25
100
AcDbLine
 10
1670.1189156431
 20
1699.1626087248
 30
0.0
 11
1668.6697665411
 21
1701.6726087451
 31
0.0
  0
CIRCLE
  5
CD
330
1F
100
AcDbEntity
  8
0
  6
Continuous
 62
     7
370
    25
100
AcDbCircle
 10
1671.568064
 20
1701.672608
 30
0.0
 40
7.785000000000082
  0
ARC
  5
CE
330
1F
100
AcDbEntity
  8
0
  6
Continuous
 62
     7
370
    25
100
AcDbCircle
 10
1671.568064
 20
1701.672608
 30
0.0
 40
2.510000000000541
100
AcDbArc
 50
270.0
 51
330.0
  0
ARC
  5
CF
330
1F
100
AcDbEntity
  8
0
  6
Continuous
 62
     7
370
    25
100
AcDbCircle
 10
1671.568064
 20
1701.672608
 30
0.0
 40
2.510000000000943
100
AcDbArc
 50
330.0
 51
30.0
  0
ARC
  5
D0
330
1F
100
AcDbEntity
  8
0
  6
Continuous
 62
     7
370
    25
100
AcDbCircle
 10
1671.568064
 20
1701.672608
 30
0.0
 40
2.509999999998739
100
AcDbArc
 50
210.0
 51
270.0
  0
ARC
  5
D1
330
1F
100
AcDbEntity
  8
0
  6
Continuous
 62
     7
370
    25
100
AcDbCircle
 10
1671.568064
 20
1701.672608
 30
0.0
 40
2.50999999999908
100
AcDbArc
 50
150.0
 51
210.0
  0
ARC
  5
D2
330
1F
100
AcDbEntity
  8
0
  6
Continuous
 62
     7
370
    25
100
AcDbCircle
 10
1671.568064
 20
1701.672608
 30
0.0
 40
2.509999999999536
100
AcDbArc
 50
90.0
 51
150.0
  0
ARC
  5
D3
330
1F
100
AcDbEntity
  8
0
  6
Continuous
 62
     7
370
    25
100
AcDbCircle
 10
1671.568064
 20
1701.672608
 30
0.0
 40
2.510000000000943
100
AcDbArc
 50
30.0
 51
90.0
  0
LINE
  5
D4
330
1F
100
AcDbEntity
  8
0
  6
Continuous
 62
     7
370
    25
100
AcDbLine
 10
1573.8922048169
 20
1599.9409880161
 30
0.0
 11
1571.2305109757
 21
1598.7940344631
 31
0.0
  0
LINE
  5
D5
330
1F
100
AcDbEntity
  8
0
  6
Continuous
 62
     7
370
    25
100
AcDbLine
 10
1569.243921693
 20
1603.4042264938
 30
0.0
 11
1571.9056192595
 21
1604.5511837721
 31
0.0
  0
LINE
  5
D6
330
1F
100
AcDbEntity
  8
0
  6
Continuous
 62
     7
370
    25
100
AcDbLine
 10
1568.9063694137
 20
1600.525653702
 30
0.0
 11
1569.243921693
 21
1603.4042264938
 31
0.0
  0
LINE
  5
D7
330
1F
100
AcDbEntity
  8
0
  6
Continuous
 62
     7
370
    25
100
AcDbLine
 10
1571.2305109757
 20
1598.7940344631
 30
0.0
 11
1568.9063694137
 21
1600.525653702
 31
0.0
  0
CIRCLE
  5
D8
330
1F
100
AcDbEntity
  8
0
  6
Continuous
 62
     7
370
    25
100
AcDbCircle
 10
1571.568064
 20
1601.672608
 30
0.0
 40
7.784999999999765
  0
LINE
  5
D9
330
1F
100
AcDbEntity
  8
0
  6
Continuous
 62
     7
370
    25
100
AcDbLine
 10
1574.2297608214
 20
1602.8195645332
 30
0.0
 11
1573.8922048169
 21
1599.9409880161
 31
0.0
  0
LINE
  5
DA
330
1F
100
AcDbEntity
  8
0
  6
Continuous
 62
     7
370
    25
100
AcDbLine
 10
1571.9056192595
 20
1604.5511837721
 30
0.0
 11
1574.2297608214
 21
1602.8195645332
 31
0.0
  0
ARC
  5
DB
330
1F
100
AcDbEntity
  8
0
  6
Continuous
 62
     7
370
    25
100
AcDbCircle
 10
1571.568064
 20
1601.672608
 30
0.0
 40
2.509999999998511
100
AcDbArc
 50
233.3117780349
 51
293.3117780349
  0
ARC
  5
DC
330
1F
100
AcDbEntity
  8
0
  6
Continuous
 62
     7
370
    25
100
AcDbCircle
 10
1571.568064
 20
1601.672608
 30
0.0
 40
2.509999999999247
100
AcDbArc
 50
173.3117780349
 51
233.3117780349
  0
ARC
  5
DD
330
1F
100
AcDbEntity
  8
0
  6
Continuous
 62
     7
370
    25
100
AcDbCircle
 10
1571.568064
 20
1601.672608
 30
0.0
 40
2.509999999999815
100
AcDbArc
 50
113.3117780348
 51
173.3117780349
  0
ARC
  5
DE
330
1F
100
AcDbEntity
  8
0
  6
Continuous
 62
     7
370
    25
100
AcDbCircle
 10
1571.568064
 20
1601.672608
 30
0.0
 40
2.510000000001382
100
AcDbArc
 50
53.3117780349
 51
113.3117780348
  0
ARC
  5
DF
330
1F
100
AcDbEntity
  8
0
  6
Continuous
 62
     7
370
    25
100
AcDbCircle
 10
1571.568064
 20
1601.672608
 30
0.0
 40
2.510000000001382
100
AcDbArc
 50
353.3117780349
 51
53.3117780349
  0
ARC
  5
E0
330
1F
100
AcDbEntity
  8
0
  6
Continuous
 62
     7
370
    25
100
AcDbCircle
 10
1571.568064
 20
1601.672608
 30
0.0
 40
2.510000000000417
100
AcDbArc
 50
293.3117780349
 51
353.3117780349
  0
LINE
  5
E1
330
1F
100
AcDbEntity
  8
0
  6
Continuous
 62
     7
370
    25
100
AcDbLine
 10
-1326.2399632675
 20
1703.5688113093
 30
0.0
 11
-1325.6937463027
 21
1700.7224473774
 31
0.0
  0
LINE
  5
E2
330
1F
100
AcDbEntity
  8
0
  6
Continuous
 62
     7
370
    25
100
AcDbLine
 10
-1330.6237656814
 20
1699.7764024555
 30
0.0
 11
-1331.1699826461
 21
1702.6227701127
 31
0.0
  0
LINE
  5
E3
330
1F
100
AcDbEntity
  8
0
  6
Continuous
 62
     7
370
    25
100
AcDbLine
 10
-1327.885766719
 20
1698.8262410879
 30
0.0
 11
-1330.6237656814
 21
1699.7764024555
 31
0.0
  0
LINE
  5
E4
330
1F
100
AcDbEntity
  8
0
  6
Continuous
 62
     7
370
    25
100
AcDbLine
 10
-1325.6937463027
 20
1700.7224473774
 30
0.0
 11
-1327.885766719
 21
1698.8262410879
 31
0.0
  0
CIRCLE
  5
E5
330
1F
100
AcDbEntity
  8
0
  6
Continuous
 62
     7
370
    25
100
AcDbCircle
 10
-1328.431936
 20
1701.672608
 30
0.0
 40
7.784999999999878
  0
LINE
  5
E6
330
1F
100
AcDbEntity
  8
0
  6
Continuous
 62
     7
370
    25
100
AcDbLine
 10
-1328.9782006484
 20
1704.518972677
 30
0.0
 11
-1326.2399632675
 21
1703.5688113093
 31
0.0
  0
LINE
  5
E7
330
1F
100
AcDbEntity
  8
0
  6
Continuous
 62
     7
370
    25
100
AcDbLine
 10
-1331.1699826461
 20
1702.6227701127
 30
0.0
 11
-1328.9782006484
 21
1704.518972677
 31
0.0
  0
ARC
  5
E8
330
1F
100
AcDbEntity
  8
0
  6
Continuous
 62
     7
370
    25
100
AcDbCircle
 10
-1328.431936
 20
1701.672608
 30
0.0
 40
2.51000000000083
100
AcDbArc
 50
10.8626260897
 51
70.8626260897
  0
ARC
  5
E9
330
1F
100
AcDbEntity
  8
0
  6
Continuous
 62
     7
370
    25
100
AcDbCircle
 10
-1328.431936
 20
1701.672608
 30
0.0
 40
2.50999999999871
100
AcDbArc
 50
310.8626260897
 51
10.8626260897
  0
ARC
  5
EA
330
1F
100
AcDbEntity
  8
0
  6
Continuous
 62
     7
370
    25
100
AcDbCircle
 10
-1328.431936
 20
1701.672608
 30
0.0
 40
2.509999999999046
100
AcDbArc
 50
250.8626260897
 51
310.8626260897
  0
ARC
  5
EB
330
1F
100
AcDbEntity
  8
0
  6
Continuous
 62
     7
370
    25
100
AcDbCircle
 10
-1328.431936
 20
1701.672608
 30
0.0
 40
2.509999999999595
100
AcDbArc
 50
190.8626260897
 51
250.8626260897
  0
ARC
  5
EC
330
1F
100
AcDbEntity
  8
0
  6
Continuous
 62
     7
370
    25
100
AcDbCircle
 10
-1328.431936
 20
1701.672608
 30
0.0
 40
2.510000000001355
100
AcDbArc
 50
130.8626260897
 51
190.8626260897
  0
ARC
  5
ED
330
1F
100
AcDbEntity
  8
0
  6
Continuous
 62
     7
370
    25
100
AcDbCircle
 10
-1328.431936
 20
1701.672608
 30
0.0
 40
2.510000000001355
100
AcDbArc
 50
70.8626260897
 51
130.8626260897
  0
LINE
  5
EE
330
1F
100
AcDbEntity
  8
0
  6
Continuous
 62
     7
370
    25
100
AcDbLine
 10
-1427.2934396011
 20
1604.3379258036
 30
0.0
 11
-1425.5544144851
 21
1602.0192902207
 31
0.0
  0
LINE
  5
EF
330
1F
100
AcDbEntity
  8
0
  6
Continuous
 62
     7
370
    25
100
AcDbLine
 10
-1430.1709134323
 20
1603.9912465632
 30
0.0
 11
-1427.2934396011
 21
1604.3379258036
 31
0.0
  0
LINE
  5
F0
330
1F
100
AcDbEntity
  8
0
  6
Continuous
 62
     7
370
    25
100
AcDbLine
 10
-1431.3093621475
 20
1601.3259280145
 30
0.0
 11
-1430.1709134323
 21
1603.9912465632
 31
0.0
  0
LINE
  5
F1
330
1F
100
AcDbEntity
  8
0
  6
Continuous
 62
     7
370
    25
100
AcDbLine
 10
-1429.5703370315
 20
1599.0072887063
 30
0.0
 11
-1431.3093621475
 21
1601.3259280145
 31
0.0
  0
LINE
  5
F2
330
1F
100
AcDbEntity
  8
0
  6
Continuous
 62
     7
370
    25
100
AcDbLine
 10
-1426.6928632003
 20
1599.3539679467
 30
0.0
 11
-1429.5703370315
 21
1599.0072887063
 31
0.0
  0
LINE
  5
F3
330
1F
100
AcDbEntity
  8
0
  6
Continuous
 62
     7
370
    25
100
AcDbLine
 10
-1425.5544144851
 20
1602.0192902207
 30
0.0
 11
-1426.6928632003
 21
1599.3539679467
 31
0.0
  0
CIRCLE
  5
F4
330
1F
100
AcDbEntity
  8
0
  6
Continuous
 62
     7
370
    25
100
AcDbCircle
 10
-1428.431936
 20
1601.672608
 30
0.0
 40
7.785000000000082
  0
ARC
  5
F5
330
1F
100
AcDbEntity
  8
0
  6
Continuous
 62
     7
370
    25
100
AcDbCircle
 10
-1428.431936
 20
1601.672608
 30
0.0
 40
2.510000000000626
100
AcDbArc
 50
36.8698976459
 51
96.8698976459
  0
ARC
  5
F6
330
1F
100
AcDbEntity
  8
0
  6
Continuous
 62
     7
370
    25
100
AcDbCircle
 10
-1428.431936
 20
1601.672608
 30
0.0
 40
2.510000000000943
100
AcDbArc
 50
96.8698976459
 51
156.8698976459
  0
ARC
  5
F7
330
1F
100
AcDbEntity
  8
0
  6
Continuous
 62
     7
370
    25
100
AcDbCircle
 10
-1428.431936
 20
1601.672608
 30
0.0
 40
2.50999999999924
100
AcDbArc
 50
336.8698976458
 51
36.8698976459
  0
ARC
  5
F8
330
1F
100
AcDbEntity
  8
0
  6
Continuous
 62
     7
370
    25
100
AcDbCircle
 10
-1428.431936
 20
1601.672608
 30
0.0
 40
2.50999999999924
100
AcDbArc
 50
276.8698976458
 51
336.8698976458
  0
ARC
  5
F9
330
1F
100
AcDbEntity
  8
0
  6
Continuous
 62
     7
370
    25
100
AcDbCircle
 10
-1428.431936
 20
1601.672608
 30
0.0
 40
2.509999999999536
100
AcDbArc
 50
216.8698976458
 51
276.8698976458
  0
ARC
  5
FA
330
1F
100
AcDbEntity
  8
0
  6
Continuous
 62
     7
370
    25
100
AcDbCircle
 10
-1428.431936
 20
1601.672608
 30
0.0
 40
2.510000000000943
100
AcDbArc
 50
156.8698976459
 51
216.8698976458
  0
LINE
  5
FB
330
1F
100
AcDbEntity
  8
0
  6
Continuous
 62
     7
370
    25
100
AcDbLine
 10
1670.4295526999
 20
-1300.9927209795
 30
0.0
 11
1668.6905760127
 21
-1298.6741002977
 31
0.0
  0
LINE
  5
FC
330
1F
100
AcDbEntity
  8
0
  6
Continuous
 62
     7
370
    25
100
AcDbLine
 10
1673.3070414322
 20
-1300.6460603655
 30
0.0
 11
1670.4295526999
 21
-1300.9927209795
 31
0.0
  0
LINE
  5
FD
330
1F
100
AcDbEntity
  8
0
  6
Continuous
 62
     7
370
    25
100
AcDbLine
 10
1674.4455534774
 20
-1297.9807790697
 30
0.0
 11
1673.3070414322
 21
-1300.6460603655
 31
0.0
  0
LINE
  5
FE
330
1F
100
AcDbEntity
  8
0
  6
Continuous
 62
     7
370
    25
100
AcDbLine
 10
1672.7065730649
 20
-1295.6621583879
 30
0.0
 11
1674.4455534774
 21
-1297.9807790697
 31
0.0
  0
LINE
  5
FF
330
1F
100
AcDbEntity
  8
0
  6
Continuous
 62
     7
370
    25
100
AcDbLine
 10
1669.8290843326
 20
-1296.0088190019
 30
0.0
 11
1672.7065730649
 21
-1295.6621583879
 31
0.0
  0
LINE
  5
100
330
1F
100
AcDbEntity
  8
0
  6
Continuous
 62
     7
370
    25
100
AcDbLine
 10
1668.6905760127
 20
-1298.6741002977
 30
0.0
 11
1669.8290843326
 21
-1296.0088190019
 31
0.0
  0
CIRCLE
  5
101
330
1F
100
AcDbEntity
  8
0
  6
Continuous
 62
     7
370
    25
100
AcDbCircle
 10
1671.568064
 20
-1298.327392
 30
0.0
 40
7.784999999999718
  0
ARC
  5
102
330
1F
100
AcDbEntity
  8
0
  6
Continuous
 62
     7
370
    25
100
AcDbCircle
 10
1671.568064
 20
-1298.327392
 30
0.0
 40
2.509999999998612
100
AcDbArc
 50
156.8698976458
 51
216.8698976459
  0
ARC
  5
103
330
1F
100
AcDbEntity
  8
0
  6
Continuous
 62
     7
370
    25
100
AcDbCircle
 10
1671.568064
 20
-1298.327392
 30
0.0
 40
2.509999999999054
100
AcDbArc
 50
96.8698976458
 51
156.8698976458
  0
ARC
  5
104
330
1F
100
AcDbEntity
  8
0
  6
Continuous
 62
     7
370
    25
100
AcDbCircle
 10
1671.568064
 20
-1298.327392
 30
0.0
 40
2.5099999999999
100
AcDbArc
 50
36.8698976458
 51
96.8698976458
  0
ARC
  5
105
330
1F
100
AcDbEntity
  8
0
  6
Continuous
 62
     7
370
    25
100
AcDbCircle
 10
1671.568064
 20
-1298.327392
 30
0.0
 40
2.510000000001152
100
AcDbArc
 50
336.8698976459
 51
36.8698976458
  0
ARC
  5
106
330
1F
100
AcDbEntity
  8
0
  6
Continuous
 62
     7
370
    25
100
AcDbCircle
 10
1671.568064
 20
-1298.327392
 30
0.0
 40
2.510000000001152
100
AcDbArc
 50
276.8698976459
 51
336.8698976459
  0
ARC
  5
107
330
1F
100
AcDbEntity
  8
0
  6
Continuous
 62
     7
370
    25
100
AcDbCircle
 10
1671.568064
 20
-1298.327392
 30
0.0
 40
2.510000000000427
100
AcDbArc
 50
216.8698976459
 51
276.8698976459
  0
LINE
  5
108
330
1F
100
AcDbEntity
  8
0
  6
Continuous
 62
     7
370
    25
100
AcDbLine
 10
1673.4642673093
 20
1599.4806799709
 30
0.0
 11
1670.6179033774
 21
1598.9344816327
 31
0.0
  0
LINE
  5
109
330
1F
100
AcDbEntity
  8
0
  6
Continuous
 62
     7
370
    25
100
AcDbLine
 10
1674.4144286769
 20
1602.2188055932
 30
0.0
 11
1673.4642673093
 21
1599.4806799709
 31
0.0
  0
LINE
  5
10A
330
1F
100
AcDbEntity
  8
0
  6
Continuous
 62
     7
370
    25
100
AcDbLine
 10
1672.5182261127
 20
1604.4107328772
 30
0.0
 11
1674.4144286769
 21
1602.2188055932
 31
0.0
  0
LINE
  5
10B
330
1F
100
AcDbEntity
  8
0
  6
Continuous
 62
     7
370
    25
100
AcDbLine
 10
1669.6718584555
 20
1603.864534539
 30
0.0
 11
1672.5182261127
 21
1604.4107328772
 31
0.0
  0
LINE
  5
10C
330
1F
100
AcDbEntity
  8
0
  6
Continuous
 62
     7
370
    25
100
AcDbLine
 10
1668.7216970879
 20
1601.1264089167
 30
0.0
 11
1669.6718584555
 21
1603.864534539
 31
0.0
  0
LINE
  5
10D
330
1F
100
AcDbEntity
  8
0
  6
Continuous
 62
     7
370
    25
100
AcDbLine
 10
1670.6179033774
 20
1598.9344816327
 30
0.0
 11
1668.7216970879
 21
1601.1264089167
 31
0.0
  0
CIRCLE
  5
10E
330
1F
100
AcDbEntity
  8
0
  6
Continuous
 62
     7
370
    25
100
AcDbCircle
 10
1671.568064
 20
1601.672608
 30
0.0
 40
7.78499999999975
  0
ARC
  5
10F
330
1F
100
AcDbEntity
  8
0
  6
Continuous
 62
     7
370
    25
100
AcDbCircle
 10
1671.568064
 20
1601.672608
 30
0.0
 40
2.510000000000252
100
AcDbArc
 50
280.8626260897
 51
340.8626260897
  0
ARC
  5
110
330
1F
100
AcDbEntity
  8
0
  6
Continuous
 62
     7
370
    25
100
AcDbCircle
 10
1671.568064
 20
1601.672608
 30
0.0
 40
2.510000000001183
100
AcDbArc
 50
340.8626260897
 51
40.8626260897
  0
ARC
  5
111
330
1F
100
AcDbEntity
  8
0
  6
Continuous
 62
     7
370
    25
100
AcDbCircle
 10
1671.568064
 20
1601.672608
 30
0.0
 40
2.509999999998562
100
AcDbArc
 50
220.8626260897
 51
280.8626260897
  0
ARC
  5
112
330
1F
100
AcDbEntity
  8
0
  6
Continuous
 62
     7
370
    25
100
AcDbCircle
 10
1671.568064
 20
1601.672608
 30
0.0
 40
2.50999999999941
100
AcDbArc
 50
160.8626260897
 51
220.8626260897
  0
ARC
  5
113
330
1F
100
AcDbEntity
  8
0
  6
Continuous
 62
     7
370
    25
100
AcDbCircle
 10
1671.568064
 20
1601.672608
 30
0.0
 40
2.509999999999681
100
AcDbArc
 50
100.8626260897
 51
160.8626260897
  0
ARC
  5
114
330
1F
100
AcDbEntity
  8
0
  6
Continuous
 62
     7
370
    25
100
AcDbCircle
 10
1671.568064
 20
1601.672608
 30
0.0
 40
2.510000000001183
100
AcDbArc
 50
40.8626260897
 51
100.8626260897
  0
LINE
  5
115
330
1F
100
AcDbEntity
  8
0
  6
Continuous
 62
     7
370
    25
100
AcDbLine
 10
-1429.8809964401
 20
-1395.8172735155
 30
0.0
 11
-1426.9827801925
 21
-1395.8172735155
 31
0.0
  0
LINE
  5
116
330
1F
100
AcDbEntity
  8
0
  6
Continuous
 62
     7
370
    25
100
AcDbLine
 10
-1431.3303429824
 20
-1398.3273443163
 30
0.0
 11
-1429.8809964401
 21
-1395.8172735155
 31
0.0
  0
LINE
  5
117
330
1F
100
AcDbEntity
  8
0
  6
Continuous
 62
     7
370
    25
100
AcDbLine
 10
-1429.8809964401
 20
-1400.8374151171
 30
0.0
 11
-1431.3303429824
 21
-1398.3273443163
 31
0.0
  0
LINE
  5
118
330
1F
100
AcDbEntity
  8
0
  6
Continuous
 62
     7
370
    25
100
AcDbLine
 10
-1426.9827801925
 20
-1400.8374151171
 30
0.0
 11
-1429.8809964401
 21
-1400.8374151171
 31
0.0
  0
LINE
  5
119
330
1F
100
AcDbEntity
  8
0
  6
Continuous
 62
     7
370
    25
100
AcDbLine
 10
-1425.5336720687
 20
-1398.3273443163
 30
0.0
 11
-1426.9827801925
 21
-1400.8374151171
 31
0.0
  0
LINE
  5
11A
330
1F
100
AcDbEntity
  8
0
  6
Continuous
 62
     7
370
    25
100
AcDbLine
 10
-1426.9827801925
 20
-1395.8172735155
 30
0.0
 11
-1425.5336720687
 21
-1398.3273443163
 31
0.0
  0
CIRCLE
  5
11B
330
1F
100
AcDbEntity
  8
0
  6
Continuous
 62
     7
370
    25
100
AcDbCircle
 10
-1428.431936
 20
-1398.327392
 30
0.0
 40
7.785000000000082
  0
ARC
  5
11C
330
1F
100
AcDbEntity
  8
0
  6
Continuous
 62
     7
370
    25
100
AcDbCircle
 10
-1428.431936
 20
-1398.327392
 30
0.0
 40
2.510000000000624
100
AcDbArc
 50
90.0
 51
150.0
  0
ARC
  5
11D
330
1F
100
AcDbEntity
  8
0
  6
Continuous
 62
     7
370
    25
100
AcDbCircle
 10
-1428.431936
 20
-1398.327392
 30
0.0
 40
2.509999999998625
100
AcDbArc
 50
30.0
 51
90.0
  0
ARC
  5
11E
330
1F
100
AcDbEntity
  8
0
  6
Continuous
 62
     7
370
    25
100
AcDbCircle
 10
-1428.431936
 20
-1398.327392
 30
0.0
 40
2.509999999999193
100
AcDbArc
 50
330.0
 51
30.0
  0
ARC
  5
11F
330
1F
100
AcDbEntity
  8
0
  6
Continuous
 62
     7
370
    25
100
AcDbCircle
 10
-1428.431936
 20
-1398.327392
 30
0.0
 40
2.509999999999764
100
AcDbArc
 50
270.0
 51
330.0
  0
ARC
  5
120
330
1F
100
AcDbEntity
  8
0
  6
Continuous
 62
     7
370
    25
100
AcDbCircle
 10
-1428.431936
 20
-1398.327392
 30
0.0
 40
2.510000000001254
100
AcDbArc
 50
210.0
 51
270.0
  0
ARC
  5
121
330
1F
100
AcDbEntity
  8
0
  6
Continuous
 62
     7
370
    25
100
AcDbCircle
 10
-1428.431936
 20
-1398.327392
 30
0.0
 40
2.510000000001254
100
AcDbArc
 50
150.0
 51
210.0
  0
LINE
  5
122
330
1F
100
AcDbEntity
  8
0
  6
Continuous
 62
     7
370
    25
100
AcDbLine
 10
-1326.7003495437
 20
1603.9967488169
 30
0.0
 11
-1325.5533177596
 21
1601.3350549757
 31
0.0
  0
LINE
  5
123
330
1F
100
AcDbEntity
  8
0
  6
Continuous
 62
     7
370
    25
100
AcDbLine
 10
-1329.5787770492
 20
1604.3343048215
 30
0.0
 11
-1326.7003495437
 21
1603.9967488169
 31
0.0
  0
LINE
  5
124
330
1F
100
AcDbEntity
  8
0
  6
Continuous
 62
     7
370
    25
100
AcDbLine
 10
-1330.1636178237
 20
1599.348465693
 30
0.0
 11
-1331.3104111892
 21
1602.0101632595
 31
0.0
  0
LINE
  5
125
330
1F
100
AcDbEntity
  8
0
  6
Continuous
 62
     7
370
    25
100
AcDbLine
 10
-1327.2849518997
 20
1599.0109134137
 30
0.0
 11
-1330.1636178237
 21
1599.348465693
 31
0.0
  0
LINE
  5
126
330
1F
100
AcDbEntity
  8
0
  6
Continuous
 62
     7
370
    25
100
AcDbLine
 10
-1325.5533177596
 20
1601.3350549757
 30
0.0
 11
-1327.2849518997
 21
1599.0109134137
 31
0.0
  0
CIRCLE
  5
127
330
1F
100
AcDbEntity
  8
0
  6
Continuous
 62
     7
370
    25
100
AcDbCircle
 10
-1328.431936
 20
1601.672608
 30
0.0
 40
7.784999999999676
  0
LINE
  5
128
330
1F
100
AcDbEntity
  8
0
  6
Continuous
 62
     7
370
    25
100
AcDbLine
 10
-1331.3104111892
 20
1602.0101632595
 30
0.0
 11
-1329.5787770492
 21
1604.3343048215
 31
0.0
  0
ARC
  5
129
330
1F
100
AcDbEntity
  8
0
  6
Continuous
 62
     7
370
    25
100
AcDbCircle
 10
-1328.431936
 20
1601.672608
 30
0.0
 40
2.510000000000018
100
AcDbArc
 50
23.3117780349
 51
83.3117780349
  0
ARC
  5
12A
330
1F
100
AcDbEntity
  8
0
  6
Continuous
 62
     7
370
    25
100
AcDbCircle
 10
-1328.431936
 20
1601.672608
 30
0.0
 40
2.510000000000746
100
AcDbArc
 50
83.3117780349
 51
143.3117780349
  0
ARC
  5
12B
330
1F
100
AcDbEntity
  8
0
  6
Continuous
 62
     7
370
    25
100
AcDbCircle
 10
-1328.431936
 20
1601.672608
 30
0.0
 40
2.509999999999012
100
AcDbArc
 50
323.3117780349
 51
23.3117780349
  0
ARC
  5
12C
330
1F
100
AcDbEntity
  8
0
  6
Continuous
 62
     7
370
    25
100
AcDbCircle
 10
-1328.431936
 20
1601.672608
 30
0.0
 40
2.509999999999247
100
AcDbArc
 50
263.3117780349
 51
323.3117780349
  0
ARC
  5
12D
330
1F
100
AcDbEntity
  8
0
  6
Continuous
 62
     7
370
    25
100
AcDbCircle
 10
-1328.431936
 20
1601.672608
 30
0.0
 40
2.509999999999578
100
AcDbArc
 50
203.3117780349
 51
263.3117780349
  0
ARC
  5
12E
330
1F
100
AcDbEntity
  8
0
  6
Continuous
 62
     7
370
    25
100
AcDbCircle
 10
-1328.431936
 20
1601.672608
 30
0.0
 40
2.510000000000746
100
AcDbArc
 50
143.3117780349
 51
203.3117780349
  0
LINE
  5
12F
330
1F
100
AcDbEntity
  8
0
  6
Continuous
 62
     7
370
    25
100
AcDbLine
 10
1574.2333818036
 20
1700.5340966999
 30
0.0
 11
1571.9147462207
 21
1698.7951200127
 31
0.0
  0
LINE
  5
130
330
1F
100
AcDbEntity
  8
0
  6
Continuous
 62
     7
370
    25
100
AcDbLine
 10
1573.8867025631
 20
1703.4115854323
 30
0.0
 11
1574.2333818036
 21
1700.5340966999
 31
0.0
  0
LINE
  5
131
330
1F
100
AcDbEntity
  8
0
  6
Continuous
 62
     7
370
    25
100
AcDbLine
 10
1571.2213840145
 20
1704.5500974774
 30
0.0
 11
1573.8867025631
 21
1703.4115854323
 31
0.0
  0
LINE
  5
132
330
1F
100
AcDbEntity
  8
0
  6
Continuous
 62
     7
370
    25
100
AcDbLine
 10
1568.9027447063
 20
1702.8111170649
 30
0.0
 11
1571.2213840145
 21
1704.5500974774
 31
0.0
  0
LINE
  5
133
330
1F
100
AcDbEntity
  8
0
  6
Continuous
 62
     7
370
    25
100
AcDbLine
 10
1569.2494239467
 20
1699.9336283326
 30
0.0
 11
1568.9027447063
 21
1702.8111170649
 31
0.0
  0
LINE
  5
134
330
1F
100
AcDbEntity
  8
0
  6
Continuous
 62
     7
370
    25
100
AcDbLine
 10
1571.9147462207
 20
1698.7951200127
 30
0.0
 11
1569.2494239467
 21
1699.9336283326
 31
0.0
  0
CIRCLE
  5
135
330
1F
100
AcDbEntity
  8
0
  6
Continuous
 62
     7
370
    25
100
AcDbCircle
 10
1571.568064
 20
1701.672608
 30
0.0
 40
7.785000000000082
  0
ARC
  5
136
330
1F
100
AcDbEntity
  8
0
  6
Continuous
 62
     7
370
    25
100
AcDbCircle
 10
1571.568064
 20
1701.672608
 30
0.0
 40
2.510000000000943
100
AcDbArc
 50
6.8698976459
 51
66.8698976459
  0
ARC
  5
137
330
1F
100
AcDbEntity
  8
0
  6
Continuous
 62
     7
370
    25
100
AcDbCircle
 10
1571.568064
 20
1701.672608
 30
0.0
 40
2.5100000000004
100
AcDbArc
 50
306.8698976459
 51
6.8698976459
  0
ARC
  5
138
330
1F
100
AcDbEntity
  8
0
  6
Continuous
 62
     7
370
    25
100
AcDbCircle
 10
1571.568064
 20
1701.672608
 30
0.0
 40
2.509999999998822
100
AcDbArc
 50
246.8698976458
 51
306.8698976459
  0
ARC
  5
139
330
1F
100
AcDbEntity
  8
0
  6
Continuous
 62
     7
370
    25
100
AcDbCircle
 10
1571.568064
 20
1701.672608
 30
0.0
 40
2.509999999999136
100
AcDbArc
 50
186.8698976458
 51
246.8698976458
  0
ARC
  5
13A
330
1F
100
AcDbEntity
  8
0
  6
Continuous
 62
     7
370
    25
100
AcDbCircle
 10
1571.568064
 20
1701.672608
 30
0.0
 40
2.5099999999999
100
AcDbArc
 50
126.8698976458
 51
186.8698976458
  0
ARC
  5
13B
330
1F
100
AcDbEntity
  8
0
  6
Continuous
 62
     7
370
    25
100
AcDbCircle
 10
1571.568064
 20
1701.672608
 30
0.0
 40
2.510000000000943
100
AcDbArc
 50
66.8698976459
 51
126.8698976458
  0
LINE
  5
13C
330
1F
100
AcDbEntity
  8
0
  6
Continuous
 62
     7
370
    25
100
AcDbLine
 10
-1331.0972649795
 20
-1397.1888956011
 30
0.0
 11
-1328.7786442977
 21
-1395.4498704851
 31
0.0
  0
LINE
  5
13D
330
1F
100
AcDbEntity
  8
0
  6
Continuous
 62
     7
370
    25
100
AcDbLine
 10
-1325.7667023879
 20
-1399.4657930315
 30
0.0
 11
-1328.0853230697
 21
-1401.2048181475
 31
0.0
  0
LINE
  5
13E
330
1F
100
AcDbEntity
  8
0
  6
Continuous
 62
     7
370
    25
100
AcDbLine
 10
-1326.113363002
 20
-1396.5883192003
 30
0.0
 11
-1325.7667023879
 21
-1399.4657930315
 31
0.0
  0
LINE
  5
13F
330
1F
100
AcDbEntity
  8
0
  6
Continuous
 62
     7
370
    25
100
AcDbLine
 10
-1328.7786442977
 20
-1395.4498704851
 30
0.0
 11
-1326.113363002
 21
-1396.5883192003
 31
0.0
  0
CIRCLE
  5
140
330
1F
100
AcDbEntity
  8
0
  6
Continuous
 62
     7
370
    25
100
AcDbCircle
 10
-1328.431936
 20
-1398.327392
 30
0.0
 40
7.785000000000082
  0
LINE
  5
141
330
1F
100
AcDbEntity
  8
0
  6
Continuous
 62
     7
370
    25
100
AcDbLine
 10
-1330.7506043655
 20
-1400.0663694322
 30
0.0
 11
-1331.0972649795
 21
-1397.1888956011
 31
0.0
  0
LINE
  5
142
330
1F
100
AcDbEntity
  8
0
  6
Continuous
 62
     7
370
    25
100
AcDbLine
 10
-1328.0853230697
 20
-1401.2048181475
 30
0.0
 11
-1330.7506043655
 21
-1400.0663694322
 31
0.0
  0
ARC
  5
143
330
1F
100
AcDbEntity
  8
0
  6
Continuous
 62
     7
370
    25
100
AcDbCircle
 10
-1328.431936
 20
-1398.327392
 30
0.0
 40
2.509999999999031
100
AcDbArc
 50
66.8698976458
 51
126.8698976459
  0
ARC
  5
144
330
1F
100
AcDbEntity
  8
0
  6
Continuous
 62
     7
370
    25
100
AcDbCircle
 10
-1328.431936
 20
-1398.327392
 30
0.0
 40
2.509999999999031
100
AcDbArc
 50
6.8698976458
 51
66.8698976458
  0
ARC
  5
145
330
1F
100
AcDbEntity
  8
0
  6
Continuous
 62
     7
370
    25
100
AcDbCircle
 10
-1328.431936
 20
-1398.327392
 30
0.0
 40
2.509999999999536
100
AcDbArc
 50
306.8698976458
 51
6.8698976458
  0
ARC
  5
146
330
1F
100
AcDbEntity
  8
0
  6
Continuous
 62
     7
370
    25
100
AcDbCircle
 10
-1328.431936
 20
-1398.327392
 30
0.0
 40
2.510000000001152
100
AcDbArc
 50
246.8698976459
 51
306.8698976458
  0
ARC
  5
147
330
1F
100
AcDbEntity
  8
0
  6
Continuous
 62
     7
370
    25
100
AcDbCircle
 10
-1328.431936
 20
-1398.327392
 30
0.0
 40
2.510000000001152
100
AcDbArc
 50
186.8698976459
 51
246.8698976459
  0
ARC
  5
148
330
1F
100
AcDbEntity
  8
0
  6
Continuous
 62
     7
370
    25
100
AcDbCircle
 10
-1328.431936
 20
-1398.327392
 30
0.0
 40
2.510000000000653
100
AcDbArc
 50
126.8698976459
 51
186.8698976459
  0
LINE
  5
149
330
1F
100
AcDbEntity
  8
0
  6
Continuous
 62
     7
370
    25
100
AcDbLine
 10
1569.8364440161
 20
-1300.6515439928
 30
0.0
 11
1568.6894904631
 21
-1297.9898389757
 31
0.0
  0
LINE
  5
14A
330
1F
100
AcDbEntity
  8
0
  6
Continuous
 62
     7
370
    25
100
AcDbLine
 10
1573.2996824938
 20
-1296.0033353746
 30
0.0
 11
1574.446639772
 21
-1298.6650403917
 31
0.0
  0
LINE
  5
14B
330
1F
100
AcDbEntity
  8
0
  6
Continuous
 62
     7
370
    25
100
AcDbLine
 10
1570.421109702
 20
-1295.6657346666
 30
0.0
 11
1573.2996824938
 21
-1296.0033353746
 31
0.0
  0
LINE
  5
14C
330
1F
100
AcDbEntity
  8
0
  6
Continuous
 62
     7
370
    25
100
AcDbLine
 10
1568.6894904631
 20
-1297.9898389757
 30
0.0
 11
1570.421109702
 21
-1295.6657346666
 31
0.0
  0
CIRCLE
  5
14D
330
1F
100
AcDbEntity
  8
0
  6
Continuous
 62
     7
370
    25
100
AcDbCircle
 10
1571.568064
 20
-1298.327392
 30
0.0
 40
7.785000000000212
  0
LINE
  5
14E
330
1F
100
AcDbEntity
  8
0
  6
Continuous
 62
     7
370
    25
100
AcDbLine
 10
1572.7150205332
 20
-1300.9891447008
 30
0.0
 11
1569.8364440161
 21
-1300.6515439928
 31
0.0
  0
LINE
  5
14F
330
1F
100
AcDbEntity
  8
0
  6
Continuous
 62
     7
370
    25
100
AcDbLine
 10
1574.446639772
 20
-1298.6650403917
 30
0.0
 11
1572.7150205332
 21
-1300.9891447008
 31
0.0
  0
ARC
  5
150
330
1F
100
AcDbEntity
  8
0
  6
Continuous
 62
     7
370
    25
100
AcDbCircle
 10
1571.568064
 20
-1298.327392
 30
0.0
 40
2.51000000000047
100
AcDbArc
 50
203.3117780349
 51
263.3117780349
  0
ARC
  5
151
330
1F
100
AcDbEntity
  8
0
  6
Continuous
 62
     7
370
    25
100
AcDbCircle
 10
1571.568064
 20
-1298.327392
 30
0.0
 40
2.510000000000835
100
AcDbArc
 50
263.3117780349
 51
323.3117780349
  0
ARC
  5
152
330
1F
100
AcDbEntity
  8
0
  6
Continuous
 62
     7
370
    25
100
AcDbCircle
 10
1571.568064
 20
-1298.327392
 30
0.0
 40
2.509999999999058
100
AcDbArc
 50
143.3117780349
 51
203.3117780349
  0
ARC
  5
153
330
1F
100
AcDbEntity
  8
0
  6
Continuous
 62
     7
370
    25
100
AcDbCircle
 10
1571.568064
 20
-1298.327392
 30
0.0
 40
2.509999999999221
100
AcDbArc
 50
83.3117780349
 51
143.3117780349
  0
ARC
  5
154
330
1F
100
AcDbEntity
  8
0
  6
Continuous
 62
     7
370
    25
100
AcDbCircle
 10
1571.568064
 20
-1298.327392
 30
0.0
 40
2.509999999999578
100
AcDbArc
 50
23.3117780349
 51
83.3117780349
  0
ARC
  5
155
330
1F
100
AcDbEntity
  8
0
  6
Continuous
 62
     7
370
    25
100
AcDbCircle
 10
1571.568064
 20
-1298.327392
 30
0.0
 40
2.510000000000835
100
AcDbArc
 50
323.3117780349
 51
23.3117780349
  0
CIRCLE
  5
156
330
1F
100
AcDbEntity
  8
0
  6
Continuous
 62
     7
370
    25
100
AcDbCircle
 10
1621.5680639987
 20
1651.6726079995
 30
0.0
 40
80.00000000125988
  0
LINE
  5
157
330
1F
100
AcDbEntity
  8
0
  6
Continuous
 62
     7
370
    25
100
AcDbLine
 10
1571.8814309496
 20
1725.632383269
 30
0.0
 11
1527.8561662692
 21
1801.8863711178
 31
0.0
  0
LWPOLYLINE
  5
158
330
1F
100
AcDbEntity
  8
0
  6
Continuous
 62
     7
370
    25
100
AcDbPolyline
 90
        7
 70
   128
 43
0.0
 10
1527.8561662692
 20
1801.8863711178
 10
1527.8694432038
 20
1801.8980238259
 10
1528.4022416729
 20
1802.3658159792
 10
1529.1079159635
 20
1802.9842141688
 10
1529.6684827465
 20
1803.4744921744
 10
1530.0309385913
 20
1803.7910673439
 10
1530.1570545691
 20
1803.9011273205
  0
LINE
  5
159
330
1F
100
AcDbEntity
  8
0
  6
Continuous
 62
     7
370
    25
100
AcDbLine
 10
1530.1570545691
 20
1803.9011273205
 30
0.0
 11
1575.9037051159
 21
1724.6655959308
 31
0.0
  0
ARC
  5
15A
330
1F
100
AcDbEntity
  8
0
  6
Continuous
 62
     7
370
    25
100
AcDbCircle
 10
1515.2309905378
 20
1481.0901998556
 30
0.0
 40
251.018230149604
100
AcDbArc
 50
76.0127241908
 51
76.9569807688
  0
ARC
  5
15B
330
1F
100
AcDbEntity
  8
0
  6
Continuous
 62
     7
370
    25
100
AcDbCircle
 10
1621.5680639987
 20
1651.6726079995
 30
0.0
 40
89.10000000006822
100
AcDbArc
 50
243.8934499248
 51
296.1065500766
  0
ARC
  5
15C
330
1F
100
AcDbEntity
  8
0
  6
Continuous
 62
     7
370
    25
100
AcDbCircle
 10
1825.4821779826
 20
1645.7660606078
 30
0.0
 40
254.1643514067806
100
AcDbArc
 50
196.0185860543
 51
196.9511543337
  0
ARC
  5
15D
330
1F
100
AcDbEntity
  8
0
  6
Continuous
 62
     7
370
    25
100
AcDbCircle
 10
1621.5680639987
 20
1651.6726079995
 30
0.0
 40
86.10000000004317
100
AcDbArc
 50
242.0300661591
 51
297.9699338423
  0
ARC
  5
15E
330
1F
100
AcDbEntity
  8
0
  6
Continuous
 62
     7
370
    25
100
AcDbCircle
 10
1417.6539500174
 20
1645.7660606078
 30
0.0
 40
254.1643514067806
100
AcDbArc
 50
343.0488456663
 51
343.9814139457
  0
ARC
  5
15F
330
1F
100
AcDbEntity
  8
0
  6
Continuous
 62
     7
370
    25
100
AcDbCircle
 10
1621.5680639987
 20
1651.6726079995
 30
0.0
 40
89.10000000006843
100
AcDbArc
 50
123.8934499234
 51
176.1065500753
  0
ARC
  5
160
330
1F
100
AcDbEntity
  8
0
  6
Continuous
 62
     7
370
    25
100
AcDbCircle
 10
1621.5680639987
 20
1651.6726079995
 30
0.0
 40
86.09999999989543
100
AcDbArc
 50
122.0300661576
 51
177.969933841
  0
ARC
  5
161
330
1F
100
AcDbEntity
  8
0
  6
Continuous
 62
     7
370
    25
100
AcDbCircle
 10
1718.6443913663
 20
1831.4434460898
 30
0.0
 40
254.4877719478967
100
AcDbArc
 50
223.04945784
 51
223.9808413542
  0
LINE
  5
162
330
1F
100
AcDbEntity
  8
0
  6
Continuous
 62
     7
370
    25
100
AcDbLine
 10
1707.696321215
 20
1496.394089204
 30
0.0
 11
1661.9496669429
 21
1575.6296205938
 31
0.0
  0
LWPOLYLINE
  5
163
330
1F
100
AcDbEntity
  8
0
  6
Continuous
 62
     7
370
    25
100
AcDbPolyline
 90
        7
 70
   128
 43
0.0
 10
1707.696321215
 20
1496.394089204
 10
1707.5379516738
 20
1496.3399085819
 10
1707.0825647372
 20
1496.1842957556
 10
1706.3776802081
 20
1495.9439698279
 10
1705.48930278
 20
1495.6420275986
 10
1704.8177819508
 20
1495.4145017683
 10
1704.8010479468
 20
1495.4088393271
  0
LINE
  5
164
330
1F
100
AcDbEntity
  8
0
  6
Continuous
 62
     7
370
    25
100
AcDbLine
 10
1704.8010479468
 20
1495.4088393271
 30
0.0
 11
1660.775790717
 21
1571.6628346264
 31
0.0
  0
LINE
  5
165
330
1F
100
AcDbEntity
  8
0
  6
Continuous
 62
     7
370
    25
100
AcDbLine
 10
1660.775790717
 20
1731.6823813736
 30
0.0
 11
1704.8010479468
 21
1807.9363766729
 31
0.0
  0
LWPOLYLINE
  5
166
330
1F
100
AcDbEntity
  8
0
  6
Continuous
 62
     7
370
    25
100
AcDbPolyline
 90
        7
 70
   128
 43
0.0
 10
1704.8010479468
 20
1807.9363766729
 10
1704.8177819508
 20
1807.9307142317
 10
1705.48930278
 20
1807.7031884014
 10
1706.3776802081
 20
1807.4012461722
 10
1707.0825647372
 20
1807.1609202444
 10
1707.5379516738
 20
1807.0053074181
 10
1707.696321215
 20
1806.951126796
  0
LINE
  5
167
330
1F
100
AcDbEntity
  8
0
  6
Continuous
 62
     7
370
    25
100
AcDbLine
 10
1707.696321215
 20
1806.951126796
 30
0.0
 11
1661.9496669429
 21
1727.7155954063
 31
0.0
  0
ARC
  5
168
330
1F
100
AcDbEntity
  8
0
  6
Continuous
 62
     7
370
    25
100
AcDbCircle
 10
1417.6539500174
 20
1657.5791553922
 30
0.0
 40
254.1643514067806
100
AcDbArc
 50
16.0185860543
 51
16.9511543337
  0
ARC
  5
169
330
1F
100
AcDbEntity
  8
0
  6
Continuous
 62
     7
370
    25
100
AcDbCircle
 10
1621.5680639987
 20
1651.6726079995
 30
0.0
 40
89.10000000006814
100
AcDbArc
 50
63.8934499238
 51
116.1065500748
  0
ARC
  5
16A
330
1F
100
AcDbEntity
  8
0
  6
Continuous
 62
     7
370
    25
100
AcDbCircle
 10
1621.5680639987
 20
1651.6726079995
 30
0.0
 40
86.10000000052793
100
AcDbArc
 50
62.030066158
 51
117.9699338405
  0
ARC
  5
16B
330
1F
100
AcDbEntity
  8
0
  6
Continuous
 62
     7
370
    25
100
AcDbCircle
 10
1825.4821779826
 20
1657.5791553922
 30
0.0
 40
254.1643514067806
100
AcDbArc
 50
163.0488456663
 51
163.9814139457
  0
ARC
  5
16C
330
1F
100
AcDbEntity
  8
0
  6
Continuous
 62
     7
370
    25
100
AcDbCircle
 10
1621.5680639987
 20
1651.6726079995
 30
0.0
 40
89.10000000006825
100
AcDbArc
 50
183.8934499239
 51
236.1065500762
  0
ARC
  5
16D
330
1F
100
AcDbEntity
  8
0
  6
Continuous
 62
     7
370
    25
100
AcDbCircle
 10
1718.6443913663
 20
1471.9017699102
 30
0.0
 40
254.487771947897
100
AcDbArc
 50
136.0191586458
 51
136.95054216
  0
ARC
  5
16E
330
1F
100
AcDbEntity
  8
0
  6
Continuous
 62
     7
370
    25
100
AcDbCircle
 10
1621.5680639987
 20
1651.6726079995
 30
0.0
 40
86.09999999944348
100
AcDbArc
 50
182.0300661582
 51
237.9699338419
  0
ARC
  5
16F
330
1F
100
AcDbEntity
  8
0
  6
Continuous
 62
     7
370
    25
100
AcDbCircle
 10
1515.2309905378
 20
1822.2550161444
 30
0.0
 40
251.018230149604
100
AcDbArc
 50
283.0430192312
 51
283.9872758092
  0
LINE
  5
170
330
1F
100
AcDbEntity
  8
0
  6
Continuous
 62
     7
370
    25
100
AcDbLine
 10
1530.1570545691
 20
1499.4440886795
 30
0.0
 11
1575.9037051159
 21
1578.6796200692
 31
0.0
  0
LWPOLYLINE
  5
171
330
1F
100
AcDbEntity
  8
0
  6
Continuous
 62
     7
370
    25
100
AcDbPolyline
 90
        7
 70
   128
 43
0.0
 10
1530.1570545691
 20
1499.4440886795
 10
1530.0309385913
 20
1499.5541486561
 10
1529.6684827465
 20
1499.8707238257
 10
1529.1079159635
 20
1500.3610018313
 10
1528.4022416729
 20
1500.9794000208
 10
1527.8694432038
 20
1501.4471921742
 10
1527.8561662692
 20
1501.4588448822
  0
LINE
  5
172
330
1F
100
AcDbEntity
  8
0
  6
Continuous
 62
     7
370
    25
100
AcDbLine
 10
1527.8561662692
 20
1501.4588448822
 30
0.0
 11
1571.8814309496
 21
1577.712832731
 31
0.0
  0
ARC
  5
173
330
1F
100
AcDbEntity
  8
0
  6
Continuous
 62
     7
370
    25
100
AcDbCircle
 10
1621.5680639987
 20
1651.6726079995
 30
0.0
 40
89.10000000006815
100
AcDbArc
 50
3.8934499247
 51
56.1065500752
  0
ARC
  5
174
330
1F
100
AcDbEntity
  8
0
  6
Continuous
 62
     7
370
    25
100
AcDbCircle
 10
1524.4917366337
 20
1831.4434460898
 30
0.0
 40
254.4877719478967
100
AcDbArc
 50
316.0191586458
 51
316.95054216
  0
ARC
  5
175
330
1F
100
AcDbEntity
  8
0
  6
Continuous
 62
     7
370
    25
100
AcDbCircle
 10
1621.5680639987
 20
1651.6726079995
 30
0.0
 40
86.1000000006083
100
AcDbArc
 50
2.0300661589
 51
57.9699338409
  0
ARC
  5
176
330
1F
100
AcDbEntity
  8
0
  6
Continuous
 62
     7
370
    25
100
AcDbCircle
 10
1727.9051374622
 20
1481.0901998556
 30
0.0
 40
251.0182301496041
100
AcDbArc
 50
103.0430192312
 51
103.9872758092
  0
LINE
  5
177
330
1F
100
AcDbEntity
  8
0
  6
Continuous
 62
     7
370
    25
100
AcDbLine
 10
1712.9790734309
 20
1803.9011273205
 30
0.0
 11
1667.2324228841
 21
1724.6655959308
 31
0.0
  0
LWPOLYLINE
  5
178
330
1F
100
AcDbEntity
  8
0
  6
Continuous
 62
     7
370
    25
100
AcDbPolyline
 90
        7
 70
   128
 43
0.0
 10
1712.9790734309
 20
1803.9011273205
 10
1713.1051894086
 20
1803.7910673439
 10
1713.4676452535
 20
1803.4744921744
 10
1714.0282120365
 20
1802.9842141688
 10
1714.7338863271
 20
1802.3658159792
 10
1715.2666847962
 20
1801.8980238259
 10
1715.2799617308
 20
1801.8863711178
  0
LINE
  5
179
330
1F
100
AcDbEntity
  8
0
  6
Continuous
 62
     7
370
    25
100
AcDbLine
 10
1715.2799617308
 20
1801.8863711178
 30
0.0
 11
1671.2546970504
 21
1725.632383269
 31
0.0
  0
LINE
  5
17A
330
1F
100
AcDbEntity
  8
0
  6
Continuous
 62
     7
370
    25
100
AcDbLine
 10
1582.360337283
 20
1571.6628346264
 30
0.0
 11
1538.3350800532
 21
1495.4088393271
 31
0.0
  0
LWPOLYLINE
  5
17B
330
1F
100
AcDbEntity
  8
0
  6
Continuous
 62
     7
370
    25
100
AcDbPolyline
 90
        7
 70
   128
 43
0.0
 10
1538.3350800532
 20
1495.4088393271
 10
1538.3183460492
 20
1495.4145017683
 10
1537.64682522
 20
1495.6420275986
 10
1536.7584477919
 20
1495.9439698279
 10
1536.0535632628
 20
1496.1842957556
 10
1535.5981763261
 20
1496.3399085819
 10
1535.439806785
 20
1496.394089204
  0
LINE
  5
17C
330
1F
100
AcDbEntity
  8
0
  6
Continuous
 62
     7
370
    25
100
AcDbLine
 10
1535.439806785
 20
1496.394089204
 30
0.0
 11
1581.1864610571
 21
1575.6296205938
 31
0.0
  0
LINE
  5
17D
330
1F
100
AcDbEntity
  8
0
  6
Continuous
 62
     7
370
    25
100
AcDbLine
 10
1671.2546970504
 20
1577.712832731
 30
0.0
 11
1715.2799617308
 21
1501.4588448822
 31
0.0
  0
LWPOLYLINE
  5
17E
330
1F
100
AcDbEntity
  8
0
  6
Continuous
 62
     7
370
    25
100
AcDbPolyline
 90
        7
 70
   128
 43
0.0
 10
1715.2799617308
 20
1501.4588448822
 10
1715.2666847962
 20
1501.4471921742
 10
1714.7338863271
 20
1500.9794000208
 10
1714.0282120365
 20
1500.3610018313
 10
1713.4676452535
 20
1499.8707238257
 10
1713.1051894086
 20
1499.5541486561
 10
1712.9790734309
 20
1499.4440886795
  0
LINE
  5
17F
330
1F
100
AcDbEntity
  8
0
  6
Continuous
 62
     7
370
    25
100
AcDbLine
 10
1712.9790734309
 20
1499.4440886795
 30
0.0
 11
1667.2324228841
 21
1578.6796200692
 31
0.0
  0
ARC
  5
180
330
1F
100
AcDbEntity
  8
0
  6
Continuous
 62
     7
370
    25
100
AcDbCircle
 10
1727.9051374622
 20
1822.2550161444
 30
0.0
 40
251.018230149604
100
AcDbArc
 50
256.0127241908
 51
256.9569807688
  0
ARC
  5
181
330
1F
100
AcDbEntity
  8
0
  6
Continuous
 62
     7
370
    25
100
AcDbCircle
 10
1621.5680639987
 20
1651.6726079995
 30
0.0
 40
86.10000000064612
100
AcDbArc
 50
302.0300661595
 51
357.9699338418
  0
ARC
  5
182
330
1F
100
AcDbEntity
  8
0
  6
Continuous
 62
     7
370
    25
100
AcDbCircle
 10
1524.4917366337
 20
1471.9017699102
 30
0.0
 40
254.487771947897
100
AcDbArc
 50
43.04945784
 51
43.9808413542
  0
ARC
  5
183
330
1F
100
AcDbEntity
  8
0
  6
Continuous
 62
     7
370
    25
100
AcDbCircle
 10
1621.5680639987
 20
1651.6726079995
 30
0.0
 40
89.100000000068
100
AcDbArc
 50
303.8934499252
 51
356.106550076
  0
LINE
  5
184
330
1F
100
AcDbEntity
  8
0
  6
Continuous
 62
     7
370
    25
100
AcDbLine
 10
1535.439806785
 20
1806.951126796
 30
0.0
 11
1581.1864610571
 21
1727.7155954063
 31
0.0
  0
LWPOLYLINE
  5
185
330
1F
100
AcDbEntity
  8
0
  6
Continuous
 62
     7
370
    25
100
AcDbPolyline
 90
        7
 70
   128
 43
0.0
 10
1535.439806785
 20
1806.951126796
 10
1535.5981763261
 20
1807.0053074181
 10
1536.0535632628
 20
1807.1609202444
 10
1536.7584477919
 20
1807.4012461722
 10
1537.64682522
 20
1807.7031884014
 10
1538.3183460492
 20
1807.9307142317
 10
1538.3350800532
 20
1807.9363766729
  0
LINE
  5
186
330
1F
100
AcDbEntity
  8
0
  6
Continuous
 62
     7
370
    25
100
AcDbLine
 10
1538.3350800532
 20
1807.9363766729
 30
0.0
 11
1582.360337283
 21
1731.6823813736
 31
0.0
  0
ARC
  5
187
330
1F
100
AcDbEntity
  8
0
  6
Continuous
 62
     7
370
    25
100
AcDbCircle
 10
1766.2392739343
 20
1568.1466460005
 30
0.0
 40
83.929223430694
100
AcDbArc
 50
232.6148365937
 51
67.3851634061
  0
LWPOLYLINE
  5
188
330
1F
100
AcDbEntity
  8
0
  6
Continuous
 62
     7
370
    25
100
AcDbPolyline
 90
        7
 70
   128
 43
0.0
 10
1798.5129456776
 20
1645.6226080328
 10
1798.516402747
 20
1645.6399306327
 10
1798.6551325577
 20
1646.3352472193
 10
1798.8378356951
 20
1647.2555722713
 10
1798.9821385401
 20
1647.9861799299
 10
1799.0750770825
 20
1648.4583611738
 10
1799.1073380965
 20
1648.6226080589
  0
ARC
  5
189
330
1F
100
AcDbEntity
  8
0
  6
Continuous
 62
     7
370
    25
100
AcDbCircle
 10
1766.2392739343
 20
1568.1466460005
 30
0.0
 40
86.929223430694
100
AcDbArc
 50
232.2161283517
 51
67.7838716483
  0
ARC
  5
18A
330
1F
100
AcDbEntity
  8
0
  6
Continuous
 62
     7
370
    25
100
AcDbCircle
 10
1621.5680639999
 20
1484.6206840009
 30
0.0
 40
83.92922343069392
100
AcDbArc
 50
172.6148365938
 51
7.3851634062
  0
ARC
  5
18B
330
1F
100
AcDbEntity
  8
0
  6
Continuous
 62
     7
370
    25
100
AcDbCircle
 10
1621.5680639999
 20
1484.6206840009
 30
0.0
 40
86.92922343069348
100
AcDbArc
 50
172.2161283517
 51
7.7838716483
  0
ARC
  5
18C
330
1F
100
AcDbEntity
  8
0
  6
Continuous
 62
     7
370
    25
100
AcDbCircle
 10
1476.8968540656
 20
1568.1466460005
 30
0.0
 40
83.92922343069402
100
AcDbArc
 50
112.6148365938
 51
307.3851634062
  0
ARC
  5
18D
330
1F
100
AcDbEntity
  8
0
  6
Continuous
 62
     7
370
    25
100
AcDbCircle
 10
1476.8968540656
 20
1568.1466460005
 30
0.0
 40
86.92922343069414
100
AcDbArc
 50
112.2161283517
 51
307.7838716483
  0
LWPOLYLINE
  5
18E
330
1F
100
AcDbEntity
  8
0
  6
Continuous
 62
     7
370
    25
100
AcDbPolyline
 90
        7
 70
   128
 43
0.0
 10
1444.6231823224
 20
1645.6226080328
 10
1444.619725253
 20
1645.6399306327
 10
1444.4809954423
 20
1646.3352472193
 10
1444.2982923049
 20
1647.2555722713
 10
1444.1539894599
 20
1647.9861799299
 10
1444.0610509175
 20
1648.4583611738
 10
1444.0287899035
 20
1648.6226080589
  0
ARC
  5
18F
330
1F
100
AcDbEntity
  8
0
  6
Continuous
 62
     7
370
    25
100
AcDbCircle
 10
1476.8968540657
 20
1735.1985699997
 30
0.0
 40
83.92922343069381
100
AcDbArc
 50
52.6148365938
 51
247.3851634062
  0
LWPOLYLINE
  5
190
330
1F
100
AcDbEntity
  8
0
  6
Continuous
 62
     7
370
    25
100
AcDbPolyline
 90
        7
 70
   128
 43
0.0
 10
1444.0287899035
 20
1654.7226079411
 10
1444.0610509175
 20
1654.8868548263
 10
1444.1539894599
 20
1655.3590360701
 10
1444.2982923049
 20
1656.0896437287
 10
1444.4809954423
 20
1657.0099687807
 10
1444.619725253
 20
1657.7052853673
 10
1444.6231823224
 20
1657.7226079672
  0
ARC
  5
191
330
1F
100
AcDbEntity
  8
0
  6
Continuous
 62
     7
370
    25
100
AcDbCircle
 10
1476.8968540657
 20
1735.1985699997
 30
0.0
 40
86.9292234306938
100
AcDbArc
 50
52.2161283517
 51
247.7838716483
  0
ARC
  5
192
330
1F
100
AcDbEntity
  8
0
  6
Continuous
 62
     7
370
    25
100
AcDbCircle
 10
1766.2392739343
 20
1735.1985699996
 30
0.0
 40
83.92922343069378
100
AcDbArc
 50
292.6148365938
 51
127.3851634062
  0
ARC
  5
193
330
1F
100
AcDbEntity
  8
0
  6
Continuous
 62
     7
370
    25
100
AcDbCircle
 10
1766.2392739343
 20
1735.1985699996
 30
0.0
 40
86.92922343069364
100
AcDbArc
 50
292.2161283517
 51
127.7838716483
  0
LWPOLYLINE
  5
194
330
1F
100
AcDbEntity
  8
0
  6
Continuous
 62
     7
370
    25
100
AcDbPolyline
 90
        7
 70
   128
 43
0.0
 10
1798.5129456776
 20
1657.7226079672
 10
1798.516402747
 20
1657.7052853673
 10
1798.6551325577
 20
1657.0099687807
 10
1798.8378356951
 20
1656.0896437287
 10
1798.9821385401
 20
1655.3590360701
 10
1799.0750770825
 20
1654.8868548263
 10
1799.1073380965
 20
1654.7226079411
  0
ARC
  5
195
330
1F
100
AcDbEntity
  8
0
  6
Continuous
 62
     7
370
    25
100
AcDbCircle
 10
1621.568064
 20
1818.7245319992
 30
0.0
 40
83.92922343069404
100
AcDbArc
 50
352.6148365938
 51
187.3851634062
  0
ARC
  5
196
330
1F
100
AcDbEntity
  8
0
  6
Continuous
 62
     7
370
    25
100
AcDbCircle
 10
1621.568064
 20
1818.7245319992
 30
0.0
 40
86.92922343069394
100
AcDbArc
 50
352.2161283517
 51
187.7838716483
  0
LINE
  5
197
330
1F
100
AcDbEntity
  8
0
  6
Continuous
 62
     7
370
    25
100
AcDbLine
 10
1798.5129456776
 20
1645.6226080328
 30
0.0
 11
1710.4624237674
 21
1645.6226080328
 31
0.0
  0
LINE
  5
198
330
1F
100
AcDbEntity
  8
0
  6
Continuous
 62
     7
370
    25
100
AcDbLine
 10
1710.4624237674
 20
1657.7226079672
 30
0.0
 11
1798.5129456776
 21
1657.7226079672
 31
0.0
  0
LINE
  5
199
330
1F
100
AcDbEntity
  8
0
  6
Continuous
 62
     7
370
    25
100
AcDbLine
 10
1532.6737042326
 20
1645.6226080328
 30
0.0
 11
1444.6231823224
 21
1645.6226080328
 31
0.0
  0
LINE
  5
19A
330
1F
100
AcDbEntity
  8
0
  6
Continuous
 62
     7
370
    25
100
AcDbLine
 10
1444.0287899035
 20
1648.6226080589
 30
0.0
 11
1535.5221058982
 21
1648.6226080589
 31
0.0
  0
LINE
  5
19B
330
1F
100
AcDbEntity
  8
0
  6
Continuous
 62
     7
370
    25
100
AcDbLine
 10
1799.1073380965
 20
1654.7226079411
 30
0.0
 11
1707.6140221017
 21
1654.7226079411
 31
0.0
  0
LINE
  5
19C
330
1F
100
AcDbEntity
  8
0
  6
Continuous
 62
     7
370
    25
100
AcDbLine
 10
1444.6231823224
 20
1657.7226079672
 30
0.0
 11
1532.6737042326
 21
1657.7226079672
 31
0.0
  0
LINE
  5
19D
330
1F
100
AcDbEntity
  8
0
  6
Continuous
 62
     7
370
    25
100
AcDbLine
 10
1444.0287899035
 20
1654.7226079411
 30
0.0
 11
1535.5221058982
 21
1654.7226079411
 31
0.0
  0
LINE
  5
19E
330
1F
100
AcDbEntity
  8
0
  6
Continuous
 62
     7
370
    25
100
AcDbLine
 10
1799.1073380965
 20
1648.6226080589
 30
0.0
 11
1707.6140221017
 21
1648.6226080589
 31
0.0
  0
ARC
  5
19F
330
1F
100
AcDbEntity
  8
0
  6
Continuous
 62
     7
370
    25
100
AcDbCircle
 10
1621.568064
 20
1651.6726080001
 30
0.0
 40
177.5654673183248
100
AcDbArc
 50
239.0157955571
 51
240.9842044429
  0
ARC
  5
1A0
330
1F
100
AcDbEntity
  8
0
  6
Continuous
 62
     7
370
    25
100
AcDbCircle
 10
1621.568064
 20
1651.6726080001
 30
0.0
 40
177.5654673183249
100
AcDbArc
 50
179.0157955571
 51
180.9842044429
  0
ARC
  5
1A1
330
1F
100
AcDbEntity
  8
0
  6
Continuous
 62
     7
370
    25
100
AcDbCircle
 10
1621.568064
 20
1651.6726080001
 30
0.0
 40
177.5654673183247
100
AcDbArc
 50
119.0157955571
 51
120.9842044429
  0
ARC
  5
1A2
330
1F
100
AcDbEntity
  8
0
  6
Continuous
 62
     7
370
    25
100
AcDbCircle
 10
1621.568064
 20
1651.6726080001
 30
0.0
 40
177.5654673183246
100
AcDbArc
 50
59.0157955571
 51
60.9842044429
  0
ARC
  5
1A3
330
1F
100
AcDbEntity
  8
0
  6
Continuous
 62
     7
370
    25
100
AcDbCircle
 10
1621.568064
 20
1651.6726080001
 30
0.0
 40
177.565467318325
100
AcDbArc
 50
359.0157955571
 51
0.9842044429
  0
ARC
  5
1A4
330
1F
100
AcDbEntity
  8
0
  6
Continuous
 62
     7
370
    25
100
AcDbCircle
 10
1621.568064
 20
1651.6726080001
 30
0.0
 40
177.5654673183247
100
AcDbArc
 50
299.0157955571
 51
300.9842044429
  0
CIRCLE
  5
1A5
330
1F
100
AcDbEntity
  8
0
  6
Continuous
 62
     7
370
    25
100
AcDbCircle
 10
1621.5680639995
 20
-1348.3273919987
 30
0.0
 40
80.00000000125988
  0
ARC
  5
1A6
330
1F
100
AcDbEntity
  8
0
  6
Continuous
 62
     7
370
    25
100
AcDbCircle
 10
1621.5680639995
 20
-1348.3273919987
 30
0.0
 40
89.10000000006846
100
AcDbArc
 50
33.8934499234
 51
86.1065500753
  0
ARC
  5
1A7
330
1F
100
AcDbEntity
  8
0
  6
Continuous
 62
     7
370
    25
100
AcDbCircle
 10
1457.0852891282
 20
-1243.4576404925
 30
0.0
 40
244.7448103001297
100
AcDbArc
 50
346.0008896593
 51
346.969369961
  0
ARC
  5
1A8
330
1F
100
AcDbEntity
  8
0
  6
Continuous
 62
     7
370
    25
100
AcDbCircle
 10
1621.5680639995
 20
-1348.3273919987
 30
0.0
 40
86.09999999989587
100
AcDbArc
 50
32.0300661576
 51
87.969933841
  0
ARC
  5
1A9
330
1F
100
AcDbEntity
  8
0
  6
Continuous
 62
     7
370
    25
100
AcDbCircle
 10
1777.3449396017
 20
-1420.1335624221
 30
0.0
 40
219.6424368948259
100
AcDbArc
 50
132.9754274663
 51
134.0545723919
  0
LINE
  5
1AA
330
1F
100
AcDbEntity
  8
0
  6
Continuous
 62
     7
370
    25
100
AcDbLine
 10
1466.289545204
 20
-1434.4556268633
 30
0.0
 11
1545.5250765937
 21
-1388.7090619982
 31
0.0
  0
LWPOLYLINE
  5
1AB
330
1F
100
AcDbEntity
  8
0
  6
Continuous
 62
     7
370
    25
100
AcDbPolyline
 90
        7
 70
   128
 43
0.0
 10
1466.289545204
 20
-1434.4556268633
 10
1466.2353645819
 20
-1434.2973169268
 10
1466.0797517556
 20
-1433.8419374407
 10
1465.8394258278
 20
-1433.1369337023
 10
1465.5374835986
 20
-1432.2485860765
 10
1465.3099577683
 20
-1431.5771993578
 10
1465.3042953271
 20
-1431.5602716387
  0
LINE
  5
1AC
330
1F
100
AcDbEntity
  8
0
  6
Continuous
 62
     7
370
    25
100
AcDbLine
 10
1465.3042953271
 20
-1431.5602716387
 30
0.0
 11
1541.5582906264
 21
-1387.5350889147
 31
0.0
  0
ARC
  5
1AD
330
1F
100
AcDbEntity
  8
0
  6
Continuous
 62
     7
370
    25
100
AcDbCircle
 10
1604.6856154406
 20
-1181.5203277811
 30
0.0
 40
215.4695824080752
100
AcDbArc
 50
252.9638163835
 51
254.0638705454
  0
LINE
  5
1AE
330
1F
100
AcDbEntity
  8
0
  6
Continuous
 62
     7
370
    25
100
AcDbLine
 10
1695.527839269
 20
-1298.6407216966
 30
0.0
 11
1771.7818271178
 21
-1254.6155389726
 31
0.0
  0
LWPOLYLINE
  5
1AF
330
1F
100
AcDbEntity
  8
0
  6
Continuous
 62
     7
370
    25
100
AcDbPolyline
 90
        7
 70
   128
 43
0.0
 10
1771.7818271178
 20
-1254.6155389726
 10
1771.7934798258
 20
-1254.6286519945
 10
1772.2612719792
 20
-1255.1615175188
 10
1772.8796701687
 20
-1255.8672365129
 10
1773.3699481743
 20
-1256.4277585924
 10
1773.6865233439
 20
-1256.7901548326
 10
1773.7965833205
 20
-1256.916278261
  0
LINE
  5
1B0
330
1F
100
AcDbEntity
  8
0
  6
Continuous
 62
     7
370
    25
100
AcDbLine
 10
1773.7965833205
 20
-1256.916278261
 30
0.0
 11
1694.5610519308
 21
-1302.6630815447
 31
0.0
  0
ARC
  5
1B1
330
1F
100
AcDbEntity
  8
0
  6
Continuous
 62
     7
370
    25
100
AcDbCircle
 10
1621.5680639995
 20
-1348.3273919987
 30
0.0
 40
89.10000000006795
100
AcDbArc
 50
153.8934499248
 51
206.1065500766
  0
ARC
  5
1B2
330
1F
100
AcDbEntity
  8
0
  6
Continuous
 62
     7
370
    25
100
AcDbCircle
 10
1604.6856154406
 20
-1515.1344562189
 30
0.0
 40
215.4695824080753
100
AcDbArc
 50
105.9361294546
 51
107.0361836165
  0
ARC
  5
1B3
330
1F
100
AcDbEntity
  8
0
  6
Continuous
 62
     7
370
    25
100
AcDbCircle
 10
1621.5680639995
 20
-1348.3273919987
 30
0.0
 40
86.10000000004298
100
AcDbArc
 50
152.0300661591
 51
207.9699338423
  0
ARC
  5
1B4
330
1F
100
AcDbEntity
  8
0
  6
Continuous
 62
     7
370
    25
100
AcDbCircle
 10
1621.5680639995
 20
-1348.3273919987
 30
0.0
 40
89.10000000006853
100
AcDbArc
 50
333.8934499238
 51
26.1065500748
  0
ARC
  5
1B5
330
1F
100
AcDbEntity
  8
0
  6
Continuous
 62
     7
370
    25
100
AcDbCircle
 10
1638.4505125594
 20
-1181.5203277811
 30
0.0
 40
215.4695824080753
100
AcDbArc
 50
285.9361294546
 51
287.0361836165
  0
ARC
  5
1B6
330
1F
100
AcDbEntity
  8
0
  6
Continuous
 62
     7
370
    25
100
AcDbCircle
 10
1621.5680639995
 20
-1348.3273919987
 30
0.0
 40
86.1000000005285
100
AcDbArc
 50
332.030066158
 51
27.9699338405
  0
ARC
  5
1B7
330
1F
100
AcDbEntity
  8
0
  6
Continuous
 62
     7
370
    25
100
AcDbCircle
 10
1638.4505125594
 20
-1515.1344562189
 30
0.0
 40
215.4695824080752
100
AcDbArc
 50
72.9638163835
 51
74.0638705454
  0
LINE
  5
1B8
330
1F
100
AcDbEntity
  8
0
  6
Continuous
 62
     7
370
    25
100
AcDbLine
 10
1701.5778373736
 20
-1387.5350889147
 30
0.0
 11
1777.8318326729
 21
-1431.5602716387
 31
0.0
  0
LWPOLYLINE
  5
1B9
330
1F
100
AcDbEntity
  8
0
  6
Continuous
 62
     7
370
    25
100
AcDbPolyline
 90
        7
 70
   128
 43
0.0
 10
1777.8318326729
 20
-1431.5602716387
 10
1777.8261702317
 20
-1431.5771993578
 10
1777.5986444014
 20
-1432.2485860765
 10
1777.2967021721
 20
-1433.1369337023
 10
1777.0563762444
 20
-1433.8419374407
 10
1776.9007634181
 20
-1434.2973169268
 10
1776.846582796
 20
-1434.4556268633
  0
LINE
  5
1BA
330
1F
100
AcDbEntity
  8
0
  6
Continuous
 62
     7
370
    25
100
AcDbLine
 10
1776.846582796
 20
-1434.4556268633
 30
0.0
 11
1697.6110514062
 21
-1388.7090619982
 31
0.0
  0
LINE
  5
1BB
330
1F
100
AcDbEntity
  8
0
  6
Continuous
 62
     7
370
    25
100
AcDbLine
 10
1469.3395446795
 20
-1256.916278261
 30
0.0
 11
1548.5750760692
 21
-1302.6630815447
 31
0.0
  0
LWPOLYLINE
  5
1BC
330
1F
100
AcDbEntity
  8
0
  6
Continuous
 62
     7
370
    25
100
AcDbPolyline
 90
        7
 70
   128
 43
0.0
 10
1469.3395446795
 20
-1256.916278261
 10
1469.4496046561
 20
-1256.7901548326
 10
1469.7661798256
 20
-1256.4277585924
 10
1470.2564578312
 20
-1255.8672365129
 10
1470.8748560208
 20
-1255.1615175188
 10
1471.3426481741
 20
-1254.6286519945
 10
1471.3543008822
 20
-1254.6155389726
  0
LINE
  5
1BD
330
1F
100
AcDbEntity
  8
0
  6
Continuous
 62
     7
370
    25
100
AcDbLine
 10
1471.3543008822
 20
-1254.6155389726
 30
0.0
 11
1547.608288731
 21
-1298.6407216966
 31
0.0
  0
ARC
  5
1BE
330
1F
100
AcDbEntity
  8
0
  6
Continuous
 62
     7
370
    25
100
AcDbCircle
 10
1786.0508388718
 20
-1243.4576404925
 30
0.0
 40
244.7448103001297
100
AcDbArc
 50
193.030630039
 51
193.9991103407
  0
ARC
  5
1BF
330
1F
100
AcDbEntity
  8
0
  6
Continuous
 62
     7
370
    25
100
AcDbCircle
 10
1621.5680639995
 20
-1348.3273919987
 30
0.0
 40
89.10000000006806
100
AcDbArc
 50
93.8934499239
 51
146.1065500762
  0
ARC
  5
1C0
330
1F
100
AcDbEntity
  8
0
  6
Continuous
 62
     7
370
    25
100
AcDbCircle
 10
1465.7911883983
 20
-1420.1335624221
 30
0.0
 40
219.6424368948259
100
AcDbArc
 50
45.9454276081
 51
47.0245725337
  0
ARC
  5
1C1
330
1F
100
AcDbEntity
  8
0
  6
Continuous
 62
     7
370
    25
100
AcDbCircle
 10
1621.5680639995
 20
-1348.3273919987
 30
0.0
 40
86.0999999994434
100
AcDbArc
 50
92.0300661582
 51
147.9699338419
  0
ARC
  5
1C2
330
1F
100
AcDbEntity
  8
0
  6
Continuous
 62
     7
370
    25
100
AcDbCircle
 10
1621.5680639995
 20
-1348.3273919987
 30
0.0
 40
89.10000000006822
100
AcDbArc
 50
273.8934499247
 51
326.1065500752
  0
ARC
  5
1C3
330
1F
100
AcDbEntity
  8
0
  6
Continuous
 62
     7
370
    25
100
AcDbCircle
 10
1777.3449396017
 20
-1276.5212215779
 30
0.0
 40
219.6424368948257
100
AcDbArc
 50
225.9454276081
 51
227.0245725337
  0
ARC
  5
1C4
330
1F
100
AcDbEntity
  8
0
  6
Continuous
 62
     7
370
    25
100
AcDbCircle
 10
1621.5680639995
 20
-1348.3273919987
 30
0.0
 40
86.10000000060838
100
AcDbArc
 50
272.0300661589
 51
327.9699338409
  0
ARC
  5
1C5
330
1F
100
AcDbEntity
  8
0
  6
Continuous
 62
     7
370
    25
100
AcDbCircle
 10
1457.0852891282
 20
-1453.1971435075
 30
0.0
 40
244.7448103001298
100
AcDbArc
 50
13.030630039
 51
13.9991103407
  0
LINE
  5
1C6
330
1F
100
AcDbEntity
  8
0
  6
Continuous
 62
     7
370
    25
100
AcDbLine
 10
1773.7965833205
 20
-1439.738505739
 30
0.0
 11
1694.5610519308
 21
-1393.9917024553
 31
0.0
  0
LWPOLYLINE
  5
1C7
330
1F
100
AcDbEntity
  8
0
  6
Continuous
 62
     7
370
    25
100
AcDbPolyline
 90
        7
 70
   128
 43
0.0
 10
1773.7965833205
 20
-1439.738505739
 10
1773.6865233439
 20
-1439.8646291674
 10
1773.3699481743
 20
-1440.2270254076
 10
1772.8796701687
 20
-1440.7875474871
 10
1772.2612719792
 20
-1441.4932664812
 10
1771.7934798258
 20
-1442.0261320055
 10
1771.7818271178
 20
-1442.0392450273
  0
LINE
  5
1C8
330
1F
100
AcDbEntity
  8
0
  6
Continuous
 62
     7
370
    25
100
AcDbLine
 10
1771.7818271178
 20
-1442.0392450273
 30
0.0
 11
1695.527839269
 21
-1398.0140623033
 31
0.0
  0
LINE
  5
1C9
330
1F
100
AcDbEntity
  8
0
  6
Continuous
 62
     7
370
    25
100
AcDbLine
 10
1541.5582906264
 20
-1309.1196950853
 30
0.0
 11
1465.3042953271
 21
-1265.0945123613
 31
0.0
  0
LWPOLYLINE
  5
1CA
330
1F
100
AcDbEntity
  8
0
  6
Continuous
 62
     7
370
    25
100
AcDbPolyline
 90
        7
 70
   128
 43
0.0
 10
1465.3042953271
 20
-1265.0945123613
 10
1465.3099577683
 20
-1265.0775846422
 10
1465.5374835986
 20
-1264.4061979235
 10
1465.8394258278
 20
-1263.5178502977
 10
1466.0797517556
 20
-1262.8128465593
 10
1466.2353645819
 20
-1262.3574670732
 10
1466.289545204
 20
-1262.1991571367
  0
LINE
  5
1CB
330
1F
100
AcDbEntity
  8
0
  6
Continuous
 62
     7
370
    25
100
AcDbLine
 10
1466.289545204
 20
-1262.1991571367
 30
0.0
 11
1545.5250765937
 21
-1307.9457220018
 31
0.0
  0
LINE
  5
1CC
330
1F
100
AcDbEntity
  8
0
  6
Continuous
 62
     7
370
    25
100
AcDbLine
 10
1547.608288731
 20
-1398.0140623033
 30
0.0
 11
1471.3543008822
 21
-1442.0392450273
 31
0.0
  0
LWPOLYLINE
  5
1CD
330
1F
100
AcDbEntity
  8
0
  6
Continuous
 62
     7
370
    25
100
AcDbPolyline
 90
        7
 70
   128
 43
0.0
 10
1471.3543008822
 20
-1442.0392450273
 10
1471.3426481741
 20
-1442.0261320055
 10
1470.8748560208
 20
-1441.4932664812
 10
1470.2564578312
 20
-1440.7875474871
 10
1469.7661798256
 20
-1440.2270254076
 10
1469.4496046561
 20
-1439.8646291674
 10
1469.3395446795
 20
-1439.738505739
  0
LINE
  5
1CE
330
1F
100
AcDbEntity
  8
0
  6
Continuous
 62
     7
370
    25
100
AcDbLine
 10
1469.3395446795
 20
-1439.738505739
 30
0.0
 11
1548.5750760692
 21
-1393.9917024553
 31
0.0
  0
ARC
  5
1CF
330
1F
100
AcDbEntity
  8
0
  6
Continuous
 62
     7
370
    25
100
AcDbCircle
 10
1786.0508388718
 20
-1453.1971435075
 30
0.0
 40
244.7448103001298
100
AcDbArc
 50
166.0008896593
 51
166.969369961
  0
ARC
  5
1D0
330
1F
100
AcDbEntity
  8
0
  6
Continuous
 62
     7
370
    25
100
AcDbCircle
 10
1621.5680639995
 20
-1348.3273919987
 30
0.0
 40
86.10000000064609
100
AcDbArc
 50
212.0300661595
 51
267.9699338418
  0
ARC
  5
1D1
330
1F
100
AcDbEntity
  8
0
  6
Continuous
 62
     7
370
    25
100
AcDbCircle
 10
1465.7911883983
 20
-1276.5212215779
 30
0.0
 40
219.6424368948257
100
AcDbArc
 50
312.9754274663
 51
314.0545723919
  0
ARC
  5
1D2
330
1F
100
AcDbEntity
  8
0
  6
Continuous
 62
     7
370
    25
100
AcDbCircle
 10
1621.5680639995
 20
-1348.3273919987
 30
0.0
 40
89.10000000006812
100
AcDbArc
 50
213.8934499252
 51
266.106550076
  0
LINE
  5
1D3
330
1F
100
AcDbEntity
  8
0
  6
Continuous
 62
     7
370
    25
100
AcDbLine
 10
1776.846582796
 20
-1262.1991571367
 30
0.0
 11
1697.6110514062
 21
-1307.9457220018
 31
0.0
  0
LWPOLYLINE
  5
1D4
330
1F
100
AcDbEntity
  8
0
  6
Continuous
 62
     7
370
    25
100
AcDbPolyline
 90
        7
 70
   128
 43
0.0
 10
1776.846582796
 20
-1262.1991571367
 10
1776.9007634181
 20
-1262.3574670732
 10
1777.0563762444
 20
-1262.8128465593
 10
1777.2967021721
 20
-1263.5178502977
 10
1777.5986444014
 20
-1264.4061979235
 10
1777.8261702317
 20
-1265.0775846422
 10
1777.8318326729
 20
-1265.0945123613
  0
LINE
  5
1D5
330
1F
100
AcDbEntity
  8
0
  6
Continuous
 62
     7
370
    25
100
AcDbLine
 10
1777.8318326729
 20
-1265.0945123613
 30
0.0
 11
1701.5778373736
 21
-1309.1196950853
 31
0.0
  0
ARC
  5
1D6
330
1F
100
AcDbEntity
  8
0
  6
Continuous
 62
     7
370
    25
100
AcDbCircle
 10
1454.5161400009
 20
-1348.3273919999
 30
0.0
 40
83.92922343069354
100
AcDbArc
 50
82.6148365938
 51
277.3851634062
  0
ARC
  5
1D7
330
1F
100
AcDbEntity
  8
0
  6
Continuous
 62
     7
370
    25
100
AcDbCircle
 10
1454.5161400009
 20
-1348.3273919999
 30
0.0
 40
86.92922343069375
100
AcDbArc
 50
82.2161283517
 51
277.7838716483
  0
ARC
  5
1D8
330
1F
100
AcDbEntity
  8
0
  6
Continuous
 62
     7
370
    25
100
AcDbCircle
 10
1538.0421020005
 20
-1492.9986019343
 30
0.0
 40
83.92922343069398
100
AcDbArc
 50
142.6148365937
 51
337.3851634061
  0
LWPOLYLINE
  5
1D9
330
1F
100
AcDbEntity
  8
0
  6
Continuous
 62
     7
370
    25
100
AcDbPolyline
 90
        7
 70
   128
 43
0.0
 10
1615.5180640328
 20
-1525.2723630846
 10
1615.5353866327
 20
-1525.2757009447
 10
1616.2307032193
 20
-1525.4144605577
 10
1617.1510282713
 20
-1525.5970891893
 10
1617.8816359299
 20
-1525.7415708483
 10
1618.3538171737
 20
-1525.8343156755
 10
1618.5180640589
 20
-1525.8667406023
  0
ARC
  5
1DA
330
1F
100
AcDbEntity
  8
0
  6
Continuous
 62
     7
370
    25
100
AcDbCircle
 10
1538.0421020005
 20
-1492.9986019343
 30
0.0
 40
86.92922343069397
100
AcDbArc
 50
142.2161283517
 51
337.7838716483
  0
ARC
  5
1DB
330
1F
100
AcDbEntity
  8
0
  6
Continuous
 62
     7
370
    25
100
AcDbCircle
 10
1705.0940259997
 20
-1203.6561820657
 30
0.0
 40
83.9292234306938
100
AcDbArc
 50
322.6148365938
 51
157.3851634062
  0
LWPOLYLINE
  5
1DC
330
1F
100
AcDbEntity
  8
0
  6
Continuous
 62
     7
370
    25
100
AcDbPolyline
 90
        7
 70
   128
 43
0.0
 10
1624.6180639411
 20
-1170.7880433977
 10
1624.7823108262
 20
-1170.8204683245
 10
1625.2544920701
 20
-1170.9132131517
 10
1625.9850997287
 20
-1171.0576948107
 10
1626.9054247807
 20
-1171.2403234423
 10
1627.6007413673
 20
-1171.3790830553
 10
1627.6180639672
 20
-1171.3824209154
  0
ARC
  5
1DD
330
1F
100
AcDbEntity
  8
0
  6
Continuous
 62
     7
370
    25
100
AcDbCircle
 10
1705.0940259997
 20
-1203.6561820657
 30
0.0
 40
86.92922343069407
100
AcDbArc
 50
322.2161283517
 51
157.7838716483
  0
ARC
  5
1DE
330
1F
100
AcDbEntity
  8
0
  6
Continuous
 62
     7
370
    25
100
AcDbCircle
 10
1538.0421020005
 20
-1203.6561820656
 30
0.0
 40
83.92922343069374
100
AcDbArc
 50
22.6148365938
 51
217.3851634062
  0
ARC
  5
1DF
330
1F
100
AcDbEntity
  8
0
  6
Continuous
 62
     7
370
    25
100
AcDbCircle
 10
1538.0421020005
 20
-1203.6561820656
 30
0.0
 40
86.92922343069385
100
AcDbArc
 50
22.2161283517
 51
217.7838716483
  0
LWPOLYLINE
  5
1E0
330
1F
100
AcDbEntity
  8
0
  6
Continuous
 62
     7
370
    25
100
AcDbPolyline
 90
        7
 70
   128
 43
0.0
 10
1615.5180640328
 20
-1171.3824209154
 10
1615.5353866327
 20
-1171.3790830553
 10
1616.2307032193
 20
-1171.2403234423
 10
1617.1510282713
 20
-1171.0576948107
 10
1617.8816359299
 20
-1170.9132131517
 10
1618.3538171737
 20
-1170.8204683245
 10
1618.5180640589
 20
-1170.7880433977
  0
ARC
  5
1E1
330
1F
100
AcDbEntity
  8
0
  6
Continuous
 62
     7
370
    25
100
AcDbCircle
 10
1705.0940259996
 20
-1492.9986019343
 30
0.0
 40
83.92922343069374
100
AcDbArc
 50
202.6148365938
 51
37.3851634062
  0
ARC
  5
1E2
330
1F
100
AcDbEntity
  8
0
  6
Continuous
 62
     7
370
    25
100
AcDbCircle
 10
1705.0940259996
 20
-1492.9986019343
 30
0.0
 40
86.9292234306937
100
AcDbArc
 50
202.2161283517
 51
37.7838716483
  0
LWPOLYLINE
  5
1E3
330
1F
100
AcDbEntity
  8
0
  6
Continuous
 62
     7
370
    25
100
AcDbPolyline
 90
        7
 70
   128
 43
0.0
 10
1627.6180639672
 20
-1525.2723630846
 10
1627.6007413673
 20
-1525.2757009447
 10
1626.9054247807
 20
-1525.4144605577
 10
1625.9850997287
 20
-1525.5970891893
 10
1625.2544920701
 20
-1525.7415708483
 10
1624.7823108262
 20
-1525.8343156755
 10
1624.6180639411
 20
-1525.8667406023
  0
ARC
  5
1E4
330
1F
100
AcDbEntity
  8
0
  6
Continuous
 62
     7
370
    25
100
AcDbCircle
 10
1788.6199879992
 20
-1348.327392
 30
0.0
 40
83.92922343069398
100
AcDbArc
 50
262.6148365938
 51
97.3851634062
  0
ARC
  5
1E5
330
1F
100
AcDbEntity
  8
0
  6
Continuous
 62
     7
370
    25
100
AcDbCircle
 10
1788.6199879992
 20
-1348.327392
 30
0.0
 40
86.92922343069394
100
AcDbArc
 50
262.2161283517
 51
97.7838716483
  0
LINE
  5
1E6
330
1F
100
AcDbEntity
  8
0
  6
Continuous
 62
     7
370
    25
100
AcDbLine
 10
1615.5180640328
 20
-1525.2723630846
 30
0.0
 11
1615.5180640328
 21
-1437.221759218
 31
0.0
  0
LINE
  5
1E7
330
1F
100
AcDbEntity
  8
0
  6
Continuous
 62
     7
370
    25
100
AcDbLine
 10
1627.6180639672
 20
-1437.221759218
 30
0.0
 11
1627.6180639672
 21
-1525.2723630846
 31
0.0
  0
LINE
  5
1E8
330
1F
100
AcDbEntity
  8
0
  6
Continuous
 62
     7
370
    25
100
AcDbLine
 10
1627.6180639672
 20
-1171.3824209154
 30
0.0
 11
1627.6180639672
 21
-1259.433024782
 31
0.0
  0
LINE
  5
1E9
330
1F
100
AcDbEntity
  8
0
  6
Continuous
 62
     7
370
    25
100
AcDbLine
 10
1615.5180640328
 20
-1259.433024782
 30
0.0
 11
1615.5180640328
 21
-1171.3824209154
 31
0.0
  0
LINE
  5
1EA
330
1F
100
AcDbEntity
  8
0
  6
Continuous
 62
     7
370
    25
100
AcDbLine
 10
1618.5180640589
 20
-1170.7880433977
 30
0.0
 11
1618.5180640589
 21
-1262.2814115465
 31
0.0
  0
LINE
  5
1EB
330
1F
100
AcDbEntity
  8
0
  6
Continuous
 62
     7
370
    25
100
AcDbLine
 10
1618.5180640589
 20
-1525.8667406023
 30
0.0
 11
1618.5180640589
 21
-1434.3733724535
 31
0.0
  0
LINE
  5
1EC
330
1F
100
AcDbEntity
  8
0
  6
Continuous
 62
     7
370
    25
100
AcDbLine
 10
1624.6180639411
 20
-1170.7880433977
 30
0.0
 11
1624.6180639411
 21
-1262.2814115465
 31
0.0
  0
LINE
  5
1ED
330
1F
100
AcDbEntity
  8
0
  6
Continuous
 62
     7
370
    25
100
AcDbLine
 10
1624.6180639411
 20
-1525.8667406023
 30
0.0
 11
1624.6180639411
 21
-1434.3733724535
 31
0.0
  0
ARC
  5
1EE
330
1F
100
AcDbEntity
  8
0
  6
Continuous
 62
     7
370
    25
100
AcDbCircle
 10
1621.5680640001
 20
-1348.327392
 30
0.0
 40
177.5654673183247
100
AcDbArc
 50
149.0157955571
 51
150.9842044429
  0
ARC
  5
1EF
330
1F
100
AcDbEntity
  8
0
  6
Continuous
 62
     7
370
    25
100
AcDbCircle
 10
1621.5680640001
 20
-1348.327392
 30
0.0
 40
177.5654673183249
100
AcDbArc
 50
89.0157955571
 51
90.9842044429
  0
ARC
  5
1F0
330
1F
100
AcDbEntity
  8
0
  6
Continuous
 62
     7
370
    25
100
AcDbCircle
 10
1621.5680640001
 20
-1348.327392
 30
0.0
 40
177.5654673183251
100
AcDbArc
 50
29.0157955571
 51
30.9842044429
  0
ARC
  5
1F1
330
1F
100
AcDbEntity
  8
0
  6
Continuous
 62
     7
370
    25
100
AcDbCircle
 10
1621.5680640001
 20
-1348.327392
 30
0.0
 40
177.565467318325
100
AcDbArc
 50
329.0157955571
 51
330.9842044429
  0
ARC
  5
1F2
330
1F
100
AcDbEntity
  8
0
  6
Continuous
 62
     7
370
    25
100
AcDbCircle
 10
1621.5680640001
 20
-1348.327392
 30
0.0
 40
177.565467318325
100
AcDbArc
 50
269.0157955571
 51
270.9842044429
  0
ARC
  5
1F3
330
1F
100
AcDbEntity
  8
0
  6
Continuous
 62
     7
370
    25
100
AcDbCircle
 10
1621.5680640001
 20
-1348.327392
 30
0.0
 40
177.5654673183247
100
AcDbArc
 50
209.0157955571
 51
210.9842044429
  0
CIRCLE
  5
1F4
330
1F
100
AcDbEntity
  8
0
  6
Continuous
 62
     7
370
    25
100
AcDbCircle
 10
-1378.4319359987
 20
-1348.3273919995
 30
0.0
 40
80.0000000012601
  0
LINE
  5
1F5
330
1F
100
AcDbEntity
  8
0
  6
Continuous
 62
     7
370
    25
100
AcDbLine
 10
-1464.5601708633
 20
-1193.0489477098
 30
0.0
 11
-1418.8136059982
 21
-1272.2845014513
 31
0.0
  0
LWPOLYLINE
  5
1F6
330
1F
100
AcDbEntity
  8
0
  6
Continuous
 62
     7
370
    25
100
AcDbPolyline
 90
        7
 70
   128
 43
0.0
 10
-1464.5601708633
 20
-1193.0489477098
 10
-1464.4018609268
 20
-1192.9945882738
 10
-1463.9464814407
 20
-1192.8391393602
 10
-1463.2414777023
 20
-1192.5988134325
 10
-1462.3531300765
 20
-1192.2967370928
 10
-1461.6817433578
 20
-1192.0692857683
 10
-1461.6648156387
 20
-1192.0635637224
  0
LINE
  5
1F7
330
1F
100
AcDbEntity
  8
0
  6
Continuous
 62
     7
370
    25
100
AcDbLine
 10
-1461.6648156387
 20
-1192.0635637224
 30
0.0
 11
-1417.6396329147
 21
-1268.3176931322
 31
0.0
  0
ARC
  5
1F8
330
1F
100
AcDbEntity
  8
0
  6
Continuous
 62
     7
370
    25
100
AcDbCircle
 10
-1213.0882783811
 20
-1331.0115908279
 30
0.0
 40
213.943407119252
100
AcDbArc
 50
162.9599775991
 51
164.0678850325
  0
LINE
  5
1F9
330
1F
100
AcDbEntity
  8
0
  6
Continuous
 62
     7
370
    25
100
AcDbLine
 10
-1328.7452656967
 20
-1422.2872194231
 30
0.0
 11
-1284.7200829727
 21
-1498.5411104143
 31
0.0
  0
LWPOLYLINE
  5
1FA
330
1F
100
AcDbEntity
  8
0
  6
Continuous
 62
     7
370
    25
100
AcDbPolyline
 90
        7
 70
   128
 43
0.0
 10
-1284.7200829727
 20
-1498.5411104143
 10
-1284.7331959945
 20
-1498.5527929247
 10
-1285.2660615188
 20
-1499.0205701769
 10
-1285.9717805129
 20
-1499.6390279711
 10
-1286.5323025924
 20
-1500.1292165697
 10
-1286.8946988326
 20
-1500.4458364427
 10
-1287.020822261
 20
-1500.5559858263
  0
LINE
  5
1FB
330
1F
100
AcDbEntity
  8
0
  6
Continuous
 62
     7
370
    25
100
AcDbLine
 10
-1287.020822261
 20
-1500.5559858263
 30
0.0
 11
-1332.7676255447
 21
-1421.3204320848
 31
0.0
  0
LWPOLYLINE
  5
1FC
330
1F
100
AcDbEntity
  8
0
  6
Continuous
 62
     7
370
    25
100
AcDbPolyline
 90
        7
 70
   128
 43
0.0
 10
-1328.7452656967
 20
-1422.2872194231
 10
-1328.7559945327
 20
-1422.2845968187
 10
-1330.0515610916
 20
-1421.9808515489
 10
-1331.4174611312
 20
-1421.6525491655
 10
-1332.2328526718
 20
-1421.4529928148
 10
-1332.6231438857
 20
-1421.3561948717
 10
-1332.7676255447
 20
-1421.3204320848
  0
ARC
  5
1FD
330
1F
100
AcDbEntity
  8
0
  6
Continuous
 62
     7
370
    25
100
AcDbCircle
 10
-1378.4319359987
 20
-1348.3273919995
 30
0.0
 40
89.10000000006815
100
AcDbArc
 50
63.8934499248
 51
116.1065500766
  0
ARC
  5
1FE
330
1F
100
AcDbEntity
  8
0
  6
Continuous
 62
     7
370
    25
100
AcDbCircle
 10
-1543.7755936189
 20
-1331.0115908279
 30
0.0
 40
213.943407119252
100
AcDbArc
 50
15.9321149675
 51
17.0400224009
  0
ARC
  5
1FF
330
1F
100
AcDbEntity
  8
0
  6
Continuous
 62
     7
370
    25
100
AcDbCircle
 10
-1378.4319359987
 20
-1348.3273919995
 30
0.0
 40
86.1000000000434
100
AcDbArc
 50
62.0300661591
 51
117.9699338423
  0
ARC
  5
200
330
1F
100
AcDbEntity
  8
0
  6
Continuous
 62
     7
370
    25
100
AcDbCircle
 10
-1378.4319359987
 20
-1348.3273919995
 30
0.0
 40
89.1000000000682
100
AcDbArc
 50
303.8934499234
 51
356.1065500753
  0
ARC
  5
201
330
1F
100
AcDbEntity
  8
0
  6
Continuous
 62
     7
370
    25
100
AcDbCircle
 10
-1378.4319359987
 20
-1348.3273919995
 30
0.0
 40
86.09999999989574
100
AcDbArc
 50
302.0300661576
 51
357.969933841
  0
ARC
  5
202
330
1F
100
AcDbEntity
  8
0
  6
Continuous
 62
     7
370
    25
100
AcDbCircle
 10
-1438.7433349761
 20
-1493.189535431
 30
0.0
 40
203.7919069265869
100
AcDbArc
 50
42.9332572321
 51
44.0963429588
  0
LINE
  5
203
330
1F
100
AcDbEntity
  8
0
  6
Continuous
 62
     7
370
    25
100
AcDbLine
 10
-1417.6396329147
 20
-1428.3370908678
 30
0.0
 11
-1461.6648156387
 21
-1504.5912202776
 31
0.0
  0
LWPOLYLINE
  5
204
330
1F
100
AcDbEntity
  8
0
  6
Continuous
 62
     7
370
    25
100
AcDbPolyline
 90
        7
 70
   128
 43
0.0
 10
-1461.6648156387
 20
-1504.5912202776
 10
-1461.6817433578
 20
-1504.5854982317
 10
-1462.3531300765
 20
-1504.3580469072
 10
-1463.2414777023
 20
-1504.0559705675
 10
-1463.9464814407
 20
-1503.8156446398
 10
-1464.4018609268
 20
-1503.6601957262
 10
-1464.5601708633
 20
-1503.6058362902
  0
LINE
  5
205
330
1F
100
AcDbEntity
  8
0
  6
Continuous
 62
     7
370
    25
100
AcDbLine
 10
-1464.5601708633
 20
-1503.6058362902
 30
0.0
 11
-1418.8136059982
 21
-1424.3702825487
 31
0.0
  0
ARC
  5
206
330
1F
100
AcDbEntity
  8
0
  6
Continuous
 62
     7
370
    25
100
AcDbCircle
 10
-1213.0882783811
 20
-1365.6431931721
 30
0.0
 40
213.943407119252
100
AcDbArc
 50
195.9321149675
 51
197.0400224009
  0
ARC
  5
207
330
1F
100
AcDbEntity
  8
0
  6
Continuous
 62
     7
370
    25
100
AcDbCircle
 10
-1378.4319359987
 20
-1348.3273919995
 30
0.0
 40
89.10000000006846
100
AcDbArc
 50
243.8934499238
 51
296.1065500748
  0
ARC
  5
208
330
1F
100
AcDbEntity
  8
0
  6
Continuous
 62
     7
370
    25
100
AcDbCircle
 10
-1378.4319359987
 20
-1348.3273919995
 30
0.0
 40
86.10000000052842
100
AcDbArc
 50
242.030066158
 51
297.9699338405
  0
ARC
  5
209
330
1F
100
AcDbEntity
  8
0
  6
Continuous
 62
     7
370
    25
100
AcDbCircle
 10
-1543.7755936189
 20
-1365.6431931721
 30
0.0
 40
213.943407119252
100
AcDbArc
 50
342.9599775991
 51
344.0678850325
  0
LINE
  5
20A
330
1F
100
AcDbEntity
  8
0
  6
Continuous
 62
     7
370
    25
100
AcDbLine
 10
-1287.020822261
 20
-1196.0987981737
 30
0.0
 11
-1332.7676255447
 21
-1275.3343519152
 31
0.0
  0
LWPOLYLINE
  5
20B
330
1F
100
AcDbEntity
  8
0
  6
Continuous
 62
     7
370
    25
100
AcDbPolyline
 90
        7
 70
   128
 43
0.0
 10
-1287.020822261
 20
-1196.0987981737
 10
-1286.8946988326
 20
-1196.2089475572
 10
-1286.5323025924
 20
-1196.5255674303
 10
-1285.9717805129
 20
-1197.0157560289
 10
-1285.2660615188
 20
-1197.6342138231
 10
-1284.7331959945
 20
-1198.1019910753
 10
-1284.7200829727
 20
-1198.1136735857
  0
LINE
  5
20C
330
1F
100
AcDbEntity
  8
0
  6
Continuous
 62
     7
370
    25
100
AcDbLine
 10
-1284.7200829727
 20
-1198.1136735857
 30
0.0
 11
-1328.7452656967
 21
-1274.3675645769
 31
0.0
  0
LWPOLYLINE
  5
20D
330
1F
100
AcDbEntity
  8
0
  6
Continuous
 62
     7
370
    25
100
AcDbPolyline
 90
        7
 70
   128
 43
0.0
 10
-1332.7676255447
 20
-1275.3343519152
 10
-1332.6231438857
 20
-1275.2985891283
 10
-1332.2328526718
 20
-1275.2017911852
 10
-1331.4174611312
 20
-1275.0022348345
 10
-1330.0515610916
 20
-1274.673932451
 10
-1328.7559945327
 20
-1274.3701871813
 10
-1328.7452656967
 20
-1274.3675645769
  0
ARC
  5
20E
330
1F
100
AcDbEntity
  8
0
  6
Continuous
 62
     7
370
    25
100
AcDbCircle
 10
-1378.4319359987
 20
-1348.3273919995
 30
0.0
 40
89.10000000006806
100
AcDbArc
 50
3.8934499239
 51
56.1065500762
  0
ARC
  5
20F
330
1F
100
AcDbEntity
  8
0
  6
Continuous
 62
     7
370
    25
100
AcDbCircle
 10
-1438.7433349761
 20
-1203.465248569
 30
0.0
 40
203.791906926587
100
AcDbArc
 50
315.9036570412
 51
317.0667427679
  0
ARC
  5
210
330
1F
100
AcDbEntity
  8
0
  6
Continuous
 62
     7
370
    25
100
AcDbCircle
 10
-1378.4319359987
 20
-1348.3273919995
 30
0.0
 40
86.09999999944363
100
AcDbArc
 50
2.0300661582
 51
57.9699338419
  0
ARC
  5
211
330
1F
100
AcDbEntity
  8
0
  6
Continuous
 62
     7
370
    25
100
AcDbCircle
 10
-1378.4319359987
 20
-1348.3273919995
 30
0.0
 40
89.10000000006848
100
AcDbArc
 50
183.8934499247
 51
236.1065500752
  0
ARC
  5
212
330
1F
100
AcDbEntity
  8
0
  6
Continuous
 62
     7
370
    25
100
AcDbCircle
 10
-1318.1205370239
 20
-1493.189535431
 30
0.0
 40
203.791906926587
100
AcDbArc
 50
135.9036570412
 51
137.0667427679
  0
ARC
  5
213
330
1F
100
AcDbEntity
  8
0
  6
Continuous
 62
     7
370
    25
100
AcDbCircle
 10
-1378.4319359987
 20
-1348.3273919995
 30
0.0
 40
86.10000000060835
100
AcDbArc
 50
182.0300661589
 51
237.9699338409
  0
LWPOLYLINE
  5
214
330
1F
100
AcDbEntity
  8
0
  6
Continuous
 62
     7
370
    25
100
AcDbPolyline
 90
        7
 70
   128
 43
0.0
 10
-1424.0962464553
 20
-1421.3204320848
 10
-1424.2407281143
 20
-1421.3561948717
 10
-1424.6310193283
 20
-1421.4529928148
 10
-1425.4464108688
 20
-1421.6525491655
 10
-1426.8123109085
 20
-1421.9808515489
 10
-1428.1078774673
 20
-1422.2845968187
 10
-1428.1186063034
 20
-1422.2872194231
  0
LINE
  5
215
330
1F
100
AcDbEntity
  8
0
  6
Continuous
 62
     7
370
    25
100
AcDbLine
 10
-1469.843049739
 20
-1500.5559858263
 30
0.0
 11
-1424.0962464553
 21
-1421.3204320848
 31
0.0
  0
LWPOLYLINE
  5
216
330
1F
100
AcDbEntity
  8
0
  6
Continuous
 62
     7
370
    25
100
AcDbPolyline
 90
        7
 70
   128
 43
0.0
 10
-1469.843049739
 20
-1500.5559858263
 10
-1469.9691731674
 20
-1500.4458364427
 10
-1470.3315694076
 20
-1500.1292165697
 10
-1470.8920914871
 20
-1499.6390279711
 10
-1471.5978104812
 20
-1499.0205701769
 10
-1472.1306760055
 20
-1498.5527929247
 10
-1472.1437890274
 20
-1498.5411104143
  0
LINE
  5
217
330
1F
100
AcDbEntity
  8
0
  6
Continuous
 62
     7
370
    25
100
AcDbLine
 10
-1472.1437890274
 20
-1498.5411104143
 30
0.0
 11
-1428.1186063034
 21
-1422.2872194231
 31
0.0
  0
LINE
  5
218
330
1F
100
AcDbEntity
  8
0
  6
Continuous
 62
     7
370
    25
100
AcDbLine
 10
-1339.2242390853
 20
-1268.3176931322
 30
0.0
 11
-1295.1990563613
 21
-1192.0635637224
 31
0.0
  0
LWPOLYLINE
  5
219
330
1F
100
AcDbEntity
  8
0
  6
Continuous
 62
     7
370
    25
100
AcDbPolyline
 90
        7
 70
   128
 43
0.0
 10
-1295.1990563613
 20
-1192.0635637224
 10
-1295.1821286422
 20
-1192.0692857683
 10
-1294.5107419235
 20
-1192.2967370928
 10
-1293.6223942977
 20
-1192.5988134325
 10
-1292.9173905593
 20
-1192.8391393602
 10
-1292.4620110732
 20
-1192.9945882738
 10
-1292.3037011367
 20
-1193.0489477098
  0
LINE
  5
21A
330
1F
100
AcDbEntity
  8
0
  6
Continuous
 62
     7
370
    25
100
AcDbLine
 10
-1292.3037011367
 20
-1193.0489477098
 30
0.0
 11
-1338.0502660018
 21
-1272.2845014513
 31
0.0
  0
ARC
  5
21B
330
1F
100
AcDbEntity
  8
0
  6
Continuous
 62
     7
370
    25
100
AcDbCircle
 10
-1378.4319359987
 20
-1348.3273919995
 30
0.0
 40
86.10000000064609
100
AcDbArc
 50
122.0300661595
 51
177.9699338418
  0
ARC
  5
21C
330
1F
100
AcDbEntity
  8
0
  6
Continuous
 62
     7
370
    25
100
AcDbCircle
 10
-1318.1205370239
 20
-1203.465248569
 30
0.0
 40
203.791906926587
100
AcDbArc
 50
222.9332572321
 51
224.0963429588
  0
ARC
  5
21D
330
1F
100
AcDbEntity
  8
0
  6
Continuous
 62
     7
370
    25
100
AcDbCircle
 10
-1378.4319359987
 20
-1348.3273919995
 30
0.0
 40
89.10000000006816
100
AcDbArc
 50
123.8934499252
 51
176.106550076
  0
LWPOLYLINE
  5
21E
330
1F
100
AcDbEntity
  8
0
  6
Continuous
 62
     7
370
    25
100
AcDbPolyline
 90
        7
 70
   128
 43
0.0
 10
-1424.0962464553
 20
-1275.3343519152
 10
-1424.2407281143
 20
-1275.2985891283
 10
-1424.6310193283
 20
-1275.2017911852
 10
-1425.4464108688
 20
-1275.0022348345
 10
-1426.8123109085
 20
-1274.673932451
 10
-1428.1078774673
 20
-1274.3701871813
 10
-1428.1186063034
 20
-1274.3675645769
  0
LINE
  5
21F
330
1F
100
AcDbEntity
  8
0
  6
Continuous
 62
     7
370
    25
100
AcDbLine
 10
-1428.1186063034
 20
-1274.3675645769
 30
0.0
 11
-1472.1437890274
 21
-1198.1136735857
 31
0.0
  0
LWPOLYLINE
  5
220
330
1F
100
AcDbEntity
  8
0
  6
Continuous
 62
     7
370
    25
100
AcDbPolyline
 90
        7
 70
   128
 43
0.0
 10
-1472.1437890274
 20
-1198.1136735857
 10
-1472.1306760055
 20
-1198.1019910753
 10
-1471.5978104812
 20
-1197.6342138231
 10
-1470.8920914871
 20
-1197.0157560289
 10
-1470.3315694076
 20
-1196.5255674303
 10
-1469.9691731674
 20
-1196.2089475572
 10
-1469.843049739
 20
-1196.0987981737
  0
LINE
  5
221
330
1F
100
AcDbEntity
  8
0
  6
Continuous
 62
     7
370
    25
100
AcDbLine
 10
-1469.843049739
 20
-1196.0987981737
 30
0.0
 11
-1424.0962464553
 21
-1275.3343519152
 31
0.0
  0
LINE
  5
222
330
1F
100
AcDbEntity
  8
0
  6
Continuous
 62
     7
370
    25
100
AcDbLine
 10
-1292.3037011367
 20
-1503.6058362902
 30
0.0
 11
-1338.0502660018
 21
-1424.3702825487
 31
0.0
  0
LWPOLYLINE
  5
223
330
1F
100
AcDbEntity
  8
0
  6
Continuous
 62
     7
370
    25
100
AcDbPolyline
 90
        7
 70
   128
 43
0.0
 10
-1292.3037011367
 20
-1503.6058362902
 10
-1292.4620110732
 20
-1503.6601957262
 10
-1292.9173905593
 20
-1503.8156446398
 10
-1293.6223942977
 20
-1504.0559705675
 10
-1294.5107419235
 20
-1504.3580469072
 10
-1295.1821286422
 20
-1504.5854982317
 10
-1295.1990563613
 20
-1504.5912202776
  0
LINE
  5
224
330
1F
100
AcDbEntity
  8
0
  6
Continuous
 62
     7
370
    25
100
AcDbLine
 10
-1295.1990563613
 20
-1504.5912202776
 30
0.0
 11
-1339.2242390853
 21
-1428.3370908678
 31
0.0
  0
ARC
  5
225
330
1F
100
AcDbEntity
  8
0
  6
Continuous
 62
     7
370
    25
100
AcDbCircle
 10
-1378.4319359999
 20
-1181.2754680009
 30
0.0
 40
83.92922343069364
100
AcDbArc
 50
352.6148365938
 51
187.3851634062
  0
ARC
  5
226
330
1F
100
AcDbEntity
  8
0
  6
Continuous
 62
     7
370
    25
100
AcDbCircle
 10
-1378.4319359999
 20
-1181.2754680009
 30
0.0
 40
86.92922343069388
100
AcDbArc
 50
352.2161283517
 51
187.7838716483
  0
ARC
  5
227
330
1F
100
AcDbEntity
  8
0
  6
Continuous
 62
     7
370
    25
100
AcDbCircle
 10
-1523.1031459343
 20
-1264.8014300005
 30
0.0
 40
83.92922343069365
100
AcDbArc
 50
52.6148365937
 51
247.3851634061
  0
LWPOLYLINE
  5
228
330
1F
100
AcDbEntity
  8
0
  6
Continuous
 62
     7
370
    25
100
AcDbPolyline
 90
        7
 70
   128
 43
0.0
 10
-1555.3769070846
 20
-1342.2772821367
 10
-1555.3802449447
 20
-1342.294686693
 10
-1555.5190045577
 20
-1342.9899152696
 10
-1555.7016331893
 20
-1343.9104494036
 10
-1555.8461148483
 20
-1344.6409639299
 10
-1555.9388596755
 20
-1345.1130327165
 10
-1555.9712846023
 20
-1345.2773031175
  0
ARC
  5
229
330
1F
100
AcDbEntity
  8
0
  6
Continuous
 62
     7
370
    25
100
AcDbCircle
 10
-1523.1031459343
 20
-1264.8014300005
 30
0.0
 40
86.92922343069388
100
AcDbArc
 50
52.2161283517
 51
247.7838716483
  0
ARC
  5
22A
330
1F
100
AcDbEntity
  8
0
  6
Continuous
 62
     7
370
    25
100
AcDbCircle
 10
-1523.1031459343
 20
-1431.8533539996
 30
0.0
 40
83.92922343069384
100
AcDbArc
 50
112.6148365938
 51
307.3851634062
  0
ARC
  5
22B
330
1F
100
AcDbEntity
  8
0
  6
Continuous
 62
     7
370
    25
100
AcDbCircle
 10
-1523.1031459343
 20
-1431.8533539996
 30
0.0
 40
86.92922343069364
100
AcDbArc
 50
112.2161283517
 51
307.7838716483
  0
LWPOLYLINE
  5
22C
330
1F
100
AcDbEntity
  8
0
  6
Continuous
 62
     7
370
    25
100
AcDbPolyline
 90
        7
 70
   128
 43
0.0
 10
-1555.3769070846
 20
-1354.3775018633
 10
-1555.3802449447
 20
-1354.360097307
 10
-1555.5190045577
 20
-1353.6648687303
 10
-1555.7016331893
 20
-1352.7443345964
 10
-1555.8461148483
 20
-1352.0138200701
 10
-1555.9388596755
 20
-1351.5417512834
 10
-1555.9712846023
 20
-1351.3774808824
  0
ARC
  5
22D
330
1F
100
AcDbEntity
  8
0
  6
Continuous
 62
     7
370
    25
100
AcDbCircle
 10
-1233.7607260656
 20
-1264.8014300005
 30
0.0
 40
83.9292234306937
100
AcDbArc
 50
292.6148365938
 51
127.3851634062
  0
ARC
  5
22E
330
1F
100
AcDbEntity
  8
0
  6
Continuous
 62
     7
370
    25
100
AcDbCircle
 10
-1233.7607260656
 20
-1264.8014300005
 30
0.0
 40
86.9292234306936
100
AcDbArc
 50
292.2161283517
 51
127.7838716483
  0
LWPOLYLINE
  5
22F
330
1F
100
AcDbEntity
  8
0
  6
Continuous
 62
     7
370
    25
100
AcDbPolyline
 90
        7
 70
   128
 43
0.0
 10
-1201.4869649154
 20
-1342.2772821367
 10
-1201.4836270553
 20
-1342.294686693
 10
-1201.3448674423
 20
-1342.9899152696
 10
-1201.1622388107
 20
-1343.9104494036
 10
-1201.0177571517
 20
-1344.6409639299
 10
-1200.9250123245
 20
-1345.1130327165
 10
-1200.8925873977
 20
-1345.2773031175
  0
ARC
  5
230
330
1F
100
AcDbEntity
  8
0
  6
Continuous
 62
     7
370
    25
100
AcDbCircle
 10
-1233.7607260657
 20
-1431.8533539997
 30
0.0
 40
83.92922343069363
100
AcDbArc
 50
232.6148365938
 51
67.3851634062
  0
LWPOLYLINE
  5
231
330
1F
100
AcDbEntity
  8
0
  6
Continuous
 62
     7
370
    25
100
AcDbPolyline
 90
        7
 70
   128
 43
0.0
 10
-1200.8925873977
 20
-1351.3774808824
 10
-1200.9250123245
 20
-1351.5417512834
 10
-1201.0177571517
 20
-1352.0138200701
 10
-1201.1622388107
 20
-1352.7443345964
 10
-1201.3448674423
 20
-1353.6648687303
 10
-1201.4836270553
 20
-1354.360097307
 10
-1201.4869649154
 20
-1354.3775018633
  0
ARC
  5
232
330
1F
100
AcDbEntity
  8
0
  6
Continuous
 62
     7
370
    25
100
AcDbCircle
 10
-1233.7607260657
 20
-1431.8533539997
 30
0.0
 40
86.9292234306938
100
AcDbArc
 50
232.2161283517
 51
67.7838716483
  0
ARC
  5
233
330
1F
100
AcDbEntity
  8
0
  6
Continuous
 62
     7
370
    25
100
AcDbCircle
 10
-1378.431936
 20
-1515.3793159992
 30
0.0
 40
83.92922343069375
100
AcDbArc
 50
172.6148365938
 51
7.3851634062
  0
ARC
  5
234
330
1F
100
AcDbEntity
  8
0
  6
Continuous
 62
     7
370
    25
100
AcDbCircle
 10
-1378.431936
 20
-1515.3793159992
 30
0.0
 40
86.92922343069382
100
AcDbArc
 50
172.2161283517
 51
7.7838716483
  0
LINE
  5
235
330
1F
100
AcDbEntity
  8
0
  6
Continuous
 62
     7
370
    25
100
AcDbLine
 10
-1555.3769070846
 20
-1342.2772821367
 30
0.0
 11
-1467.326303218
 21
-1342.2772821367
 31
0.0
  0
LINE
  5
236
330
1F
100
AcDbEntity
  8
0
  6
Continuous
 62
     7
370
    25
100
AcDbLine
 10
-1555.9712846023
 20
-1345.2773031175
 30
0.0
 11
-1464.4779164535
 21
-1345.2773031175
 31
0.0
  0
LINE
  5
237
330
1F
100
AcDbEntity
  8
0
  6
Continuous
 62
     7
370
    25
100
AcDbLine
 10
-1201.4869649154
 20
-1354.3775018633
 30
0.0
 11
-1289.537568782
 21
-1354.3775018633
 31
0.0
  0
LINE
  5
238
330
1F
100
AcDbEntity
  8
0
  6
Continuous
 62
     7
370
    25
100
AcDbLine
 10
-1289.537568782
 20
-1342.2772821367
 30
0.0
 11
-1201.4869649154
 21
-1342.2772821367
 31
0.0
  0
LINE
  5
239
330
1F
100
AcDbEntity
  8
0
  6
Continuous
 62
     7
370
    25
100
AcDbLine
 10
-1200.8925873977
 20
-1345.2773031175
 30
0.0
 11
-1292.3859555465
 21
-1345.2773031175
 31
0.0
  0
LINE
  5
23A
330
1F
100
AcDbEntity
  8
0
  6
Continuous
 62
     7
370
    25
100
AcDbLine
 10
-1467.326303218
 20
-1354.3775018633
 30
0.0
 11
-1555.3769070846
 21
-1354.3775018633
 31
0.0
  0
LINE
  5
23B
330
1F
100
AcDbEntity
  8
0
  6
Continuous
 62
     7
370
    25
100
AcDbLine
 10
-1555.9712846023
 20
-1351.3774808824
 30
0.0
 11
-1464.4779164535
 21
-1351.3774808824
 31
0.0
  0
LINE
  5
23C
330
1F
100
AcDbEntity
  8
0
  6
Continuous
 62
     7
370
    25
100
AcDbLine
 10
-1200.8925873977
 20
-1351.3774808824
 30
0.0
 11
-1292.3859555465
 21
-1351.3774808824
 31
0.0
  0
ARC
  5
23D
330
1F
100
AcDbEntity
  8
0
  6
Continuous
 62
     7
370
    25
100
AcDbCircle
 10
-1378.431936
 20
-1348.3273920001
 30
0.0
 40
177.5654673183248
100
AcDbArc
 50
119.0157955571
 51
120.9842044429
  0
ARC
  5
23E
330
1F
100
AcDbEntity
  8
0
  6
Continuous
 62
     7
370
    25
100
AcDbCircle
 10
-1378.431936
 20
-1348.3273920001
 30
0.0
 40
177.5654673183247
100
AcDbArc
 50
59.0157955571
 51
60.9842044429
  0
ARC
  5
23F
330
1F
100
AcDbEntity
  8
0
  6
Continuous
 62
     7
370
    25
100
AcDbCircle
 10
-1378.431936
 20
-1348.3273920001
 30
0.0
 40
177.565467318325
100
AcDbArc
 50
359.0157955571
 51
0.9842044429
  0
ARC
  5
240
330
1F
100
AcDbEntity
  8
0
  6
Continuous
 62
     7
370
    25
100
AcDbCircle
 10
-1378.431936
 20
-1348.3273920001
 30
0.0
 40
177.5654673183247
100
AcDbArc
 50
299.0157955571
 51
300.9842044429
  0
ARC
  5
241
330
1F
100
AcDbEntity
  8
0
  6
Continuous
 62
     7
370
    25
100
AcDbCircle
 10
-1378.431936
 20
-1348.3273920001
 30
0.0
 40
177.565467318325
100
AcDbArc
 50
239.0157955571
 51
240.9842044429
  0
ARC
  5
242
330
1F
100
AcDbEntity
  8
0
  6
Continuous
 62
     7
370
    25
100
AcDbCircle
 10
-1378.431936
 20
-1348.3273920001
 30
0.0
 40
177.5654673183249
100
AcDbArc
 50
179.0157955571
 51
180.9842044429
  0
CIRCLE
  5
243
330
1F
100
AcDbEntity
  8
0
  6
Continuous
 62
     7
370
    25
100
AcDbCircle
 10
-1378.4319359995
 20
1651.6726079987
 30
0.0
 40
80.0000000012601
  0
ARC
  5
244
330
1F
100
AcDbEntity
  8
0
  6
Continuous
 62
     7
370
    25
100
AcDbCircle
 10
-1378.4319359995
 20
1651.6726079987
 30
0.0
 40
89.10000000006818
100
AcDbArc
 50
213.8934499234
 51
266.1065500753
  0
ARC
  5
245
330
1F
100
AcDbEntity
  8
0
  6
Continuous
 62
     7
370
    25
100
AcDbCircle
 10
-1413.4916258625
 20
1594.763325365
 30
0.0
 40
39.56497654819248
100
AcDbArc
 50
163.4881233803
 51
169.4815815793
  0
ARC
  5
246
330
1F
100
AcDbEntity
  8
0
  6
Continuous
 62
     7
370
    25
100
AcDbCircle
 10
-1378.4319359995
 20
1651.6726079987
 30
0.0
 40
86.09999999989532
100
AcDbArc
 50
212.0300661576
 51
267.969933841
  0
ARC
  5
247
330
1F
100
AcDbEntity
  8
0
  6
Continuous
 62
     7
370
    25
100
AcDbCircle
 10
-1531.9013742757
 20
1721.0487065797
 30
0.0
 40
216.2914616320946
100
AcDbArc
 50
312.9670141504
 51
314.0628853764
  0
LINE
  5
248
330
1F
100
AcDbEntity
  8
0
  6
Continuous
 62
     7
370
    25
100
AcDbLine
 10
-1223.1534917098
 20
1737.800865215
 30
0.0
 11
-1302.3890454513
 21
1692.054210943
 31
0.0
  0
ARC
  5
249
330
1F
100
AcDbEntity
  8
0
  6
Continuous
 62
     7
370
    25
100
AcDbCircle
 10
-1350.7215382089
 20
1692.7687412326
 30
0.0
 40
135.2830317443474
100
AcDbArc
 50
18.1479509771
 51
19.4432728316
  0
LINE
  5
24A
330
1F
100
AcDbEntity
  8
0
  6
Continuous
 62
     7
370
    25
100
AcDbLine
 10
-1222.1681077224
 20
1734.9055919468
 30
0.0
 11
-1298.4222371322
 21
1690.880334717
 31
0.0
  0
ARC
  5
24B
330
1F
100
AcDbEntity
  8
0
  6
Continuous
 62
     7
370
    25
100
AcDbCircle
 10
-1372.1770249636
 20
1448.9346143361
 30
0.0
 40
252.9377400442601
100
AcDbArc
 50
73.0466698075
 51
73.9837654949
  0
ARC
  5
24C
330
1F
100
AcDbEntity
  8
0
  6
Continuous
 62
     7
370
    25
100
AcDbCircle
 10
-1378.4319359995
 20
1651.6726079987
 30
0.0
 40
89.10000000006822
100
AcDbArc
 50
333.8934499248
 51
26.1065500766
  0
ARC
  5
24D
330
1F
100
AcDbEntity
  8
0
  6
Continuous
 62
     7
370
    25
100
AcDbCircle
 10
-1372.1770249636
 20
1854.4106016639
 30
0.0
 40
252.9377400442598
100
AcDbArc
 50
286.0162345051
 51
286.9533301925
  0
ARC
  5
24E
330
1F
100
AcDbEntity
  8
0
  6
Continuous
 62
     7
370
    25
100
AcDbCircle
 10
-1378.4319359995
 20
1651.6726079987
 30
0.0
 40
86.10000000004338
100
AcDbArc
 50
332.0300661591
 51
27.9699338423
  0
LINE
  5
24F
330
1F
100
AcDbEntity
  8
0
  6
Continuous
 62
     7
370
    25
100
AcDbLine
 10
-1452.3917634231
 20
1601.9859749496
 30
0.0
 11
-1528.6456544143
 21
1557.9607102692
 31
0.0
  0
LWPOLYLINE
  5
250
330
1F
100
AcDbEntity
  8
0
  6
Continuous
 62
     7
370
    25
100
AcDbPolyline
 90
        7
 70
   128
 43
0.0
 10
-1528.6456544143
 20
1557.9607102692
 10
-1528.6573369247
 20
1557.9739872038
 10
-1529.1251141769
 20
1558.5067856729
 10
-1529.7435719711
 20
1559.2124599635
 10
-1530.2337605697
 20
1559.7730267465
 10
-1530.5503804428
 20
1560.1354825914
 10
-1530.6605298263
 20
1560.2615985691
  0
LINE
  5
251
330
1F
100
AcDbEntity
  8
0
  6
Continuous
 62
     7
370
    25
100
AcDbLine
 10
-1530.6605298263
 20
1560.2615985691
 30
0.0
 11
-1451.4249760848
 21
1606.0082491159
 31
0.0
  0
ARC
  5
252
330
1F
100
AcDbEntity
  8
0
  6
Continuous
 62
     7
370
    25
100
AcDbCircle
 10
-1378.4319359995
 20
1651.6726079987
 30
0.0
 40
89.10000000006845
100
AcDbArc
 50
153.8934499238
 51
206.1065500748
  0
ARC
  5
253
330
1F
100
AcDbEntity
  8
0
  6
Continuous
 62
     7
370
    25
100
AcDbCircle
 10
-1384.6868470365
 20
1448.9346143361
 30
0.0
 40
252.9377400442598
100
AcDbArc
 50
106.0162345051
 51
106.9533301925
  0
ARC
  5
254
330
1F
100
AcDbEntity
  8
0
  6
Continuous
 62
     7
370
    25
100
AcDbCircle
 10
-1378.4319359995
 20
1651.6726079987
 30
0.0
 40
86.10000000052823
100
AcDbArc
 50
152.030066158
 51
207.9699338405
  0
ARC
  5
255
330
1F
100
AcDbEntity
  8
0
  6
Continuous
 62
     7
370
    25
100
AcDbCircle
 10
-1384.6868470365
 20
1854.4106016639
 30
0.0
 40
252.9377400442598
100
AcDbArc
 50
253.0466698075
 51
253.983765495
  0
LINE
  5
256
330
1F
100
AcDbEntity
  8
0
  6
Continuous
 62
     7
370
    25
100
AcDbLine
 10
-1458.4416348678
 20
1690.880334717
 30
0.0
 11
-1534.6957642776
 21
1734.9055919468
 31
0.0
  0
ARC
  5
257
330
1F
100
AcDbEntity
  8
0
  6
Continuous
 62
     7
370
    25
100
AcDbCircle
 10
-1406.1423337912
 20
1692.7687412326
 30
0.0
 40
135.2830317443473
100
AcDbArc
 50
160.5567271684
 51
161.8520490229
  0
LINE
  5
258
330
1F
100
AcDbEntity
  8
0
  6
Continuous
 62
     7
370
    25
100
AcDbLine
 10
-1533.7103802902
 20
1737.800865215
 30
0.0
 11
-1454.4748265487
 21
1692.054210943
 31
0.0
  0
ARC
  5
259
330
1F
100
AcDbEntity
  8
0
  6
Continuous
 62
     7
370
    25
100
AcDbCircle
 10
-1378.4319359995
 20
1651.6726079987
 30
0.0
 40
89.10000000006825
100
AcDbArc
 50
273.8934499239
 51
326.1065500762
  0
ARC
  5
25A
330
1F
100
AcDbEntity
  8
0
  6
Continuous
 62
     7
370
    25
100
AcDbCircle
 10
-1224.9624977244
 20
1721.0487065797
 30
0.0
 40
216.2914616320946
100
AcDbArc
 50
225.9371146236
 51
227.0329858496
  0
ARC
  5
25B
330
1F
100
AcDbEntity
  8
0
  6
Continuous
 62
     7
370
    25
100
AcDbCircle
 10
-1378.4319359995
 20
1651.6726079987
 30
0.0
 40
86.09999999944326
100
AcDbArc
 50
272.0300661582
 51
327.9699338419
  0
ARC
  5
25C
330
1F
100
AcDbEntity
  8
0
  6
Continuous
 62
     7
370
    25
100
AcDbCircle
 10
-1343.3722461376
 20
1594.763325365
 30
0.0
 40
39.56497654819248
100
AcDbArc
 50
10.5184184207
 51
16.5118766197
  0
LINE
  5
25D
330
1F
100
AcDbEntity
  8
0
  6
Continuous
 62
     7
370
    25
100
AcDbLine
 10
-1226.2033421737
 20
1560.2615985691
 30
0.0
 11
-1305.4388959152
 21
1606.0082491159
 31
0.0
  0
LWPOLYLINE
  5
25E
330
1F
100
AcDbEntity
  8
0
  6
Continuous
 62
     7
370
    25
100
AcDbPolyline
 90
        7
 70
   128
 43
0.0
 10
-1226.2033421737
 20
1560.2615985691
 10
-1226.3134915573
 20
1560.1354825914
 10
-1226.6301114303
 20
1559.7730267465
 10
-1227.1203000289
 20
1559.2124599635
 10
-1227.7387578231
 20
1558.5067856729
 10
-1228.2065350753
 20
1557.9739872038
 10
-1228.2182175857
 20
1557.9607102692
  0
LINE
  5
25F
330
1F
100
AcDbEntity
  8
0
  6
Continuous
 62
     7
370
    25
100
AcDbLine
 10
-1228.2182175857
 20
1557.9607102692
 30
0.0
 11
-1304.4721085769
 21
1601.9859749496
 31
0.0
  0
ARC
  5
260
330
1F
100
AcDbEntity
  8
0
  6
Continuous
 62
     7
370
    25
100
AcDbCircle
 10
-1378.4319359995
 20
1651.6726079987
 30
0.0
 40
89.10000000006809
100
AcDbArc
 50
93.8934499247
 51
146.1065500752
  0
ARC
  5
261
330
1F
100
AcDbEntity
  8
0
  6
Continuous
 62
     7
370
    25
100
AcDbCircle
 10
-1531.9013742757
 20
1582.2965094204
 30
0.0
 40
216.2914616320946
100
AcDbArc
 50
45.9371146236
 51
47.0329858496
  0
ARC
  5
262
330
1F
100
AcDbEntity
  8
0
  6
Continuous
 62
     7
370
    25
100
AcDbCircle
 10
-1378.4319359995
 20
1651.6726079987
 30
0.0
 40
86.10000000060833
100
AcDbArc
 50
92.0300661589
 51
147.9699338409
  0
ARC
  5
263
330
1F
100
AcDbEntity
  8
0
  6
Continuous
 62
     7
370
    25
100
AcDbCircle
 10
-1413.4916258625
 20
1708.5818906351
 30
0.0
 40
39.56497654819236
100
AcDbArc
 50
190.5184184207
 51
196.5118766197
  0
LINE
  5
264
330
1F
100
AcDbEntity
  8
0
  6
Continuous
 62
     7
370
    25
100
AcDbLine
 10
-1530.6605298263
 20
1743.0836174309
 30
0.0
 11
-1451.4249760848
 21
1697.3369668841
 31
0.0
  0
LWPOLYLINE
  5
265
330
1F
100
AcDbEntity
  8
0
  6
Continuous
 62
     7
370
    25
100
AcDbPolyline
 90
        7
 70
   128
 43
0.0
 10
-1530.6605298263
 20
1743.0836174309
 10
-1530.5503804428
 20
1743.2097334087
 10
-1530.2337605697
 20
1743.5721892535
 10
-1529.7435719711
 20
1744.1327560365
 10
-1529.1251141769
 20
1744.8384303271
 10
-1528.6573369247
 20
1745.3712287962
 10
-1528.6456544143
 20
1745.3845057308
  0
LINE
  5
266
330
1F
100
AcDbEntity
  8
0
  6
Continuous
 62
     7
370
    25
100
AcDbLine
 10
-1528.6456544143
 20
1745.3845057308
 30
0.0
 11
-1452.3917634231
 21
1701.3592410504
 31
0.0
  0
LINE
  5
267
330
1F
100
AcDbEntity
  8
0
  6
Continuous
 62
     7
370
    25
100
AcDbLine
 10
-1298.4222371322
 20
1612.464881283
 30
0.0
 11
-1222.1681077224
 21
1568.4396240532
 31
0.0
  0
ARC
  5
268
330
1F
100
AcDbEntity
  8
0
  6
Continuous
 62
     7
370
    25
100
AcDbCircle
 10
-1350.7215382089
 20
1610.5764747674
 30
0.0
 40
135.2830317443473
100
AcDbArc
 50
340.5567271684
 51
341.8520490229
  0
LINE
  5
269
330
1F
100
AcDbEntity
  8
0
  6
Continuous
 62
     7
370
    25
100
AcDbLine
 10
-1223.1534917098
 20
1565.544350785
 30
0.0
 11
-1302.3890454513
 21
1611.2910050571
 31
0.0
  0
LINE
  5
26A
330
1F
100
AcDbEntity
  8
0
  6
Continuous
 62
     7
370
    25
100
AcDbLine
 10
-1304.4721085769
 20
1701.3592410504
 30
0.0
 11
-1228.2182175857
 21
1745.3845057308
 31
0.0
  0
LWPOLYLINE
  5
26B
330
1F
100
AcDbEntity
  8
0
  6
Continuous
 62
     7
370
    25
100
AcDbPolyline
 90
        7
 70
   128
 43
0.0
 10
-1228.2182175857
 20
1745.3845057308
 10
-1228.2065350753
 20
1745.3712287962
 10
-1227.7387578231
 20
1744.8384303271
 10
-1227.1203000289
 20
1744.1327560365
 10
-1226.6301114303
 20
1743.5721892535
 10
-1226.3134915573
 20
1743.2097334087
 10
-1226.2033421737
 20
1743.0836174309
  0
LINE
  5
26C
330
1F
100
AcDbEntity
  8
0
  6
Continuous
 62
     7
370
    25
100
AcDbLine
 10
-1226.2033421737
 20
1743.0836174309
 30
0.0
 11
-1305.4388959152
 21
1697.3369668841
 31
0.0
  0
ARC
  5
26D
330
1F
100
AcDbEntity
  8
0
  6
Continuous
 62
     7
370
    25
100
AcDbCircle
 10
-1343.3722461376
 20
1708.5818906351
 30
0.0
 40
39.56497654819236
100
AcDbArc
 50
343.4881233803
 51
349.4815815793
  0
ARC
  5
26E
330
1F
100
AcDbEntity
  8
0
  6
Continuous
 62
     7
370
    25
100
AcDbCircle
 10
-1378.4319359995
 20
1651.6726079987
 30
0.0
 40
86.1000000006461
100
AcDbArc
 50
32.0300661595
 51
87.9699338418
  0
ARC
  5
26F
330
1F
100
AcDbEntity
  8
0
  6
Continuous
 62
     7
370
    25
100
AcDbCircle
 10
-1224.9624977244
 20
1582.2965094204
 30
0.0
 40
216.2914616320946
100
AcDbArc
 50
132.9670141504
 51
134.0628853764
  0
ARC
  5
270
330
1F
100
AcDbEntity
  8
0
  6
Continuous
 62
     7
370
    25
100
AcDbCircle
 10
-1378.4319359995
 20
1651.6726079987
 30
0.0
 40
89.1000000000682
100
AcDbArc
 50
33.8934499252
 51
86.106550076
  0
LINE
  5
271
330
1F
100
AcDbEntity
  8
0
  6
Continuous
 62
     7
370
    25
100
AcDbLine
 10
-1533.7103802902
 20
1565.544350785
 30
0.0
 11
-1454.4748265487
 21
1611.2910050571
 31
0.0
  0
ARC
  5
272
330
1F
100
AcDbEntity
  8
0
  6
Continuous
 62
     7
370
    25
100
AcDbCircle
 10
-1406.1423337912
 20
1610.5764747674
 30
0.0
 40
135.2830317443473
100
AcDbArc
 50
198.1479509771
 51
199.4432728316
  0
LINE
  5
273
330
1F
100
AcDbEntity
  8
0
  6
Continuous
 62
     7
370
    25
100
AcDbLine
 10
-1534.6957642776
 20
1568.4396240532
 30
0.0
 11
-1458.4416348678
 21
1612.464881283
 31
0.0
  0
ARC
  5
274
330
1F
100
AcDbEntity
  8
0
  6
Continuous
 62
     7
370
    25
100
AcDbCircle
 10
-1294.9059740005
 20
1796.3438179343
 30
0.0
 40
83.92922343069382
100
AcDbArc
 50
322.6148365937
 51
157.3851634061
  0
LWPOLYLINE
  5
275
330
1F
100
AcDbEntity
  8
0
  6
Continuous
 62
     7
370
    25
100
AcDbPolyline
 90
        7
 70
   128
 43
0.0
 10
-1372.3818261367
 20
1828.6174896776
 10
-1372.399230693
 20
1828.620946747
 10
-1373.0944592697
 20
1828.7596765577
 10
-1374.0149934036
 20
1828.9423796951
 10
-1374.7455079299
 20
1829.0866825401
 10
-1375.2175767166
 20
1829.1796210825
 10
-1375.3818471176
 20
1829.2118820965
  0
ARC
  5
276
330
1F
100
AcDbEntity
  8
0
  6
Continuous
 62
     7
370
    25
100
AcDbCircle
 10
-1294.9059740005
 20
1796.3438179343
 30
0.0
 40
86.9292234306938
100
AcDbArc
 50
322.2161283517
 51
157.7838716483
  0
ARC
  5
277
330
1F
100
AcDbEntity
  8
0
  6
Continuous
 62
     7
370
    25
100
AcDbCircle
 10
-1211.3800120009
 20
1651.672608
 30
0.0
 40
83.92922343069398
100
AcDbArc
 50
262.6148365938
 51
97.3851634062
  0
ARC
  5
278
330
1F
100
AcDbEntity
  8
0
  6
Continuous
 62
     7
370
    25
100
AcDbCircle
 10
-1211.3800120009
 20
1651.672608
 30
0.0
 40
86.9292234306941
100
AcDbArc
 50
262.2161283517
 51
97.7838716483
  0
ARC
  5
279
330
1F
100
AcDbEntity
  8
0
  6
Continuous
 62
     7
370
    25
100
AcDbCircle
 10
-1461.9578979997
 20
1507.0013980657
 30
0.0
 40
83.92922343069372
100
AcDbArc
 50
142.6148365938
 51
337.3851634062
  0
LWPOLYLINE
  5
27A
330
1F
100
AcDbEntity
  8
0
  6
Continuous
 62
     7
370
    25
100
AcDbPolyline
 90
        7
 70
   128
 43
0.0
 10
-1381.4820248825
 20
1474.1333339035
 10
-1381.6462952835
 20
1474.1655949175
 10
-1382.1183640701
 20
1474.2585334599
 10
-1382.8488785964
 20
1474.4028363049
 10
-1383.7694127304
 20
1474.5855394423
 10
-1384.464641307
 20
1474.724269253
 10
-1384.4820458633
 20
1474.7277263224
  0
ARC
  5
27B
330
1F
100
AcDbEntity
  8
0
  6
Continuous
 62
     7
370
    25
100
AcDbCircle
 10
-1461.9578979997
 20
1507.0013980657
 30
0.0
 40
86.92922343069368
100
AcDbArc
 50
142.2161283517
 51
337.7838716483
  0
ARC
  5
27C
330
1F
100
AcDbEntity
  8
0
  6
Continuous
 62
     7
370
    25
100
AcDbCircle
 10
-1294.9059740005
 20
1507.0013980656
 30
0.0
 40
83.9292234306942
100
AcDbArc
 50
202.6148365938
 51
37.3851634062
  0
ARC
  5
27D
330
1F
100
AcDbEntity
  8
0
  6
Continuous
 62
     7
370
    25
100
AcDbCircle
 10
-1294.9059740005
 20
1507.0013980656
 30
0.0
 40
86.9292234306938
100
AcDbArc
 50
202.2161283517
 51
37.7838716483
  0
LWPOLYLINE
  5
27E
330
1F
100
AcDbEntity
  8
0
  6
Continuous
 62
     7
370
    25
100
AcDbPolyline
 90
        7
 70
   128
 43
0.0
 10
-1372.3818261367
 20
1474.7277263224
 10
-1372.399230693
 20
1474.724269253
 10
-1373.0944592697
 20
1474.5855394423
 10
-1374.0149934036
 20
1474.4028363049
 10
-1374.7455079299
 20
1474.2585334599
 10
-1375.2175767166
 20
1474.1655949175
 10
-1375.3818471176
 20
1474.1333339035
  0
ARC
  5
27F
330
1F
100
AcDbEntity
  8
0
  6
Continuous
 62
     7
370
    25
100
AcDbCircle
 10
-1461.9578979996
 20
1796.3438179343
 30
0.0
 40
83.9292234306941
100
AcDbArc
 50
22.6148365938
 51
217.3851634062
  0
ARC
  5
280
330
1F
100
AcDbEntity
  8
0
  6
Continuous
 62
     7
370
    25
100
AcDbCircle
 10
-1461.9578979996
 20
1796.3438179343
 30
0.0
 40
86.92922343069392
100
AcDbArc
 50
22.2161283517
 51
217.7838716483
  0
LWPOLYLINE
  5
281
330
1F
100
AcDbEntity
  8
0
  6
Continuous
 62
     7
370
    25
100
AcDbPolyline
 90
        7
 70
   128
 43
0.0
 10
-1384.4820458633
 20
1828.6174896776
 10
-1384.464641307
 20
1828.620946747
 10
-1383.7694127304
 20
1828.7596765577
 10
-1382.8488785964
 20
1828.9423796951
 10
-1382.1183640701
 20
1829.0866825401
 10
-1381.6462952835
 20
1829.1796210825
 10
-1381.4820248825
 20
1829.2118820965
  0
ARC
  5
282
330
1F
100
AcDbEntity
  8
0
  6
Continuous
 62
     7
370
    25
100
AcDbCircle
 10
-1545.4838599992
 20
1651.672608
 30
0.0
 40
83.92922343069353
100
AcDbArc
 50
82.6148365938
 51
277.3851634062
  0
ARC
  5
283
330
1F
100
AcDbEntity
  8
0
  6
Continuous
 62
     7
370
    25
100
AcDbCircle
 10
-1545.4838599992
 20
1651.672608
 30
0.0
 40
86.92922343069388
100
AcDbArc
 50
82.2161283517
 51
277.7838716483
  0
LINE
  5
284
330
1F
100
AcDbEntity
  8
0
  6
Continuous
 62
     7
370
    25
100
AcDbLine
 10
-1372.3818261367
 20
1828.6174896776
 30
0.0
 11
-1372.3818261367
 21
1740.5669677674
 31
0.0
  0
LINE
  5
285
330
1F
100
AcDbEntity
  8
0
  6
Continuous
 62
     7
370
    25
100
AcDbLine
 10
-1384.4820458633
 20
1740.5669677674
 30
0.0
 11
-1384.4820458633
 21
1828.6174896776
 31
0.0
  0
LINE
  5
286
330
1F
100
AcDbEntity
  8
0
  6
Continuous
 62
     7
370
    25
100
AcDbLine
 10
-1375.3818471176
 20
1829.2118820965
 30
0.0
 11
-1375.3818471176
 21
1737.7185661018
 31
0.0
  0
LINE
  5
287
330
1F
100
AcDbEntity
  8
0
  6
Continuous
 62
     7
370
    25
100
AcDbLine
 10
-1381.4820248825
 20
1829.2118820965
 30
0.0
 11
-1381.4820248825
 21
1737.7185661018
 31
0.0
  0
LINE
  5
288
330
1F
100
AcDbEntity
  8
0
  6
Continuous
 62
     7
370
    25
100
AcDbLine
 10
-1372.3818261367
 20
1562.7782482326
 30
0.0
 11
-1372.3818261367
 21
1474.7277263224
 31
0.0
  0
LINE
  5
289
330
1F
100
AcDbEntity
  8
0
  6
Continuous
 62
     7
370
    25
100
AcDbLine
 10
-1375.3818471176
 20
1474.1333339035
 30
0.0
 11
-1375.3818471176
 21
1565.6266498983
 31
0.0
  0
LINE
  5
28A
330
1F
100
AcDbEntity
  8
0
  6
Continuous
 62
     7
370
    25
100
AcDbLine
 10
-1381.4820248825
 20
1474.1333339035
 30
0.0
 11
-1381.4820248825
 21
1565.6266498983
 31
0.0
  0
LINE
  5
28B
330
1F
100
AcDbEntity
  8
0
  6
Continuous
 62
     7
370
    25
100
AcDbLine
 10
-1384.4820458633
 20
1474.7277263224
 30
0.0
 11
-1384.4820458633
 21
1562.7782482326
 31
0.0
  0
ARC
  5
28C
330
1F
100
AcDbEntity
  8
0
  6
Continuous
 62
     7
370
    25
100
AcDbCircle
 10
-1378.4319360001
 20
1651.672608
 30
0.0
 40
177.5654673183249
100
AcDbArc
 50
29.0157955571
 51
30.9842044429
  0
ARC
  5
28D
330
1F
100
AcDbEntity
  8
0
  6
Continuous
 62
     7
370
    25
100
AcDbCircle
 10
-1378.4319360001
 20
1651.672608
 30
0.0
 40
177.565467318325
100
AcDbArc
 50
329.0157955571
 51
330.9842044429
  0
ARC
  5
28E
330
1F
100
AcDbEntity
  8
0
  6
Continuous
 62
     7
370
    25
100
AcDbCircle
 10
-1378.4319360001
 20
1651.672608
 30
0.0
 40
177.565467318325
100
AcDbArc
 50
269.0157955571
 51
270.9842044429
  0
ARC
  5
28F
330
1F
100
AcDbEntity
  8
0
  6
Continuous
 62
     7
370
    25
100
AcDbCircle
 10
-1378.4319360001
 20
1651.672608
 30
0.0
 40
177.5654673183247
100
AcDbArc
 50
209.0157955571
 51
210.9842044429
  0
ARC
  5
290
330
1F
100
AcDbEntity
  8
0
  6
Continuous
 62
     7
370
    25
100
AcDbCircle
 10
-1378.4319360001
 20
1651.672608
 30
0.0
 40
177.5654673183248
100
AcDbArc
 50
149.0157955571
 51
150.9842044429
  0
ARC
  5
291
330
1F
100
AcDbEntity
  8
0
  6
Continuous
 62
     7
370
    25
100
AcDbCircle
 10
-1378.4319360001
 20
1651.672608
 30
0.0
 40
177.5654673183248
100
AcDbArc
 50
89.0157955571
 51
90.9842044429
  0
LINE
  5
292
330
1F
100
AcDbEntity
  8
0
  6
Continuous
 62
     7
370
    25
100
AcDbLine
 10
139.5680706757
 20
1601.6726072549
 30
0.0
 11
-1140.269656871
 21
1601.6726072549
 31
0.0
  0
LWPOLYLINE
  5
293
330
1F
100
AcDbEntity
  8
0
  6
Continuous
 62
     7
370
    25
100
AcDbPolyline
 90
        9
 70
   128
 43
0.0
 10
139.5680706757
 20
1601.6726072549
 10
139.4719879883
 20
1601.7686824917
 10
139.1874354142
 20
1602.0532089889
 10
138.7253802079
 20
1602.5152604699
 10
138.1035845536
 20
1603.1370747506
 10
137.3458903092
 20
1603.8947578191
 10
136.4815037507
 20
1604.7591890812
 10
135.5435650605
 20
1605.6971575737
 10
134.5680754441
 20
1606.6726062119
  0
LINE
  5
294
330
1F
100
AcDbEntity
  8
0
  6
Continuous
 62
     7
370
    25
100
AcDbLine
 10
-1140.269656871
 20
1701.6726087451
 30
0.0
 11
139.5680706757
 21
1701.6726087451
 31
0.0
  0
LWPOLYLINE
  5
295
330
1F
100
AcDbEntity
  8
0
  6
Continuous
 62
     7
370
    25
100
AcDbPolyline
 90
        9
 70
   128
 43
0.0
 10
139.5680706757
 20
1701.6726087451
 10
139.4719879883
 20
1701.5765335083
 10
139.1874354142
 20
1701.2920070111
 10
138.7253802079
 20
1700.8299555301
 10
138.1035845536
 20
1700.2081412494
 10
137.3458903092
 20
1699.4504581809
 10
136.4815037507
 20
1698.5860269189
 10
135.5435650605
 20
1697.6480584263
 10
134.5680754441
 20
1696.6726097881
  0
LINE
  5
296
330
1F
100
AcDbEntity
  8
0
  6
Continuous
 62
     7
370
    25
100
AcDbLine
 10
134.5680754441
 20
1606.6726062119
 30
0.0
 11
134.5680754441
 21
1696.6726097881
 31
0.0
  0
CIRCLE
  5
297
330
1F
100
AcDbEntity
  8
0
  6
Continuous
 62
     7
370
    25
100
AcDbCircle
 10
-980.431936
 20
1651.672608
 30
0.0
 40
2.500000000000455
  0
CIRCLE
  5
298
330
1F
100
AcDbEntity
  8
0
  6
Continuous
 62
     7
370
    25
100
AcDbCircle
 10
-640.431936
 20
1651.672608
 30
0.0
 40
2.499999999999886
  0
CIRCLE
  5
299
330
1F
100
AcDbEntity
  8
0
  6
Continuous
 62
     7
370
    25
100
AcDbCircle
 10
39.568064
 20
1651.672608
 30
0.0
 40
2.49999999999995
  0
CIRCLE
  5
29A
330
1F
100
AcDbEntity
  8
0
  6
Continuous
 62
     7
370
    25
100
AcDbCircle
 10
-300.431936
 20
1651.672608
 30
0.0
 40
2.499999999999943
  0
LINE
  5
29B
330
1F
100
AcDbEntity
  8
0
  6
Continuous
 62
     7
370
    25
100
AcDbLine
 10
1571.5680632549
 20
133.6726013243
 30
0.0
 11
1571.5680632549
 21
1413.5102841675
 31
0.0
  0
LWPOLYLINE
  5
29C
330
1F
100
AcDbEntity
  8
0
  6
Continuous
 62
     7
370
    25
100
AcDbPolyline
 90
        9
 70
   128
 43
0.0
 10
1571.5680632549
 20
133.6726013243
 10
1571.6641384917
 20
133.7686840117
 10
1571.9486649889
 20
134.0532365858
 10
1572.4107164699
 20
134.5152917921
 10
1573.0325307506
 20
135.1370874464
 10
1573.7902138191
 20
135.8947816908
 10
1574.6546450811
 20
136.7591682493
 10
1575.5926135737
 20
137.6971069395
 10
1576.5680622119
 20
138.6725965559
  0
LINE
  5
29D
330
1F
100
AcDbEntity
  8
0
  6
Continuous
 62
     7
370
    25
100
AcDbLine
 10
1671.5680647451
 20
1413.5102841675
 30
0.0
 11
1671.5680647451
 21
133.6726013243
 31
0.0
  0
LWPOLYLINE
  5
29E
330
1F
100
AcDbEntity
  8
0
  6
Continuous
 62
     7
370
    25
100
AcDbPolyline
 90
        9
 70
   128
 43
0.0
 10
1671.5680647451
 20
133.6726013243
 10
1671.4719895083
 20
133.7686840117
 10
1671.1874630111
 20
134.0532365858
 10
1670.7254115301
 20
134.5152917921
 10
1670.1035972494
 20
135.1370874464
 10
1669.3459141809
 20
135.8947816908
 10
1668.4814829188
 20
136.7591682493
 10
1667.5435144263
 20
137.6971069395
 10
1666.5680657881
 20
138.6725965559
  0
LINE
  5
29F
330
1F
100
AcDbEntity
  8
0
  6
Continuous
 62
     7
370
    25
100
AcDbLine
 10
1576.5680622119
 20
138.6725965559
 30
0.0
 11
1666.5680657881
 21
138.6725965559
 31
0.0
  0
CIRCLE
  5
2A0
330
1F
100
AcDbEntity
  8
0
  6
Continuous
 62
     7
370
    25
100
AcDbCircle
 10
1621.568064
 20
1253.672608
 30
0.0
 40
2.5
  0
CIRCLE
  5
2A1
330
1F
100
AcDbEntity
  8
0
  6
Continuous
 62
     7
370
    25
100
AcDbCircle
 10
1621.568064
 20
913.672608
 30
0.0
 40
2.499999999999886
  0
CIRCLE
  5
2A2
330
1F
100
AcDbEntity
  8
0
  6
Continuous
 62
     7
370
    25
100
AcDbCircle
 10
1621.568064
 20
233.672608
 30
0.0
 40
2.499999999999943
  0
CIRCLE
  5
2A3
330
1F
100
AcDbEntity
  8
0
  6
Continuous
 62
     7
370
    25
100
AcDbCircle
 10
1621.568064
 20
573.672608
 30
0.0
 40
2.5
  0
LINE
  5
2A4
330
1F
100
AcDbEntity
  8
0
  6
Continuous
 62
     7
370
    25
100
AcDbLine
 10
-1328.4319836837
 20
169.6726146757
 30
0.0
 11
-1328.4319836837
 21
-1110.165112871
 31
0.0
  0
LWPOLYLINE
  5
2A5
330
1F
100
AcDbEntity
  8
0
  6
Continuous
 62
     7
370
    25
100
AcDbPolyline
 90
        9
 70
   128
 43
0.0
 10
-1328.4319836837
 20
169.6726146757
 10
-1328.5280663711
 20
169.5765319883
 10
-1328.812499736
 20
169.2919794142
 10
-1329.2745549423
 20
168.8299242079
 10
-1329.8963505966
 20
168.2081285536
 10
-1330.6540448409
 20
167.4504343092
 10
-1331.5185506088
 20
166.5860477507
 10
-1332.456489299
 20
165.6481090605
 10
-1333.4318597061
 20
164.6726194441
  0
LINE
  5
2A6
330
1F
100
AcDbEntity
  8
0
  6
Continuous
 62
     7
370
    25
100
AcDbLine
 10
-1333.4318597061
 20
164.6726194441
 30
0.0
 11
-1423.432012294
 21
164.6726194441
 31
0.0
  0
CIRCLE
  5
2A7
330
1F
100
AcDbEntity
  8
0
  6
Continuous
 62
     7
370
    25
100
AcDbCircle
 10
-1378.431936
 20
-950.327392
 30
0.0
 40
2.500000000000341
  0
CIRCLE
  5
2A8
330
1F
100
AcDbEntity
  8
0
  6
Continuous
 62
     7
370
    25
100
AcDbCircle
 10
-1378.431936
 20
-610.327392
 30
0.0
 40
2.5
  0
CIRCLE
  5
2A9
330
1F
100
AcDbEntity
  8
0
  6
Continuous
 62
     7
370
    25
100
AcDbCircle
 10
-1378.431936
 20
69.672608
 30
0.0
 40
2.499999999999943
  0
CIRCLE
  5
2AA
330
1F
100
AcDbEntity
  8
0
  6
Continuous
 62
     7
370
    25
100
AcDbCircle
 10
-1378.431936
 20
-270.327392
 30
0.0
 40
2.5
  0
LINE
  5
2AB
330
1F
100
AcDbEntity
  8
0
  6
Continuous
 62
     7
370
    25
100
AcDbLine
 10
-1428.4318883163
 20
-1110.165112871
 30
0.0
 11
-1428.4318883163
 21
169.6726146757
 31
0.0
  0
LWPOLYLINE
  5
2AC
330
1F
100
AcDbEntity
  8
0
  6
Continuous
 62
     7
370
    25
100
AcDbPolyline
 90
        9
 70
   128
 43
0.0
 10
-1428.4318883163
 20
169.6726146757
 10
-1428.3358056289
 20
169.5765319883
 10
-1428.051372264
 20
169.2919794142
 10
-1427.5893170577
 20
168.8299242079
 10
-1426.9675214034
 20
168.2081285536
 10
-1426.2098271591
 20
167.4504343092
 10
-1425.3453213912
 20
166.5860477507
 10
-1424.4073827011
 20
165.6481090605
 10
-1423.432012294
 20
164.6726194441
  0
LINE
  5
2AD
330
1F
100
AcDbEntity
  8
0
  6
Continuous
 62
     7
370
    25
100
AcDbLine
 10
103.5680573243
 20
-1298.3274396837
 30
0.0
 11
1383.4057401675
 21
-1298.3274396837
 31
0.0
  0
LWPOLYLINE
  5
2AE
330
1F
100
AcDbEntity
  8
0
  6
Continuous
 62
     7
370
    25
100
AcDbPolyline
 90
        9
 70
   128
 43
0.0
 10
103.5680573243
 20
-1298.3274396837
 10
103.6641400117
 20
-1298.4235223711
 10
103.9486925858
 20
-1298.707955736
 10
104.4107477921
 20
-1299.1700109423
 10
105.0325434464
 20
-1299.7918065966
 10
105.7902376908
 20
-1300.5495008409
 10
106.6546242493
 20
-1301.4140066088
 10
107.5925629395
 20
-1302.3519452989
 10
108.5680525559
 20
-1303.327315706
  0
LINE
  5
2AF
330
1F
100
AcDbEntity
  8
0
  6
Continuous
 62
     7
370
    25
100
AcDbLine
 10
108.5680525559
 20
-1303.327315706
 30
0.0
 11
108.5680525559
 21
-1393.3274682939
 31
0.0
  0
CIRCLE
  5
2B0
330
1F
100
AcDbEntity
  8
0
  6
Continuous
 62
     7
370
    25
100
AcDbCircle
 10
1223.568064
 20
-1348.327392
 30
0.0
 40
2.5
  0
CIRCLE
  5
2B1
330
1F
100
AcDbEntity
  8
0
  6
Continuous
 62
     7
370
    25
100
AcDbCircle
 10
883.568064
 20
-1348.327392
 30
0.0
 40
2.499999999999886
  0
CIRCLE
  5
2B2
330
1F
100
AcDbEntity
  8
0
  6
Continuous
 62
     7
370
    25
100
AcDbCircle
 10
203.568064
 20
-1348.327392
 30
0.0
 40
2.500000000000171
  0
CIRCLE
  5
2B3
330
1F
100
AcDbEntity
  8
0
  6
Continuous
 62
     7
370
    25
100
AcDbCircle
 10
543.568064
 20
-1348.327392
 30
0.0
 40
2.500000000000227
  0
LINE
  5
2B4
330
1F
100
AcDbEntity
  8
0
  6
Continuous
 62
     7
370
    25
100
AcDbLine
 10
1383.4057401675
 20
-1398.3273443163
 30
0.0
 11
103.5680573243
 21
-1398.3273443163
 31
0.0
  0
LWPOLYLINE
  5
2B5
330
1F
100
AcDbEntity
  8
0
  6
Continuous
 62
     7
370
    25
100
AcDbPolyline
 90
        9
 70
   128
 43
0.0
 10
103.5680573243
 20
-1398.3273443163
 10
103.6641400117
 20
-1398.2312616289
 10
103.9486925858
 20
-1397.946828264
 10
104.4107477921
 20
-1397.4847730577
 10
105.0325434464
 20
-1396.8629774034
 10
105.7902376908
 20
-1396.1052831591
 10
106.6546242493
 20
-1395.2407773912
 10
107.5925629395
 20
-1394.302838701
 10
108.5680525559
 20
-1393.3274682939
  0
LINE
  5
2B6
330
1F
100
AcDbEntity
  8
0
  6
Continuous
 62
     7
370
    25
100
AcDbLine
 10
1571.5680632549
 20
-1123.4521802843
 30
0.0
 11
1571.5680632549
 21
134.6726480543
 31
0.0
  0
LWPOLYLINE
  5
2B7
330
1F
100
AcDbEntity
  8
0
  6
Continuous
 62
     7
370
    25
100
AcDbPolyline
 90
        9
 70
   128
 43
0.0
 10
1576.5680622119
 20
129.6726528227
 10
1575.5926135737
 20
130.6480232298
 10
1574.6546450811
 20
131.5860811293
 10
1573.7902138191
 20
132.4504676878
 10
1573.0325307506
 20
133.2081619322
 10
1572.4107164699
 20
133.8299575865
 10
1571.9486649889
 20
134.2920127928
 10
1571.6641384917
 20
134.5765653669
 10
1571.5680632549
 20
134.6726480543
  0
LINE
  5
2B8
330
1F
100
AcDbEntity
  8
0
  6
Continuous
 62
     7
370
    25
100
AcDbLine
 10
1666.5680657881
 20
129.6726528227
 30
0.0
 11
1576.5680622119
 21
129.6726528227
 31
0.0
  0
CIRCLE
  5
2B9
330
1F
100
AcDbEntity
  8
0
  6
Continuous
 62
     7
370
    25
100
AcDbCircle
 10
1621.568064
 20
34.672608
 30
0.0
 40
2.49999999999995
  0
CIRCLE
  5
2BA
330
1F
100
AcDbEntity
  8
0
  6
Continuous
 62
     7
370
    25
100
AcDbCircle
 10
1621.568064
 20
-305.327392
 30
0.0
 40
2.499999999999943
  0
CIRCLE
  5
2BB
330
1F
100
AcDbEntity
  8
0
  6
Continuous
 62
     7
370
    25
100
AcDbCircle
 10
1621.568064
 20
-985.327392
 30
0.0
 40
2.499999999999886
  0
CIRCLE
  5
2BC
330
1F
100
AcDbEntity
  8
0
  6
Continuous
 62
     7
370
    25
100
AcDbCircle
 10
1621.568064
 20
-645.327392
 30
0.0
 40
2.500000000000455
  0
LINE
  5
2BD
330
1F
100
AcDbEntity
  8
0
  6
Continuous
 62
     7
370
    25
100
AcDbLine
 10
1671.5680647451
 20
134.6726480543
 30
0.0
 11
1671.5680647451
 21
-1123.4521802843
 31
0.0
  0
LWPOLYLINE
  5
2BE
330
1F
100
AcDbEntity
  8
0
  6
Continuous
 62
     7
370
    25
100
AcDbPolyline
 90
        9
 70
   128
 43
0.0
 10
1666.5680657881
 20
129.6726528227
 10
1667.5435144263
 20
130.6480232298
 10
1668.4814829188
 20
131.5860811293
 10
1669.3459141809
 20
132.4504676878
 10
1670.1035972494
 20
133.2081619322
 10
1670.7254115301
 20
133.8299575865
 10
1671.1874630111
 20
134.2920127928
 10
1671.4719895083
 20
134.5765653669
 10
1671.5680647451
 20
134.6726480543
  0
LINE
  5
2BF
330
1F
100
AcDbEntity
  8
0
  6
Continuous
 62
     7
370
    25
100
AcDbLine
 10
138.5680239457
 20
1701.6726087451
 30
0.0
 11
1396.6927479762
 21
1701.6726087451
 31
0.0
  0
LWPOLYLINE
  5
2C0
330
1F
100
AcDbEntity
  8
0
  6
Continuous
 62
     7
370
    25
100
AcDbPolyline
 90
        9
 70
   128
 43
0.0
 10
143.5680191773
 20
1696.6726097881
 10
142.5926487702
 20
1697.6480584263
 10
141.6545908707
 20
1698.5860269189
 10
140.7902043122
 20
1699.4504581809
 10
140.0325100678
 20
1700.2081412494
 10
139.4107144135
 20
1700.8299555301
 10
138.9486592072
 20
1701.2920070111
 10
138.6641066331
 20
1701.5765335083
 10
138.5680239457
 20
1701.6726087451
  0
LINE
  5
2C1
330
1F
100
AcDbEntity
  8
0
  6
Continuous
 62
     7
370
    25
100
AcDbLine
 10
1396.6927479762
 20
1601.6726072549
 30
0.0
 11
138.5680239457
 21
1601.6726072549
 31
0.0
  0
LWPOLYLINE
  5
2C2
330
1F
100
AcDbEntity
  8
0
  6
Continuous
 62
     7
370
    25
100
AcDbPolyline
 90
        9
 70
   128
 43
0.0
 10
143.5680191773
 20
1606.6726062119
 10
142.5926487702
 20
1605.6971575737
 10
141.6545908707
 20
1604.7591890812
 10
140.7902043122
 20
1603.8947578191
 10
140.0325100678
 20
1603.1370747506
 10
139.4107144135
 20
1602.5152604699
 10
138.9486592072
 20
1602.0532089889
 10
138.6641066331
 20
1601.7686824917
 10
138.5680239457
 20
1601.6726072549
  0
LINE
  5
2C3
330
1F
100
AcDbEntity
  8
0
  6
Continuous
 62
     7
370
    25
100
AcDbLine
 10
143.5680191773
 20
1696.6726097881
 30
0.0
 11
143.5680191773
 21
1606.6726062119
 31
0.0
  0
CIRCLE
  5
2C4
330
1F
100
AcDbEntity
  8
0
  6
Continuous
 62
     7
370
    25
100
AcDbCircle
 10
238.568064
 20
1651.672608
 30
0.0
 40
2.499999999999972
  0
CIRCLE
  5
2C5
330
1F
100
AcDbEntity
  8
0
  6
Continuous
 62
     7
370
    25
100
AcDbCircle
 10
578.568064
 20
1651.672608
 30
0.0
 40
2.499999999999886
  0
CIRCLE
  5
2C6
330
1F
100
AcDbEntity
  8
0
  6
Continuous
 62
     7
370
    25
100
AcDbCircle
 10
1258.568064
 20
1651.672608
 30
0.0
 40
2.5
  0
CIRCLE
  5
2C7
330
1F
100
AcDbEntity
  8
0
  6
Continuous
 62
     7
370
    25
100
AcDbCircle
 10
918.568064
 20
1651.672608
 30
0.0
 40
2.5
  0
LINE
  5
2C8
330
1F
100
AcDbEntity
  8
0
  6
Continuous
 62
     7
370
    25
100
AcDbLine
 10
-1423.432012294
 20
173.6725631773
 30
0.0
 11
-1333.4318597061
 21
173.6725631773
 31
0.0
  0
LWPOLYLINE
  5
2C9
330
1F
100
AcDbEntity
  8
0
  6
Continuous
 62
     7
370
    25
100
AcDbPolyline
 90
        9
 70
   128
 43
0.0
 10
-1333.4318597061
 20
173.6725631773
 10
-1332.456489299
 20
172.6971927702
 10
-1331.5185506088
 20
171.7591348707
 10
-1330.6540448409
 20
170.8947483122
 10
-1329.8963505966
 20
170.1370540678
 10
-1329.2745549423
 20
169.5152584135
 10
-1328.812499736
 20
169.0532032072
 10
-1328.5280663711
 20
168.7686506331
 10
-1328.4319836837
 20
168.6725679457
  0
LWPOLYLINE
  5
2CA
330
1F
100
AcDbEntity
  8
0
  6
Continuous
 62
     7
370
    25
100
AcDbPolyline
 90
        9
 70
   128
 43
0.0
 10
-1423.432012294
 20
173.6725631773
 10
-1424.4073827011
 20
172.6971927702
 10
-1425.3453213912
 20
171.7591348707
 10
-1426.2098271591
 20
170.8947483122
 10
-1426.9675214034
 20
170.1370540678
 10
-1427.5893170577
 20
169.5152584135
 10
-1428.051372264
 20
169.0532032072
 10
-1428.3358056289
 20
168.7686506331
 10
-1428.4318883163
 20
168.6725679457
  0
CIRCLE
  5
2CB
330
1F
100
AcDbEntity
  8
0
  6
Continuous
 62
     7
370
    25
100
AcDbCircle
 10
-1378.431936
 20
268.672608
 30
0.0
 40
2.499999999999943
  0
CIRCLE
  5
2CC
330
1F
100
AcDbEntity
  8
0
  6
Continuous
 62
     7
370
    25
100
AcDbCircle
 10
-1378.431936
 20
608.672608
 30
0.0
 40
2.5
  0
CIRCLE
  5
2CD
330
1F
100
AcDbEntity
  8
0
  6
Continuous
 62
     7
370
    25
100
AcDbCircle
 10
-1378.431936
 20
1288.672608
 30
0.0
 40
2.5
  0
CIRCLE
  5
2CE
330
1F
100
AcDbEntity
  8
0
  6
Continuous
 62
     7
370
    25
100
AcDbCircle
 10
-1378.431936
 20
948.672608
 30
0.0
 40
2.499999999999886
  0
LINE
  5
2CF
330
1F
100
AcDbEntity
  8
0
  6
Continuous
 62
     7
370
    25
100
AcDbLine
 10
-1428.4318883163
 20
168.6725679457
 30
0.0
 11
-1428.4318883163
 21
1426.7972919762
 31
0.0
  0
LINE
  5
2D0
330
1F
100
AcDbEntity
  8
0
  6
Continuous
 62
     7
370
    25
100
AcDbLine
 10
-1328.4319836837
 20
1426.7972919762
 30
0.0
 11
-1328.4319836837
 21
168.6725679457
 31
0.0
  0
LINE
  5
2D1
330
1F
100
AcDbEntity
  8
0
  6
Continuous
 62
     7
370
    25
100
AcDbLine
 10
104.5681040543
 20
-1398.3273443163
 30
0.0
 11
-1153.5567242843
 21
-1398.3273443163
 31
0.0
  0
LWPOLYLINE
  5
2D2
330
1F
100
AcDbEntity
  8
0
  6
Continuous
 62
     7
370
    25
100
AcDbPolyline
 90
        9
 70
   128
 43
0.0
 10
99.5681088227
 20
-1393.3274682939
 10
100.5434792298
 20
-1394.302838701
 10
101.4815371293
 20
-1395.2407773912
 10
102.3459236878
 20
-1396.1052831591
 10
103.1036179322
 20
-1396.8629774034
 10
103.7254135865
 20
-1397.4847730577
 10
104.1874687928
 20
-1397.946828264
 10
104.4720213669
 20
-1398.2312616289
 10
104.5681040543
 20
-1398.3273443163
  0
LINE
  5
2D3
330
1F
100
AcDbEntity
  8
0
  6
Continuous
 62
     7
370
    25
100
AcDbLine
 10
99.5681088227
 20
-1393.3274682939
 30
0.0
 11
99.5681088227
 21
-1303.327315706
 31
0.0
  0
LWPOLYLINE
  5
2D4
330
1F
100
AcDbEntity
  8
0
  6
Continuous
 62
     7
370
    25
100
AcDbPolyline
 90
        9
 70
   128
 43
0.0
 10
99.5681088227
 20
-1303.327315706
 10
100.5434792298
 20
-1302.3519452989
 10
101.4815371293
 20
-1301.4140066088
 10
102.3459236878
 20
-1300.5495008409
 10
103.1036179322
 20
-1299.7918065966
 10
103.7254135865
 20
-1299.1700109423
 10
104.1874687928
 20
-1298.707955736
 10
104.4720213669
 20
-1298.4235223711
 10
104.5681040543
 20
-1298.3274396837
  0
LINE
  5
2D5
330
1F
100
AcDbEntity
  8
0
  6
Continuous
 62
     7
370
    25
100
AcDbLine
 10
-1153.5567242843
 20
-1298.3274396837
 30
0.0
 11
104.5681040543
 21
-1298.3274396837
 31
0.0
  0
CIRCLE
  5
2D6
330
1F
100
AcDbEntity
  8
0
  6
Continuous
 62
     7
370
    25
100
AcDbCircle
 10
4.568064
 20
-1348.327392
 30
0.0
 40
2.499999999999947
  0
CIRCLE
  5
2D7
330
1F
100
AcDbEntity
  8
0
  6
Continuous
 62
     7
370
    25
100
AcDbCircle
 10
-335.431936
 20
-1348.327392
 30
0.0
 40
2.499999999999943
  0
CIRCLE
  5
2D8
330
1F
100
AcDbEntity
  8
0
  6
Continuous
 62
     7
370
    25
100
AcDbCircle
 10
-1015.431936
 20
-1348.327392
 30
0.0
 40
2.499999999999886
  0
CIRCLE
  5
2D9
330
1F
100
AcDbEntity
  8
0
  6
Continuous
 62
     7
370
    25
100
AcDbCircle
 10
-675.431936
 20
-1348.327392
 30
0.0
 40
2.5
  0
ARC
  5
2DA
330
1F
100
AcDbEntity
  8
0
  6
Continuous
 62
     1
370
    25
100
AcDbCircle
 10
1621.5680639987
 20
1651.6726079995
 30
0.0
 40
77.00000000126005
100
AcDbArc
 50
138.5631783831
 51
221.4368216171
  0
ARC
  5
2DB
330
1F
100
AcDbEntity
  8
0
  6
Continuous
 62
     1
370
    25
100
AcDbCircle
 10
1621.5680639987
 20
1651.6726079995
 30
0.0
 40
77.00000000125996
100
AcDbArc
 50
228.5631783837
 51
311.4368216158
  0
ARC
  5
2DC
330
1F
100
AcDbEntity
  8
0
  6
Continuous
 62
     1
370
    25
100
AcDbCircle
 10
1621.5680639987
 20
1651.6726079995
 30
0.0
 40
77.00000000125988
100
AcDbArc
 50
318.5631783862
 51
0.0
  0
ARC
  5
2DD
330
1F
100
AcDbEntity
  8
0
  6
Continuous
 62
     1
370
    25
100
AcDbCircle
 10
1621.5680639987
 20
1651.6726079995
 30
0.0
 40
77.00000000125988
100
AcDbArc
 50
0.0
 51
41.4368216136
  0
ARC
  5
2DE
330
1F
100
AcDbEntity
  8
0
  6
Continuous
 62
     1
370
    25
100
AcDbCircle
 10
1621.5680639987
 20
1651.6726079995
 30
0.0
 40
77.00000000126016
100
AcDbArc
 50
48.5631783856
 51
131.4368216148
  0
ARC
  5
2DF
330
1F
100
AcDbEntity
  8
0
  6
Continuous
 62
     1
370
    25
100
AcDbCircle
 10
1621.5680639995
 20
-1348.3273919987
 30
0.0
 40
77.00000000125992
100
AcDbArc
 50
48.5631787253
 51
131.4368215366
  0
ARC
  5
2E0
330
1F
100
AcDbEntity
  8
0
  6
Continuous
 62
     1
370
    25
100
AcDbCircle
 10
1621.5680639995
 20
-1348.3273919987
 30
0.0
 40
77.00000000125966
100
AcDbArc
 50
138.5631784646
 51
221.4368216157
  0
ARC
  5
2E1
330
1F
100
AcDbEntity
  8
0
  6
Continuous
 62
     1
370
    25
100
AcDbCircle
 10
1621.5680639995
 20
-1348.3273919987
 30
0.0
 40
77.00000000125988
100
AcDbArc
 50
228.5631783864
 51
270.0
  0
ARC
  5
2E2
330
1F
100
AcDbEntity
  8
0
  6
Continuous
 62
     1
370
    25
100
AcDbCircle
 10
1621.5680639995
 20
-1348.3273919987
 30
0.0
 40
77.00000000126037
100
AcDbArc
 50
270.0
 51
311.4368216133
  0
ARC
  5
2E3
330
1F
100
AcDbEntity
  8
0
  6
Continuous
 62
     1
370
    25
100
AcDbCircle
 10
1621.5680639995
 20
-1348.3273919987
 30
0.0
 40
77.00000000125995
100
AcDbArc
 50
318.5631783859
 51
41.436821271
  0
ARC
  5
2E4
330
1F
100
AcDbEntity
  8
0
  6
Continuous
 62
     1
370
    25
100
AcDbCircle
 10
-1378.4319359987
 20
-1348.3273919995
 30
0.0
 40
77.00000000126009
100
AcDbArc
 50
318.5631786856
 51
41.4368216465
  0
ARC
  5
2E5
330
1F
100
AcDbEntity
  8
0
  6
Continuous
 62
     1
370
    25
100
AcDbCircle
 10
-1378.4319359987
 20
-1348.3273919995
 30
0.0
 40
77.00000000125989
100
AcDbArc
 50
48.5631783542
 51
131.4368213158
  0
ARC
  5
2E6
330
1F
100
AcDbEntity
  8
0
  6
Continuous
 62
     1
370
    25
100
AcDbCircle
 10
-1378.4319359987
 20
-1348.3273919995
 30
0.0
 40
77.00000000126002
100
AcDbArc
 50
138.5631786876
 51
180.0
  0
ARC
  5
2E7
330
1F
100
AcDbEntity
  8
0
  6
Continuous
 62
     1
370
    25
100
AcDbCircle
 10
-1378.4319359987
 20
-1348.3273919995
 30
0.0
 40
77.00000000125988
100
AcDbArc
 50
180.0
 51
221.4368210311
  0
ARC
  5
2E8
330
1F
100
AcDbEntity
  8
0
  6
Continuous
 62
     1
370
    25
100
AcDbCircle
 10
-1378.4319359987
 20
-1348.3273919995
 30
0.0
 40
77.00000000126015
100
AcDbArc
 50
228.5631789706
 51
311.436821311
  0
ARC
  5
2E9
330
1F
100
AcDbEntity
  8
0
  6
Continuous
 62
     1
370
    25
100
AcDbCircle
 10
-1378.4319359995
 20
1651.6726079987
 30
0.0
 40
77.00000000126012
100
AcDbArc
 50
228.5631783831
 51
311.4368216175
  0
ARC
  5
2EA
330
1F
100
AcDbEntity
  8
0
  6
Continuous
 62
     1
370
    25
100
AcDbCircle
 10
-1378.4319359995
 20
1651.6726079987
 30
0.0
 40
77.00000000125993
100
AcDbArc
 50
318.5631783833
 51
41.4368216167
  0
ARC
  5
2EB
330
1F
100
AcDbEntity
  8
0
  6
Continuous
 62
     1
370
    25
100
AcDbCircle
 10
-1378.4319359995
 20
1651.6726079987
 30
0.0
 40
77.00000000126002
100
AcDbArc
 50
48.5631783854
 51
90.0
  0
ARC
  5
2EC
330
1F
100
AcDbEntity
  8
0
  6
Continuous
 62
     1
370
    25
100
AcDbCircle
 10
-1378.4319359995
 20
1651.6726079987
 30
0.0
 40
77.00000000125988
100
AcDbArc
 50
90.0
 51
131.4368216131
  0
ARC
  5
2ED
330
1F
100
AcDbEntity
  8
0
  6
Continuous
 62
     1
370
    25
100
AcDbCircle
 10
-1378.4319359995
 20
1651.6726079987
 30
0.0
 40
77.00000000125995
100
AcDbArc
 50
138.5631783861
 51
221.4368216149
  0
LINE
  5
2EE
330
1F
100
AcDbEntity
  8
0
  6
Continuous
 62
     1
370
    25
100
AcDbLine
 10
-1137.0047528488
 20
1606.6726062119
 30
0.0
 11
134.5680754441
 21
1606.6726062119
 31
0.0
  0
LINE
  5
2EF
330
1F
100
AcDbEntity
  8
0
  6
Continuous
 62
     1
370
    25
100
AcDbLine
 10
134.5680754441
 20
1696.6726097881
 30
0.0
 11
-1137.0047528488
 21
1696.6726097881
 31
0.0
  0
LINE
  5
2F0
330
1F
100
AcDbEntity
  8
0
  6
Continuous
 62
     1
370
    25
100
AcDbLine
 10
1576.5680622119
 20
1410.245350343
 30
0.0
 11
1576.5680622119
 21
138.6725965559
 31
0.0
  0
LINE
  5
2F1
330
1F
100
AcDbEntity
  8
0
  6
Continuous
 62
     1
370
    25
100
AcDbLine
 10
1666.5680657881
 20
138.6725965559
 30
0.0
 11
1666.5680657881
 21
1410.245350343
 31
0.0
  0
LINE
  5
2F2
330
1F
100
AcDbEntity
  8
0
  6
Continuous
 62
     1
370
    25
100
AcDbLine
 10
-1333.4318597061
 20
-1106.9002088487
 30
0.0
 11
-1333.4318597061
 21
164.6726194441
 31
0.0
  0
LINE
  5
2F3
330
1F
100
AcDbEntity
  8
0
  6
Continuous
 62
     1
370
    25
100
AcDbLine
 10
-1423.432012294
 20
164.6726194441
 30
0.0
 11
-1423.432012294
 21
-1106.9002088487
 31
0.0
  0
LINE
  5
2F4
330
1F
100
AcDbEntity
  8
0
  6
Continuous
 62
     1
370
    25
100
AcDbLine
 10
1380.1408063429
 20
-1303.327315706
 30
0.0
 11
108.5680525559
 21
-1303.327315706
 31
0.0
  0
LINE
  5
2F5
330
1F
100
AcDbEntity
  8
0
  6
Continuous
 62
     1
370
    25
100
AcDbLine
 10
108.5680525559
 20
-1393.3274682939
 30
0.0
 11
1380.1408063429
 21
-1393.3274682939
 31
0.0
  0
LINE
  5
2F6
330
1F
100
AcDbEntity
  8
0
  6
Continuous
 62
     1
370
    25
100
AcDbLine
 10
1576.5680622119
 20
129.6726528227
 30
0.0
 11
1576.5680622119
 21
-1125.7302698076
 31
0.0
  0
LINE
  5
2F7
330
1F
100
AcDbEntity
  8
0
  6
Continuous
 62
     1
370
    25
100
AcDbLine
 10
1666.5680657881
 20
-1125.7302698076
 30
0.0
 11
1666.5680657881
 21
129.6726528227
 31
0.0
  0
LINE
  5
2F8
330
1F
100
AcDbEntity
  8
0
  6
Continuous
 62
     1
370
    25
100
AcDbLine
 10
1398.9709865111
 20
1696.6726097881
 30
0.0
 11
143.5680191773
 21
1696.6726097881
 31
0.0
  0
LINE
  5
2F9
330
1F
100
AcDbEntity
  8
0
  6
Continuous
 62
     1
370
    25
100
AcDbLine
 10
143.5680191773
 20
1606.6726062119
 30
0.0
 11
1398.9709865111
 21
1606.6726062119
 31
0.0
  0
LINE
  5
2FA
330
1F
100
AcDbEntity
  8
0
  6
Continuous
 62
     1
370
    25
100
AcDbLine
 10
-1423.432012294
 20
1429.0755305111
 30
0.0
 11
-1423.432012294
 21
173.6725631773
 31
0.0
  0
LINE
  5
2FB
330
1F
100
AcDbEntity
  8
0
  6
Continuous
 62
     1
370
    25
100
AcDbLine
 10
-1333.4318597061
 20
173.6725631773
 30
0.0
 11
-1333.4318597061
 21
1429.0755305111
 31
0.0
  0
LINE
  5
2FC
330
1F
100
AcDbEntity
  8
0
  6
Continuous
 62
     1
370
    25
100
AcDbLine
 10
-1155.8348138076
 20
-1393.3274682939
 30
0.0
 11
99.5681088227
 21
-1393.3274682939
 31
0.0
  0
LINE
  5
2FD
330
1F
100
AcDbEntity
  8
0
  6
Continuous
 62
     1
370
    25
100
AcDbLine
 10
99.5681088227
 20
-1303.327315706
 30
0.0
 11
-1155.8348138076
 21
-1303.327315706
 31
0.0
  0
ENDSEC
  0
SECTION
  2
OBJECTS
  0
DICTIONARY
  5
C
330
0
100
AcDbDictionary
281
     1
  3
ACAD_DETAILVIEWSTYLE
350
306
  3
ACAD_GROUP
350
D
  3
ACAD_LAYOUT
350
1A
  3
ACAD_MATERIAL
350
43
  3
ACAD_MLEADERSTYLE
350
6B
  3
ACAD_MLINESTYLE
350
17
  3
ACAD_PLOTSETTINGS
350
19
  3
ACAD_PLOTSTYLENAME
350
E
  3
ACAD_SCALELIST
350
47
  3
ACAD_SECTIONVIEWSTYLE
350
307
  3
ACAD_TABLESTYLE
350
69
  3
ACAD_VISUALSTYLE
350
2A
  3
ACDB_RECOMPOSE_DATA
350
303
  3
AcDbVariableDictionary
350
2FE
  0
SUN
  5
6D
330
29
100
AcDbSun
 90
        1
290
     0
 63
     7
421
 16777215
 40
1.0
291
     1
 91
  2455826
 92
 54000000
292
     0
 70
     2
 71
   256
280
     1
  0
DICTIONARY
  5
306
102
{ACAD_REACTORS
330
C
102
}
330
C
100
AcDbDictionary
281
     1
  0
DICTIONARY
  5
D
102
{ACAD_REACTORS
330
C
102
}
330
C
100
AcDbDictionary
281
     1
  0
DICTIONARY
  5
1A
102
{ACAD_REACTORS
330
C
102
}
330
C
100
AcDbDictionary
281
     1
  3
Layout1
350
1E
  3
Layout2
350
26
  3
Model
350
22
  0
DICTIONARY
  5
43
102
{ACAD_REACTORS
330
C
102
}
330
C
100
AcDbDictionary
281
     1
  3
ByBlock
350
45
  3
ByLayer
350
44
  3
Global
350
46
  0
DICTIONARY
  5
6B
102
{ACAD_REACTORS
330
C
102
}
330
C
100
AcDbDictionary
281
     1
  3
Standard
350
6C
  0
DICTIONARY
  5
17
102
{ACAD_REACTORS
330
C
102
}
330
C
100
AcDbDictionary
281
     1
  3
Standard
350
18
  0
DICTIONARY
  5
19
102
{ACAD_REACTORS
330
C
102
}
330
C
100
AcDbDictionary
281
     1
  0
ACDBDICTIONARYWDFLT
  5
E
102
{ACAD_REACTORS
330
C
102
}
330
C
100
AcDbDictionary
281
     1
  3
Normal
350
F
100
AcDbDictionaryWithDefault
340
F
  0
DICTIONARY
  5
47
102
{ACAD_REACTORS
330
C
102
}
330
C
100
AcDbDictionary
281
     1
  3
A0
350
48
  3
A1
350
49
  3
A2
350
4A
  3
A3
350
4B
  3
A4
350
4C
  3
A5
350
4D
  3
A6
350
4E
  3
A7
350
4F
  3
A8
350
50
  3
A9
350
51
  3
B0
350
52
  3
B1
350
53
  3
B2
350
54
  3
B3
350
55
  3
B4
350
56
  3
B5
350
57
  3
B6
350
58
  3
B7
350
59
  3
B8
350
5A
  3
B9
350
5B
  3
C0
350
5C
  3
C1
350
5D
  3
C2
350
5E
  3
C3
350
5F
  3
C4
350
60
  3
C5
350
61
  3
C6
350
62
  3
C7
350
63
  3
C8
350
64
  3
C9
350
65
  3
D0
350
66
  3
D1
350
67
  3
D2
350
68
  0
DICTIONARY
  5
307
102
{ACAD_REACTORS
330
C
102
}
330
C
100
AcDbDictionary
281
     1
  0
DICTIONARY
  5
69
102
{ACAD_REACTORS
330
C
102
}
330
C
100
AcDbDictionary
281
     1
  3
Standard
350
6A
  0
DICTIONARY
  5
2A
102
{ACAD_REACTORS
330
C
102
}
330
C
100
AcDbDictionary
281
     1
  3
2dWireframe
350
2F
  3
Basic
350
32
  3
Brighten
350
36
  3
ColorChange
350
3A
  3
Conceptual
350
34
  3
Dim
350
35
  3
EdgeColorOff
350
3D
  3
Facepattern
350
39
  3
Flat
350
2B
  3
FlatWithEdges
350
2C
  3
Gouraud
350
2D
  3
GouraudWithEdges
350
2E
  3
Hidden
350
31
  3
JitterOff
350
3B
  3
Linepattern
350
38
  3
OverhangOff
350
3C
  3
Realistic
350
33
  3
Shaded
350
42
  3
Shaded with edges
350
41
  3
Shades of Gray
350
3E
  3
Sketchy
350
3F
  3
Thicken
350
37
  3
Wireframe
350
30
  3
X-Ray
350
40
  0
XRECORD
  5
303
102
{ACAD_REACTORS
330
C
102
}
330
C
100
AcDbXrecord
280
     1
 90
        1
330
6A
  0
DICTIONARY
  5
2FE
102
{ACAD_REACTORS
330
C
102
}
330
C
100
AcDbDictionary
281
     1
  3
CANNOSCALE
350
2FF
  3
CMLEADERSTYLE
350
305
  3
CTABLESTYLE
350
304
  0
LAYOUT
  5
1E
102
{ACAD_REACTORS
330
1A
102
}
330
1A
100
AcDbPlotSettings
  1

  2
none_device
  4

  6

 40
0.0
 41
0.0
 42
0.0
 43
0.0
 44
0.0
 45
0.0
 46
0.0
 47
0.0
 48
0.0
 49
0.0
140
0.0
141
0.0
142
1.0
143
1.0
 70
   688
 72
     1
 73
     0
 74
     5
  7

 75
    16
 76
     0
 77
     2
 78
   300
147
1.0
148
0.0
149
0.0
100
AcDbLayout
  1
Layout1
 70
     1
 71
     1
 10
0.0
 20
0.0
 11
420.0
 21
297.0
 12
0.0
 22
0.0
 32
0.0
 14
1.0000000000E+20
 24
1.0000000000E+20
 34
1.0000000000E+20
 15
-1.0000000000E+20
 25
-1.0000000000E+20
 35
-1.0000000000E+20
146
0.0
 13
0.0
 23
0.0
 33
0.0
 16
1.0
 26
0.0
 36
0.0
 17
0.0
 27
1.0
 37
0.0
 76
     0
330
1B
  0
LAYOUT
  5
26
102
{ACAD_REACTORS
330
1A
102
}
330
1A
100
AcDbPlotSettings
  1

  2
none_device
  4

  6

 40
0.0
 41
0.0
 42
0.0
 43
0.0
 44
0.0
 45
0.0
 46
0.0
 47
0.0
 48
0.0
 49
0.0
140
0.0
141
0.0
142
1.0
143
1.0
 70
   688
 72
     1
 73
     0
 74
     5
  7

 75
    16
 76
     0
 77
     2
 78
   300
147
1.0
148
0.0
149
0.0
100
AcDbLayout
  1
Layout2
 70
     1
 71
     2
 10
0.0
 20
0.0
 11
0.0
 21
0.0
 12
0.0
 22
0.0
 32
0.0
 14
0.0
 24
0.0
 34
0.0
 15
0.0
 25
0.0
 35
0.0
146
0.0
 13
0.0
 23
0.0
 33
0.0
 16
1.0
 26
0.0
 36
0.0
 17
0.0
 27
1.0
 37
0.0
 76
     0
330
23
  0
LAYOUT
  5
22
102
{ACAD_REACTORS
330
1A
102
}
330
1A
100
AcDbPlotSettings
  1

  2
none_device
  4
Letter_(8.50_x_11.00_Inches)
  6

 40
6.35
 41
6.35
 42
6.35000508
 43
6.35000508
 44
215.9
 45
279.4
 46
0.0
 47
0.0
 48
0.0
 49
0.0
140
0.0
141
0.0
142
1.0
143
1.0
 70
  1712
 72
     1
 73
     0
 74
     0
  7

 75
     0
 76
     0
 77
     2
 78
   300
147
1.0
148
0.0
149
0.0
100
AcDbLayout
  1
Model
 70
     1
 71
     0
 10
0.0
 20
0.0
 11
210.0
 21
297.0
 12
0.0
 22
0.0
 32
0.0
 14
0.0
 24
0.0
 34
0.0
 15
210.0
 25
297.0
 35
0.0
146
0.0
 13
0.0
 23
0.0
 33
0.0
 16
1.0
 26
0.0
 36
0.0
 17
0.0
 27
1.0
 37
0.0
 76
     0
330
1F
331
29
  0
MATERIAL
  5
45
102
{ACAD_REACTORS
330
43
102
}
330
43
100
AcDbMaterial
  1
ByBlock
 72
     1
 94
      127
  0
MATERIAL
  5
44
102
{ACAD_REACTORS
330
43
102
}
330
43
100
AcDbMaterial
  1
ByLayer
 72
     1
 94
      127
  0
MATERIAL
  5
46
102
{ACAD_REACTORS
330
43
102
}
330
43
100
AcDbMaterial
  1
Global
 72
     1
 94
      127
  0
MLEADERSTYLE
  5
6C
102
{ACAD_REACTORS
330
6B
102
}
330
6B
100
AcDbMLeaderStyle
170
     2
171
     1
172
     0
 90
        2
 40
0.0
 41
0.0
173
     1
 91
-1056964608
340
14
 92
       -2
290
     1
 42
2.0
291
     1
 43
8.0
  3
Standard
341
0
 44
4.0
300

342
11
174
     1
178
     6
175
     1
176
     0
 93
-1056964608
 45
4.0
292
     0
297
     0
 46
4.0
343
0
 94
-1056964608
 47
1.0
 49
1.0
140
1.0
293
     1
141
0.0
294
     1
177
     0
142
1.0
295
     0
296
     0
143
3.75
1001
ACAD_MLEADERVER
1070
     2
  0
MLINESTYLE
  5
18
102
{ACAD_REACTORS
330
17
102
}
330
17
100
AcDbMlineStyle
  2
Standard
 70
     0
  3

 62
   256
 51
90.0
 52
90.0
 71
     2
 49
0.5
 62
   256
  6
BYLAYER
 49
-0.5
 62
   256
  6
BYLAYER
  0
ACDBPLACEHOLDER
  5
F
102
{ACAD_REACTORS
330
E
102
}
330
E
  0
SCALE
  5
48
102
{ACAD_REACTORS
330
47
102
}
330
47
100
AcDbScale
 70
     0
300
1:1
140
1.0
141
1.0
290
     1
  0
SCALE
  5
49
102
{ACAD_REACTORS
330
47
102
}
330
47
100
AcDbScale
 70
     0
300
1:2
140
1.0
141
2.0
290
     0
  0
SCALE
  5
4A
102
{ACAD_REACTORS
330
47
102
}
330
47
100
AcDbScale
 70
     0
300
1:4
140
1.0
141
4.0
290
     0
  0
SCALE
  5
4B
102
{ACAD_REACTORS
330
47
102
}
330
47
100
AcDbScale
 70
     0
300
1:5
140
1.0
141
5.0
290
     0
  0
SCALE
  5
4C
102
{ACAD_REACTORS
330
47
102
}
330
47
100
AcDbScale
 70
     0
300
1:8
140
1.0
141
8.0
290
     0
  0
SCALE
  5
4D
102
{ACAD_REACTORS
330
47
102
}
330
47
100
AcDbScale
 70
     0
300
1:10
140
1.0
141
10.0
290
     0
  0
SCALE
  5
4E
102
{ACAD_REACTORS
330
47
102
}
330
47
100
AcDbScale
 70
     0
300
1:16
140
1.0
141
16.0
290
     0
  0
SCALE
  5
4F
102
{ACAD_REACTORS
330
47
102
}
330
47
100
AcDbScale
 70
     0
300
1:20
140
1.0
141
20.0
290
     0
  0
SCALE
  5
50
102
{ACAD_REACTORS
330
47
102
}
330
47
100
AcDbScale
 70
     0
300
1:30
140
1.0
141
30.0
290
     0
  0
SCALE
  5
51
102
{ACAD_REACTORS
330
47
102
}
330
47
100
AcDbScale
 70
     0
300
1:40
140
1.0
141
40.0
290
     0
  0
SCALE
  5
52
102
{ACAD_REACTORS
330
47
102
}
330
47
100
AcDbScale
 70
     0
300
1:50
140
1.0
141
50.0
290
     0
  0
SCALE
  5
53
102
{ACAD_REACTORS
330
47
102
}
330
47
100
AcDbScale
 70
     0
300
1:100
140
1.0
141
100.0
290
     0
  0
SCALE
  5
54
102
{ACAD_REACTORS
330
47
102
}
330
47
100
AcDbScale
 70
     0
300
2:1
140
2.0
141
1.0
290
     0
  0
SCALE
  5
55
102
{ACAD_REACTORS
330
47
102
}
330
47
100
AcDbScale
 70
     0
300
4:1
140
4.0
141
1.0
290
     0
  0
SCALE
  5
56
102
{ACAD_REACTORS
330
47
102
}
330
47
100
AcDbScale
 70
     0
300
8:1
140
8.0
141
1.0
290
     0
  0
SCALE
  5
57
102
{ACAD_REACTORS
330
47
102
}
330
47
100
AcDbScale
 70
     0
300
10:1
140
10.0
141
1.0
290
     0
  0
SCALE
  5
58
102
{ACAD_REACTORS
330
47
102
}
330
47
100
AcDbScale
 70
     0
300
100:1
140
100.0
141
1.0
290
     0
  0
SCALE
  5
59
102
{ACAD_REACTORS
330
47
102
}
330
47
100
AcDbScale
 70
     0
300
1/128" = 1'-0"
140
0.0078125
141
12.0
290
     0
  0
SCALE
  5
5A
102
{ACAD_REACTORS
330
47
102
}
330
47
100
AcDbScale
 70
     0
300
1/64" = 1'-0"
140
0.015625
141
12.0
290
     0
  0
SCALE
  5
5B
102
{ACAD_REACTORS
330
47
102
}
330
47
100
AcDbScale
 70
     0
300
1/32" = 1'-0"
140
0.03125
141
12.0
290
     0
  0
SCALE
  5
5C
102
{ACAD_REACTORS
330
47
102
}
330
47
100
AcDbScale
 70
     0
300
1/16" = 1'-0"
140
0.0625
141
12.0
290
     0
  0
SCALE
  5
5D
102
{ACAD_REACTORS
330
47
102
}
330
47
100
AcDbScale
 70
     0
300
3/32" = 1'-0"
140
0.09375
141
12.0
290
     0
  0
SCALE
  5
5E
102
{ACAD_REACTORS
330
47
102
}
330
47
100
AcDbScale
 70
     0
300
1/8" = 1'-0"
140
0.125
141
12.0
290
     0
  0
SCALE
  5
5F
102
{ACAD_REACTORS
330
47
102
}
330
47
100
AcDbScale
 70
     0
300
3/16" = 1'-0"
140
0.1875
141
12.0
290
     0
  0
SCALE
  5
60
102
{ACAD_REACTORS
330
47
102
}
330
47
100
AcDbScale
 70
     0
300
1/4" = 1'-0"
140
0.25
141
12.0
290
     0
  0
SCALE
  5
61
102
{ACAD_REACTORS
330
47
102
}
330
47
100
AcDbScale
 70
     0
300
3/8" = 1'-0"
140
0.375
141
12.0
290
     0
  0
SCALE
  5
62
102
{ACAD_REACTORS
330
47
102
}
330
47
100
AcDbScale
 70
     0
300
1/2" = 1'-0"
140
0.5
141
12.0
290
     0
  0
SCALE
  5
63
102
{ACAD_REACTORS
330
47
102
}
330
47
100
AcDbScale
 70
     0
300
3/4" = 1'-0"
140
0.75
141
12.0
290
     0
  0
SCALE
  5
64
102
{ACAD_REACTORS
330
47
102
}
330
47
100
AcDbScale
 70
     0
300
1" = 1'-0"
140
1.0
141
12.0
290
     0
  0
SCALE
  5
65
102
{ACAD_REACTORS
330
47
102
}
330
47
100
AcDbScale
 70
     0
300
1-1/2" = 1'-0"
140
1.5
141
12.0
290
     0
  0
SCALE
  5
66
102
{ACAD_REACTORS
330
47
102
}
330
47
100
AcDbScale
 70
     0
300
3" = 1'-0"
140
3.0
141
12.0
290
     0
  0
SCALE
  5
67
102
{ACAD_REACTORS
330
47
102
}
330
47
100
AcDbScale
 70
     0
300
6" = 1'-0"
140
6.0
141
12.0
290
     0
  0
SCALE
  5
68
102
{ACAD_REACTORS
330
47
102
}
330
47
100
AcDbScale
 70
     0
300
1'-0" = 1'-0"
140
12.0
141
12.0
290
     0
  0
TABLESTYLE
  5
6A
102
{ACAD_REACTORS
330
69
102
}
102
{ACAD_XDICTIONARY
360
300
102
}
330
69
100
AcDbTableStyle
  3
Standard
 70
     0
 71
     0
 40
0.06
 41
0.06
280
     0
281
     0
  7
Standard
140
4.5
170
     2
 62
     0
 63
   257
283
     0
 90
        4
 91
        0
  1

274
    -2
284
     1
 64
     0
275
    -2
285
     1
 65
     0
276
    -2
286
     1
 66
     0
277
    -2
287
     1
 67
     0
278
    -2
288
     1
 68
     0
279
    -2
289
     1
 69
     0
  7
Standard
140
6.0
170
     5
 62
     0
 63
   257
283
     0
 90
        4
 91
        0
  1

274
    -2
284
     1
 64
     0
275
    -2
285
     1
 65
     0
276
    -2
286
     1
 66
     0
277
    -2
287
     1
 67
     0
278
    -2
288
     1
 68
     0
279
    -2
289
     1
 69
     0
  7
Standard
140
4.5
170
     5
 62
     0
 63
   257
283
     0
 90
        4
 91
        0
  1

274
    -2
284
     1
 64
     0
275
    -2
285
     1
 65
     0
276
    -2
286
     1
 66
     0
277
    -2
287
     1
 67
     0
278
    -2
288
     1
 68
     0
279
    -2
289
     1
 69
     0
  0
VISUALSTYLE
  5
2F
102
{ACAD_REACTORS
330
2A
102
}
330
2A
100
AcDbVisualStyle
  2
2dWireframe
 70
     4
 71
     0
 72
     2
 73
     0
 90
        0
 40
0.6
 41
30.0
 62
     5
 63
     7
421
 16777215
 74
     1
 91
        4
 64
     7
 65
   257
 75
     1
175
     1
 42
1.0
 92
        0
 66
   257
 43
1.0
 76
     1
 77
     6
 78
     2
 67
     7
 79
     5
170
     0
171
     0
290
     0
174
     0
 93
        1
 44
0.0
173
     0
291
     0
 45
0.0
  0
VISUALSTYLE
  5
32
102
{ACAD_REACTORS
330
2A
102
}
330
2A
100
AcDbVisualStyle
  2
Basic
 70
     7
 71
     1
 72
     0
 73
     1
 90
        0
 40
0.6
 41
30.0
 62
     5
 63
     7
421
 16777215
 74
     0
 91
        4
 64
     7
 65
   257
 75
     1
175
     1
 42
1.0
 92
        8
 66
     7
 43
1.0
 76
     1
 77
     6
 78
     2
 67
     7
 79
     5
170
     0
171
     0
290
     0
174
     0
 93
        1
 44
0.0
173
     0
291
     1
 45
0.0
  0
VISUALSTYLE
  5
36
102
{ACAD_REACTORS
330
2A
102
}
330
2A
100
AcDbVisualStyle
  2
Brighten
 70
    12
 71
     2
 72
     2
 73
     0
 90
        0
 40
0.6
 41
30.0
 62
     5
 63
     7
421
 16777215
 74
     1
 91
        4
 64
     7
 65
   257
 75
     1
175
     1
 42
1.0
 92
        8
 66
     7
 43
1.0
 76
     1
 77
     6
 78
     2
 67
     7
 79
     5
170
     0
171
     0
290
     0
174
     0
 93
        1
 44
50.0
173
     0
291
     1
 45
0.0
  0
VISUALSTYLE
  5
3A
102
{ACAD_REACTORS
330
2A
102
}
330
2A
100
AcDbVisualStyle
  2
ColorChange
 70
    16
 71
     2
 72
     2
 73
     3
 90
        0
 40
0.6
 41
30.0
 62
     5
 63
     8
421
  8421504
 74
     1
 91
        4
 64
     7
 65
   257
 75
     1
175
     1
 42
1.0
 92
        8
 66
     8
424
  8421504
 43
1.0
 76
     1
 77
     6
 78
     2
 67
     7
 79
     5
170
     0
171
     0
290
     0
174
     0
 93
        1
 44
0.0
173
     0
291
     1
 45
0.0
  0
VISUALSTYLE
  5
34
102
{ACAD_REACTORS
330
2A
102
}
330
2A
100
AcDbVisualStyle
  2
Conceptual
 70
     9
 71
     3
 72
     2
 73
     0
 90
        0
 40
0.6
 41
30.0
 62
     5
 63
     7
421
 16777215
 74
     2
 91
        2
 64
     7
 65
   257
 75
     1
175
     1
 42
179.0
 92
        8
 66
     7
 43
1.0
 76
     1
 77
     6
 78
     2
 67
     7
 79
     3
170
     0
171
     0
290
     0
174
     0
 93
        1
 44
0.0
173
     0
291
     0
 45
0.0
  0
VISUALSTYLE
  5
35
102
{ACAD_REACTORS
330
2A
102
}
330
2A
100
AcDbVisualStyle
  2
Dim
 70
    11
 71
     2
 72
     2
 73
     0
 90
        0
 40
0.6
 41
30.0
 62
     5
 63
     7
421
 16777215
 74
     1
 91
        4
 64
     7
 65
   257
 75
     1
175
     1
 42
1.0
 92
        8
 66
     7
 43
1.0
 76
     1
 77
     6
 78
     2
 67
     7
 79
     5
170
     0
171
     0
290
     0
174
     0
 93
        1
 44
-50.0
173
     0
291
     1
 45
0.0
  0
VISUALSTYLE
  5
3D
102
{ACAD_REACTORS
330
2A
102
}
330
2A
100
AcDbVisualStyle
  2
EdgeColorOff
 70
    22
 71
     2
 72
     2
 73
     0
 90
        0
 40
0.6
 41
30.0
 62
     5
 63
     7
421
 16777215
 74
     1
 91
        4
 64
     7
 65
   257
 75
     1
175
     1
 42
1.0
 92
        8
 66
     7
 43
1.0
 76
     1
 77
     6
 78
     2
 67
     7
 79
     5
170
     0
171
     0
290
     0
174
     0
 93
        1
 44
0.0
173
     0
291
     1
 45
0.0
  0
VISUALSTYLE
  5
39
102
{ACAD_REACTORS
330
2A
102
}
330
2A
100
AcDbVisualStyle
  2
Facepattern
 70
    15
 71
     2
 72
     2
 73
     0
 90
        0
 40
0.6
 41
30.0
 62
     5
 63
     7
421
 16777215
 74
     1
 91
        4
 64
     7
 65
   257
 75
     1
175
     1
 42
1.0
 92
        8
 66
     7
 43
1.0
 76
     1
 77
     6
 78
     2
 67
     7
 79
     5
170
     0
171
     0
290
     0
174
     0
 93
        1
 44
0.0
173
     0
291
     1
 45
0.0
  0
VISUALSTYLE
  5
2B
102
{ACAD_REACTORS
330
2A
102
}
330
2A
100
AcDbVisualStyle
  2
Flat
 70
     0
 71
     2
 72
     1
 73
     1
 90
        2
 40
0.6
 41
30.0
 62
     5
 63
     7
421
 16777215
 74
     0
 91
        0
 64
     7
 65
   257
 75
     1
175
     1
 42
1.0
 92
        8
 66
     7
 43
1.0
 76
     1
 77
     6
 78
     2
 67
     7
 79
     5
170
     0
171
     0
290
     0
174
     0
 93
       13
 44
0.0
173
     0
291
     1
 45
0.0
  0
VISUALSTYLE
  5
2C
102
{ACAD_REACTORS
330
2A
102
}
330
2A
100
AcDbVisualStyle
  2
FlatWithEdges
 70
     1
 71
     2
 72
     1
 73
     1
 90
        2
 40
0.6
 41
30.0
 62
     5
 63
     7
421
 16777215
 74
     1
 91
        0
 64
     7
 65
   257
 75
     1
175
     1
 42
1.0
 92
        0
 66
   257
 43
1.0
 76
     1
 77
     6
 78
     2
 67
     7
 79
     5
170
     0
171
     0
290
     0
174
     0
 93
       13
 44
0.0
173
     0
291
     1
 45
0.0
  0
VISUALSTYLE
  5
2D
102
{ACAD_REACTORS
330
2A
102
}
330
2A
100
AcDbVisualStyle
  2
Gouraud
 70
     2
 71
     2
 72
     2
 73
     1
 90
        2
 40
0.6
 41
30.0
 62
     5
 63
     7
421
 16777215
 74
     0
 91
        0
 64
     7
 65
   257
 75
     1
175
     1
 42
1.0
 92
        0
 66
     7
 43
1.0
 76
     1
 77
     6
 78
     2
 67
     7
 79
     5
170
     0
171
     0
290
     0
174
     0
 93
       13
 44
0.0
173
     0
291
     1
 45
0.0
  0
VISUALSTYLE
  5
2E
102
{ACAD_REACTORS
330
2A
102
}
330
2A
100
AcDbVisualStyle
  2
GouraudWithEdges
 70
     3
 71
     2
 72
     2
 73
     1
 90
        2
 40
0.6
 41
30.0
 62
     5
 63
     7
421
 16777215
 74
     1
 91
        0
 64
     7
 65
   257
 75
     1
175
     1
 42
1.0
 92
        0
 66
   257
 43
1.0
 76
     1
 77
     6
 78
     2
 67
     7
 79
     5
170
     0
171
     0
290
     0
174
     0
 93
       13
 44
0.0
173
     0
291
     1
 45
0.0
  0
VISUALSTYLE
  5
31
102
{ACAD_REACTORS
330
2A
102
}
330
2A
100
AcDbVisualStyle
  2
Hidden
 70
     6
 71
     1
 72
     2
 73
     2
 90
        0
 40
0.6
 41
30.0
 62
     5
 63
     7
421
 16777215
 74
     2
 91
        2
 64
     7
 65
   257
 75
     2
175
     1
 42
40.0
 92
        0
 66
   257
 43
1.0
 76
     1
 77
     6
 78
     2
 67
     7
 79
     3
170
     0
171
     0
290
     0
174
     0
 93
        1
 44
0.0
173
     0
291
     0
 45
0.0
  0
VISUALSTYLE
  5
3B
102
{ACAD_REACTORS
330
2A
102
}
330
2A
100
AcDbVisualStyle
  2
JitterOff
 70
    20
 71
     2
 72
     2
 73
     0
 90
        0
 40
0.6
 41
30.0
 62
     5
 63
     7
421
 16777215
 74
     1
 91
        4
 64
     7
 65
   257
 75
     1
175
     1
 42
1.0
 92
       10
 66
     7
 43
1.0
 76
     1
 77
     6
 78
     2
 67
     7
 79
     5
170
     0
171
     0
290
     0
174
     0
 93
        1
 44
0.0
173
     0
291
     1
 45
0.0
  0
VISUALSTYLE
  5
38
102
{ACAD_REACTORS
330
2A
102
}
330
2A
100
AcDbVisualStyle
  2
Linepattern
 70
    14
 71
     2
 72
     2
 73
     0
 90
        0
 40
0.6
 41
30.0
 62
     5
 63
     7
421
 16777215
 74
     1
 91
        4
 64
     7
 65
   257
 75
     7
175
     7
 42
1.0
 92
        8
 66
     7
 43
1.0
 76
     1
 77
     6
 78
     2
 67
     7
 79
     5
170
     0
171
     0
290
     0
174
     0
 93
        1
 44
0.0
173
     0
291
     1
 45
0.0
  0
VISUALSTYLE
  5
3C
102
{ACAD_REACTORS
330
2A
102
}
330
2A
100
AcDbVisualStyle
  2
OverhangOff
 70
    21
 71
     2
 72
     2
 73
     0
 90
        0
 40
0.6
 41
30.0
 62
     5
 63
     7
421
 16777215
 74
     1
 91
        4
 64
     7
 65
   257
 75
     1
175
     1
 42
1.0
 92
        9
 66
     7
 43
1.0
 76
     1
 77
     6
 78
     2
 67
     7
 79
     5
170
     0
171
     0
290
     0
174
     0
 93
        1
 44
0.0
173
     0
291
     1
 45
0.0
  0
VISUALSTYLE
  5
33
102
{ACAD_REACTORS
330
2A
102
}
330
2A
100
AcDbVisualStyle
  2
Realistic
 70
     8
 71
     2
 72
     3
 73
     0
 90
        2
 40
0.6
 41
30.0
 62
     5
 63
     7
421
 16777215
 74
     0
 91
        0
 64
     7
 65
   257
 75
     1
175
     1
 42
1.0
 92
        8
 66
   257
 43
1.0
 76
     1
 77
     6
 78
     2
 67
     7
 79
     3
170
     0
171
     0
290
     0
174
     0
 93
       13
 44
0.0
173
     0
291
     0
 45
0.0
  0
VISUALSTYLE
  5
42
102
{ACAD_REACTORS
330
2A
102
}
330
2A
100
AcDbVisualStyle
  2
Shaded
 70
    27
 71
     2
 72
     2
 73
     1
 90
        2
 40
0.6
 41
30.0
 62
     5
 63
     7
421
 16777215
 74
     0
 91
        4
 64
     7
 65
   257
 75
     1
175
     1
 42
1.0
 92
        8
 66
   257
 43
1.0
 76
     1
 77
     6
 78
     2
 67
     8
425
  7895160
 79
     3
170
     0
171
     0
290
     0
174
     0
 93
        5
 44
0.0
173
     0
291
     0
 45
0.0
  0
VISUALSTYLE
  5
41
102
{ACAD_REACTORS
330
2A
102
}
330
2A
100
AcDbVisualStyle
  2
Shaded with edges
 70
    26
 71
     2
 72
     2
 73
     1
 90
        2
 40
0.6
 41
30.0
 62
     5
 63
     7
421
 16777215
 74
     1
 91
       10
 64
     7
 65
   257
 75
     2
175
     1
 42
1.0
 92
        8
 66
   257
 43
1.0
 76
     1
 77
     6
 78
     2
 67
     7
 79
     3
170
     0
171
     0
290
     0
174
     0
 93
        5
 44
0.0
173
     0
291
     0
 45
0.0
  0
VISUALSTYLE
  5
3E
102
{ACAD_REACTORS
330
2A
102
}
330
2A
100
AcDbVisualStyle
  2
Shades of Gray
 70
    23
 71
     2
 72
     2
 73
     3
 90
        0
 40
0.6
 41
30.0
 62
     5
 63
     7
421
 16777215
 74
     2
 91
        2
 64
     7
 65
     7
 75
     1
175
     1
 42
40.0
 92
        8
 66
     7
 43
1.0
 76
     1
 77
     6
 78
     2
 67
     7
 79
     3
170
     0
171
     0
290
     0
174
     0
 93
        1
 44
0.0
173
     0
291
     0
 45
0.0
  0
VISUALSTYLE
  5
3F
102
{ACAD_REACTORS
330
2A
102
}
330
2A
100
AcDbVisualStyle
  2
Sketchy
 70
    24
 71
     1
 72
     2
 73
     2
 90
        0
 40
0.6
 41
30.0
 62
     5
 63
     7
421
 16777215
 74
     2
 91
        2
 64
     7
 65
     7
 75
     1
175
     1
 42
40.0
 92
       11
 66
     7
 43
1.0
 76
     1
 77
     6
 78
     2
 67
     7
 79
     6
170
     0
171
     0
290
     0
174
     0
 93
        1
 44
0.0
173
     0
291
     0
 45
0.0
  0
VISUALSTYLE
  5
37
102
{ACAD_REACTORS
330
2A
102
}
330
2A
100
AcDbVisualStyle
  2
Thicken
 70
    13
 71
     2
 72
     2
 73
     0
 90
        0
 40
0.6
 41
30.0
 62
     5
 63
     7
421
 16777215
 74
     1
 91
        4
 64
     7
 65
   257
 75
     1
175
     1
 42
1.0
 92
       12
 66
     7
 43
1.0
 76
     1
 77
     6
 78
     2
 67
     7
 79
     5
170
     0
171
     0
290
     0
174
     0
 93
        1
 44
0.0
173
     0
291
     1
 45
0.0
  0
VISUALSTYLE
  5
30
102
{ACAD_REACTORS
330
2A
102
}
330
2A
100
AcDbVisualStyle
  2
Wireframe
 70
     5
 71
     0
 72
     2
 73
     0
 90
        0
 40
0.6
 41
30.0
 62
     5
 63
     7
421
 16777215
 74
     1
 91
        4
 64
     7
 65
   257
 75
     1
175
     1
 42
1.0
 92
        0
 66
   257
 43
1.0
 76
     1
 77
     6
 78
     2
 67
     7
 79
     3
170
     0
171
     0
290
     0
174
     0
 93
        1
 44
0.0
173
     0
291
     0
 45
0.0
  0
VISUALSTYLE
  5
40
102
{ACAD_REACTORS
330
2A
102
}
330
2A
100
AcDbVisualStyle
  2
X-Ray
 70
    25
 71
     2
 72
     2
 73
     1
 90
        1
 40
0.5
 41
30.0
 62
     5
 63
     7
421
 16777215
 74
     1
 91
        0
 64
     7
 65
   257
 75
     1
175
     1
 42
1.0
 92
        8
 66
     7
 43
1.0
 76
     1
 77
     6
 78
     2
 67
     7
 79
     3
170
     0
171
     0
290
     0
174
     0
 93
       13
 44
0.0
173
     0
291
     0
 45
0.0
  0
DICTIONARYVAR
  5
2FF
102
{ACAD_REACTORS
330
2FE
102
}
330
2FE
100
DictionaryVariables
280
     0
  1
1:1
  0
DICTIONARYVAR
  5
305
102
{ACAD_REACTORS
330
2FE
102
}
330
2FE
100
DictionaryVariables
280
     0
  1
Standard
  0
DICTIONARYVAR
  5
304
102
{ACAD_REACTORS
330
2FE
102
}
330
2FE
100
DictionaryVariables
280
     0
  1
Standard
  0
DICTIONARY
  5
300
330
6A
100
AcDbDictionary
280
     1
281
     1
  3
ACAD_ROUNDTRIP_2008_TABLESTYLE_CELLSTYLEMAP
360
301
  0
CELLSTYLEMAP
  5
301
102
{ACAD_REACTORS
330
300
102
}
330
300
100
AcDbCellStyleMap
 90
        3
300
CELLSTYLE
  1
TABLEFORMAT_BEGIN
 90
        5
170
     1
 91
        0
 92
    32768
 62
   257
 93
        1
300
CONTENTFORMAT
  1
CONTENTFORMAT_BEGIN
 90
        0
 91
        0
 92
        4
 93
        0
300

 40
0.0
140
1.0
 94
        5
 62
     0
340
11
144
6.0
309
CONTENTFORMAT_END
171
     1
301
MARGIN
  1
CELLMARGIN_BEGIN
 40
1.5
 40
1.5
 40
1.5
 40
1.5
 40
1.5
 40
1.5
309
CELLMARGIN_END
 94
        6
 95
        1
302
GRIDFORMAT
  1
GRIDFORMAT_BEGIN
 90
        0
 91
        1
 62
     0
 92
       -2
340
14
 93
        0
 40
0.045
309
GRIDFORMAT_END
 95
        2
302
GRIDFORMAT
  1
GRIDFORMAT_BEGIN
 90
        0
 91
        1
 62
     0
 92
       -2
340
14
 93
        0
 40
0.045
309
GRIDFORMAT_END
 95
        4
302
GRIDFORMAT
  1
GRIDFORMAT_BEGIN
 90
        0
 91
        1
 62
     0
 92
       -2
340
14
 93
        0
 40
0.045
309
GRIDFORMAT_END
 95
        8
302
GRIDFORMAT
  1
GRIDFORMAT_BEGIN
 90
        0
 91
        1
 62
     0
 92
       -2
340
14
 93
        0
 40
0.045
309
GRIDFORMAT_END
 95
       16
302
GRIDFORMAT
  1
GRIDFORMAT_BEGIN
 90
        0
 91
        1
 62
     0
 92
       -2
340
14
 93
        0
 40
0.045
309
GRIDFORMAT_END
 95
       32
302
GRIDFORMAT
  1
GRIDFORMAT_BEGIN
 90
        0
 91
        1
 62
     0
 92
       -2
340
14
 93
        0
 40
0.045
309
GRIDFORMAT_END
309
TABLEFORMAT_END
  1
CELLSTYLE_BEGIN
 90
        1
 91
        1
300
_TITLE
309
CELLSTYLE_END
300
CELLSTYLE
  1
TABLEFORMAT_BEGIN
 90
        5
170
     1
 91
        0
 92
        0
 62
   257
 93
        1
300
CONTENTFORMAT
  1
CONTENTFORMAT_BEGIN
 90
        0
 91
        0
 92
        4
 93
        0
300

 40
0.0
140
1.0
 94
        5
 62
     0
340
11
144
4.5
309
CONTENTFORMAT_END
171
     1
301
MARGIN
  1
CELLMARGIN_BEGIN
 40
1.5
 40
1.5
 40
1.5
 40
1.5
 40
1.5
 40
1.5
309
CELLMARGIN_END
 94
        6
 95
        1
302
GRIDFORMAT
  1
GRIDFORMAT_BEGIN
 90
        0
 91
        1
 62
     0
 92
       -2
340
14
 93
        0
 40
0.045
309
GRIDFORMAT_END
 95
        2
302
GRIDFORMAT
  1
GRIDFORMAT_BEGIN
 90
        0
 91
        1
 62
     0
 92
       -2
340
14
 93
        0
 40
0.045
309
GRIDFORMAT_END
 95
        4
302
GRIDFORMAT
  1
GRIDFORMAT_BEGIN
 90
        0
 91
        1
 62
     0
 92
       -2
340
14
 93
        0
 40
0.045
309
GRIDFORMAT_END
 95
        8
302
GRIDFORMAT
  1
GRIDFORMAT_BEGIN
 90
        0
 91
        1
 62
     0
 92
       -2
340
14
 93
        0
 40
0.045
309
GRIDFORMAT_END
 95
       16
302
GRIDFORMAT
  1
GRIDFORMAT_BEGIN
 90
        0
 91
        1
 62
     0
 92
       -2
340
14
 93
        0
 40
0.045
309
GRIDFORMAT_END
 95
       32
302
GRIDFORMAT
  1
GRIDFORMAT_BEGIN
 90
        0
 91
        1
 62
     0
 92
       -2
340
14
 93
        0
 40
0.045
309
GRIDFORMAT_END
309
TABLEFORMAT_END
  1
CELLSTYLE_BEGIN
 90
        2
 91
        1
300
_HEADER
309
CELLSTYLE_END
300
CELLSTYLE
  1
TABLEFORMAT_BEGIN
 90
        5
170
     1
 91
        0
 92
        0
 62
   257
 93
        1
300
CONTENTFORMAT
  1
CONTENTFORMAT_BEGIN
 90
        0
 91
        0
 92
        4
 93
        0
300

 40
0.0
140
1.0
 94
        2
 62
     0
340
11
144
4.5
309
CONTENTFORMAT_END
171
     1
301
MARGIN
  1
CELLMARGIN_BEGIN
 40
1.5
 40
1.5
 40
1.5
 40
1.5
 40
1.5
 40
1.5
309
CELLMARGIN_END
 94
        6
 95
        1
302
GRIDFORMAT
  1
GRIDFORMAT_BEGIN
 90
        0
 91
        1
 62
     0
 92
       -2
340
14
 93
        0
 40
0.045
309
GRIDFORMAT_END
 95
        2
302
GRIDFORMAT
  1
GRIDFORMAT_BEGIN
 90
        0
 91
        1
 62
     0
 92
       -2
340
14
 93
        0
 40
0.045
309
GRIDFORMAT_END
 95
        4
302
GRIDFORMAT
  1
GRIDFORMAT_BEGIN
 90
        0
 91
        1
 62
     0
 92
       -2
340
14
 93
        0
 40
0.045
309
GRIDFORMAT_END
 95
        8
302
GRIDFORMAT
  1
GRIDFORMAT_BEGIN
 90
        0
 91
        1
 62
     0
 92
       -2
340
14
 93
        0
 40
0.045
309
GRIDFORMAT_END
 95
       16
302
GRIDFORMAT
  1
GRIDFORMAT_BEGIN
 90
        0
 91
        1
 62
     0
 92
       -2
340
14
 93
        0
 40
0.045
309
GRIDFORMAT_END
 95
       32
302
GRIDFORMAT
  1
GRIDFORMAT_BEGIN
 90
        0
 91
        1
 62
     0
 92
       -2
340
14
 93
        0
 40
0.045
309
GRIDFORMAT_END
309
TABLEFORMAT_END
  1
CELLSTYLE_BEGIN
 90
        3
 91
        2
300
_DATA
309
CELLSTYLE_END
  0
ENDSEC
  0
EOF
