  0
SECTION
  2
HEADER
  9
$ACADVER
  1
AC1021
  9
$ACADMAINTVER
 70
    25
  9
$DWGCODEPAGE
  3
ANSI_1250
  9
$INSBASE
 10
0.0
 20
0.0
 30
0.0
  9
$EXTMIN
 10
0.0
 20
0.0
 30
0.0
  9
$EXTMAX
 10
0.21
 20
0.297
 30
0.0
  9
$LIMMIN
 10
0.0
 20
0.0
  9
$LIMMAX
 10
0.21
 20
0.297
  9
$ORTHOMODE
 70
     0
  9
$REGENMODE
 70
     1
  9
$FILLMODE
 70
     1
  9
$QTEXTMODE
 70
     0
  9
$MIRRTEXT
 70
     1
  9
$LTSCALE
 40
1.0
  9
$ATTMODE
 70
     1
  9
$TEXTSIZE
 40
0.0035
  9
$TRACEWID
 40
1.0
  9
$TEXTSTYLE
  7
Standard
  9
$CLAYER
  8
0
  9
$CELTYPE
  6
ByLayer
  9
$CECOLOR
 62
   256
  9
$CELTSCALE
 40
1.0
  9
$DISPSILH
 70
     0
  9
$DIMSCALE
 40
1.0
  9
$DIMASZ
 40
0.003302
  9
$DIMEXO
 40
0.001
  9
$DIMDLI
 40
3.75
  9
$DIMRND
 40
0.0
  9
$DIMDLE
 40
0.0
  9
$DIMEXE
 40
0.001
  9
$DIMTP
 40
0.0
  9
$DIMTM
 40
0.0
  9
$DIMTXT
 40
0.0035
  9
$DIMCEN
 40
2.5
  9
$DIMTSZ
 40
0.0
  9
$DIMTOL
 70
     0
  9
$DIMLIM
 70
     0
  9
$DIMTIH
 70
     1
  9
$DIMTOH
 70
     1
  9
$DIMSE1
 70
     0
  9
$DIMSE2
 70
     0
  9
$DIMTAD
 70
     1
  9
$DIMZIN
 70
     0
  9
$DIMBLK
  1

  9
$DIMASO
 70
     1
  9
$DIMSHO
 70
     1
  9
$DIMPOST
  1

  9
$DIMAPOST
  1

  9
$DIMALT
 70
     0
  9
$DIMALTD
 70
     3
  9
$DIMALTF
 40
39.3700787402
  9
$DIMLFAC
 40
50.0
  9
$DIMTOFL
 70
     1
  9
$DIMTVP
 40
0.0
  9
$DIMTIX
 70
     0
  9
$DIMSOXD
 70
     0
  9
$DIMSAH
 70
     0
  9
$DIMBLK1
  1

  9
$DIMBLK2
  1

  9
$DIMSTYLE
  2
ISO-25
  9
$DIMCLRD
 70
     0
  9
$DIMCLRE
 70
     0
  9
$DIMCLRT
 70
     0
  9
$DIMTFAC
 40
1.0
  9
$DIMGAP
 40
0.001524
  9
$DIMJUST
 70
     0
  9
$DIMSD1
 70
     0
  9
$DIMSD2
 70
     0
  9
$DIMTOLJ
 70
     0
  9
$DIMTZIN
 70
     0
  9
$DIMALTZ
 70
     0
  9
$DIMALTTZ
 70
     0
  9
$DIMUPT
 70
     0
  9
$DIMDEC
 70
     2
  9
$DIMTDEC
 70
     2
  9
$DIMALTU
 70
     2
  9
$DIMALTTD
 70
     3
  9
$DIMTXSTY
  7
Standard
  9
$DIMAUNIT
 70
     0
  9
$DIMADEC
 70
     2
  9
$DIMALTRND
 40
0.0
  9
$DIMAZIN
 70
     0
  9
$DIMDSEP
 70
    44
  9
$DIMATFIT
 70
     3
  9
$DIMFRAC
 70
     0
  9
$DIMLDRBLK
  1

  9
$DIMLUNIT
 70
     2
  9
$DIMLWD
 70
    -2
  9
$DIMLWE
 70
    -2
  9
$DIMTMOVE
 70
     0
  9
$DIMFXL
 40
1.0
  9
$DIMFXLON
 70
     0
  9
$DIMJOGANG
 40
0.7853981634
  9
$DIMTFILL
 70
     0
  9
$DIMTFILLCLR
 70
     0
  9
$DIMARCSYM
 70
     0
  9
$DIMLTYPE
  6

  9
$DIMLTEX1
  6

  9
$DIMLTEX2
  6

  9
$LUNITS
 70
     2
  9
$LUPREC
 70
     2
  9
$SKETCHINC
 40
1.0
  9
$FILLETRAD
 40
10.0
  9
$AUNITS
 70
     0
  9
$AUPREC
 70
     2
  9
$MENU
  1
.
  9
$ELEVATION
 40
0.0
  9
$PELEVATION
 40
0.0
  9
$THICKNESS
 40
0.0
  9
$LIMCHECK
 70
     0
  9
$CHAMFERA
 40
0.0
  9
$CHAMFERB
 40
0.0
  9
$CHAMFERC
 40
0.0
  9
$CHAMFERD
 40
0.0
  9
$SKPOLY
 70
     0
  9
$TDCREATE
 40
2458074.501639525
  9
$TDUCREATE
 40
2458074.459972859
  9
$TDUPDATE
 40
2458074.501639803
  9
$TDUUPDATE
 40
2458074.459973136
  9
$TDINDWG
 40
0.0000000116
  9
$TDUSRTIMER
 40
0.0000000116
  9
$USRTIMER
 70
     1
  9
$ANGBASE
 50
0.0
  9
$ANGDIR
 70
     0
  9
$PDMODE
 70
     0
  9
$PDSIZE
 40
-1.0
  9
$PLINEWID
 40
0.0
  9
$SPLFRAME
 70
     0
  9
$SPLINETYPE
 70
     6
  9
$SPLINESEGS
 70
     8
  9
$HANDSEED
  5
285
  9
$SURFTAB1
 70
     6
  9
$SURFTAB2
 70
     6
  9
$SURFTYPE
 70
     6
  9
$SURFU
 70
     6
  9
$SURFV
 70
     6
  9
$UCSBASE
  2

  9
$UCSNAME
  2

  9
$UCSORG
 10
0.0
 20
0.0
 30
0.0
  9
$UCSXDIR
 10
1.0
 20
0.0
 30
0.0
  9
$UCSYDIR
 10
0.0
 20
1.0
 30
0.0
  9
$UCSORTHOREF
  2

  9
$UCSORTHOVIEW
 70
     0
  9
$UCSORGTOP
 10
0.0
 20
0.0
 30
0.0
  9
$UCSORGBOTTOM
 10
0.0
 20
0.0
 30
0.0
  9
$UCSORGLEFT
 10
0.0
 20
0.0
 30
0.0
  9
$UCSORGRIGHT
 10
0.0
 20
0.0
 30
0.0
  9
$UCSORGFRONT
 10
0.0
 20
0.0
 30
0.0
  9
$UCSORGBACK
 10
0.0
 20
0.0
 30
0.0
  9
$PUCSBASE
  2

  9
$PUCSNAME
  2

  9
$PUCSORG
 10
0.0
 20
0.0
 30
0.0
  9
$PUCSXDIR
 10
1.0
 20
0.0
 30
0.0
  9
$PUCSYDIR
 10
0.0
 20
1.0
 30
0.0
  9
$PUCSORTHOREF
  2

  9
$PUCSORTHOVIEW
 70
     0
  9
$PUCSORGTOP
 10
0.0
 20
0.0
 30
0.0
  9
$PUCSORGBOTTOM
 10
0.0
 20
0.0
 30
0.0
  9
$PUCSORGLEFT
 10
0.0
 20
0.0
 30
0.0
  9
$PUCSORGRIGHT
 10
0.0
 20
0.0
 30
0.0
  9
$PUCSORGFRONT
 10
0.0
 20
0.0
 30
0.0
  9
$PUCSORGBACK
 10
0.0
 20
0.0
 30
0.0
  9
$USERI1
 70
     0
  9
$USERI2
 70
     0
  9
$USERI3
 70
     0
  9
$USERI4
 70
     0
  9
$USERI5
 70
     0
  9
$USERR1
 40
0.0
  9
$USERR2
 40
0.0
  9
$USERR3
 40
0.0
  9
$USERR4
 40
0.0
  9
$USERR5
 40
0.0
  9
$WORLDVIEW
 70
     1
  9
$SHADEDGE
 70
     3
  9
$SHADEDIF
 70
    70
  9
$TILEMODE
 70
     1
  9
$MAXACTVP
 70
    64
  9
$PINSBASE
 10
0.0
 20
0.0
 30
0.0
  9
$PLIMCHECK
 70
     0
  9
$PEXTMIN
 10
1.0000000000E+20
 20
1.0000000000E+20
 30
1.0000000000E+20
  9
$PEXTMAX
 10
-1.0000000000E+20
 20
-1.0000000000E+20
 30
-1.0000000000E+20
  9
$PLIMMIN
 10
0.0
 20
0.0
  9
$PLIMMAX
 10
420.0
 20
297.0
  9
$UNITMODE
 70
     0
  9
$VISRETAIN
 70
     1
  9
$PLINEGEN
 70
     0
  9
$PSLTSCALE
 70
     1
  9
$TREEDEPTH
 70
  3020
  9
$CMLSTYLE
  2
Standard
  9
$CMLJUST
 70
     0
  9
$CMLSCALE
 40
20.0
  9
$PROXYGRAPHICS
 70
     1
  9
$MEASUREMENT
 70
     1
  9
$CELWEIGHT
370
    -1
  9
$ENDCAPS
280
     0
  9
$JOINSTYLE
280
     0
  9
$LWDISPLAY
290
     1
  9
$INSUNITS
 70
     4
  9
$HYPERLINKBASE
  1

  9
$STYLESHEET
  1

  9
$XEDIT
290
     1
  9
$CEPSNTYPE
380
     0
  9
$PSTYLEMODE
290
     1
  9
$FINGERPRINTGUID
  2
{CF3C1822-22E8-4749-ACCD-3B4E438BF33E}
  9
$VERSIONGUID
  2
{FAEB1C32-E019-11D5-929B-00C0DF256EC4}
  9
$EXTNAMES
290
     1
  9
$PSVPSCALE
 40
0.0
  9
$OLESTARTUP
290
     0
  9
$SORTENTS
280
   127
  9
$INDEXCTL
280
     0
  9
$HIDETEXT
280
     1
  9
$XCLIPFRAME
290
     0
  9
$HALOGAP
280
     0
  9
$OBSCOLOR
 70
   257
  9
$OBSLTYPE
280
     0
  9
$INTERSECTIONDISPLAY
280
     0
  9
$INTERSECTIONCOLOR
 70
   257
  9
$DIMASSOC
280
     2
  9
$PROJECTNAME
  1

  9
$CAMERADISPLAY
290
     0
  9
$LENSLENGTH
 40
50.0
  9
$CAMERAHEIGHT
 40
0.0
  9
$STEPSPERSEC
 40
2.0
  9
$STEPSIZE
 40
6.0
  9
$3DDWFPREC
 40
2.0
  9
$PSOLWIDTH
 40
5.0
  9
$PSOLHEIGHT
 40
80.0
  9
$LOFTANG1
 40
1.5707963268
  9
$LOFTANG2
 40
1.5707963268
  9
$LOFTMAG1
 40
0.0
  9
$LOFTMAG2
 40
0.0
  9
$LOFTPARAM
 70
     7
  9
$LOFTNORMALS
280
     1
  9
$LATITUDE
 40
37.795
  9
$LONGITUDE
 40
-122.394
  9
$NORTHDIRECTION
 40
0.0
  9
$TIMEZONE
 70
 -8000
  9
$LIGHTGLYPHDISPLAY
280
     1
  9
$TILEMODELIGHTSYNCH
280
     1
  9
$CMATERIAL
347
44
  9
$SOLIDHIST
280
     0
  9
$SHOWHIST
280
     1
  9
$DWFFRAME
280
     2
  9
$DGNFRAME
280
     2
  9
$REALWORLDSCALE
290
     1
  9
$INTERFERECOLOR
 62
   256
  9
$CSHADOW
280
     0
  9
$SHADOWPLANELOCATION
 40
0.0
  0
ENDSEC
  0
SECTION
  2
CLASSES
  0
CLASS
  1
ACDBDICTIONARYWDFLT
  2
AcDbDictionaryWithDefault
  3
ObjectDBX Classes
 90
        0
 91
        4
280
     0
281
     0
  0
CLASS
  1
VISUALSTYLE
  2
AcDbVisualStyle
  3
ObjectDBX Classes
 90
     4095
 91
        4
280
     0
281
     0
  0
CLASS
  1
MATERIAL
  2
AcDbMaterial
  3
ObjectDBX Classes
 90
     1153
 91
        4
280
     0
281
     0
  0
CLASS
  1
SCALE
  2
AcDbScale
  3
ObjectDBX Classes
 90
     1153
 91
        4
280
     0
281
     0
  0
CLASS
  1
TABLESTYLE
  2
AcDbTableStyle
  3
ObjectDBX Classes
 90
     4095
 91
        4
280
     0
281
     0
  0
CLASS
  1
MLEADERSTYLE
  2
AcDbMLeaderStyle
  3
ACDB_MLEADERSTYLE_CLASS
 90
     4095
 91
        4
280
     0
281
     0
  0
CLASS
  1
SUN
  2
AcDbSun
  3
SCENEOE
 90
     1153
 91
        4
280
     0
281
     0
  0
CLASS
  1
DICTIONARYVAR
  2
AcDbDictionaryVar
  3
ObjectDBX Classes
 90
        0
 91
        4
280
     0
281
     0
  0
CLASS
  1
CELLSTYLEMAP
  2
AcDbCellStyleMap
  3
ObjectDBX Classes
 90
     1152
 91
        4
280
     0
281
     0
  0
ENDSEC
  0
SECTION
  2
TABLES
  0
TABLE
  2
VPORT
  5
8
330
0
100
AcDbSymbolTable
 70
     1
  0
VPORT
  5
29
330
8
100
AcDbSymbolTableRecord
100
AcDbViewportTableRecord
  2
*Active
 70
     0
 10
0.0
 20
0.0
 11
1.0
 21
1.0
 12
0.105
 22
0.1485
 13
0.0
 23
0.0
 14
10.0
 24
10.0
 15
10.0
 25
10.0
 16
0.0
 26
0.0
 36
1.0
 17
0.0
 27
0.0
 37
0.0
 40
0.297
 41
0.7070707071
 42
50.0
 43
0.0
 44
0.0
 50
0.0
 51
0.0
 71
     0
 72
  2000
 73
     1
 74
     3
 75
     0
 76
     0
 77
     0
 78
     0
281
     0
 65
     1
110
0.0
120
0.0
130
0.0
111
1.0
121
0.0
131
0.0
112
0.0
122
1.0
132
0.0
 79
     0
146
0.0
 60
     3
 61
     5
292
     1
282
     1
141
0.0
142
0.0
 63
   250
361
6D
  0
ENDTAB
  0
TABLE
  2
LTYPE
  5
5
330
0
100
AcDbSymbolTable
 70
     6
  0
LTYPE
  5
14
330
5
100
AcDbSymbolTableRecord
100
AcDbLinetypeTableRecord
  2
ByBlock
 70
     0
  3

 72
    65
 73
     0
 40
0.0
  0
LTYPE
  5
15
330
5
100
AcDbSymbolTableRecord
100
AcDbLinetypeTableRecord
  2
ByLayer
 70
     0
  3

 72
    65
 73
     0
 40
0.0
  0
LTYPE
  5
16
330
5
100
AcDbSymbolTableRecord
100
AcDbLinetypeTableRecord
  2
Continuous
 70
     0
  3
Solid line
 72
    65
 73
     0
 40
0.0
  0
LTYPE
  5
6E
330
5
100
AcDbSymbolTableRecord
100
AcDbLinetypeTableRecord
  2
HIDDEN
 70
     0
  3
Hidden __ __ __ __ __ __ __ __ __ __ __ __ __ __
 72
    65
 73
     2
 40
0.001905
 49
0.00127
 74
     0
 49
-0.000635
 74
     0
  0
LTYPE
  5
6F
330
5
100
AcDbSymbolTableRecord
100
AcDbLinetypeTableRecord
  2
PHANTOM
 70
     0
  3
Phantom ______  __  __  ______  __  __  ______
 72
    65
 73
     6
 40
0.0127
 49
0.00635
 74
     0
 49
-0.00127
 74
     0
 49
0.00127
 74
     0
 49
-0.00127
 74
     0
 49
0.00127
 74
     0
 49
-0.00127
 74
     0
  0
LTYPE
  5
70
330
5
100
AcDbSymbolTableRecord
100
AcDbLinetypeTableRecord
  2
CENTER
 70
     0
  3
Center ____ _ ____ _ ____ _ ____ _ ____ _ ____
 72
    65
 73
     4
 40
0.01016
 49
0.00635
 74
     0
 49
-0.00127
 74
     0
 49
0.00127
 74
     0
 49
-0.00127
 74
     0
  0
LTYPE
  5
71
330
5
100
AcDbSymbolTableRecord
100
AcDbLinetypeTableRecord
  2
CENTERX2
 70
     0
  3
Center (2x) ________  __  ________  __  _____
 72
    65
 73
     4
 40
0.02032
 49
0.0127
 74
     0
 49
-0.00254
 74
     0
 49
0.00254
 74
     0
 49
-0.00254
 74
     0
  0
LTYPE
  5
72
330
5
100
AcDbSymbolTableRecord
100
AcDbLinetypeTableRecord
  2
DOT2
 70
     0
  3
Dot (.5x) ........................................
 72
    65
 73
     2
 40
0.000635
 49
0.0
 74
     0
 49
-0.000635
 74
     0
  0
ENDTAB
  0
TABLE
  2
LAYER
  5
2
330
0
100
AcDbSymbolTable
 70
     2
  0
LAYER
  5
10
330
2
100
AcDbSymbolTableRecord
100
AcDbLayerTableRecord
  2
0
 70
     0
 62
     7
  6
Continuous
370
    -3
390
F
347
46
  0
LAYER
  5
73
330
2
100
AcDbSymbolTableRecord
100
AcDbLayerTableRecord
  2
FORMAT
 70
     0
 62
     7
  6
Continuous
370
    -3
390
F
347
46
  0
ENDTAB
  0
TABLE
  2
STYLE
  5
3
330
0
100
AcDbSymbolTable
 70
     1
  0
STYLE
  5
11
330
3
100
AcDbSymbolTableRecord
100
AcDbTextStyleTableRecord
  2
Standard
 70
     0
 40
0.0
 41
1.0
 50
0.0
 71
     0
 42
0.0035
  3
txt
  4

  0
ENDTAB
  0
TABLE
  2
VIEW
  5
6
330
0
100
AcDbSymbolTable
 70
     0
  0
ENDTAB
  0
TABLE
  2
UCS
  5
7
330
0
100
AcDbSymbolTable
 70
     0
  0
ENDTAB
  0
TABLE
  2
APPID
  5
9
330
0
100
AcDbSymbolTable
 70
     2
  0
APPID
  5
12
330
9
100
AcDbSymbolTableRecord
100
AcDbRegAppTableRecord
  2
ACAD
 70
     0
  0
APPID
  5
27F
330
9
100
AcDbSymbolTableRecord
100
AcDbRegAppTableRecord
  2
ACAD_MLEADERVER
 70
     0
  0
ENDTAB
  0
TABLE
  2
DIMSTYLE
  5
A
330
0
100
AcDbSymbolTable
 70
     1
100
AcDbDimStyleTable
  0
DIMSTYLE
105
27
330
A
100
AcDbSymbolTableRecord
100
AcDbDimStyleTableRecord
  2
ISO-25
 70
     0
 41
2.5
 42
0.625
 43
3.75
 44
1.25
 73
     0
 74
     0
 77
     1
 78
     8
140
2.5
141
2.5
143
0.0393700787
147
0.625
171
     3
172
     1
178
     0
271
     2
272
     2
274
     3
278
    44
283
     0
284
     8
340
11
  0
ENDTAB
  0
TABLE
  2
BLOCK_RECORD
  5
1
330
0
100
AcDbSymbolTable
 70
     1
  0
BLOCK_RECORD
  5
1F
330
1
100
AcDbSymbolTableRecord
100
AcDbBlockTableRecord
  2
*Model_Space
340
22
 70
     0
280
     1
281
     0
  0
BLOCK_RECORD
  5
1B
330
1
100
AcDbSymbolTableRecord
100
AcDbBlockTableRecord
  2
*Paper_Space
340
1E
 70
     0
280
     1
281
     0
  0
BLOCK_RECORD
  5
23
330
1
100
AcDbSymbolTableRecord
100
AcDbBlockTableRecord
  2
*Paper_Space0
340
26
 70
     0
280
     1
281
     0
  0
ENDTAB
  0
ENDSEC
  0
SECTION
  2
BLOCKS
  0
BLOCK
  5
20
330
1F
100
AcDbEntity
  8
0
100
AcDbBlockBegin
  2
*Model_Space
 70
     0
 10
0.0
 20
0.0
 30
0.0
  3
*Model_Space
  1

  0
ENDBLK
  5
21
330
1F
100
AcDbEntity
  8
0
100
AcDbBlockEnd
  0
BLOCK
  5
1C
330
1B
100
AcDbEntity
 67
     1
  8
0
100
AcDbBlockBegin
  2
*Paper_Space
 70
     0
 10
0.0
 20
0.0
 30
0.0
  3
*Paper_Space
  1

  0
ENDBLK
  5
1D
330
1B
100
AcDbEntity
 67
     1
  8
0
100
AcDbBlockEnd
  0
BLOCK
  5
24
330
23
100
AcDbEntity
  8
0
100
AcDbBlockBegin
  2
*Paper_Space0
 70
     0
 10
0.0
 20
0.0
 30
0.0
  3
*Paper_Space0
  1

  0
ENDBLK
  5
25
330
23
100
AcDbEntity
  8
0
100
AcDbBlockEnd
  0
ENDSEC
  0
SECTION
  2
ENTITIES
  0
ARC
  5
74
330
1F
100
AcDbEntity
  8
0
  6
Continuous
 62
     7
370
    25
100
AcDbCircle
 10
0.0980347846
 20
0.1519442167
 30
0.0
 40
0.0004
100
AcDbArc
 50
239.0239335709
 51
33.8231476461
  0
ARC
  5
75
330
1F
100
AcDbEntity
  8
0
  6
Continuous
 62
     7
370
    25
100
AcDbCircle
 10
0.0980347846
 20
0.1519442167
 30
0.0
 40
0.0004
100
AcDbArc
 50
83.1768523529
 51
106.2396895312
  0
ARC
  5
76
330
1F
100
AcDbEntity
  8
0
  6
Continuous
 62
     7
370
    25
100
AcDbCircle
 10
0.1121136059
 20
0.1902298118
 30
0.0
 40
0.0004
100
AcDbArc
 50
263.1768523539
 51
286.2396895319
  0
ARC
  5
77
330
1F
100
AcDbEntity
  8
0
  6
Continuous
 62
     7
370
    25
100
AcDbCircle
 10
0.1121136059
 20
0.1902298118
 30
0.0
 40
0.0004
100
AcDbArc
 50
59.0239335702
 51
213.8231476471
  0
ARC
  5
78
330
1F
100
AcDbEntity
  8
0
  6
Continuous
 62
     7
370
    25
100
AcDbCircle
 10
0.0912136633
 20
0.1561242052
 30
0.0
 40
0.0004
100
AcDbArc
 50
10.7603104688
 51
33.8231476461
  0
ARC
  5
79
330
1F
100
AcDbEntity
  8
0
  6
Continuous
 62
     7
370
    25
100
AcDbCircle
 10
0.0912136633
 20
0.1561242052
 30
0.0
 40
0.0004
100
AcDbArc
 50
83.1768523529
 51
237.97606643
  0
ARC
  5
7A
330
1F
100
AcDbEntity
  8
0
  6
Continuous
 62
     7
370
    25
100
AcDbCircle
 10
0.1189347272
 20
0.1860498232
 30
0.0
 40
0.0004
100
AcDbArc
 50
263.1768523534
 51
57.9760664294
  0
ARC
  5
7B
330
1F
100
AcDbEntity
  8
0
  6
Continuous
 62
     7
370
    25
100
AcDbCircle
 10
0.1189347272
 20
0.1860498232
 30
0.0
 40
0.0004
100
AcDbArc
 50
190.7603104684
 51
213.8231476466
  0
ARC
  5
7C
330
1F
100
AcDbEntity
  8
0
  6
Continuous
 62
     7
370
    25
100
AcDbCircle
 10
0.1103924899
 20
0.0764452562
 30
0.0
 40
0.0004
100
AcDbArc
 50
265.6745258947
 51
323.5
  0
ARC
  5
7D
330
1F
100
AcDbEntity
  8
0
  6
Continuous
 62
     7
370
    25
100
AcDbCircle
 10
0.1103924899
 20
0.0764452562
 30
0.0
 40
0.0004
100
AcDbArc
 50
85.6745258947
 51
201.3254741053
  0
ARC
  5
7E
330
1F
100
AcDbEntity
  8
0
  6
Continuous
 62
     7
370
    25
100
AcDbCircle
 10
0.1103924899
 20
0.0764452562
 30
0.0
 40
0.0004
100
AcDbArc
 50
323.5
 51
21.3254741053
  0
ARC
  5
7F
330
1F
100
AcDbEntity
  8
0
  6
Continuous
 62
     7
370
    25
100
AcDbCircle
 10
0.1014701481
 20
0.0643874033
 30
0.0
 40
0.0004
100
AcDbArc
 50
265.6745258947
 51
323.5
  0
ARC
  5
80
330
1F
100
AcDbEntity
  8
0
  6
Continuous
 62
     7
370
    25
100
AcDbCircle
 10
0.1014701481
 20
0.0643874033
 30
0.0
 40
0.0004
100
AcDbArc
 50
85.6745258947
 51
201.3254741053
  0
ARC
  5
81
330
1F
100
AcDbEntity
  8
0
  6
Continuous
 62
     7
370
    25
100
AcDbCircle
 10
0.1014701481
 20
0.0643874033
 30
0.0
 40
0.0004
100
AcDbArc
 50
323.5
 51
21.3254741053
  0
ARC
  5
82
330
1F
100
AcDbEntity
  8
0
  6
Continuous
 62
     7
370
    25
100
AcDbCircle
 10
0.1163407177
 20
0.0844838248
 30
0.0
 40
0.0004
100
AcDbArc
 50
265.6745258947
 51
323.5
  0
ARC
  5
83
330
1F
100
AcDbEntity
  8
0
  6
Continuous
 62
     7
370
    25
100
AcDbCircle
 10
0.1163407177
 20
0.0844838248
 30
0.0
 40
0.0004
100
AcDbArc
 50
85.6745258947
 51
201.3254741053
  0
ARC
  5
84
330
1F
100
AcDbEntity
  8
0
  6
Continuous
 62
     7
370
    25
100
AcDbCircle
 10
0.1163407177
 20
0.0844838248
 30
0.0
 40
0.0004
100
AcDbArc
 50
323.5
 51
21.3254741053
  0
ARC
  5
85
330
1F
100
AcDbEntity
  8
0
  6
Continuous
 62
     7
370
    25
100
AcDbCircle
 10
0.104444262
 20
0.0684066876
 30
0.0
 40
0.0004
100
AcDbArc
 50
265.6745258947
 51
323.5
  0
ARC
  5
86
330
1F
100
AcDbEntity
  8
0
  6
Continuous
 62
     7
370
    25
100
AcDbCircle
 10
0.104444262
 20
0.0684066876
 30
0.0
 40
0.0004
100
AcDbArc
 50
85.6745258947
 51
201.3254741053
  0
ARC
  5
87
330
1F
100
AcDbEntity
  8
0
  6
Continuous
 62
     7
370
    25
100
AcDbCircle
 10
0.104444262
 20
0.0684066876
 30
0.0
 40
0.0004
100
AcDbArc
 50
323.5
 51
21.3254741053
  0
ARC
  5
88
330
1F
100
AcDbEntity
  8
0
  6
Continuous
 62
     7
370
    25
100
AcDbCircle
 10
0.1193148317
 20
0.0885031091
 30
0.0
 40
0.0004
100
AcDbArc
 50
265.6745258942
 51
323.5
  0
ARC
  5
89
330
1F
100
AcDbEntity
  8
0
  6
Continuous
 62
     7
370
    25
100
AcDbCircle
 10
0.1193148317
 20
0.0885031091
 30
0.0
 40
0.0004
100
AcDbArc
 50
85.6745258952
 51
201.3254741048
  0
ARC
  5
8A
330
1F
100
AcDbEntity
  8
0
  6
Continuous
 62
     7
370
    25
100
AcDbCircle
 10
0.1193148317
 20
0.0885031091
 30
0.0
 40
0.0004
100
AcDbArc
 50
323.5
 51
21.3254741058
  0
ARC
  5
8B
330
1F
100
AcDbEntity
  8
0
  6
Continuous
 62
     7
370
    25
100
AcDbCircle
 10
0.0984960341
 20
0.060368119
 30
0.0
 40
0.0004
100
AcDbArc
 50
265.6745258947
 51
323.5
  0
ARC
  5
8C
330
1F
100
AcDbEntity
  8
0
  6
Continuous
 62
     7
370
    25
100
AcDbCircle
 10
0.0984960341
 20
0.060368119
 30
0.0
 40
0.0004
100
AcDbArc
 50
85.6745258947
 51
201.3254741053
  0
ARC
  5
8D
330
1F
100
AcDbEntity
  8
0
  6
Continuous
 62
     7
370
    25
100
AcDbCircle
 10
0.0984960341
 20
0.060368119
 30
0.0
 40
0.0004
100
AcDbArc
 50
323.5
 51
21.3254741053
  0
ARC
  5
8E
330
1F
100
AcDbEntity
  8
0
  6
Continuous
 62
     7
370
    25
100
AcDbCircle
 10
0.1074183759
 20
0.0724259719
 30
0.0
 40
0.0004
100
AcDbArc
 50
265.6745258947
 51
323.5
  0
ARC
  5
8F
330
1F
100
AcDbEntity
  8
0
  6
Continuous
 62
     7
370
    25
100
AcDbCircle
 10
0.1074183759
 20
0.0724259719
 30
0.0
 40
0.0004
100
AcDbArc
 50
85.6745258947
 51
201.3254741053
  0
ARC
  5
90
330
1F
100
AcDbEntity
  8
0
  6
Continuous
 62
     7
370
    25
100
AcDbCircle
 10
0.1074183759
 20
0.0724259719
 30
0.0
 40
0.0004
100
AcDbArc
 50
323.5
 51
21.3254741053
  0
ARC
  5
91
330
1F
100
AcDbEntity
  8
0
  6
Continuous
 62
     7
370
    25
100
AcDbCircle
 10
0.1133666038
 20
0.0804645405
 30
0.0
 40
0.0004
100
AcDbArc
 50
265.6745258947
 51
323.5
  0
ARC
  5
92
330
1F
100
AcDbEntity
  8
0
  6
Continuous
 62
     7
370
    25
100
AcDbCircle
 10
0.1133666038
 20
0.0804645405
 30
0.0
 40
0.0004
100
AcDbArc
 50
85.6745258947
 51
201.3254741053
  0
ARC
  5
93
330
1F
100
AcDbEntity
  8
0
  6
Continuous
 62
     7
370
    25
100
AcDbCircle
 10
0.1133666038
 20
0.0804645405
 30
0.0
 40
0.0004
100
AcDbArc
 50
323.5
 51
21.3254741053
  0
LINE
  5
94
330
1F
100
AcDbEntity
  8
0
  6
Continuous
 62
     7
370
    25
100
AcDbLine
 10
0.1187722665
 20
0.0874117846
 30
0.0
 11
0.1201998398
 21
0.0893410392
 31
0.0
  0
LINE
  5
95
330
1F
100
AcDbEntity
  8
0
  6
Continuous
 62
     7
370
    25
100
AcDbLine
 10
0.1198573968
 20
0.0895944337
 30
0.0
 11
0.1184298235
 21
0.0876651791
 31
0.0
  0
LINE
  5
96
330
1F
100
AcDbEntity
  8
0
  6
Continuous
 62
     7
370
    25
100
AcDbLine
 10
0.1039016968
 20
0.067315363
 30
0.0
 11
0.1053292702
 21
0.0692446177
 31
0.0
  0
LINE
  5
97
330
1F
100
AcDbEntity
  8
0
  6
Continuous
 62
     7
370
    25
100
AcDbLine
 10
0.1049868272
 20
0.0694980122
 30
0.0
 11
0.1035592538
 21
0.0675687575
 31
0.0
  0
LINE
  5
98
330
1F
100
AcDbEntity
  8
0
  6
Continuous
 62
     7
370
    25
100
AcDbLine
 10
0.1068401449
 20
0.1667209178
 30
0.0
 11
0.1063536996
 21
0.1659271085
 31
0.0
  0
LINE
  5
99
330
1F
100
AcDbEntity
  8
0
  6
Continuous
 62
     7
370
    25
100
AcDbLine
 10
0.1060725975
 20
0.1654683951
 30
0.0
 11
0.1055861521
 21
0.1646745858
 31
0.0
  0
LINE
  5
9A
330
1F
100
AcDbEntity
  8
0
  6
Continuous
 62
     7
370
    25
100
AcDbLine
 10
0.1059493768
 20
0.1644519992
 30
0.0
 11
0.1072033753
 21
0.1664983388
 31
0.0
  0
LINE
  5
9B
330
1F
100
AcDbEntity
  8
0
  6
Continuous
 62
     7
370
    25
100
AcDbLine
 10
0.1074882317
 20
0.182274233
 30
0.0
 11
0.1079746809
 21
0.1830680395
 31
0.0
  0
LINE
  5
9C
330
1F
100
AcDbEntity
  8
0
  6
Continuous
 62
     7
370
    25
100
AcDbLine
 10
0.1082557791
 20
0.1835267558
 30
0.0
 11
0.1087422245
 21
0.184320565
 31
0.0
  0
LINE
  5
9D
330
1F
100
AcDbEntity
  8
0
  6
Continuous
 62
     7
370
    25
100
AcDbLine
 10
0.1083790036
 20
0.1845431488
 30
0.0
 11
0.1071250108
 21
0.1824968169
 31
0.0
  0
LINE
  5
9E
330
1F
100
AcDbEntity
  8
0
  6
Continuous
 62
     7
370
    25
100
AcDbLine
 10
0.1068758108
 20
0.0713346473
 30
0.0
 11
0.1083033841
 21
0.073263902
 31
0.0
  0
LINE
  5
9F
330
1F
100
AcDbEntity
  8
0
  6
Continuous
 62
     7
370
    25
100
AcDbLine
 10
0.1079609411
 20
0.0735172965
 30
0.0
 11
0.1065333678
 21
0.0715880418
 31
0.0
  0
LINE
  5
A0
330
1F
100
AcDbEntity
  8
0
  6
Continuous
 62
     7
370
    25
100
AcDbLine
 10
0.1217463805
 20
0.0914310689
 30
0.0
 11
0.1231739538
 21
0.0933603235
 31
0.0
  0
LINE
  5
A1
330
1F
100
AcDbEntity
  8
0
  6
Continuous
 62
     7
370
    25
100
AcDbLine
 10
0.1228315108
 20
0.093613718
 30
0.0
 11
0.1214039374
 21
0.0916844634
 31
0.0
  0
LINE
  5
A2
330
1F
100
AcDbEntity
  8
0
  6
Continuous
 62
     7
370
    25
100
AcDbLine
 10
0.1098499247
 20
0.0753539317
 30
0.0
 11
0.111277498
 21
0.0772831863
 31
0.0
  0
LINE
  5
A3
330
1F
100
AcDbEntity
  8
0
  6
Continuous
 62
     7
370
    25
100
AcDbLine
 10
0.110935055
 20
0.0775365808
 30
0.0
 11
0.1095074817
 21
0.0756073261
 31
0.0
  0
LINE
  5
A4
330
1F
100
AcDbEntity
  8
0
  6
Continuous
 62
     7
370
    25
100
AcDbLine
 10
0.1157981526
 20
0.0833925003
 30
0.0
 11
0.1172257259
 21
0.0853217549
 31
0.0
  0
LINE
  5
A5
330
1F
100
AcDbEntity
  8
0
  6
Continuous
 62
     7
370
    25
100
AcDbLine
 10
0.1168832829
 20
0.0855751494
 30
0.0
 11
0.1154557096
 21
0.0836458948
 31
0.0
  0
LINE
  5
A6
330
1F
100
AcDbEntity
  8
0
  6
Continuous
 62
     7
370
    25
100
AcDbLine
 10
0.0979534683
 20
0.0592767935
 30
0.0
 11
0.099381043
 21
0.06120605
 31
0.0
  0
LINE
  5
A7
330
1F
100
AcDbEntity
  8
0
  6
Continuous
 62
     7
370
    25
100
AcDbLine
 10
0.0990386
 20
0.0614594445
 30
0.0
 11
0.0976110253
 21
0.059530188
 31
0.0
  0
LINE
  5
A8
330
1F
100
AcDbEntity
  8
0
  6
Continuous
 62
     7
370
    25
100
AcDbLine
 10
0.1128240386
 20
0.079373216
 30
0.0
 11
0.114251612
 21
0.0813024706
 31
0.0
  0
LINE
  5
A9
330
1F
100
AcDbEntity
  8
0
  6
Continuous
 62
     7
370
    25
100
AcDbLine
 10
0.113909169
 20
0.0815558651
 30
0.0
 11
0.1124815956
 21
0.0796266105
 31
0.0
  0
LINE
  5
AA
330
1F
100
AcDbEntity
  8
0
  6
Continuous
 62
     7
370
    25
100
AcDbLine
 10
0.1009275822
 20
0.0632960778
 30
0.0
 11
0.102355157
 21
0.0652253343
 31
0.0
  0
LINE
  5
AB
330
1F
100
AcDbEntity
  8
0
  6
Continuous
 62
     7
370
    25
100
AcDbLine
 10
0.1020127139
 20
0.0654787288
 30
0.0
 11
0.1005851392
 21
0.0635494723
 31
0.0
  0
LINE
  5
AC
330
1F
100
AcDbEntity
  8
0
  6
Continuous
 62
     7
370
    25
100
AcDbLine
 10
0.1152001261
 20
0.1803631649
 30
0.0
 11
0.1147136808
 21
0.1795693557
 31
0.0
  0
LINE
  5
AD
330
1F
100
AcDbEntity
  8
0
  6
Continuous
 62
     7
370
    25
100
AcDbLine
 10
0.114432573
 20
0.1791106345
 30
0.0
 11
0.1139461276
 21
0.1783168253
 31
0.0
  0
LINE
  5
AE
330
1F
100
AcDbEntity
  8
0
  6
Continuous
 62
     7
370
    25
100
AcDbLine
 10
0.1143093524
 20
0.1780942386
 30
0.0
 11
0.1155633509
 21
0.1801405783
 31
0.0
  0
LINE
  5
AF
330
1F
100
AcDbEntity
  8
0
  6
Continuous
 62
     7
370
    25
100
AcDbLine
 10
0.1033082411
 20
0.1754531095
 30
0.0
 11
0.1037946903
 21
0.1762469159
 31
0.0
  0
LINE
  5
B0
330
1F
100
AcDbEntity
  8
0
  6
Continuous
 62
     7
370
    25
100
AcDbLine
 10
0.1040757942
 20
0.1767056399
 30
0.0
 11
0.1045622396
 21
0.1774994491
 31
0.0
  0
LINE
  5
B1
330
1F
100
AcDbEntity
  8
0
  6
Continuous
 62
     7
370
    25
100
AcDbLine
 10
0.104199013
 20
0.1777220253
 30
0.0
 11
0.1029450202
 21
0.1756756933
 31
0.0
  0
LINE
  5
B2
330
1F
100
AcDbEntity
  8
0
  6
Continuous
 62
     7
370
    25
100
AcDbLine
 10
0.0949793543
 20
0.0552575092
 30
0.0
 11
0.0964069291
 21
0.0571867657
 31
0.0
  0
LINE
  5
B3
330
1F
100
AcDbEntity
  8
0
  6
Continuous
 62
     7
370
    25
100
AcDbLine
 10
0.0960644861
 20
0.0574401602
 30
0.0
 11
0.0946369113
 21
0.0555109037
 31
0.0
  0
LINE
  5
B4
330
1F
100
AcDbEntity
  8
0
  6
Continuous
 62
     7
370
    25
100
AcDbLine
 10
0.1110201355
 20
0.1735420414
 30
0.0
 11
0.1105336902
 21
0.1727482321
 31
0.0
  0
LINE
  5
B5
330
1F
100
AcDbEntity
  8
0
  6
Continuous
 62
     7
370
    25
100
AcDbLine
 10
0.1102525824
 20
0.172289511
 30
0.0
 11
0.109766137
 21
0.1714957017
 31
0.0
  0
LINE
  5
B6
330
1F
100
AcDbEntity
  8
0
  6
Continuous
 62
     7
370
    25
100
AcDbLine
 10
0.1101293674
 20
0.1712731227
 30
0.0
 11
0.1113833603
 21
0.1733194547
 31
0.0
  0
LINE
  5
B7
330
1F
100
AcDbEntity
  8
0
  6
Continuous
 62
     7
370
    25
100
AcDbLine
 10
0.10266016
 20
0.1598998019
 30
0.0
 11
0.1021737146
 21
0.1591059927
 31
0.0
  0
LINE
  5
B8
330
1F
100
AcDbEntity
  8
0
  6
Continuous
 62
     7
370
    25
100
AcDbLine
 10
0.1018926069
 20
0.1586472715
 30
0.0
 11
0.1014061615
 21
0.1578534623
 31
0.0
  0
LINE
  5
B9
330
1F
100
AcDbEntity
  8
0
  6
Continuous
 62
     7
370
    25
100
AcDbLine
 10
0.1017693862
 20
0.1576308756
 30
0.0
 11
0.1030233847
 21
0.1596772153
 31
0.0
  0
LINE
  5
BA
330
1F
100
AcDbEntity
  8
0
  6
Continuous
 62
     7
370
    25
100
AcDbLine
 10
0.0991282505
 20
0.1686319859
 30
0.0
 11
0.0996146997
 21
0.1694257924
 31
0.0
  0
LINE
  5
BB
330
1F
100
AcDbEntity
  8
0
  6
Continuous
 62
     7
370
    25
100
AcDbLine
 10
0.0998958036
 20
0.1698845163
 30
0.0
 11
0.1003822528
 21
0.1706783227
 31
0.0
  0
LINE
  5
BC
330
1F
100
AcDbEntity
  8
0
  6
Continuous
 62
     7
370
    25
100
AcDbLine
 10
0.1000190281
 20
0.1709009094
 30
0.0
 11
0.0987650296
 21
0.1688545697
 31
0.0
  0
LINE
  5
BD
330
1F
100
AcDbEntity
  8
0
  6
Continuous
 62
     7
370
    25
100
AcDbLine
 10
0.0949482694
 20
0.1618108672
 30
0.0
 11
0.0954347147
 21
0.1626046765
 31
0.0
  0
LINE
  5
BE
330
1F
100
AcDbEntity
  8
0
  6
Continuous
 62
     7
370
    25
100
AcDbLine
 10
0.095715813
 20
0.1630633928
 30
0.0
 11
0.0962022622
 21
0.1638571992
 31
0.0
  0
LINE
  5
BF
330
1F
100
AcDbEntity
  8
0
  6
Continuous
 62
     7
370
    25
100
AcDbLine
 10
0.0958390375
 20
0.1640797858
 30
0.0
 11
0.0945850446
 21
0.1620334539
 31
0.0
  0
LINE
  5
C0
330
1F
100
AcDbEntity
  8
0
  6
Continuous
 62
     7
370
    25
100
AcDbLine
 10
0.0918296754
 20
0.0510782964
 30
0.0
 11
0.0949423769
 21
0.055284871
 31
0.0
  0
LINE
  5
C1
330
1F
100
AcDbEntity
  8
0
  6
Continuous
 62
     7
370
    25
100
AcDbLine
 10
0.0963699517
 20
0.0572141276
 30
0.0
 11
0.0979164909
 21
0.0593041553
 31
0.0
  0
LINE
  5
C2
330
1F
100
AcDbEntity
  8
0
  6
Continuous
 62
     7
370
    25
100
AcDbLine
 10
0.0993440656
 20
0.0612334119
 30
0.0
 11
0.1008906048
 21
0.0633234396
 31
0.0
  0
LINE
  5
C3
330
1F
100
AcDbEntity
  8
0
  6
Continuous
 62
     7
370
    25
100
AcDbLine
 10
0.1023181795
 20
0.0652526962
 30
0.0
 11
0.1038647194
 21
0.0673427249
 31
0.0
  0
LINE
  5
C4
330
1F
100
AcDbEntity
  8
0
  6
Continuous
 62
     7
370
    25
100
AcDbLine
 10
0.1052922928
 20
0.0692719795
 30
0.0
 11
0.1068388334
 21
0.0713620092
 31
0.0
  0
LINE
  5
C5
330
1F
100
AcDbEntity
  8
0
  6
Continuous
 62
     7
370
    25
100
AcDbLine
 10
0.1082664067
 20
0.0732912638
 30
0.0
 11
0.1098129473
 21
0.0753812935
 31
0.0
  0
LINE
  5
C6
330
1F
100
AcDbEntity
  8
0
  6
Continuous
 62
     7
370
    25
100
AcDbLine
 10
0.1112405206
 20
0.0773105481
 30
0.0
 11
0.1127870612
 21
0.0794005778
 31
0.0
  0
LINE
  5
C7
330
1F
100
AcDbEntity
  8
0
  6
Continuous
 62
     7
370
    25
100
AcDbLine
 10
0.1142146346
 20
0.0813298324
 30
0.0
 11
0.1157611752
 21
0.0834198621
 31
0.0
  0
LINE
  5
C8
330
1F
100
AcDbEntity
  8
0
  6
Continuous
 62
     7
370
    25
100
AcDbLine
 10
0.1171887485
 20
0.0853491167
 30
0.0
 11
0.1187352891
 21
0.0874391464
 31
0.0
  0
LINE
  5
C9
330
1F
100
AcDbEntity
  8
0
  6
Continuous
 62
     7
370
    25
100
AcDbLine
 10
0.1201628624
 20
0.089368401
 30
0.0
 11
0.121709403
 21
0.0914584307
 31
0.0
  0
LINE
  5
CA
330
1F
100
AcDbEntity
  8
0
  6
Continuous
 62
     7
370
    25
100
AcDbLine
 10
0.1231369764
 20
0.0933876853
 30
0.0
 11
0.1262496794
 21
0.097594262
 31
0.0
  0
LINE
  5
CB
330
1F
100
AcDbEntity
  8
0
  6
Continuous
 62
     7
370
    25
100
AcDbLine
 10
0.1259809955
 20
0.0977926683
 30
0.0
 11
0.1228684882
 21
0.0935863561
 31
0.0
  0
LINE
  5
CC
330
1F
100
AcDbEntity
  8
0
  6
Continuous
 62
     7
370
    25
100
AcDbLine
 10
0.1214409149
 20
0.0916571015
 30
0.0
 11
0.1198943742
 21
0.0895670718
 31
0.0
  0
LINE
  5
CD
330
1F
100
AcDbEntity
  8
0
  6
Continuous
 62
     7
370
    25
100
AcDbLine
 10
0.1184668009
 20
0.0876378172
 30
0.0
 11
0.1169202603
 21
0.0855477875
 31
0.0
  0
LINE
  5
CE
330
1F
100
AcDbEntity
  8
0
  6
Continuous
 62
     7
370
    25
100
AcDbLine
 10
0.115492687
 20
0.0836185329
 30
0.0
 11
0.1139461464
 21
0.0815285032
 31
0.0
  0
LINE
  5
CF
330
1F
100
AcDbEntity
  8
0
  6
Continuous
 62
     7
370
    25
100
AcDbLine
 10
0.1125185731
 20
0.0795992486
 30
0.0
 11
0.1109720324
 21
0.0775092189
 31
0.0
  0
LINE
  5
D0
330
1F
100
AcDbEntity
  8
0
  6
Continuous
 62
     7
370
    25
100
AcDbLine
 10
0.1095444591
 20
0.0755799643
 30
0.0
 11
0.1079979185
 21
0.0734899346
 31
0.0
  0
LINE
  5
D1
330
1F
100
AcDbEntity
  8
0
  6
Continuous
 62
     7
370
    25
100
AcDbLine
 10
0.1065703452
 20
0.07156068
 30
0.0
 11
0.1050238046
 21
0.0694706503
 31
0.0
  0
LINE
  5
D2
330
1F
100
AcDbEntity
  8
0
  6
Continuous
 62
     7
370
    25
100
AcDbLine
 10
0.1035962313
 20
0.0675413957
 30
0.0
 11
0.1020496914
 21
0.065451367
 31
0.0
  0
LINE
  5
D3
330
1F
100
AcDbEntity
  8
0
  6
Continuous
 62
     7
370
    25
100
AcDbLine
 10
0.1006221166
 20
0.0635221104
 30
0.0
 11
0.0990755774
 21
0.0614320827
 31
0.0
  0
LINE
  5
D4
330
1F
100
AcDbEntity
  8
0
  6
Continuous
 62
     7
370
    25
100
AcDbLine
 10
0.0976480027
 20
0.0595028261
 30
0.0
 11
0.0961014635
 21
0.0574127984
 31
0.0
  0
LINE
  5
D5
330
1F
100
AcDbEntity
  8
0
  6
Continuous
 62
     7
370
    25
100
AcDbLine
 10
0.0946738887
 20
0.0554835418
 30
0.0
 11
0.0915613831
 21
0.0512772319
 31
0.0
  0
LINE
  5
D6
330
1F
100
AcDbEntity
  8
0
  6
Continuous
 62
     7
370
    25
100
AcDbLine
 10
0.0915613831
 20
0.0512772319
 30
0.0
 11
0.0915612065
 21
0.0512769933
 31
0.0
  0
LINE
  5
D7
330
1F
100
AcDbEntity
  8
0
  6
Continuous
 62
     7
370
    25
100
AcDbLine
 10
0.1204716509
 20
0.197723236
 30
0.0
 11
0.1173906974
 21
0.2048089487
 31
0.0
  0
LINE
  5
D8
330
1F
100
AcDbEntity
  8
0
  6
Continuous
 62
     7
370
    25
100
AcDbLine
 10
0.1164326935
 20
0.2070122139
 30
0.0
 11
0.113404732
 21
0.2139760481
 31
0.0
  0
LINE
  5
D9
330
1F
100
AcDbEntity
  8
0
  6
Continuous
 62
     7
370
    25
100
AcDbLine
 10
0.1124468907
 20
0.2161789319
 30
0.0
 11
0.1094184472
 21
0.2231438702
 31
0.0
  0
LINE
  5
DA
330
1F
100
AcDbEntity
  8
0
  6
Continuous
 62
     7
370
    25
100
AcDbLine
 10
0.1084611946
 20
0.225345393
 30
0.0
 11
0.1054327567
 21
0.232310339
 31
0.0
  0
LINE
  5
DB
330
1F
100
AcDbEntity
  8
0
  6
Continuous
 62
     7
370
    25
100
AcDbLine
 10
0.1044749116
 20
0.2345132256
 30
0.0
 11
0.1014469539
 21
0.241477057
 31
0.0
  0
LINE
  5
DC
330
1F
100
AcDbEntity
  8
0
  6
Continuous
 62
     7
370
    25
100
AcDbLine
 10
0.1004889443
 20
0.2436803145
 30
0.0
 11
0.0974080101
 21
0.2507659892
 31
0.0
  0
LINE
  5
DD
330
1F
100
AcDbEntity
  8
0
  6
Continuous
 62
     7
370
    25
100
AcDbLine
 10
0.0971017155
 20
0.2506328082
 30
0.0
 11
0.1001826421
 21
0.2435471392
 31
0.0
  0
LINE
  5
DE
330
1F
100
AcDbEntity
  8
0
  6
Continuous
 62
     7
370
    25
100
AcDbLine
 10
0.1011406594
 20
0.241343876
 30
0.0
 11
0.104168617
 21
0.2343800446
 31
0.0
  0
LINE
  5
DF
330
1F
100
AcDbEntity
  8
0
  6
Continuous
 62
     7
370
    25
100
AcDbLine
 10
0.1051264544
 20
0.2321771637
 30
0.0
 11
0.1081549
 21
0.225212212
 31
0.0
  0
LINE
  5
E0
330
1F
100
AcDbEntity
  8
0
  6
Continuous
 62
     7
370
    25
100
AcDbLine
 10
0.1091121449
 20
0.2230106949
 30
0.0
 11
0.1121405905
 21
0.2160457432
 31
0.0
  0
LINE
  5
E1
330
1F
100
AcDbEntity
  8
0
  6
Continuous
 62
     7
370
    25
100
AcDbLine
 10
0.1130984317
 20
0.2138428595
 30
0.0
 11
0.1161263894
 21
0.2068790281
 31
0.0
  0
LINE
  5
E2
330
1F
100
AcDbEntity
  8
0
  6
Continuous
 62
     7
370
    25
100
AcDbLine
 10
0.1170844028
 20
0.2046757678
 30
0.0
 11
0.1201653564
 21
0.197590055
 31
0.0
  0
LINE
  5
E3
330
1F
100
AcDbEntity
  8
0
  6
Continuous
 62
     7
370
    25
100
AcDbLine
 10
0.1174328791
 20
0.2048272907
 30
0.0
 11
0.1164781724
 21
0.2070229791
 31
0.0
  0
LINE
  5
E4
330
1F
100
AcDbEntity
  8
0
  6
Continuous
 62
     7
370
    25
100
AcDbLine
 10
0.1160875049
 20
0.2068531093
 30
0.0
 11
0.1170422116
 21
0.204657421
 31
0.0
  0
LINE
  5
E5
330
1F
100
AcDbEntity
  8
0
  6
Continuous
 62
     7
370
    25
100
AcDbLine
 10
0.1134469175
 20
0.2139943872
 30
0.0
 11
0.1124906156
 21
0.2161937236
 31
0.0
  0
LINE
  5
E6
330
1F
100
AcDbEntity
  8
0
  6
Continuous
 62
     7
370
    25
100
AcDbLine
 10
0.1120999442
 20
0.2160238567
 30
0.0
 11
0.1130562462
 21
0.2138245203
 31
0.0
  0
LINE
  5
E7
330
1F
100
AcDbEntity
  8
0
  6
Continuous
 62
     7
370
    25
100
AcDbLine
 10
0.1094604159
 20
0.2231627019
 30
0.0
 11
0.1085035949
 21
0.2253632529
 31
0.0
  0
LINE
  5
E8
330
1F
100
AcDbEntity
  8
0
  6
Continuous
 62
     7
370
    25
100
AcDbLine
 10
0.1081129236
 20
0.225193386
 30
0.0
 11
0.1090697522
 21
0.2229928294
 31
0.0
  0
LINE
  5
E9
330
1F
100
AcDbEntity
  8
0
  6
Continuous
 62
     7
370
    25
100
AcDbLine
 10
0.1054733953
 20
0.2323322312
 30
0.0
 11
0.1045170972
 21
0.2345315648
 31
0.0
  0
LINE
  5
EA
330
1F
100
AcDbEntity
  8
0
  6
Continuous
 62
     7
370
    25
100
AcDbLine
 10
0.1041264258
 20
0.2343616978
 30
0.0
 11
0.1050827239
 21
0.2321623643
 31
0.0
  0
LINE
  5
EB
330
1F
100
AcDbEntity
  8
0
  6
Continuous
 62
     7
370
    25
100
AcDbLine
 10
0.1014858385
 20
0.2415029758
 30
0.0
 11
0.1005311279
 21
0.2436986669
 31
0.0
  0
LINE
  5
EC
330
1F
100
AcDbEntity
  8
0
  6
Continuous
 62
     7
370
    25
100
AcDbLine
 10
0.1001404699
 20
0.243528802
 30
0.0
 11
0.1010951728
 21
0.2413331165
 31
0.0
  0
LINE
  5
ED
330
1F
100
AcDbEntity
  8
0
  6
Continuous
 62
     7
370
    25
100
AcDbLine
 10
0.1202267964
 20
0.1976167708
 30
0.0
 11
0.1202286492
 21
0.1976125168
 31
0.0
  0
LINE
  5
EE
330
1F
100
AcDbEntity
  8
0
  6
Continuous
 62
     7
370
    25
100
AcDbLine
 10
0.1204120638
 20
0.1976922663
 30
0.0
 11
0.120410211
 21
0.1976965202
 31
0.0
  0
LINE
  5
EF
330
1F
100
AcDbEntity
  8
0
  6
Continuous
 62
     7
370
    25
100
AcDbLine
 10
0.0971613084
 20
0.2506637856
 30
0.0
 11
0.0971631517
 21
0.2506595268
 31
0.0
  0
LINE
  5
F0
330
1F
100
AcDbEntity
  8
0
  6
Continuous
 62
     7
370
    25
100
AcDbLine
 10
0.0973465663
 20
0.2507392763
 30
0.0
 11
0.097344723
 21
0.250743535
 31
0.0
  0
LINE
  5
F1
330
1F
100
AcDbEntity
  8
0
  6
Continuous
 62
     7
370
    25
100
AcDbLine
 10
0.0983670884
 20
0.152166868
 30
0.0
 11
0.1017301677
 21
0.157654913
 31
0.0
  0
LINE
  5
F2
330
1F
100
AcDbEntity
  8
0
  6
Continuous
 62
     7
370
    25
100
AcDbLine
 10
0.1029841606
 20
0.159701245
 30
0.0
 11
0.1059101583
 21
0.1644760366
 31
0.0
  0
LINE
  5
F3
330
1F
100
AcDbEntity
  8
0
  6
Continuous
 62
     7
370
    25
100
AcDbLine
 10
0.1071641512
 20
0.1665223685
 30
0.0
 11
0.1100901433
 21
0.1712971524
 31
0.0
  0
LINE
  5
F4
330
1F
100
AcDbEntity
  8
0
  6
Continuous
 62
     7
370
    25
100
AcDbLine
 10
0.1113441418
 20
0.1733434921
 30
0.0
 11
0.1142701339
 21
0.178118276
 31
0.0
  0
LINE
  5
F5
330
1F
100
AcDbEntity
  8
0
  6
Continuous
 62
     7
370
    25
100
AcDbLine
 10
0.1155241267
 20
0.180164608
 30
0.0
 11
0.1188872022
 21
0.1856526558
 31
0.0
  0
LINE
  5
F6
330
1F
100
AcDbEntity
  8
0
  6
Continuous
 62
     7
370
    25
100
AcDbLine
 10
0.1186024239
 20
0.1858271725
 30
0.0
 11
0.1152393446
 21
0.1803391275
 31
0.0
  0
LINE
  5
F7
330
1F
100
AcDbEntity
  8
0
  6
Continuous
 62
     7
370
    25
100
AcDbLine
 10
0.1139853461
 20
0.1782927879
 30
0.0
 11
0.111059354
 21
0.173518004
 31
0.0
  0
LINE
  5
F8
330
1F
100
AcDbEntity
  8
0
  6
Continuous
 62
     7
370
    25
100
AcDbLine
 10
0.1098053612
 20
0.171471672
 30
0.0
 11
0.1068793691
 21
0.1666968881
 31
0.0
  0
LINE
  5
F9
330
1F
100
AcDbEntity
  8
0
  6
Continuous
 62
     7
370
    25
100
AcDbLine
 10
0.1056253706
 20
0.1646505484
 30
0.0
 11
0.1026993785
 21
0.1598757645
 31
0.0
  0
LINE
  5
FA
330
1F
100
AcDbEntity
  8
0
  6
Continuous
 62
     7
370
    25
100
AcDbLine
 10
0.10144538
 20
0.1578294249
 30
0.0
 11
0.0980823102
 21
0.1523413847
 31
0.0
  0
LINE
  5
FB
330
1F
100
AcDbEntity
  8
0
  6
Continuous
 62
     7
370
    25
100
AcDbLine
 10
0.1117813014
 20
0.1900071564
 30
0.0
 11
0.1084182278
 21
0.1845191191
 31
0.0
  0
LINE
  5
FC
330
1F
100
AcDbEntity
  8
0
  6
Continuous
 62
     7
370
    25
100
AcDbLine
 10
0.1071642293
 20
0.1824727795
 30
0.0
 11
0.1042382372
 21
0.1776979956
 31
0.0
  0
LINE
  5
FD
330
1F
100
AcDbEntity
  8
0
  6
Continuous
 62
     7
370
    25
100
AcDbLine
 10
0.1029842387
 20
0.1756516559
 30
0.0
 11
0.1000582466
 21
0.170876872
 31
0.0
  0
LINE
  5
FE
330
1F
100
AcDbEntity
  8
0
  6
Continuous
 62
     7
370
    25
100
AcDbLine
 10
0.0988042537
 20
0.16883054
 30
0.0
 11
0.095878256
 21
0.1640557484
 31
0.0
  0
LINE
  5
FF
330
1F
100
AcDbEntity
  8
0
  6
Continuous
 62
     7
370
    25
100
AcDbLine
 10
0.0946242631
 20
0.1620094165
 30
0.0
 11
0.0912611838
 21
0.1565213715
 31
0.0
  0
LINE
  5
100
330
1F
100
AcDbEntity
  8
0
  6
Continuous
 62
     7
370
    25
100
AcDbLine
 10
0.0915459677
 20
0.1563468625
 30
0.0
 11
0.0949090414
 21
0.1618348998
 31
0.0
  0
LINE
  5
101
330
1F
100
AcDbEntity
  8
0
  6
Continuous
 62
     7
370
    25
100
AcDbLine
 10
0.0961630398
 20
0.1638812394
 30
0.0
 11
0.099089032
 21
0.1686560233
 31
0.0
  0
LINE
  5
102
330
1F
100
AcDbEntity
  8
0
  6
Continuous
 62
     7
370
    25
100
AcDbLine
 10
0.1003430305
 20
0.170702363
 30
0.0
 11
0.1032690226
 21
0.1754771469
 31
0.0
  0
LINE
  5
103
330
1F
100
AcDbEntity
  8
0
  6
Continuous
 62
     7
370
    25
100
AcDbLine
 10
0.1045230154
 20
0.1775234789
 30
0.0
 11
0.1074490075
 21
0.1822982628
 31
0.0
  0
LINE
  5
104
330
1F
100
AcDbEntity
  8
0
  6
Continuous
 62
     7
370
    25
100
AcDbLine
 10
0.108703006
 20
0.1843446024
 30
0.0
 11
0.1120660853
 21
0.1898326474
 31
0.0
  0
LINE
  5
105
330
1F
100
AcDbEntity
  8
0
  6
Continuous
 62
     7
370
    25
100
AcDbLine
 10
0.0900991372
 20
0.1463303218
 30
0.0
 11
0.1203339601
 21
0.1956690663
 31
0.0
  0
LINE
  5
106
330
1F
100
AcDbEntity
  8
0
  6
Continuous
 62
     7
370
    25
100
AcDbLine
 10
0.1200491894
 20
0.1958436012
 30
0.0
 11
0.0898144212
 21
0.1465049466
 31
0.0
  0
LINE
  5
107
330
1F
100
AcDbEntity
  8
0
  6
Continuous
 62
     7
370
    25
100
AcDbLine
 10
0.1200288029
 20
0.1958409976
 30
0.0
 11
0.1122971284
 21
0.1905574913
 31
0.0
  0
LINE
  5
108
330
1F
100
AcDbEntity
  8
0
  6
Continuous
 62
     7
370
    25
100
AcDbLine
 10
0.1124855676
 20
0.1902817274
 30
0.0
 11
0.1196346258
 21
0.1951670959
 31
0.0
  0
LINE
  5
109
330
1F
100
AcDbEntity
  8
0
  6
Continuous
 62
     7
370
    25
100
AcDbLine
 10
0.1203305523
 20
0.1956426642
 30
0.0
 11
0.1203557503
 21
0.1956598827
 31
0.0
  0
LINE
  5
10A
330
1F
100
AcDbEntity
  8
0
  6
Continuous
 62
     7
370
    25
100
AcDbLine
 10
0.1191433772
 20
0.1863621062
 30
0.0
 11
0.1203409057
 21
0.1956497378
 31
0.0
  0
LINE
  5
10B
330
1F
100
AcDbEntity
  8
0
  6
Continuous
 62
     7
370
    25
100
AcDbLine
 10
0.1200311422
 20
0.1958591739
 30
0.0
 11
0.1200272008
 21
0.1958285635
 31
0.0
  0
LINE
  5
10C
330
1F
100
AcDbEntity
  8
0
  6
Continuous
 62
     7
370
    25
100
AcDbLine
 10
0.1199194097
 20
0.1949925869
 30
0.0
 11
0.1188121181
 21
0.1864048179
 31
0.0
  0
LINE
  5
10D
330
1F
100
AcDbEntity
  8
0
  6
Continuous
 62
     7
370
    25
100
AcDbLine
 10
0.090117232
 20
0.1463147494
 30
0.0
 11
0.0901173554
 21
0.1463157258
 31
0.0
  0
LINE
  5
10E
330
1F
100
AcDbEntity
  8
0
  6
Continuous
 62
     7
370
    25
100
AcDbLine
 10
0.0897926054
 20
0.1465141196
 30
0.0
 11
0.0897922768
 21
0.1465139
 31
0.0
  0
LINE
  5
10F
330
1F
100
AcDbEntity
  8
0
  6
Continuous
 62
     7
370
    25
100
AcDbLine
 10
0.0910050183
 20
0.1558119259
 30
0.0
 11
0.089807487
 21
0.1465242905
 31
0.0
  0
LINE
  5
110
330
1F
100
AcDbEntity
  8
0
  6
Continuous
 62
     7
370
    25
100
AcDbLine
 10
0.0901173554
 20
0.1463157258
 30
0.0
 11
0.0901211919
 21
0.1463454648
 31
0.0
  0
LINE
  5
111
330
1F
100
AcDbEntity
  8
0
  6
Continuous
 62
     7
370
    25
100
AcDbLine
 10
0.090228982
 20
0.147181448
 30
0.0
 11
0.0913362774
 21
0.1557692142
 31
0.0
  0
LINE
  5
112
330
1F
100
AcDbEntity
  8
0
  6
Continuous
 62
     7
370
    25
100
AcDbLine
 10
0.0901195898
 20
0.1463330307
 30
0.0
 11
0.0978512615
 21
0.1516165332
 31
0.0
  0
LINE
  5
113
330
1F
100
AcDbEntity
  8
0
  6
Continuous
 62
     7
370
    25
100
AcDbLine
 10
0.0976628184
 20
0.1518922999
 30
0.0
 11
0.0905137669
 21
0.1470069323
 31
0.0
  0
LINE
  5
114
330
1F
100
AcDbEntity
  8
0
  6
Continuous
 62
     7
370
    25
100
AcDbLine
 10
0.0898178337
 20
0.1465313631
 30
0.0
 11
0.0897926054
 21
0.1465141196
 31
0.0
  0
LINE
  5
115
330
1F
100
AcDbEntity
  8
0
  6
Continuous
 62
     7
370
    25
100
AcDbLine
 10
0.0954347147
 20
0.1626046765
 30
0.0
 11
0.0985212717
 21
0.1607132323
 31
0.0
  0
LINE
  5
116
330
1F
100
AcDbEntity
  8
0
  6
Continuous
 62
     7
370
    25
100
AcDbLine
 10
0.0988060499
 20
0.1605387156
 30
0.0
 11
0.1018926069
 21
0.1586472715
 31
0.0
  0
LINE
  5
117
330
1F
100
AcDbEntity
  8
0
  6
Continuous
 62
     7
370
    25
100
AcDbLine
 10
0.1021737146
 20
0.1591059927
 30
0.0
 11
0.0990871577
 21
0.1609974368
 31
0.0
  0
LINE
  5
118
330
1F
100
AcDbEntity
  8
0
  6
Continuous
 62
     7
370
    25
100
AcDbLine
 10
0.0988023699
 20
0.1611719486
 30
0.0
 11
0.095715813
 21
0.1630633928
 31
0.0
  0
LINE
  5
119
330
1F
100
AcDbEntity
  8
0
  6
Continuous
 62
     7
370
    25
100
AcDbLine
 10
0.0913320121
 20
0.155736186
 30
0.0
 11
0.0943412811
 21
0.1538921088
 31
0.0
  0
LINE
  5
11A
330
1F
100
AcDbEntity
  8
0
  6
Continuous
 62
     7
370
    25
100
AcDbLine
 10
0.0946260593
 20
0.1537175921
 30
0.0
 11
0.0976353283
 21
0.1518735149
 31
0.0
  0
LINE
  5
11B
330
1F
100
AcDbEntity
  8
0
  6
Continuous
 62
     7
370
    25
100
AcDbLine
 10
0.0979229221
 20
0.1523282552
 30
0.0
 11
0.0949071671
 21
0.1541763132
 31
0.0
  0
LINE
  5
11C
330
1F
100
AcDbEntity
  8
0
  6
Continuous
 62
     7
370
    25
100
AcDbLine
 10
0.0946223888
 20
0.1543508299
 30
0.0
 11
0.0916066338
 21
0.1561988879
 31
0.0
  0
LINE
  5
11D
330
1F
100
AcDbEntity
  8
0
  6
Continuous
 62
     7
370
    25
100
AcDbLine
 10
0.0996146997
 20
0.1694257924
 30
0.0
 11
0.1027012566
 21
0.1675343482
 31
0.0
  0
LINE
  5
11E
330
1F
100
AcDbEntity
  8
0
  6
Continuous
 62
     7
370
    25
100
AcDbLine
 10
0.1029860405
 20
0.1673598392
 30
0.0
 11
0.1060725975
 21
0.1654683951
 31
0.0
  0
LINE
  5
11F
330
1F
100
AcDbEntity
  8
0
  6
Continuous
 62
     7
370
    25
100
AcDbLine
 10
0.1063536996
 20
0.1659271085
 30
0.0
 11
0.1032671426
 21
0.1678185527
 31
0.0
  0
LINE
  5
120
330
1F
100
AcDbEntity
  8
0
  6
Continuous
 62
     7
370
    25
100
AcDbLine
 10
0.1029823605
 20
0.1679930722
 30
0.0
 11
0.0998958036
 21
0.1698845163
 31
0.0
  0
LINE
  5
121
330
1F
100
AcDbEntity
  8
0
  6
Continuous
 62
     7
370
    25
100
AcDbLine
 10
0.1037946903
 20
0.1762469159
 30
0.0
 11
0.1068812472
 21
0.1743554718
 31
0.0
  0
LINE
  5
122
330
1F
100
AcDbEntity
  8
0
  6
Continuous
 62
     7
370
    25
100
AcDbLine
 10
0.1071660255
 20
0.1741809551
 30
0.0
 11
0.1102525824
 21
0.172289511
 31
0.0
  0
LINE
  5
123
330
1F
100
AcDbEntity
  8
0
  6
Continuous
 62
     7
370
    25
100
AcDbLine
 10
0.1105336902
 20
0.1727482321
 30
0.0
 11
0.1074471332
 21
0.1746396762
 31
0.0
  0
LINE
  5
124
330
1F
100
AcDbEntity
  8
0
  6
Continuous
 62
     7
370
    25
100
AcDbLine
 10
0.1071623511
 20
0.1748141958
 30
0.0
 11
0.1040757942
 21
0.1767056399
 31
0.0
  0
LINE
  5
125
330
1F
100
AcDbEntity
  8
0
  6
Continuous
 62
     7
370
    25
100
AcDbLine
 10
0.1079746809
 20
0.1830680395
 30
0.0
 11
0.1110612378
 21
0.1811765953
 31
0.0
  0
LINE
  5
126
330
1F
100
AcDbEntity
  8
0
  6
Continuous
 62
     7
370
    25
100
AcDbLine
 10
0.1113460161
 20
0.1810020786
 30
0.0
 11
0.114432573
 21
0.1791106345
 31
0.0
  0
LINE
  5
127
330
1F
100
AcDbEntity
  8
0
  6
Continuous
 62
     7
370
    25
100
AcDbLine
 10
0.1147136808
 20
0.1795693557
 30
0.0
 11
0.1116271238
 21
0.1814607998
 31
0.0
  0
LINE
  5
128
330
1F
100
AcDbEntity
  8
0
  6
Continuous
 62
     7
370
    25
100
AcDbLine
 10
0.1113423361
 20
0.1816353116
 30
0.0
 11
0.1082557791
 21
0.1835267558
 31
0.0
  0
LINE
  5
129
330
1F
100
AcDbEntity
  8
0
  6
Continuous
 62
     7
370
    25
100
AcDbLine
 10
0.1122254678
 20
0.1898457692
 30
0.0
 11
0.1152412228
 21
0.1879977112
 31
0.0
  0
LINE
  5
12A
330
1F
100
AcDbEntity
  8
0
  6
Continuous
 62
     7
370
    25
100
AcDbLine
 10
0.1155260067
 20
0.1878232022
 30
0.0
 11
0.1185417616
 21
0.1859751442
 31
0.0
  0
LINE
  5
12B
330
1F
100
AcDbEntity
  8
0
  6
Continuous
 62
     7
370
    25
100
AcDbLine
 10
0.1188163739
 20
0.1864378413
 30
0.0
 11
0.1158071087
 21
0.1882819157
 31
0.0
  0
LINE
  5
12C
330
1F
100
AcDbEntity
  8
0
  6
Continuous
 62
     7
370
    25
100
AcDbLine
 10
0.1155223267
 20
0.1884564352
 30
0.0
 11
0.1125130634
 21
0.19030052
 31
0.0
  0
LINE
  5
12D
330
1F
100
AcDbEntity
  8
0
  6
Continuous
 62
     7
370
    25
100
AcDbLine
 10
0.1262165264
 20
0.0994903986
 30
0.0
 11
0.1179156736
 21
0.1099260017
 31
0.0
  0
LINE
  5
12E
330
1F
100
AcDbEntity
  8
0
  6
Continuous
 62
     7
370
    25
100
AcDbLine
 10
0.1164197413
 20
0.1118066445
 30
0.0
 11
0.1134342457
 21
0.1155599311
 31
0.0
  0
LINE
  5
12F
330
1F
100
AcDbEntity
  8
0
  6
Continuous
 62
     7
370
    25
100
AcDbLine
 10
0.1119406393
 20
0.1174376487
 30
0.0
 11
0.1044701063
 21
0.1268293981
 31
0.0
  0
LINE
  5
130
330
1F
100
AcDbEntity
  8
0
  6
Continuous
 62
     7
370
    25
100
AcDbLine
 10
0.1029764999
 20
0.1287071157
 30
0.0
 11
0.0999910024
 21
0.1324604037
 31
0.0
  0
LINE
  5
131
330
1F
100
AcDbEntity
  8
0
  6
Continuous
 62
     7
370
    25
100
AcDbLine
 10
0.098495072
 20
0.1343410451
 30
0.0
 11
0.090194297
 21
0.1447765491
 31
0.0
  0
LINE
  5
132
330
1F
100
AcDbEntity
  8
0
  6
Continuous
 62
     7
370
    25
100
AcDbLine
 10
0.0899328975
 20
0.1445686423
 30
0.0
 11
0.0982336811
 21
0.1341331259
 31
0.0
  0
LINE
  5
133
330
1F
100
AcDbEntity
  8
0
  6
Continuous
 62
     7
370
    25
100
AcDbLine
 10
0.0997296115
 20
0.1322524845
 30
0.0
 11
0.102715109
 21
0.1284991965
 31
0.0
  0
LINE
  5
134
330
1F
100
AcDbEntity
  8
0
  6
Continuous
 62
     7
370
    25
100
AcDbLine
 10
0.1042087154
 20
0.126621479
 30
0.0
 11
0.1116792484
 21
0.1172297295
 31
0.0
  0
LINE
  5
135
330
1F
100
AcDbEntity
  8
0
  6
Continuous
 62
     7
370
    25
100
AcDbLine
 10
0.1131728548
 20
0.115352012
 30
0.0
 11
0.1161583504
 21
0.1115987254
 31
0.0
  0
LINE
  5
136
330
1F
100
AcDbEntity
  8
0
  6
Continuous
 62
     7
370
    25
100
AcDbLine
 10
0.1176542827
 20
0.1097180826
 30
0.0
 11
0.1259550635
 21
0.0992825743
 31
0.0
  0
LINE
  5
137
330
1F
100
AcDbEntity
  8
0
  6
Continuous
 62
     7
370
    25
100
AcDbLine
 10
0.1179516728
 20
0.1099546368
 30
0.0
 11
0.116459351
 21
0.1118307455
 31
0.0
  0
LINE
  5
138
330
1F
100
AcDbEntity
  8
0
  6
Continuous
 62
     7
370
    25
100
AcDbLine
 10
0.1161259616
 20
0.1115655561
 30
0.0
 11
0.1176182835
 21
0.1096894475
 31
0.0
  0
LINE
  5
139
330
1F
100
AcDbEntity
  8
0
  6
Continuous
 62
     7
370
    25
100
AcDbLine
 10
0.113470244
 20
0.1155885669
 30
0.0
 11
0.1119766423
 21
0.1174662869
 31
0.0
  0
LINE
  5
13A
330
1F
100
AcDbEntity
  8
0
  6
Continuous
 62
     7
370
    25
100
AcDbLine
 10
0.1116432501
 20
0.1172010937
 30
0.0
 11
0.1131368546
 21
0.1153233776
 31
0.0
  0
LINE
  5
13B
330
1F
100
AcDbEntity
  8
0
  6
Continuous
 62
     7
370
    25
100
AcDbLine
 10
0.1045061046
 20
0.1268580339
 30
0.0
 11
0.103012501
 21
0.1287357553
 31
0.0
  0
LINE
  5
13C
330
1F
100
AcDbEntity
  8
0
  6
Continuous
 62
     7
370
    25
100
AcDbLine
 10
0.1026791088
 20
0.1284705622
 30
0.0
 11
0.1041727152
 21
0.1265928446
 31
0.0
  0
LINE
  5
13D
330
1F
100
AcDbEntity
  8
0
  6
Continuous
 62
     7
370
    25
100
AcDbLine
 10
0.100023396
 20
0.1324935754
 30
0.0
 11
0.0985310722
 21
0.1343696795
 31
0.0
  0
LINE
  5
13E
330
1F
100
AcDbEntity
  8
0
  6
Continuous
 62
     7
370
    25
100
AcDbLine
 10
0.0981976809
 20
0.1341044915
 30
0.0
 11
0.0996900018
 21
0.1322283836
 31
0.0
  0
ARC
  5
13F
330
1F
100
AcDbEntity
  8
0
  6
Continuous
 62
     7
370
    25
100
AcDbCircle
 10
0.1214881159
 20
0.1975008055
 30
0.0
 40
0.000006
100
AcDbArc
 50
328.5
 51
10.5412668334
  0
ARC
  5
140
330
1F
100
AcDbEntity
  8
0
  6
Continuous
 62
     7
370
    25
100
AcDbCircle
 10
0.1211572916
 20
0.1977035349
 30
0.0
 40
0.000006
100
AcDbArc
 50
106.4587331668
 51
148.5000000001
  0
LINE
  5
141
330
1F
100
AcDbEntity
  8
0
  6
Continuous
 62
     7
370
    25
100
AcDbLine
 10
0.1214871164
 20
0.1974876899
 30
0.0
 11
0.1214932338
 21
0.1974976726
 31
0.0
  0
LINE
  5
142
330
1F
100
AcDbEntity
  8
0
  6
Continuous
 62
     7
370
    25
100
AcDbLine
 10
0.1211521748
 20
0.1977066692
 30
0.0
 11
0.1211460574
 21
0.1976966864
 31
0.0
  0
ARC
  5
143
330
1F
100
AcDbEntity
  8
0
  6
Continuous
 62
     7
370
    25
100
AcDbCircle
 10
0.1211511734
 20
0.1976935511
 30
0.0
 40
0.000006
100
AcDbArc
 50
148.5
 51
238.4999999999
  0
ARC
  5
144
330
1F
100
AcDbEntity
  8
0
  6
Continuous
 62
     7
370
    25
100
AcDbCircle
 10
0.1214819978
 20
0.1974908216
 30
0.0
 40
0.000006
100
AcDbArc
 50
238.5
 51
328.5000000002
  0
ARC
  5
145
330
1F
100
AcDbEntity
  8
0
  6
Continuous
 62
     7
370
    25
100
AcDbCircle
 10
0.1212313023
 20
0.1974530165
 30
0.0
 40
0.0002672222222222
100
AcDbArc
 50
70.4202219352
 51
106.4587331667
  0
ARC
  5
146
330
1F
100
AcDbEntity
  8
0
  6
Continuous
 62
     7
370
    25
100
AcDbCircle
 10
0.1212313023
 20
0.1974530165
 30
0.0
 40
0.0002672222222222
100
AcDbArc
 50
10.5412668333
 51
46.5797780648
  0
LINE
  5
147
330
1F
100
AcDbEntity
  8
0
  6
Continuous
 62
     7
370
    25
100
AcDbLine
 10
0.1214162353
 20
0.1975155694
 30
0.0
 11
0.1214200292
 21
0.1975217547
 31
0.0
  0
LINE
  5
148
330
1F
100
AcDbEntity
  8
0
  6
Continuous
 62
     7
370
    25
100
AcDbLine
 10
0.1212068744
 20
0.1976523842
 30
0.0
 11
0.1212030748
 21
0.1976461912
 31
0.0
  0
ARC
  5
149
330
1F
100
AcDbEntity
  8
0
  6
Continuous
 62
     7
370
    25
100
AcDbCircle
 10
0.0902518585
 20
0.0495529027
 30
0.0
 40
0.000006
100
AcDbArc
 50
143.5
 51
185.5412668333
  0
ARC
  5
14A
330
1F
100
AcDbEntity
  8
0
  6
Continuous
 62
     7
370
    25
100
AcDbCircle
 10
0.090563755
 20
0.0493221114
 30
0.0
 40
0.000006
100
AcDbArc
 50
281.4587331667
 51
323.5
  0
LINE
  5
14B
330
1F
100
AcDbEntity
  8
0
  6
Continuous
 62
     7
370
    25
100
AcDbLine
 10
0.0902540004
 20
0.0495658843
 30
0.0
 11
0.0902470354
 21
0.0495564716
 31
0.0
  0
LINE
  5
14C
330
1F
100
AcDbEntity
  8
0
  6
Continuous
 62
     7
370
    25
100
AcDbLine
 10
0.0905685782
 20
0.0493185425
 30
0.0
 11
0.0905755431
 21
0.0493279552
 31
0.0
  0
ARC
  5
14D
330
1F
100
AcDbEntity
  8
0
  6
Continuous
 62
     7
370
    25
100
AcDbCircle
 10
0.09057072
 20
0.0493315241
 30
0.0
 40
0.000006
100
AcDbArc
 50
323.5000000001
 51
53.5
  0
ARC
  5
14E
330
1F
100
AcDbEntity
  8
0
  6
Continuous
 62
     7
370
    25
100
AcDbCircle
 10
0.0902588235
 20
0.0495623153
 30
0.0
 40
0.000006
100
AcDbArc
 50
53.5000000001
 51
143.5
  0
ARC
  5
14F
330
1F
100
AcDbEntity
  8
0
  6
Continuous
 62
     7
370
    25
100
AcDbCircle
 10
0.0905118601
 20
0.049578127
 30
0.0
 40
0.0002672222222222
100
AcDbArc
 50
245.4998752574
 51
281.4587331667
  0
ARC
  5
150
330
1F
100
AcDbEntity
  8
0
  6
Continuous
 62
     7
370
    25
100
AcDbCircle
 10
0.0905118601
 20
0.049578127
 30
0.0
 40
0.0002672222222222
100
AcDbArc
 50
185.5412668333
 51
221.5001247426
  0
LINE
  5
151
330
1F
100
AcDbEntity
  8
0
  6
Continuous
 62
     7
370
    25
100
AcDbLine
 10
0.0903221759
 20
0.0495319302
 30
0.0
 11
0.0903178586
 21
0.0495260957
 31
0.0
  0
LINE
  5
152
330
1F
100
AcDbEntity
  8
0
  6
Continuous
 62
     7
370
    25
100
AcDbLine
 10
0.0905188228
 20
0.04937739
 30
0.0
 11
0.0905231401
 21
0.0493832245
 31
0.0
  0
ARC
  5
153
330
1F
100
AcDbEntity
  8
0
  6
Continuous
 62
     7
370
    25
100
AcDbCircle
 10
0.0888677242
 20
0.1464876534
 30
0.0
 40
0.000006
100
AcDbArc
 50
38.4999999999
 51
80.5412668333
  0
ARC
  5
154
330
1F
100
AcDbEntity
  8
0
  6
Continuous
 62
     7
370
    25
100
AcDbCircle
 10
0.0885640722
 20
0.1462461177
 30
0.0
 40
0.000006
100
AcDbArc
 50
176.4587331665
 51
218.4999999999
  0
ARC
  5
155
330
1F
100
AcDbEntity
  8
0
  6
Continuous
 62
     7
370
    25
100
AcDbCircle
 10
0.0885713614
 20
0.1462369539
 30
0.0
 40
0.000006
100
AcDbArc
 50
218.5000000001
 51
308.5
  0
ARC
  5
156
330
1F
100
AcDbEntity
  8
0
  6
Continuous
 62
     7
370
    25
100
AcDbCircle
 10
0.0888750134
 20
0.1464784896
 30
0.0
 40
0.000006
100
AcDbArc
 50
308.5
 51
38.5000000001
  0
LINE
  5
157
330
1F
100
AcDbEntity
  8
0
  6
Continuous
 62
     7
370
    25
100
AcDbLine
 10
0.0888797092
 20
0.1464822225
 30
0.0
 11
0.088872421
 21
0.1464913881
 31
0.0
  0
LINE
  5
158
330
1F
100
AcDbEntity
  8
0
  6
Continuous
 62
     7
370
    25
100
AcDbLine
 10
0.0885593744
 20
0.1462423831
 30
0.0
 11
0.0885666654
 21
0.1462332213
 31
0.0
  0
ARC
  5
159
330
1F
100
AcDbEntity
  8
0
  6
Continuous
 62
     7
370
    25
100
AcDbCircle
 10
0.0888247956
 20
0.1462299827
 30
0.0
 40
0.0002672222222222
100
AcDbArc
 50
139.9980287265
 51
176.4587331667
  0
ARC
  5
15A
330
1F
100
AcDbEntity
  8
0
  6
Continuous
 62
     7
370
    25
100
AcDbCircle
 10
0.0888247956
 20
0.1462299827
 30
0.0
 40
0.0002672222222222
100
AcDbArc
 50
80.5412668333
 51
117.0019712735
  0
LINE
  5
15B
330
1F
100
AcDbEntity
  8
0
  6
Continuous
 62
     7
370
    25
100
AcDbLine
 10
0.0888292686
 20
0.1464251587
 30
0.0
 11
0.0888247476
 21
0.1464308412
 31
0.0
  0
LINE
  5
15C
330
1F
100
AcDbEntity
  8
0
  6
Continuous
 62
     7
370
    25
100
AcDbLine
 10
0.0886290987
 20
0.1462752122
 30
0.0
 11
0.0886336159
 21
0.1462695325
 31
0.0
  0
ARC
  5
15D
330
1F
100
AcDbEntity
  8
0
  6
Continuous
 62
     7
370
    25
100
AcDbCircle
 10
0.1272816307
 20
0.0975714758
 30
0.0
 40
0.000006
100
AcDbArc
 50
218.5
 51
260.5412668333
  0
ARC
  5
15E
330
1F
100
AcDbEntity
  8
0
  6
Continuous
 62
     7
370
    25
100
AcDbCircle
 10
0.1275852826
 20
0.0978130114
 30
0.0
 40
0.000006
100
AcDbArc
 50
356.4587331665
 51
38.4999999999
  0
LINE
  5
15F
330
1F
100
AcDbEntity
  8
0
  6
Continuous
 62
     7
370
    25
100
AcDbLine
 10
0.127269646
 20
0.0975769048
 30
0.0
 11
0.127276934
 21
0.0975677393
 31
0.0
  0
LINE
  5
160
330
1F
100
AcDbEntity
  8
0
  6
Continuous
 62
     7
370
    25
100
AcDbLine
 10
0.1275899781
 20
0.0978167462
 30
0.0
 11
0.1275826901
 21
0.0978259117
 31
0.0
  0
ARC
  5
161
330
1F
100
AcDbEntity
  8
0
  6
Continuous
 62
     7
370
    25
100
AcDbCircle
 10
0.1275779934
 20
0.0978221753
 30
0.0
 40
0.000006
100
AcDbArc
 50
38.5000000001
 51
128.5000000001
  0
ARC
  5
162
330
1F
100
AcDbEntity
  8
0
  6
Continuous
 62
     7
370
    25
100
AcDbCircle
 10
0.1272743414
 20
0.0975806396
 30
0.0
 40
0.000006
100
AcDbArc
 50
128.5000000001
 51
218.5000000001
  0
ARC
  5
163
330
1F
100
AcDbEntity
  8
0
  6
Continuous
 62
     7
370
    25
100
AcDbCircle
 10
0.1273245592
 20
0.0978291465
 30
0.0
 40
0.0002672222222222
100
AcDbArc
 50
320.0567105804
 51
356.4587331667
  0
ARC
  5
164
330
1F
100
AcDbEntity
  8
0
  6
Continuous
 62
     7
370
    25
100
AcDbCircle
 10
0.1273245592
 20
0.0978291465
 30
0.0
 40
0.0002672222222222
100
AcDbArc
 50
260.5412668333
 51
296.9432894196
  0
LINE
  5
165
330
1F
100
AcDbEntity
  8
0
  6
Continuous
 62
     7
370
    25
100
AcDbLine
 10
0.1273200873
 20
0.0976339681
 30
0.0
 11
0.1273246055
 21
0.0976282876
 31
0.0
  0
LINE
  5
166
330
1F
100
AcDbEntity
  8
0
  6
Continuous
 62
     7
370
    25
100
AcDbLine
 10
0.1275202594
 20
0.0977839189
 30
0.0
 11
0.1275157412
 21
0.0977895993
 31
0.0
  0
LINE
  5
167
330
1F
100
AcDbEntity
  8
0
  6
Continuous
 62
     7
370
    25
100
AcDbLine
 10
0.0965745847
 20
0.2527655046
 30
0.0
 11
0.0965699185
 21
0.2527762417
 31
0.0
  0
LINE
  5
168
330
1F
100
AcDbEntity
  8
0
  6
Continuous
 62
     7
370
    25
100
AcDbLine
 10
0.0962030893
 20
0.2526167428
 30
0.0
 11
0.0962077555
 21
0.2526060057
 31
0.0
  0
ARC
  5
169
330
1F
100
AcDbEntity
  8
0
  6
Continuous
 62
     7
370
    25
100
AcDbCircle
 10
0.0965644096
 20
0.2527738474
 30
0.0
 40
0.000006
100
AcDbArc
 50
23.4999974917
 51
65.5412643252
  0
ARC
  5
16A
330
1F
100
AcDbEntity
  8
0
  6
Continuous
 62
     7
370
    25
100
AcDbCircle
 10
0.0962085903
 20
0.2526191328
 30
0.0
 40
0.000006
100
AcDbArc
 50
161.458730659
 51
203.4999974923
  0
ARC
  5
16B
330
1F
100
AcDbEntity
  8
0
  6
Continuous
 62
     7
370
    25
100
AcDbCircle
 10
0.0962132594
 20
0.2526083946
 30
0.0
 40
0.000006
100
AcDbArc
 50
203.4999974917
 51
293.4999974922
  0
ARC
  5
16C
330
1F
100
AcDbEntity
  8
0
  6
Continuous
 62
     7
370
    25
100
AcDbCircle
 10
0.0965690787
 20
0.2527631092
 30
0.0
 40
0.000006
100
AcDbArc
 50
293.4999974921
 51
23.4999974921
  0
ARC
  5
16D
330
1F
100
AcDbEntity
  8
0
  6
Continuous
 62
     7
370
    25
100
AcDbCircle
 10
0.0964562537
 20
0.2525360673
 30
0.0
 40
0.0002672222222222
100
AcDbArc
 50
125.8244235
 51
161.4587306588
  0
ARC
  5
16E
330
1F
100
AcDbEntity
  8
0
  6
Continuous
 62
     7
370
    25
100
AcDbCircle
 10
0.0964562537
 20
0.2525360673
 30
0.0
 40
0.0002672222222222
100
AcDbArc
 50
65.5412643253
 51
101.1755714842
  0
LINE
  5
16F
330
1F
100
AcDbEntity
  8
0
  6
Continuous
 62
     7
370
    25
100
AcDbLine
 10
0.0965110923
 20
0.2527234373
 30
0.0
 11
0.0965081959
 21
0.2527300888
 31
0.0
  0
LINE
  5
170
330
1F
100
AcDbEntity
  8
0
  6
Continuous
 62
     7
370
    25
100
AcDbLine
 10
0.0962789266
 20
0.2526304086
 30
0.0
 11
0.096281823
 21
0.2526237572
 31
0.0
  0
LINE
  5
171
330
1F
100
AcDbEntity
  8
0
  6
Continuous
 62
     7
370
    25
100
AcDbLine
 10
0.1275568663
 20
0.099305345
 30
0.0
 11
0.1275638295
 21
0.0993147552
 31
0.0
  0
LINE
  5
172
330
1F
100
AcDbEntity
  8
0
  6
Continuous
 62
     7
370
    25
100
AcDbLine
 10
0.1272422867
 20
0.0995526843
 30
0.0
 11
0.1272353235
 21
0.0995432741
 31
0.0
  0
ARC
  5
173
330
1F
100
AcDbEntity
  8
0
  6
Continuous
 62
     7
370
    25
100
AcDbCircle
 10
0.1275590073
 20
0.0993183254
 30
0.0
 40
0.000006
100
AcDbArc
 50
323.5
 51
5.5412668333
  0
ARC
  5
174
330
1F
100
AcDbEntity
  8
0
  6
Continuous
 62
     7
370
    25
100
AcDbCircle
 10
0.1272471108
 20
0.0995491167
 30
0.0
 40
0.000006
100
AcDbArc
 50
101.4587331668
 51
143.5
  0
ARC
  5
175
330
1F
100
AcDbEntity
  8
0
  6
Continuous
 62
     7
370
    25
100
AcDbCircle
 10
0.1272401458
 20
0.0995397041
 30
0.0
 40
0.000006
100
AcDbArc
 50
143.5
 51
233.5
  0
ARC
  5
176
330
1F
100
AcDbEntity
  8
0
  6
Continuous
 62
     7
370
    25
100
AcDbCircle
 10
0.1275520423
 20
0.0993089128
 30
0.0
 40
0.000006
100
AcDbArc
 50
233.5
 51
323.5
  0
ARC
  5
177
330
1F
100
AcDbEntity
  8
0
  6
Continuous
 62
     7
370
    25
100
AcDbCircle
 10
0.1272990058
 20
0.0992931011
 30
0.0
 40
0.0002672222222222
100
AcDbArc
 50
65.2062590061
 51
101.4587331667
  0
ARC
  5
178
330
1F
100
AcDbEntity
  8
0
  6
Continuous
 62
     7
370
    25
100
AcDbCircle
 10
0.1272990058
 20
0.0992931011
 30
0.0
 40
0.0002672222222222
100
AcDbArc
 50
5.5412668333
 51
41.7937409939
  0
LINE
  5
179
330
1F
100
AcDbEntity
  8
0
  6
Continuous
 62
     7
370
    25
100
AcDbLine
 10
0.1274886891
 20
0.0993392969
 30
0.0
 11
0.127493006
 21
0.0993451308
 31
0.0
  0
LINE
  5
17A
330
1F
100
AcDbEntity
  8
0
  6
Continuous
 62
     7
370
    25
100
AcDbLine
 10
0.1272920418
 20
0.0994938365
 30
0.0
 11
0.1272877249
 21
0.0994880026
 31
0.0
  0
ARC
  5
17B
330
1F
100
AcDbEntity
  8
0
  6
Continuous
 62
     7
370
    25
100
AcDbCircle
 10
0.0889972171
 20
0.1444804773
 30
0.0
 40
0.000006
100
AcDbArc
 50
328.5
 51
58.4999999999
  0
ARC
  5
17C
330
1F
100
AcDbEntity
  8
0
  6
Continuous
 62
     7
370
    25
100
AcDbCircle
 10
0.0886663927
 20
0.1446832068
 30
0.0
 40
0.000006
100
AcDbArc
 50
58.5000000001
 51
148.5
  0
ARC
  5
17D
330
1F
100
AcDbEntity
  8
0
  6
Continuous
 62
     7
370
    25
100
AcDbCircle
 10
0.0886602746
 20
0.1446732229
 30
0.0
 40
0.000006
100
AcDbArc
 50
148.5000000003
 51
190.5412668337
  0
ARC
  5
17E
330
1F
100
AcDbEntity
  8
0
  6
Continuous
 62
     7
370
    25
100
AcDbCircle
 10
0.088991099
 20
0.1444704935
 30
0.0
 40
0.000006
100
AcDbArc
 50
286.4587331668
 51
328.5
  0
LINE
  5
17F
330
1F
100
AcDbEntity
  8
0
  6
Continuous
 62
     7
370
    25
100
AcDbLine
 10
0.0886612791
 20
0.1446863422
 30
0.0
 11
0.0886551588
 21
0.1446763557
 31
0.0
  0
LINE
  5
180
330
1F
100
AcDbEntity
  8
0
  6
Continuous
 62
     7
370
    25
100
AcDbLine
 10
0.0889962178
 20
0.1444673591
 30
0.0
 11
0.0890023352
 21
0.1444773418
 31
0.0
  0
ARC
  5
181
330
1F
100
AcDbEntity
  8
0
  6
Continuous
 62
     7
370
    25
100
AcDbCircle
 10
0.0889170882
 20
0.1447210119
 30
0.0
 40
0.0002672222222222
100
AcDbArc
 50
250.4652937483
 51
286.4587331667
  0
ARC
  5
182
330
1F
100
AcDbEntity
  8
0
  6
Continuous
 62
     7
370
    25
100
AcDbCircle
 10
0.0889170882
 20
0.1447210119
 30
0.0
 40
0.0002672222222222
100
AcDbArc
 50
190.5412668333
 51
226.5347062517
  0
LINE
  5
183
330
1F
100
AcDbEntity
  8
0
  6
Continuous
 62
     7
370
    25
100
AcDbLine
 10
0.0887321507
 20
0.1446584579
 30
0.0
 11
0.0887283606
 21
0.1446522697
 31
0.0
  0
LINE
  5
184
330
1F
100
AcDbEntity
  8
0
  6
Continuous
 62
     7
370
    25
100
AcDbLine
 10
0.0889415182
 20
0.1445216441
 30
0.0
 11
0.0889453112
 21
0.1445278361
 31
0.0
  0
ARC
  5
185
330
1F
100
AcDbEntity
  8
0
  6
Continuous
 62
     7
370
    25
100
AcDbCircle
 10
0.1213601033
 20
0.1957476492
 30
0.0
 40
0.000006
100
AcDbArc
 50
23.4999974923
 51
113.499997492
  0
ARC
  5
186
330
1F
100
AcDbEntity
  8
0
  6
Continuous
 62
     7
370
    25
100
AcDbCircle
 10
0.121004284
 20
0.1955929346
 30
0.0
 40
0.000006
100
AcDbArc
 50
113.499997492
 51
203.4999974923
  0
ARC
  5
187
330
1F
100
AcDbEntity
  8
0
  6
Continuous
 62
     7
370
    25
100
AcDbCircle
 10
0.1210089531
 20
0.1955821964
 30
0.0
 40
0.000006
100
AcDbArc
 50
203.4999974922
 51
245.5412643253
  0
ARC
  5
188
330
1F
100
AcDbEntity
  8
0
  6
Continuous
 62
     7
370
    25
100
AcDbCircle
 10
0.1213647724
 20
0.195736911
 30
0.0
 40
0.000006
100
AcDbArc
 50
341.4587306587
 51
23.499997492
  0
LINE
  5
189
330
1F
100
AcDbEntity
  8
0
  6
Continuous
 62
     7
370
    25
100
AcDbLine
 10
0.1209987818
 20
0.1955905396
 30
0.0
 11
0.1210034479
 21
0.1955798025
 31
0.0
  0
LINE
  5
18A
330
1F
100
AcDbEntity
  8
0
  6
Continuous
 62
     7
370
    25
100
AcDbLine
 10
0.1213702733
 20
0.1957393043
 30
0.0
 11
0.1213656072
 21
0.1957500414
 31
0.0
  0
ARC
  5
18B
330
1F
100
AcDbEntity
  8
0
  6
Continuous
 62
     7
370
    25
100
AcDbCircle
 10
0.1211171089
 20
0.1958199765
 30
0.0
 40
0.0002672222222222
100
AcDbArc
 50
305.4652912404
 51
341.4587306588
  0
ARC
  5
18C
330
1F
100
AcDbEntity
  8
0
  6
Continuous
 62
     7
370
    25
100
AcDbCircle
 10
0.1211171089
 20
0.1958199765
 30
0.0
 40
0.0002672222222222
100
AcDbArc
 50
245.5412643254
 51
281.5347037437
  0
LINE
  5
18D
330
1F
100
AcDbEntity
  8
0
  6
Continuous
 62
     7
370
    25
100
AcDbLine
 10
0.1210622742
 20
0.1956326069
 30
0.0
 11
0.1210651649
 21
0.1956259478
 31
0.0
  0
LINE
  5
18E
330
1F
100
AcDbEntity
  8
0
  6
Continuous
 62
     7
370
    25
100
AcDbLine
 10
0.121294436
 20
0.1957256384
 30
0.0
 11
0.1212915358
 21
0.1957322927
 31
0.0
  0
LINE
  5
18F
330
1F
100
AcDbEntity
  8
0
  6
Continuous
 62
     7
370
    25
100
AcDbLine
 10
0.118601045
 20
0.0875384818
 30
0.0
 11
0.1187722665
 21
0.0874117846
 31
0.0
  0
LINE
  5
190
330
1F
100
AcDbEntity
  8
0
  6
Continuous
 62
     7
370
    25
100
AcDbLine
 10
0.1184298235
 20
0.0876651791
 30
0.0
 11
0.118601045
 21
0.0875384818
 31
0.0
  0
LINE
  5
191
330
1F
100
AcDbEntity
  8
0
  6
Continuous
 62
     7
370
    25
100
AcDbLine
 10
0.1200286183
 20
0.0894677364
 30
0.0
 11
0.1201998398
 21
0.0893410392
 31
0.0
  0
LINE
  5
192
330
1F
100
AcDbEntity
  8
0
  6
Continuous
 62
     7
370
    25
100
AcDbLine
 10
0.1198573968
 20
0.0895944337
 30
0.0
 11
0.1200286183
 21
0.0894677364
 31
0.0
  0
LINE
  5
193
330
1F
100
AcDbEntity
  8
0
  6
Continuous
 62
     7
370
    25
100
AcDbLine
 10
0.1037304753
 20
0.0674420603
 30
0.0
 11
0.1039016968
 21
0.067315363
 31
0.0
  0
LINE
  5
194
330
1F
100
AcDbEntity
  8
0
  6
Continuous
 62
     7
370
    25
100
AcDbLine
 10
0.1035592538
 20
0.0675687575
 30
0.0
 11
0.1037304753
 21
0.0674420603
 31
0.0
  0
LINE
  5
195
330
1F
100
AcDbEntity
  8
0
  6
Continuous
 62
     7
370
    25
100
AcDbLine
 10
0.1051580487
 20
0.0693713149
 30
0.0
 11
0.1053292702
 21
0.0692446177
 31
0.0
  0
LINE
  5
196
330
1F
100
AcDbEntity
  8
0
  6
Continuous
 62
     7
370
    25
100
AcDbLine
 10
0.1049868272
 20
0.0694980122
 30
0.0
 11
0.1051580487
 21
0.0693713149
 31
0.0
  0
LINE
  5
197
330
1F
100
AcDbEntity
  8
0
  6
Continuous
 62
     7
370
    25
100
AcDbLine
 10
0.1072033753
 20
0.1664983388
 30
0.0
 11
0.1068401449
 21
0.1667209178
 31
0.0
  0
LINE
  5
198
330
1F
100
AcDbEntity
  8
0
  6
Continuous
 62
     7
370
    25
100
AcDbLine
 10
0.1059493768
 20
0.1644519992
 30
0.0
 11
0.1055861521
 21
0.1646745858
 31
0.0
  0
LINE
  5
199
330
1F
100
AcDbEntity
  8
0
  6
Continuous
 62
     7
370
    25
100
AcDbLine
 10
0.1071250108
 20
0.1824968169
 30
0.0
 11
0.1074882317
 21
0.182274233
 31
0.0
  0
LINE
  5
19A
330
1F
100
AcDbEntity
  8
0
  6
Continuous
 62
     7
370
    25
100
AcDbLine
 10
0.1083790036
 20
0.1845431488
 30
0.0
 11
0.1087422245
 21
0.184320565
 31
0.0
  0
LINE
  5
19B
330
1F
100
AcDbEntity
  8
0
  6
Continuous
 62
     7
370
    25
100
AcDbLine
 10
0.1067045893
 20
0.0714613446
 30
0.0
 11
0.1068758108
 21
0.0713346473
 31
0.0
  0
LINE
  5
19C
330
1F
100
AcDbEntity
  8
0
  6
Continuous
 62
     7
370
    25
100
AcDbLine
 10
0.1065333678
 20
0.0715880418
 30
0.0
 11
0.1067045893
 21
0.0714613446
 31
0.0
  0
LINE
  5
19D
330
1F
100
AcDbEntity
  8
0
  6
Continuous
 62
     7
370
    25
100
AcDbLine
 10
0.1081321626
 20
0.0733905992
 30
0.0
 11
0.1083033841
 21
0.073263902
 31
0.0
  0
LINE
  5
19E
330
1F
100
AcDbEntity
  8
0
  6
Continuous
 62
     7
370
    25
100
AcDbLine
 10
0.1079609411
 20
0.0735172965
 30
0.0
 11
0.1081321626
 21
0.0733905992
 31
0.0
  0
LINE
  5
19F
330
1F
100
AcDbEntity
  8
0
  6
Continuous
 62
     7
370
    25
100
AcDbLine
 10
0.1230027323
 20
0.0934870207
 30
0.0
 11
0.1231739538
 21
0.0933603235
 31
0.0
  0
LINE
  5
1A0
330
1F
100
AcDbEntity
  8
0
  6
Continuous
 62
     7
370
    25
100
AcDbLine
 10
0.1228315108
 20
0.093613718
 30
0.0
 11
0.1230027323
 21
0.0934870207
 31
0.0
  0
LINE
  5
1A1
330
1F
100
AcDbEntity
  8
0
  6
Continuous
 62
     7
370
    25
100
AcDbLine
 10
0.1215751589
 20
0.0915577661
 30
0.0
 11
0.1217463805
 21
0.0914310689
 31
0.0
  0
LINE
  5
1A2
330
1F
100
AcDbEntity
  8
0
  6
Continuous
 62
     7
370
    25
100
AcDbLine
 10
0.1214039374
 20
0.0916844634
 30
0.0
 11
0.1215751589
 21
0.0915577661
 31
0.0
  0
LINE
  5
1A3
330
1F
100
AcDbEntity
  8
0
  6
Continuous
 62
     7
370
    25
100
AcDbLine
 10
0.1111062765
 20
0.0774098835
 30
0.0
 11
0.111277498
 21
0.0772831863
 31
0.0
  0
LINE
  5
1A4
330
1F
100
AcDbEntity
  8
0
  6
Continuous
 62
     7
370
    25
100
AcDbLine
 10
0.110935055
 20
0.0775365808
 30
0.0
 11
0.1111062765
 21
0.0774098835
 31
0.0
  0
LINE
  5
1A5
330
1F
100
AcDbEntity
  8
0
  6
Continuous
 62
     7
370
    25
100
AcDbLine
 10
0.1096787032
 20
0.0754806289
 30
0.0
 11
0.1098499247
 21
0.0753539317
 31
0.0
  0
LINE
  5
1A6
330
1F
100
AcDbEntity
  8
0
  6
Continuous
 62
     7
370
    25
100
AcDbLine
 10
0.1095074817
 20
0.0756073261
 30
0.0
 11
0.1096787032
 21
0.0754806289
 31
0.0
  0
LINE
  5
1A7
330
1F
100
AcDbEntity
  8
0
  6
Continuous
 62
     7
370
    25
100
AcDbLine
 10
0.1156269311
 20
0.0835191975
 30
0.0
 11
0.1157981526
 21
0.0833925003
 31
0.0
  0
LINE
  5
1A8
330
1F
100
AcDbEntity
  8
0
  6
Continuous
 62
     7
370
    25
100
AcDbLine
 10
0.1154557096
 20
0.0836458948
 30
0.0
 11
0.1156269311
 21
0.0835191975
 31
0.0
  0
LINE
  5
1A9
330
1F
100
AcDbEntity
  8
0
  6
Continuous
 62
     7
370
    25
100
AcDbLine
 10
0.1170545044
 20
0.0854484521
 30
0.0
 11
0.1172257259
 21
0.0853217549
 31
0.0
  0
LINE
  5
1AA
330
1F
100
AcDbEntity
  8
0
  6
Continuous
 62
     7
370
    25
100
AcDbLine
 10
0.1168832829
 20
0.0855751494
 30
0.0
 11
0.1170545044
 21
0.0854484521
 31
0.0
  0
LINE
  5
1AB
330
1F
100
AcDbEntity
  8
0
  6
Continuous
 62
     7
370
    25
100
AcDbLine
 10
0.0992098215
 20
0.0613327473
 30
0.0
 11
0.099381043
 21
0.06120605
 31
0.0
  0
LINE
  5
1AC
330
1F
100
AcDbEntity
  8
0
  6
Continuous
 62
     7
370
    25
100
AcDbLine
 10
0.0990386
 20
0.0614594445
 30
0.0
 11
0.0992098215
 21
0.0613327473
 31
0.0
  0
LINE
  5
1AD
330
1F
100
AcDbEntity
  8
0
  6
Continuous
 62
     7
370
    25
100
AcDbLine
 10
0.0977822468
 20
0.0594034907
 30
0.0
 11
0.0979534683
 21
0.0592767935
 31
0.0
  0
LINE
  5
1AE
330
1F
100
AcDbEntity
  8
0
  6
Continuous
 62
     7
370
    25
100
AcDbLine
 10
0.0976110253
 20
0.059530188
 30
0.0
 11
0.0977822468
 21
0.0594034907
 31
0.0
  0
LINE
  5
1AF
330
1F
100
AcDbEntity
  8
0
  6
Continuous
 62
     7
370
    25
100
AcDbLine
 10
0.1126528171
 20
0.0794999132
 30
0.0
 11
0.1128240386
 21
0.079373216
 31
0.0
  0
LINE
  5
1B0
330
1F
100
AcDbEntity
  8
0
  6
Continuous
 62
     7
370
    25
100
AcDbLine
 10
0.1124815956
 20
0.0796266105
 30
0.0
 11
0.1126528171
 21
0.0794999132
 31
0.0
  0
LINE
  5
1B1
330
1F
100
AcDbEntity
  8
0
  6
Continuous
 62
     7
370
    25
100
AcDbLine
 10
0.1140803905
 20
0.0814291678
 30
0.0
 11
0.114251612
 21
0.0813024706
 31
0.0
  0
LINE
  5
1B2
330
1F
100
AcDbEntity
  8
0
  6
Continuous
 62
     7
370
    25
100
AcDbLine
 10
0.113909169
 20
0.0815558651
 30
0.0
 11
0.1140803905
 21
0.0814291678
 31
0.0
  0
LINE
  5
1B3
330
1F
100
AcDbEntity
  8
0
  6
Continuous
 62
     7
370
    25
100
AcDbLine
 10
0.1021839354
 20
0.0653520316
 30
0.0
 11
0.102355157
 21
0.0652253343
 31
0.0
  0
LINE
  5
1B4
330
1F
100
AcDbEntity
  8
0
  6
Continuous
 62
     7
370
    25
100
AcDbLine
 10
0.1020127139
 20
0.0654787288
 30
0.0
 11
0.1021839354
 21
0.0653520316
 31
0.0
  0
LINE
  5
1B5
330
1F
100
AcDbEntity
  8
0
  6
Continuous
 62
     7
370
    25
100
AcDbLine
 10
0.1007563607
 20
0.063422775
 30
0.0
 11
0.1009275822
 21
0.0632960778
 31
0.0
  0
LINE
  5
1B6
330
1F
100
AcDbEntity
  8
0
  6
Continuous
 62
     7
370
    25
100
AcDbLine
 10
0.1005851392
 20
0.0635494723
 30
0.0
 11
0.1007563607
 21
0.063422775
 31
0.0
  0
LINE
  5
1B7
330
1F
100
AcDbEntity
  8
0
  6
Continuous
 62
     7
370
    25
100
AcDbLine
 10
0.1155633509
 20
0.1801405783
 30
0.0
 11
0.1152001261
 21
0.1803631649
 31
0.0
  0
LINE
  5
1B8
330
1F
100
AcDbEntity
  8
0
  6
Continuous
 62
     7
370
    25
100
AcDbLine
 10
0.1143093524
 20
0.1780942386
 30
0.0
 11
0.1139461276
 21
0.1783168253
 31
0.0
  0
LINE
  5
1B9
330
1F
100
AcDbEntity
  8
0
  6
Continuous
 62
     7
370
    25
100
AcDbLine
 10
0.1029450202
 20
0.1756756933
 30
0.0
 11
0.1033082411
 21
0.1754531095
 31
0.0
  0
LINE
  5
1BA
330
1F
100
AcDbEntity
  8
0
  6
Continuous
 62
     7
370
    25
100
AcDbLine
 10
0.104199013
 20
0.1777220253
 30
0.0
 11
0.1045622396
 21
0.1774994491
 31
0.0
  0
LINE
  5
1BB
330
1F
100
AcDbEntity
  8
0
  6
Continuous
 62
     7
370
    25
100
AcDbLine
 10
0.0962357076
 20
0.057313463
 30
0.0
 11
0.0964069291
 21
0.0571867657
 31
0.0
  0
LINE
  5
1BC
330
1F
100
AcDbEntity
  8
0
  6
Continuous
 62
     7
370
    25
100
AcDbLine
 10
0.0960644861
 20
0.0574401602
 30
0.0
 11
0.0962357076
 21
0.057313463
 31
0.0
  0
LINE
  5
1BD
330
1F
100
AcDbEntity
  8
0
  6
Continuous
 62
     7
370
    25
100
AcDbLine
 10
0.0948081328
 20
0.0553842064
 30
0.0
 11
0.0949793543
 21
0.0552575092
 31
0.0
  0
LINE
  5
1BE
330
1F
100
AcDbEntity
  8
0
  6
Continuous
 62
     7
370
    25
100
AcDbLine
 10
0.0946369113
 20
0.0555109037
 30
0.0
 11
0.0948081328
 21
0.0553842064
 31
0.0
  0
LINE
  5
1BF
330
1F
100
AcDbEntity
  8
0
  6
Continuous
 62
     7
370
    25
100
AcDbLine
 10
0.1113833603
 20
0.1733194547
 30
0.0
 11
0.1110201355
 21
0.1735420414
 31
0.0
  0
LINE
  5
1C0
330
1F
100
AcDbEntity
  8
0
  6
Continuous
 62
     7
370
    25
100
AcDbLine
 10
0.1101293674
 20
0.1712731227
 30
0.0
 11
0.109766137
 21
0.1714957017
 31
0.0
  0
LINE
  5
1C1
330
1F
100
AcDbEntity
  8
0
  6
Continuous
 62
     7
370
    25
100
AcDbLine
 10
0.1017693862
 20
0.1576308756
 30
0.0
 11
0.1014061615
 21
0.1578534623
 31
0.0
  0
LINE
  5
1C2
330
1F
100
AcDbEntity
  8
0
  6
Continuous
 62
     7
370
    25
100
AcDbLine
 10
0.1030233847
 20
0.1596772153
 30
0.0
 11
0.10266016
 21
0.1598998019
 31
0.0
  0
LINE
  5
1C3
330
1F
100
AcDbEntity
  8
0
  6
Continuous
 62
     7
370
    25
100
AcDbLine
 10
0.0987650296
 20
0.1688545697
 30
0.0
 11
0.0991282505
 21
0.1686319859
 31
0.0
  0
LINE
  5
1C4
330
1F
100
AcDbEntity
  8
0
  6
Continuous
 62
     7
370
    25
100
AcDbLine
 10
0.1000190281
 20
0.1709009094
 30
0.0
 11
0.1003822528
 21
0.1706783227
 31
0.0
  0
LINE
  5
1C5
330
1F
100
AcDbEntity
  8
0
  6
Continuous
 62
     7
370
    25
100
AcDbLine
 10
0.0945850446
 20
0.1620334539
 30
0.0
 11
0.0949482694
 21
0.1618108672
 31
0.0
  0
LINE
  5
1C6
330
1F
100
AcDbEntity
  8
0
  6
Continuous
 62
     7
370
    25
100
AcDbLine
 10
0.0958390375
 20
0.1640797858
 30
0.0
 11
0.0962022622
 21
0.1638571992
 31
0.0
  0
LWPOLYLINE
  5
1C7
330
1F
100
AcDbEntity
  8
0
  6
Continuous
 62
     7
370
    25
100
AcDbPolyline
 90
       12
 70
   128
 43
0.0
 10
0.1203120989
 20
0.197671374
 10
0.1203440844
 20
0.1976848988
 10
0.1203749429
 20
0.1976971814
 10
0.1204033408
 20
0.1977077018
 10
0.12042803
 20
0.1977159838
 10
0.1204479312
 20
0.1977216752
 10
0.1204621782
 20
0.1977245271
 10
0.1204701422
 20
0.1977244117
 10
0.120471482
 20
0.1977213323
 10
0.1204661394
 20
0.1977154268
 10
0.1204543359
 20
0.1977069467
 10
0.1204373291
 20
0.1976966934
  0
LWPOLYLINE
  5
1C8
330
1F
100
AcDbEntity
  8
0
  6
Continuous
 62
     7
370
    25
100
AcDbPolyline
 90
       12
 70
   128
 43
0.0
 10
0.1201975208
 20
0.1975938733
 10
0.1201890705
 20
0.1975916081
 10
0.1201748292
 20
0.1975887638
 10
0.1201668651
 20
0.1975888793
 10
0.1201655253
 20
0.1975919587
 10
0.1201708717
 20
0.1975978613
 10
0.1201826657
 20
0.1976063366
 10
0.1202004042
 20
0.1976170095
 10
0.1202233005
 20
0.197629418
 10
0.1202503625
 20
0.197643015
 10
0.1202803999
 20
0.1976572101
 10
0.1203120989
 20
0.197671374
  0
LWPOLYLINE
  5
1C9
330
1F
100
AcDbEntity
  8
0
  6
Continuous
 62
     7
370
    25
100
AcDbPolyline
 90
       12
 70
   128
 43
0.0
 10
0.0972612619
 20
0.2506846626
 10
0.0972929627
 20
0.2506988369
 10
0.097323004
 20
0.2507130292
 10
0.097350066
 20
0.2507266262
 10
0.0973729623
 20
0.2507390347
 10
0.0973906969
 20
0.2507497104
 10
0.0974024947
 20
0.2507581829
 10
0.0974078317
 20
0.2507640807
 10
0.0974064919
 20
0.2507671601
 10
0.0973985373
 20
0.2507672804
 10
0.0973842884
 20
0.2507644418
 10
0.0973700885
 20
0.2507604991
  0
LWPOLYLINE
  5
1CA
330
1F
100
AcDbEntity
  8
0
  6
Continuous
 62
     7
370
    25
100
AcDbPolyline
 90
       12
 70
   128
 43
0.0
 10
0.0971315717
 20
0.2506567709
 10
0.097119021
 20
0.2506490927
 10
0.0971072232
 20
0.2506406202
 10
0.0971018749
 20
0.2506347071
 10
0.0971032147
 20
0.2506316277
 10
0.0971111883
 20
0.2506315171
 10
0.0971254296
 20
0.2506343614
 10
0.0971453326
 20
0.2506400633
 10
0.0971700256
 20
0.2506483424
 10
0.0971984197
 20
0.2506588657
 10
0.0972292783
 20
0.2506711482
 10
0.0972612619
 20
0.2506846626
  0
LWPOLYLINE
  5
1CB
330
1F
100
AcDbEntity
  8
0
  6
Continuous
 62
     7
370
    25
100
AcDbPolyline
 90
       14
 70
   128
 43
0.0
 10
0.1172315617
 20
0.2047561262
 10
0.1172675597
 20
0.2047714985
 10
0.1173025304
 20
0.2047858752
 10
0.1173352848
 20
0.2047987718
 10
0.1173647193
 20
0.2048097471
 10
0.1173898217
 20
0.2048184352
 10
0.1174097356
 20
0.2048245205
 10
0.117423787
 20
0.2048278138
 10
0.1174314961
 20
0.2048281954
 10
0.1174326016
 20
0.2048256571
 10
0.1174270611
 20
0.2048202778
 10
0.1174150734
 20
0.2048122543
 10
0.1173970338
 20
0.2048018398
 10
0.117394409
 20
0.2048004009
  0
LWPOLYLINE
  5
1CC
330
1F
100
AcDbEntity
  8
0
  6
Continuous
 62
     7
370
    25
100
AcDbPolyline
 90
       14
 70
   128
 43
0.0
 10
0.1170881145
 20
0.2046672199
 10
0.1170852747
 20
0.2046662841
 10
0.1170653589
 20
0.2046601883
 10
0.1170513075
 20
0.2046568951
 10
0.1170435984
 20
0.2046565134
 10
0.1170424985
 20
0.2046590594
 10
0.1170480334
 20
0.204664431
 10
0.1170600229
 20
0.2046724651
 10
0.1170780625
 20
0.2046828795
 10
0.1171015308
 20
0.2046953156
 10
0.1171296314
 20
0.2047093542
 10
0.1171614003
 20
0.2047245103
 10
0.1171957707
 20
0.2047402803
 10
0.1172315617
 20
0.2047561262
  0
ARC
  5
1CD
330
1F
100
AcDbEntity
  8
0
  6
Continuous
 62
     7
370
    25
100
AcDbCircle
 10
0.1166399972
 20
0.2062633807
 30
0.0
 40
0.0007766447010429
100
AcDbArc
 50
102.0264949009
 51
117.821308786
  0
ARC
  5
1CE
330
1F
100
AcDbEntity
  8
0
  6
Continuous
 62
     7
370
    25
100
AcDbCircle
 10
0.1165658323
 20
0.2061518681
 30
0.0
 40
0.0008488441091605
100
AcDbArc
 50
109.8553655132
 51
124.2985027996
  0
LWPOLYLINE
  5
1CF
330
1F
100
AcDbEntity
  8
0
  6
Continuous
 62
     7
370
    25
100
AcDbPolyline
 90
       14
 70
   128
 43
0.0
 10
0.1132484192
 20
0.2139167234
 10
0.1132843631
 20
0.2139322069
 10
0.1133191925
 20
0.2139469136
 10
0.1133517202
 20
0.2139603456
 10
0.113380841
 20
0.2139720514
 10
0.1134055562
 20
0.2139816192
 10
0.1134250249
 20
0.2139887221
 10
0.1134385922
 20
0.2139931328
 10
0.113445794
 20
0.2139946966
 10
0.113446373
 20
0.2139933547
 10
0.113440325
 20
0.2139891575
 10
0.1134278477
 20
0.2139822437
 10
0.1134093666
 20
0.213972844
 10
0.1134066934
 20
0.213971524
  0
LWPOLYLINE
  5
1D0
330
1F
100
AcDbEntity
  8
0
  6
Continuous
 62
     7
370
    25
100
AcDbPolyline
 90
       14
 70
   128
 43
0.0
 10
0.113100395
 20
0.2138383459
 10
0.1130976075
 20
0.2138372884
 10
0.1130781332
 20
0.2138301778
 10
0.1130645714
 20
0.2138257748
 10
0.1130573735
 20
0.2138242081
 10
0.1130567907
 20
0.2138255529
 10
0.1130628387
 20
0.21382975
 10
0.113075316
 20
0.2138366638
 10
0.1130937952
 20
0.213846053
 10
0.1131176507
 20
0.2138576094
 10
0.1131460612
 20
0.2138709204
 10
0.1131780719
 20
0.2138855536
 10
0.1132125798
 20
0.2139009964
 10
0.1132484192
 20
0.2139167234
  0
ARC
  5
1D1
330
1F
100
AcDbEntity
  8
0
  6
Continuous
 62
     7
370
    25
100
AcDbCircle
 10
0.1129976501
 20
0.2146410699
 30
0.0
 40
0.0016333454932527
100
AcDbArc
 50
108.0849630169
 51
115.5653067025
  0
ARC
  5
1D2
330
1F
100
AcDbEntity
  8
0
  6
Continuous
 62
     7
370
    25
100
AcDbCircle
 10
0.1129584138
 20
0.2144478753
 30
0.0
 40
0.0017946273679504
100
AcDbArc
 50
111.7707782314
 51
118.5780405017
  0
LWPOLYLINE
  5
1D3
330
1F
100
AcDbEntity
  8
0
  6
Continuous
 62
     7
370
    25
100
AcDbPolyline
 90
       14
 70
   128
 43
0.0
 10
0.1092647462
 20
0.2230785436
 10
0.1093006455
 20
0.2230941432
 10
0.1093353335
 20
0.2231091799
 10
0.1093676251
 20
0.2231231426
 10
0.1093964247
 20
0.2231355606
 10
0.1094207584
 20
0.2231460157
 10
0.1094397875
 20
0.2231541438
 10
0.1094528708
 20
0.223159672
 10
0.1094595595
 20
0.2231624103
 10
0.1094596158
 20
0.2231622619
 10
0.1094530509
 20
0.2231592421
 10
0.1094400895
 20
0.2231534458
 10
0.109421165
 20
0.2231450741
 10
0.1094184472
 20
0.2231438702
  0
LWPOLYLINE
  5
1D4
330
1F
100
AcDbEntity
  8
0
  6
Continuous
 62
     7
370
    25
100
AcDbPolyline
 90
       14
 70
   128
 43
0.0
 10
0.1091121449
 20
0.2230106949
 10
0.1091094097
 20
0.2230095156
 10
0.1090903807
 20
0.2230013875
 10
0.1090772974
 20
0.2229958593
 10
0.109070622
 20
0.222993123
 10
0.1090705524
 20
0.2229932694
 10
0.1090771172
 20
0.2229962892
 10
0.1090900786
 20
0.2230020855
 10
0.1091090031
 20
0.2230104572
 10
0.1091332439
 20
0.2230211234
 10
0.1091619699
 20
0.2230337145
 10
0.1091942072
 20
0.2230478122
 10
0.1092288565
 20
0.223062925
 10
0.1092647462
 20
0.2230785436
  0
LWPOLYLINE
  5
1D5
330
1F
100
AcDbEntity
  8
0
  6
Continuous
 62
     7
370
    25
100
AcDbPolyline
 90
       14
 70
   128
 43
0.0
 10
0.1083085933
 20
0.2252775443
 10
0.108344483
 20
0.2252931629
 10
0.1083791323
 20
0.2253082757
 10
0.1084113773
 20
0.2253223677
 10
0.1084401033
 20
0.2253349589
 10
0.1084643441
 20
0.2253456251
 10
0.1084832609
 20
0.2253540024
 10
0.1084962223
 20
0.2253597987
 10
0.1085027871
 20
0.2253628185
 10
0.1085027308
 20
0.2253629669
 10
0.1084960421
 20
0.2253602286
 10
0.1084829588
 20
0.2253547004
 10
0.1084639298
 20
0.2253465723
 10
0.1084611946
 20
0.225345393
  0
LWPOLYLINE
  5
1D6
330
1F
100
AcDbEntity
  8
0
  6
Continuous
 62
     7
370
    25
100
AcDbPolyline
 90
       14
 70
   128
 43
0.0
 10
0.1081549
 20
0.225212212
 10
0.1081521745
 20
0.2252110138
 10
0.10813325
 20
0.2252026421
 10
0.1081202886
 20
0.2251968458
 10
0.1081137237
 20
0.225193826
 10
0.1081137934
 20
0.2251936796
 10
0.1081204687
 20
0.2251964159
 10
0.108133552
 20
0.2252019441
 10
0.1081525811
 20
0.2252100722
 10
0.1081769148
 20
0.2252205273
 10
0.1082057144
 20
0.2252329453
 10
0.1082380117
 20
0.2252469157
 10
0.1082726996
 20
0.2252619524
 10
0.1083085933
 20
0.2252775443
  0
ARC
  5
1D7
330
1F
100
AcDbEntity
  8
0
  6
Continuous
 62
     7
370
    25
100
AcDbCircle
 10
0.1046830703
 20
0.2337630842
 30
0.0
 40
0.0016346112846343
100
AcDbArc
 50
291.4394730432
 51
298.9138601617
  0
ARC
  5
1D8
330
1F
100
AcDbEntity
  8
0
  6
Continuous
 62
     7
370
    25
100
AcDbCircle
 10
0.1045156069
 20
0.2338652344
 30
0.0
 40
0.001794822671651
100
AcDbArc
 50
288.4196136849
 51
295.2262916322
  0
LWPOLYLINE
  5
1D9
330
1F
100
AcDbEntity
  8
0
  6
Continuous
 62
     7
370
    25
100
AcDbPolyline
 90
       14
 70
   128
 43
0.0
 10
0.104324928
 20
0.2344393588
 10
0.1043607597
 20
0.2344550915
 10
0.1043952715
 20
0.2344705315
 10
0.104427286
 20
0.2344851618
 10
0.1044556926
 20
0.2344984757
 10
0.1044795481
 20
0.2345100321
 10
0.1044980273
 20
0.2345194213
 10
0.1045105008
 20
0.2345263379
 10
0.1045165488
 20
0.234530535
 10
0.1045159736
 20
0.2345318741
 10
0.1045087737
 20
0.2345303208
 10
0.1044952102
 20
0.2345259073
 10
0.1044757359
 20
0.2345187967
 10
0.1044729484
 20
0.2345177392
  0
LWPOLYLINE
  5
1DA
330
1F
100
AcDbEntity
  8
0
  6
Continuous
 62
     7
370
    25
100
AcDbPolyline
 90
       14
 70
   128
 43
0.0
 10
0.1041666538
 20
0.2343845582
 10
0.1041639805
 20
0.2343832382
 10
0.1041455013
 20
0.234373849
 10
0.1041330201
 20
0.2343669381
 10
0.1041269665
 20
0.2343627332
 10
0.104127555
 20
0.2343613961
 10
0.1041347472
 20
0.2343629551
 10
0.1041483185
 20
0.234367363
 10
0.1041677928
 20
0.2343744736
 10
0.1041925041
 20
0.2343840442
 10
0.1042216231
 20
0.2343957394
 10
0.1042541508
 20
0.2344091714
 10
0.1042889763
 20
0.234423881
 10
0.104324928
 20
0.2344393588
  0
ARC
  5
1DB
330
1F
100
AcDbEntity
  8
0
  6
Continuous
 62
     7
370
    25
100
AcDbCircle
 10
0.1010408662
 20
0.2421389705
 30
0.0
 40
0.0007762020531375
100
AcDbArc
 50
289.1753950287
 51
304.9784732841
  0
ARC
  5
1DC
330
1F
100
AcDbEntity
  8
0
  6
Continuous
 62
     7
370
    25
100
AcDbCircle
 10
0.1009086202
 20
0.2421610349
 30
0.0
 40
0.0008486758361106
100
AcDbArc
 50
282.69822626
 51
297.1446123398
  0
LWPOLYLINE
  5
1DD
330
1F
100
AcDbEntity
  8
0
  6
Continuous
 62
     7
370
    25
100
AcDbPolyline
 90
       14
 70
   128
 43
0.0
 10
0.1003417778
 20
0.2435999617
 10
0.1003775726
 20
0.2436158048
 10
0.1004119335
 20
0.2436315699
 10
0.1004437119
 20
0.2436467309
 10
0.1004718125
 20
0.2436607695
 10
0.100495277
 20
0.2436732084
 10
0.1005133223
 20
0.2436836305
 10
0.1005253099
 20
0.2436916541
 10
0.1005308486
 20
0.2436970229
 10
0.1005297449
 20
0.2436995717
 10
0.1005220302
 20
0.2436991823
 10
0.1005079787
 20
0.2436958891
 10
0.1004880705
 20
0.2436898114
 10
0.1004852307
 20
0.2436888756
  0
LWPOLYLINE
  5
1DE
330
1F
100
AcDbEntity
  8
0
  6
Continuous
 62
     7
370
    25
100
AcDbPolyline
 90
       14
 70
   128
 43
0.0
 10
0.1001789248
 20
0.2435556793
 10
0.1001763095
 20
0.2435542453
 10
0.1001582756
 20
0.2435438385
 10
0.1001462766
 20
0.2435357996
 10
0.1001407455
 20
0.2435304251
 10
0.1001418415
 20
0.243527882
 10
0.1001495563
 20
0.2435282713
 10
0.1001636078
 20
0.2435315645
 10
0.1001835273
 20
0.2435376575
 10
0.1002086183
 20
0.2435463303
 10
0.1002380547
 20
0.2435573162
 10
0.1002708129
 20
0.2435702099
 10
0.1003057893
 20
0.2435845942
 10
0.1003417778
 20
0.2435999617
  0
LINE
  5
1DF
330
1F
100
AcDbEntity
  8
0
  6
Continuous
 62
     7
370
    25
100
AcDbLine
 10
0.120410211
 20
0.1976965202
 30
0.0
 11
0.1202267964
 21
0.1976167708
 31
0.0
  0
LINE
  5
1E0
330
1F
100
AcDbEntity
  8
0
  6
Continuous
 62
     7
370
    25
100
AcDbLine
 10
0.0973465663
 20
0.2507392763
 30
0.0
 11
0.0971631517
 21
0.2506595268
 31
0.0
  0
LINE
  5
1E1
330
1F
100
AcDbEntity
  8
0
  6
Continuous
 62
     7
370
    25
100
AcDbLine
 10
0.0954794942
 20
0.1630854071
 30
0.0
 11
0.0953078126
 21
0.1628052459
 31
0.0
  0
LINE
  5
1E2
330
1F
100
AcDbEntity
  8
0
  6
Continuous
 62
     7
370
    25
100
AcDbLine
 10
0.1023006168
 20
0.1589054232
 30
0.0
 11
0.1021289295
 21
0.1586252543
 31
0.0
  0
LINE
  5
1E3
330
1F
100
AcDbEntity
  8
0
  6
Continuous
 62
     7
370
    25
100
AcDbLine
 10
0.0996594848
 20
0.1699065307
 30
0.0
 11
0.0994877975
 21
0.1696263618
 31
0.0
  0
LINE
  5
1E4
330
1F
100
AcDbEntity
  8
0
  6
Continuous
 62
     7
370
    25
100
AcDbLine
 10
0.1064806017
 20
0.1657265391
 30
0.0
 11
0.1063089201
 21
0.1654463779
 31
0.0
  0
LINE
  5
1E5
330
1F
100
AcDbEntity
  8
0
  6
Continuous
 62
     7
370
    25
100
AcDbLine
 10
0.1038394754
 20
0.1767276542
 30
0.0
 11
0.1036677881
 21
0.1764474854
 31
0.0
  0
LINE
  5
1E6
330
1F
100
AcDbEntity
  8
0
  6
Continuous
 62
     7
370
    25
100
AcDbLine
 10
0.1106605923
 20
0.1725476626
 30
0.0
 11
0.1104889107
 21
0.1722675014
 31
0.0
  0
LINE
  5
1E7
330
1F
100
AcDbEntity
  8
0
  6
Continuous
 62
     7
370
    25
100
AcDbLine
 10
0.1080194603
 20
0.1835487701
 30
0.0
 11
0.1078477749
 21
0.1832686118
 31
0.0
  0
LINE
  5
1E8
330
1F
100
AcDbEntity
  8
0
  6
Continuous
 62
     7
370
    25
100
AcDbLine
 10
0.1148405829
 20
0.1793687862
 30
0.0
 11
0.1146688956
 21
0.1790886173
 31
0.0
  0
LWPOLYLINE
  5
1E9
330
1F
100
AcDbEntity
  8
0
  6
Continuous
 62
     7
370
    25
100
AcDbPolyline
 90
       14
 70
   128
 43
0.0
 10
0.1177781092
 20
0.1098306781
 10
0.1178088564
 20
0.1098548949
 10
0.1178387906
 20
0.109877993
 10
0.1178668936
 20
0.1098991896
 10
0.1178922049
 20
0.1099177538
 10
0.1179138637
 20
0.1099330593
 10
0.117931136
 20
0.1099445873
 10
0.1179434303
 20
0.109951939
 10
0.1179503304
 20
0.1099548709
 10
0.1179515958
 20
0.1099532761
 10
0.1179471888
 20
0.1099472122
 10
0.1179372598
 20
0.1099368883
 10
0.117922145
 20
0.1099226546
 10
0.1179199388
 20
0.109920645
  0
LWPOLYLINE
  5
1EA
330
1F
100
AcDbEntity
  8
0
  6
Continuous
 62
     7
370
    25
100
AcDbPolyline
 90
       14
 70
   128
 43
0.0
 10
0.117658545
 20
0.109712722
 10
0.1176560916
 20
0.1097110257
 10
0.1176388193
 20
0.1096994978
 10
0.117626526
 20
0.1096921453
 10
0.1176196287
 20
0.1096892173
 10
0.1176183596
 20
0.1096908089
 10
0.1176227665
 20
0.1096968728
 10
0.1176326965
 20
0.109707196
 10
0.1176478131
 20
0.1097214343
 10
0.1176676008
 20
0.1097390972
 10
0.1176913834
 20
0.1097595815
 10
0.1177183557
 20
0.1097821961
 10
0.1177475976
 20
0.1098061684
 10
0.1177781092
 20
0.1098306781
  0
ARC
  5
1EB
330
1F
100
AcDbEntity
  8
0
  6
Continuous
 62
     7
370
    25
100
AcDbCircle
 10
0.1170146456
 20
0.1108847436
 30
0.0
 40
0.0010969373729285
100
AcDbArc
 50
120.4125552409
 51
131.5662782574
  0
ARC
  5
1EC
330
1F
100
AcDbEntity
  8
0
  6
Continuous
 62
     7
370
    25
100
AcDbCircle
 10
0.1169921945
 20
0.1107318906
 30
0.0
 40
0.0012022303366919
100
AcDbArc
 50
125.923351733
 51
136.0975630455
  0
ARC
  5
1ED
330
1F
100
AcDbEntity
  8
0
  6
Continuous
 62
     7
370
    25
100
AcDbCircle
 10
0.1182851418
 20
0.1092648176
 30
0.0
 40
0.0007574108435463
100
AcDbArc
 50
119.1963594056
 51
131.8719975919
  0
ARC
  5
1EE
330
1F
100
AcDbEntity
  8
0
  6
Continuous
 62
     7
370
    25
100
AcDbCircle
 10
0.1182155772
 20
0.1092091574
 30
0.0
 40
0.0007576650400447
100
AcDbArc
 50
125.1297758048
 51
137.8014355069
  0
LWPOLYLINE
  5
1EF
330
1F
100
AcDbEntity
  8
0
  6
Continuous
 62
     7
370
    25
100
AcDbPolyline
 90
       14
 70
   128
 43
0.0
 10
0.1132998504
 20
0.1154606193
 10
0.1133305428
 20
0.1154849064
 10
0.1133603174
 20
0.1155082056
 10
0.1133881589
 20
0.1155297262
 10
0.1134131183
 20
0.1155487347
 10
0.1134343444
 20
0.1155645858
 10
0.1134511187
 20
0.1155767373
 10
0.1134628687
 20
0.1155847765
 10
0.1134691939
 20
0.1155884304
 10
0.1134698746
 20
0.1155875708
 10
0.1134648955
 20
0.1155822328
 10
0.1134544175
 20
0.1155725938
 10
0.1134388057
 20
0.115558983
 10
0.1134365417
 20
0.1155570458
  0
LWPOLYLINE
  5
1F0
330
1F
100
AcDbEntity
  8
0
  6
Continuous
 62
     7
370
    25
100
AcDbPolyline
 90
       14
 70
   128
 43
0.0
 10
0.1131751509
 20
0.1153491266
 10
0.1131727514
 20
0.1153473549
 10
0.1131559771
 20
0.1153352033
 10
0.1131442289
 20
0.1153271627
 10
0.1131379066
 20
0.1153235127
 10
0.113137223
 20
0.1153243685
 10
0.113142205
 20
0.1153297103
 10
0.113152681
 20
0.1153393507
 10
0.1131682948
 20
0.1153529601
 10
0.1131885132
 20
0.1153700788
 10
0.1132126515
 20
0.115390122
 10
0.1132398825
 20
0.1154124087
 10
0.113269285
 20
0.1154361791
 10
0.1132998504
 20
0.1154606193
  0
ARC
  5
1F1
330
1F
100
AcDbEntity
  8
0
  6
Continuous
 62
     7
370
    25
100
AcDbCircle
 10
0.1142039851
 20
0.1143957035
 30
0.0
 40
0.0013956807085526
100
AcDbArc
 50
123.471038504
 51
130.3334760368
  0
ARC
  5
1F2
330
1F
100
AcDbEntity
  8
0
  6
Continuous
 62
     7
370
    25
100
AcDbCircle
 10
0.1141347812
 20
0.1143392805
 30
0.0
 40
0.0013967560473348
100
AcDbArc
 50
126.6689686418
 51
133.526187962
  0
ARC
  5
1F3
330
1F
100
AcDbEntity
  8
0
  6
Continuous
 62
     7
370
    25
100
AcDbCircle
 10
0.1133455732
 20
0.1154975236
 30
0.0
 40
0.0023979159334191
100
AcDbArc
 50
124.8118643263
 51
129.9039964376
  0
ARC
  5
1F4
330
1F
100
AcDbEntity
  8
0
  6
Continuous
 62
     7
370
    25
100
AcDbCircle
 10
0.1134033481
 20
0.1152436589
 30
0.0
 40
0.0026323935753292
100
AcDbArc
 50
127.3231394226
 51
131.9614349891
  0
LWPOLYLINE
  5
1F5
330
1F
100
AcDbEntity
  8
0
  6
Continuous
 62
     7
370
    25
100
AcDbPolyline
 90
       14
 70
   128
 43
0.0
 10
0.1028495043
 20
0.1285985083
 10
0.1028800726
 20
0.1286229524
 10
0.1029094703
 20
0.1286467204
 10
0.1029367032
 20
0.1286690057
 10
0.1029608396
 20
0.1286890503
 10
0.1029810599
 20
0.1287061676
 10
0.1029966718
 20
0.1287197784
 10
0.1030071478
 20
0.1287294187
 10
0.1030121317
 20
0.1287347592
 10
0.1030114481
 20
0.128735615
 10
0.1030051258
 20
0.1287319649
 10
0.1029933757
 20
0.1287239257
 10
0.1029766014
 20
0.1287117742
 10
0.1029742067
 20
0.1287100049
  0
LWPOLYLINE
  5
1F6
330
1F
100
AcDbEntity
  8
0
  6
Continuous
 62
     7
370
    25
100
AcDbPolyline
 90
       14
 70
   128
 43
0.0
 10
0.102712813
 20
0.1285020819
 10
0.102710549
 20
0.1285001446
 10
0.1026949353
 20
0.1284865352
 10
0.102684462
 20
0.1284768987
 10
0.1026794801
 20
0.1284715569
 10
0.1026801608
 20
0.1284706972
 10
0.102686486
 20
0.1284743511
 10
0.1026982341
 20
0.1284823917
 10
0.1027150084
 20
0.1284945433
 10
0.1027362364
 20
0.1285103929
 10
0.1027611959
 20
0.1285294014
 10
0.1027890373
 20
0.128550922
 10
0.10281881
 20
0.1285742227
 10
0.1028495043
 20
0.1285985083
  0
ARC
  5
1F7
330
1F
100
AcDbEntity
  8
0
  6
Continuous
 62
     7
370
    25
100
AcDbCircle
 10
0.1020148486
 20
0.1297195384
 30
0.0
 40
0.0013963427339061
100
AcDbArc
 50
306.6676688431
 51
313.5267296356
  0
ARC
  5
1F8
330
1F
100
AcDbEntity
  8
0
  6
Continuous
 62
     7
370
    25
100
AcDbCircle
 10
0.1019444031
 20
0.1296646962
 30
0.0
 40
0.0013972749068854
100
AcDbArc
 50
303.4753312432
 51
310.330117549
  0
ARC
  5
1F9
330
1F
100
AcDbEntity
  8
0
  6
Continuous
 62
     7
370
    25
100
AcDbCircle
 10
0.1028962515
 20
0.1286341906
 30
0.0
 40
0.0023971565496334
100
AcDbArc
 50
307.094533076
 51
312.188181922
  0
ARC
  5
1FA
330
1F
100
AcDbEntity
  8
0
  6
Continuous
 62
     7
370
    25
100
AcDbCircle
 10
0.1026626409
 20
0.12874645
 30
0.0
 40
0.0026302739516563
100
AcDbArc
 50
305.0375356705
 51
309.6795569424
  0
ARC
  5
1FB
330
1F
100
AcDbEntity
  8
0
  6
Continuous
 62
     7
370
    25
100
AcDbCircle
 10
0.0992268483
 20
0.1332471245
 30
0.0
 40
0.0010965056222409
100
AcDbArc
 50
305.4307285395
 51
316.5889351284
  0
ARC
  5
1FC
330
1F
100
AcDbEntity
  8
0
  6
Continuous
 62
     7
370
    25
100
AcDbCircle
 10
0.0990729735
 20
0.1332593777
 30
0.0
 40
0.0012015294009166
100
AcDbArc
 50
300.8996354533
 51
311.0799691553
  0
LWPOLYLINE
  5
1FD
330
1F
100
AcDbEntity
  8
0
  6
Continuous
 62
     7
370
    25
100
AcDbPolyline
 90
       14
 70
   128
 43
0.0
 10
0.0983712465
 20
0.1342284488
 10
0.09840176
 20
0.1342529631
 10
0.0984309981
 20
0.1342769323
 10
0.0984579704
 20
0.1342995468
 10
0.0984817558
 20
0.134320035
 10
0.0985015387
 20
0.1343376955
 10
0.0985166582
 20
0.1343519316
 10
0.0985265872
 20
0.1343622556
 10
0.0985309961
 20
0.134368318
 10
0.0985297279
 20
0.1343699149
 10
0.0985228297
 20
0.1343669816
 10
0.0985105335
 20
0.1343596313
 10
0.098493264
 20
0.1343481012
 10
0.0984908106
 20
0.134346405
  0
LWPOLYLINE
  5
1FE
330
1F
100
AcDbEntity
  8
0
  6
Continuous
 62
     7
370
    25
100
AcDbPolyline
 90
       14
 70
   128
 43
0.0
 10
0.0982294198
 20
0.1341384858
 10
0.0982272106
 20
0.1341364783
 10
0.0982120949
 20
0.1341222394
 10
0.0982021659
 20
0.1341119154
 10
0.098197757
 20
0.134105853
 10
0.0981990281
 20
0.1341042599
 10
0.0982059235
 20
0.1341071893
 10
0.0982182158
 20
0.1341145425
 10
0.0982354891
 20
0.1341260698
 10
0.0982571479
 20
0.1341413752
 10
0.0982824649
 20
0.1341599412
 10
0.0983105632
 20
0.1341811353
 10
0.0983404974
 20
0.1342042334
 10
0.0983712465
 20
0.1342284488
  0
ARC
  5
1FF
330
1F
100
AcDbEntity
  8
0
  6
Continuous
 62
     7
370
    25
100
AcDbCircle
 10
0.097933554
 20
0.1348502335
 30
0.0
 40
0.0007580075004816
100
AcDbArc
 50
305.132486676
 51
317.7980433398
  0
ARC
  5
200
330
1F
100
AcDbEntity
  8
0
  6
Continuous
 62
     7
370
    25
100
AcDbCircle
 10
0.0978637726
 20
0.1347949191
 30
0.0
 40
0.0007581573586272
100
AcDbArc
 50
299.202956928
 51
311.8664079347
  0
ARC
  5
201
330
1F
100
AcDbEntity
  8
0
  6
Continuous
 62
     7
370
    25
100
AcDbCircle
 10
0.1041283046
 20
0.1282438177
 30
0.0
 40
0.001
100
AcDbArc
 50
308.5
 51
38.5
  0
LINE
  5
202
330
1F
100
AcDbEntity
  8
0
  6
Continuous
 62
     7
370
    25
100
AcDbLine
 10
0.1047508176
 20
0.1274612079
 30
0.0
 11
0.1043070822
 21
0.1271082444
 31
0.0
  0
LINE
  5
203
330
1F
100
AcDbEntity
  8
0
  6
Continuous
 62
     7
370
    25
100
AcDbLine
 10
0.103973688
 20
0.1268430526
 30
0.0
 11
0.1035299498
 21
0.1264900853
 31
0.0
  0
ARC
  5
204
330
1F
100
AcDbEntity
  8
0
  6
Continuous
 62
     7
370
    25
100
AcDbCircle
 10
0.1029074359
 20
0.1272726949
 30
0.0
 40
0.001
100
AcDbArc
 50
218.5
 51
308.5
  0
LINE
  5
205
330
1F
100
AcDbEntity
  8
0
  6
Continuous
 62
     7
370
    25
100
AcDbLine
 10
0.1005782128
 20
0.1343132838
 30
0.0
 11
0.1049109124
 21
0.1288663321
 31
0.0
  0
LINE
  5
206
330
1F
100
AcDbEntity
  8
0
  6
Continuous
 62
     7
370
    25
100
AcDbLine
 10
0.1021248276
 20
0.1266501786
 30
0.0
 11
0.0977921261
 21
0.1320971318
 31
0.0
  0
ARC
  5
207
330
1F
100
AcDbEntity
  8
0
  6
Continuous
 62
     7
370
    25
100
AcDbCircle
 10
0.0997956028
 20
0.1336907705
 30
0.0
 40
0.001
100
AcDbArc
 50
38.5
 51
128.5
  0
ARC
  5
208
330
1F
100
AcDbEntity
  8
0
  6
Continuous
 62
     7
370
    25
100
AcDbCircle
 10
0.098574734
 20
0.1327196476
 30
0.0
 40
0.001
100
AcDbArc
 50
128.5
 51
218.5
  0
LINE
  5
209
330
1F
100
AcDbEntity
  8
0
  6
Continuous
 62
     7
370
    25
100
AcDbLine
 10
0.0979522209
 20
0.1335022559
 30
0.0
 11
0.098395961
 21
0.1338552219
 31
0.0
  0
LINE
  5
20A
330
1F
100
AcDbEntity
  8
0
  6
Continuous
 62
     7
370
    25
100
AcDbLine
 10
0.0987293485
 20
0.1341204126
 30
0.0
 11
0.0991730887
 21
0.1344733786
 31
0.0
  0
ARC
  5
20B
330
1F
100
AcDbEntity
  8
0
  6
Continuous
 62
     7
370
    25
100
AcDbCircle
 10
0.1175746208
 20
0.1113394815
 30
0.0
 40
0.001
100
AcDbArc
 50
308.5
 51
38.5
  0
LINE
  5
20C
330
1F
100
AcDbEntity
  8
0
  6
Continuous
 62
     7
370
    25
100
AcDbLine
 10
0.1140245272
 20
0.117408949
 30
0.0
 11
0.1183572286
 21
0.1119619959
 31
0.0
  0
LINE
  5
20D
330
1F
100
AcDbEntity
  8
0
  6
Continuous
 62
     7
370
    25
100
AcDbLine
 10
0.1181971339
 20
0.1105568717
 30
0.0
 11
0.1177533975
 21
0.1102039089
 31
0.0
  0
LINE
  5
20E
330
1F
100
AcDbEntity
  8
0
  6
Continuous
 62
     7
370
    25
100
AcDbLine
 10
0.1174200053
 20
0.1099387157
 30
0.0
 11
0.1169762661
 21
0.1095857491
 31
0.0
  0
ARC
  5
20F
330
1F
100
AcDbEntity
  8
0
  6
Continuous
 62
     7
370
    25
100
AcDbCircle
 10
0.1163537521
 20
0.1103683587
 30
0.0
 40
0.001
100
AcDbArc
 50
218.5
 51
308.5
  0
LINE
  5
210
330
1F
100
AcDbEntity
  8
0
  6
Continuous
 62
     7
370
    25
100
AcDbLine
 10
0.1155711429
 20
0.1097458432
 30
0.0
 11
0.1112384424
 21
0.1151927956
 31
0.0
  0
ARC
  5
211
330
1F
100
AcDbEntity
  8
0
  6
Continuous
 62
     7
370
    25
100
AcDbCircle
 10
0.1132419189
 20
0.1167864343
 30
0.0
 40
0.001
100
AcDbArc
 50
38.5
 51
128.5
  0
ARC
  5
212
330
1F
100
AcDbEntity
  8
0
  6
Continuous
 62
     7
370
    25
100
AcDbCircle
 10
0.1120210502
 20
0.1158153115
 30
0.0
 40
0.001
100
AcDbArc
 50
128.5
 51
218.5
  0
LINE
  5
213
330
1F
100
AcDbEntity
  8
0
  6
Continuous
 62
     7
370
    25
100
AcDbLine
 10
0.1113985371
 20
0.1165979198
 30
0.0
 11
0.1118422754
 21
0.1169508871
 31
0.0
  0
LINE
  5
214
330
1F
100
AcDbEntity
  8
0
  6
Continuous
 62
     7
370
    25
100
AcDbLine
 10
0.1121756648
 20
0.1172160764
 30
0.0
 11
0.1126194049
 21
0.1175690424
 31
0.0
  0
CIRCLE
  5
215
330
1F
100
AcDbEntity
  8
0
  6
Continuous
 62
     7
370
    25
100
AcDbCircle
 10
0.0893992383
 20
0.1455078093
 30
0.0
 40
0.00108
  0
CIRCLE
  5
216
330
1F
100
AcDbEntity
  8
0
  6
Continuous
 62
     7
370
    25
100
AcDbCircle
 10
0.0893992592
 20
0.1455077357
 30
0.0
 40
0.0010739968868002
  0
CIRCLE
  5
217
330
1F
100
AcDbEntity
  8
0
  6
Continuous
 62
     7
370
    25
100
AcDbCircle
 10
0.1267501165
 20
0.0985513199
 30
0.0
 40
0.00108
  0
CIRCLE
  5
218
330
1F
100
AcDbEntity
  8
0
  6
Continuous
 62
     7
370
    25
100
AcDbCircle
 10
0.0968242105
 20
0.2516898247
 30
0.0
 40
0.00108
  0
CIRCLE
  5
219
330
1F
100
AcDbEntity
  8
0
  6
Continuous
 62
     7
370
    25
100
AcDbCircle
 10
0.1207491522
 20
0.1966662192
 30
0.0
 40
0.00108
  0
CIRCLE
  5
21A
330
1F
100
AcDbEntity
  8
0
  6
Continuous
 62
     7
370
    25
100
AcDbCircle
 10
0.0910607493
 20
0.0503199082
 30
0.0
 40
0.00108
  0
CIRCLE
  5
21B
330
1F
100
AcDbEntity
  8
0
  6
Continuous
 62
     7
370
    25
100
AcDbCircle
 10
0.0910607973
 20
0.0503198577
 30
0.0
 40
0.0010739969223769
  0
CIRCLE
  5
21C
330
1F
100
AcDbEntity
  8
0
  6
Continuous
 62
     7
370
    25
100
AcDbCircle
 10
0.120749157
 20
0.1966661526
 30
0.0
 40
0.0010739966346496
  0
CIRCLE
  5
21D
330
1F
100
AcDbEntity
  8
0
  6
Continuous
 62
     7
370
    25
100
AcDbCircle
 10
0.1267501442
 20
0.098551249
 30
0.0
 40
0.0010739969003257
  0
CIRCLE
  5
21E
330
1F
100
AcDbEntity
  8
0
  6
Continuous
 62
     7
370
    25
100
AcDbCircle
 10
0.0968242112
 20
0.2516897886
 30
0.0
 40
0.0010739959276886
  0
LWPOLYLINE
  5
21F
330
1F
100
AcDbEntity
  8
0
  6
Continuous
 62
     7
370
    25
100
AcDbPolyline
 90
        3
 70
   128
 43
0.0
 10
0.1214135405
 20
0.197648456
 10
0.1214131169
 20
0.1976487813
 10
0.1214125888
 20
0.1976490297
  0
LINE
  5
220
330
1F
100
AcDbEntity
  8
0
  6
Continuous
 62
     7
370
    25
100
AcDbLine
 10
0.1212740227
 20
0.1976112271
 30
0.0
 11
0.1211480372
 21
0.1976884355
 31
0.0
  0
LINE
  5
221
330
1F
100
AcDbEntity
  8
0
  6
Continuous
 62
     7
370
    25
100
AcDbLine
 10
0.1214788626
 20
0.1974857063
 30
0.0
 11
0.1212740227
 21
0.1976112271
 31
0.0
  0
ARC
  5
222
330
1F
100
AcDbEntity
  8
0
  6
Continuous
 62
     7
370
    25
100
AcDbCircle
 10
0.1213349849
 20
0.1975489846
 30
0.0
 40
0.000125915559555
100
AcDbArc
 50
48.8176389492
 51
68.1810796964
  0
ARC
  5
223
330
1F
100
AcDbEntity
  8
0
  6
Continuous
 62
     7
370
    25
100
AcDbCircle
 10
0.1214004427
 20
0.1976315823
 30
0.0
 40
0.0000212757338139
100
AcDbArc
 50
34.886057256
 51
67.6510026945
  0
ARC
  5
224
330
1F
100
AcDbEntity
  8
0
  6
Continuous
 62
     7
370
    25
100
AcDbCircle
 10
0.1212701146
 20
0.1975895688
 30
0.0
 40
0.0001252024041423
100
AcDbArc
 50
53.2968274569
 51
62.3153840751
  0
ARC
  5
225
330
1F
100
AcDbEntity
  8
0
  6
Continuous
 62
     7
370
    25
100
AcDbCircle
 10
0.1213136529
 20
0.1976847541
 30
0.0
 40
0.0000212862216472
100
AcDbArc
 50
34.9100609924
 51
70.228201576
  0
ARC
  5
226
330
1F
100
AcDbEntity
  8
0
  6
Continuous
 62
     7
370
    25
100
AcDbCircle
 10
0.1212280962
 20
0.1974719723
 30
0.0
 40
0.0002474273134902
100
AcDbArc
 50
51.6002055267
 51
65.3966188928
  0
LINE
  5
227
330
1F
100
AcDbEntity
  8
0
  6
Continuous
 62
     7
370
    25
100
AcDbLine
 10
0.0904522158
 20
0.0494266766
 30
0.0
 11
0.0905742889
 21
0.0493363472
 31
0.0
  0
LINE
  5
228
330
1F
100
AcDbEntity
  8
0
  6
Continuous
 62
     7
370
    25
100
AcDbLine
 10
0.0902623924
 20
0.0495671384
 30
0.0
 11
0.0904522158
 21
0.0494266766
 31
0.0
  0
ARC
  5
229
330
1F
100
AcDbEntity
  8
0
  6
Continuous
 62
     7
370
    25
100
AcDbCircle
 10
0.0903962485
 20
0.0494875318
 30
0.0
 40
0.0001203183362113
100
AcDbArc
 50
223.5977881003
 51
243.4022118997
  0
ARC
  5
22A
330
1F
100
AcDbEntity
  8
0
  6
Continuous
 62
     7
370
    25
100
AcDbCircle
 10
0.0903299968
 20
0.0494173527
 30
0.0
 40
0.0000244889476494
100
AcDbArc
 50
211.489130051
 51
241.7408976421
  0
ARC
  5
22B
330
1F
100
AcDbEntity
  8
0
  6
Continuous
 62
     7
370
    25
100
AcDbCircle
 10
0.0904952831
 20
0.0495750795
 30
0.0
 40
0.0002496034199152
100
AcDbArc
 50
229.7418420373
 51
236.1230396653
  0
ARC
  5
22C
330
1F
100
AcDbEntity
  8
0
  6
Continuous
 62
     7
370
    25
100
AcDbCircle
 10
0.0904587987
 20
0.049440775
 30
0.0
 40
0.0001199399009409
100
AcDbArc
 50
228.0783295238
 51
237.2830888331
  0
ARC
  5
22D
330
1F
100
AcDbEntity
  8
0
  6
Continuous
 62
     7
370
    25
100
AcDbCircle
 10
0.0904112465
 20
0.0493571803
 30
0.0
 40
0.0000244456579659
100
AcDbArc
 50
211.4845439494
 51
245.3330401284
  0
ARC
  5
22E
330
1F
100
AcDbEntity
  8
0
  6
Continuous
 62
     7
370
    25
100
AcDbCircle
 10
0.0905137927
 20
0.049561384
 30
0.0
 40
0.0002496041225933
100
AcDbArc
 50
226.6272193171
 51
240.3727806829
  0
LINE
  5
22F
330
1F
100
AcDbEntity
  8
0
  6
Continuous
 62
     7
370
    25
100
AcDbLine
 10
0.0886645258
 20
0.1463033927
 30
0.0
 11
0.0885750937
 21
0.1462322582
 31
0.0
  0
LINE
  5
230
330
1F
100
AcDbEntity
  8
0
  6
Continuous
 62
     7
370
    25
100
AcDbLine
 10
0.088878746
 20
0.1464737942
 30
0.0
 11
0.0886645258
 21
0.1463033927
 31
0.0
  0
ARC
  5
231
330
1F
100
AcDbEntity
  8
0
  6
Continuous
 62
     7
370
    25
100
AcDbCircle
 10
0.0887936456
 20
0.1463188532
 30
0.0
 40
0.0001729715668913
100
AcDbArc
 50
120.2404242965
 51
136.7529112428
  0
ARC
  5
232
330
1F
100
AcDbEntity
  8
0
  6
Continuous
 62
     7
370
    25
100
AcDbCircle
 10
0.0887052551
 20
0.1464650913
 30
0.0
 40
0.0000034411164361
100
AcDbArc
 50
68.2184984014
 51
174.0699454886
  0
ARC
  5
233
330
1F
100
AcDbEntity
  8
0
  6
Continuous
 62
     7
370
    25
100
AcDbCircle
 10
0.0886227746
 20
0.1463989398
 30
0.0
 40
0.0000038857825317
100
AcDbArc
 50
71.7839230544
 51
133.5529250728
  0
ARC
  5
234
330
1F
100
AcDbEntity
  8
0
  6
Continuous
 62
     7
370
    25
100
AcDbCircle
 10
0.0887803927
 20
0.1462508276
 30
0.0
 40
0.0002179593191253
100
AcDbArc
 50
121.1483104809
 51
135.8551118684
  0
LINE
  5
235
330
1F
100
AcDbEntity
  8
0
  6
Continuous
 62
     7
370
    25
100
AcDbLine
 10
0.1274790491
 20
0.0977511377
 30
0.0
 11
0.1275742586
 21
0.0978268713
 31
0.0
  0
LINE
  5
236
330
1F
100
AcDbEntity
  8
0
  6
Continuous
 62
     7
370
    25
100
AcDbLine
 10
0.1272706064
 20
0.0975853352
 30
0.0
 11
0.1274790491
 21
0.0977511377
 31
0.0
  0
ARC
  5
237
330
1F
100
AcDbEntity
  8
0
  6
Continuous
 62
     7
370
    25
100
AcDbCircle
 10
0.1273608428
 20
0.0977309964
 30
0.0
 40
0.0001625128988004
100
AcDbArc
 50
299.9795090236
 51
317.0203265445
  0
ARC
  5
238
330
1F
100
AcDbEntity
  8
0
  6
Continuous
 62
     7
370
    25
100
AcDbCircle
 10
0.1274427351
 20
0.0975961969
 30
0.0
 40
0.000006009152551
100
AcDbArc
 50
263.4432314826
 51
339.1050128469
  0
ARC
  5
239
330
1F
100
AcDbEntity
  8
0
  6
Continuous
 62
     7
370
    25
100
AcDbCircle
 10
0.1273319988
 20
0.0977880714
 30
0.0
 40
0.0002251367821459
100
AcDbArc
 50
306.7136330218
 51
313.5319912287
  0
ARC
  5
23A
330
1F
100
AcDbEntity
  8
0
  6
Continuous
 62
     7
370
    25
100
AcDbCircle
 10
0.127412161
 20
0.0977715527
 30
0.0
 40
0.0001623068771549
100
AcDbArc
 50
306.4033101311
 51
314.4284499943
  0
ARC
  5
23B
330
1F
100
AcDbEntity
  8
0
  6
Continuous
 62
     7
370
    25
100
AcDbCircle
 10
0.1275247251
 20
0.0976619499
 30
0.0
 40
0.0000064223772149
100
AcDbArc
 50
265.0798880656
 51
317.1308608475
  0
ARC
  5
23C
330
1F
100
AcDbEntity
  8
0
  6
Continuous
 62
     7
370
    25
100
AcDbCircle
 10
0.1273626322
 20
0.0978130378
 30
0.0
 40
0.0002256055921798
100
AcDbArc
 50
301.2696556114
 51
315.7282969656
  0
LWPOLYLINE
  5
23D
330
1F
100
AcDbEntity
  8
0
  6
Continuous
 62
     7
370
    25
100
AcDbPolyline
 90
        9
 70
   128
 43
0.0
 10
0.0963678437
 20
0.2526690618
 10
0.0963349914
 20
0.2526547903
 10
0.0963042543
 20
0.2526414213
 10
0.0962767507
 20
0.2526294561
 10
0.0962534659
 20
0.2526193282
 10
0.0962352442
 20
0.2526114094
 10
0.0962227401
 20
0.2526059746
 10
0.0962164215
 20
0.2526032234
 10
0.0962156531
 20
0.2526028904
  0
LINE
  5
23E
330
1F
100
AcDbEntity
  8
0
  6
Continuous
 62
     7
370
    25
100
AcDbLine
 10
0.0963678437
 20
0.2526690618
 30
0.0
 11
0.0965714694
 21
0.252757607
 31
0.0
  0
ARC
  5
23F
330
1F
100
AcDbEntity
  8
0
  6
Continuous
 62
     7
370
    25
100
AcDbCircle
 10
0.0964301604
 20
0.2527003338
 30
0.0
 40
0.0001008678963719
100
AcDbArc
 50
102.6557260732
 51
124.3291607479
  0
ARC
  5
240
330
1F
100
AcDbEntity
  8
0
  6
Continuous
 62
     7
370
    25
100
AcDbCircle
 10
0.0964114844
 20
0.2527625926
 30
0.0
 40
0.0000363201166741
100
AcDbArc
 50
95.4085095261
 51
116.9500519509
  0
ARC
  5
241
330
1F
100
AcDbEntity
  8
0
  6
Continuous
 62
     7
370
    25
100
AcDbCircle
 10
0.0963520171
 20
0.2526721989
 30
0.0
 40
0.0000955241934354
100
AcDbArc
 50
104.9757149048
 51
115.8346253123
  0
ARC
  5
242
330
1F
100
AcDbEntity
  8
0
  6
Continuous
 62
     7
370
    25
100
AcDbCircle
 10
0.0963212137
 20
0.2527231653
 30
0.0
 40
0.0000364792914759
100
AcDbArc
 50
95.4696502056
 51
125.8469211871
  0
ARC
  5
243
330
1F
100
AcDbEntity
  8
0
  6
Continuous
 62
     7
370
    25
100
AcDbCircle
 10
0.0964467377
 20
0.2525387762
 30
0.0
 40
0.0002556380310627
100
AcDbArc
 50
106.7002505838
 51
120.3064138767
  0
ARC
  5
244
330
1F
100
AcDbEntity
  8
0
  6
Continuous
 62
     7
370
    25
100
AcDbCircle
 10
0.0887397221
 20
0.14453158
 30
0.0
 40
0.0000077186467349
100
AcDbArc
 50
227.3089762248
 51
242.6149995719
  0
ARC
  5
245
330
1F
100
AcDbEntity
  8
0
  6
Continuous
 62
     7
370
    25
100
AcDbCircle
 10
0.0888814232
 20
0.144698312
 30
0.0
 40
0.0002239240828594
100
AcDbArc
 50
236.3696715415
 51
239.3299246401
  0
ARC
  5
246
330
1F
100
AcDbEntity
  8
0
  6
Continuous
 62
     7
370
    25
100
AcDbCircle
 10
0.127484285
 20
0.0994576545
 30
0.0
 40
0.000019428541569
100
AcDbArc
 50
52.2852166718
 51
65.8256416606
  0
ARC
  5
247
330
1F
100
AcDbEntity
  8
0
  6
Continuous
 62
     7
370
    25
100
AcDbCircle
 10
0.1273477363
 20
0.0994225934
 30
0.0
 40
0.0001288350613349
100
AcDbArc
 50
53.019895442
 51
58.2794353734
  0
ARC
  5
248
330
1F
100
AcDbEntity
  8
0
  6
Continuous
 62
     7
370
    25
100
AcDbCircle
 10
0.1212115012
 20
0.1956978152
 30
0.0
 40
0.0001122462509277
100
AcDbArc
 50
288.1781066177
 51
293.8644547336
  0
ARC
  5
249
330
1F
100
AcDbEntity
  8
0
  6
Continuous
 62
     7
370
    25
100
AcDbCircle
 10
0.0904585672
 20
0.0494402879
 30
0.0
 40
0.0001194108566186
100
AcDbArc
 50
233.4790610645
 51
237.2634179121
  0
ARC
  5
24A
330
1F
100
AcDbEntity
  8
0
  6
Continuous
 62
     7
370
    25
100
AcDbCircle
 10
0.1212762978
 20
0.1976024282
 30
0.0
 40
0.0001110083172848
100
AcDbArc
 50
58.0879084742
 51
62.2118828178
  0
LINE
  5
24B
330
1F
100
AcDbEntity
  8
0
  6
Continuous
 62
     7
370
    25
100
AcDbLine
 10
0.1273447656
 20
0.099454823
 30
0.0
 11
0.1272365757
 21
0.0995348793
 31
0.0
  0
LINE
  5
24C
330
1F
100
AcDbEntity
  8
0
  6
Continuous
 62
     7
370
    25
100
AcDbLine
 10
0.1275484722
 20
0.0993040881
 30
0.0
 11
0.1273447656
 21
0.099454823
 31
0.0
  0
ARC
  5
24D
330
1F
100
AcDbEntity
  8
0
  6
Continuous
 62
     7
370
    25
100
AcDbCircle
 10
0.1273975136
 20
0.0993664131
 30
0.0
 40
0.00014438707821
100
AcDbArc
 50
44.462615825
 51
62.537384175
  0
ARC
  5
24E
330
1F
100
AcDbEntity
  8
0
  6
Continuous
 62
     7
370
    25
100
AcDbCircle
 10
0.1274891479
 20
0.0994628711
 30
0.0
 40
0.0000123367357181
100
AcDbArc
 50
22.2787190829
 51
70.6996863318
  0
ARC
  5
24F
330
1F
100
AcDbEntity
  8
0
  6
Continuous
 62
     7
370
    25
100
AcDbCircle
 10
0.1273284549
 20
0.0993056856
 30
0.0
 40
0.0002342834469564
100
AcDbArc
 50
50.8280651042
 51
57.4618822925
  0
ARC
  5
250
330
1F
100
AcDbEntity
  8
0
  6
Continuous
 62
     7
370
    25
100
AcDbCircle
 10
0.1273416067
 20
0.0994105443
 30
0.0
 40
0.000142168907764
100
AcDbArc
 50
50.0707899755
 51
58.5859129994
  0
ARC
  5
251
330
1F
100
AcDbEntity
  8
0
  6
Continuous
 62
     7
370
    25
100
AcDbCircle
 10
0.1274056435
 20
0.0995243096
 30
0.0
 40
0.0000126055804281
100
AcDbArc
 50
22.7439123216
 51
64.5277077195
  0
ARC
  5
252
330
1F
100
AcDbEntity
  8
0
  6
Continuous
 62
     7
370
    25
100
AcDbCircle
 10
0.1273004825
 20
0.0993223839
 30
0.0
 40
0.0002374973290954
100
AcDbArc
 50
46.4548628994
 51
60.5451371006
  0
LINE
  5
253
330
1F
100
AcDbEntity
  8
0
  6
Continuous
 62
     7
370
    25
100
AcDbLine
 10
0.0888723554
 20
0.1445640308
 30
0.0
 11
0.0890003517
 21
0.1444855957
 31
0.0
  0
LINE
  5
254
330
1F
100
AcDbEntity
  8
0
  6
Continuous
 62
     7
370
    25
100
AcDbLine
 10
0.0886695301
 20
0.144688322
 30
0.0
 11
0.0888723554
 21
0.1445640308
 31
0.0
  0
ARC
  5
255
330
1F
100
AcDbEntity
  8
0
  6
Continuous
 62
     7
370
    25
100
AcDbCircle
 10
0.0888113328
 20
0.1446225316
 30
0.0
 40
0.0001226875607473
100
AcDbArc
 50
228.6928990624
 51
248.3077389593
  0
ARC
  5
256
330
1F
100
AcDbEntity
  8
0
  6
Continuous
 62
     7
370
    25
100
AcDbCircle
 10
0.0887490855
 20
0.1445439055
 30
0.0
 40
0.0000231150221578
100
AcDbArc
 50
215.8406464073
 51
247.4235240757
  0
ARC
  5
257
330
1F
100
AcDbEntity
  8
0
  6
Continuous
 62
     7
370
    25
100
AcDbCircle
 10
0.0888773711
 20
0.1445821205
 30
0.0
 40
0.0001227346602147
100
AcDbArc
 50
233.3553513581
 51
242.4312702022
  0
ARC
  5
258
330
1F
100
AcDbEntity
  8
0
  6
Continuous
 62
     7
370
    25
100
AcDbCircle
 10
0.0888355148
 20
0.144490875
 30
0.0
 40
0.00002305776979
100
AcDbArc
 50
215.8013683568
 51
250.279040129
  0
ARC
  5
259
330
1F
100
AcDbEntity
  8
0
  6
Continuous
 62
     7
370
    25
100
AcDbCircle
 10
0.0889203038
 20
0.1447033283
 30
0.0
 40
0.0002485151687999
100
AcDbArc
 50
231.6134349372
 51
245.3903653534
  0
LINE
  5
25A
330
1F
100
AcDbEntity
  8
0
  6
Continuous
 62
     7
370
    25
100
AcDbLine
 10
0.1212200412
 20
0.1956932876
 30
0.0
 11
0.1213577134
 21
0.1957531538
 31
0.0
  0
LINE
  5
25B
330
1F
100
AcDbEntity
  8
0
  6
Continuous
 62
     7
370
    25
100
AcDbLine
 10
0.1210018933
 20
0.1955984401
 30
0.0
 11
0.1212200412
 21
0.1956932876
 31
0.0
  0
ARC
  5
25C
330
1F
100
AcDbEntity
  8
0
  6
Continuous
 62
     7
370
    25
100
AcDbCircle
 10
0.1211371168
 20
0.1956768298
 30
0.0
 40
0.0001226617626288
100
AcDbArc
 50
283.696962719
 51
303.3171121626
  0
ARC
  5
25D
330
1F
100
AcDbEntity
  8
0
  6
Continuous
 62
     7
370
    25
100
AcDbCircle
 10
0.1211657692
 20
0.1955809338
 30
0.0
 40
0.0000232808101245
100
AcDbArc
 50
270.9653050894
 51
302.3296322263
  0
ARC
  5
25E
330
1F
100
AcDbEntity
  8
0
  6
Continuous
 62
     7
370
    25
100
AcDbCircle
 10
0.1211058701
 20
0.1958159737
 30
0.0
 40
0.0002627067118969
100
AcDbArc
 50
290.0520217924
 51
296.0760937682
  0
ARC
  5
25F
330
1F
100
AcDbEntity
  8
0
  6
Continuous
 62
     7
370
    25
100
AcDbCircle
 10
0.1212059808
 20
0.1957127977
 30
0.0
 40
0.0001281707584049
100
AcDbArc
 50
288.5475553142
 51
297.2389485992
  0
ARC
  5
260
330
1F
100
AcDbEntity
  8
0
  6
Continuous
 62
     7
370
    25
100
AcDbCircle
 10
0.1212588134
 20
0.19562119
 30
0.0
 40
0.0000230971887751
100
AcDbArc
 50
270.8556674104
 51
305.282714967
  0
ARC
  5
261
330
1F
100
AcDbEntity
  8
0
  6
Continuous
 62
     7
370
    25
100
AcDbCircle
 10
0.1211334242
 20
0.195812544
 30
0.0
 40
0.0002485906269632
100
AcDbArc
 50
286.6115170216
 51
300.3836723949
  0
LINE
  5
262
330
1F
100
AcDbEntity
  8
FORMAT
 62
     7
100
AcDbLine
 10
0.1468246687
 20
0.2144397657
 30
0.0
 11
0.1252530733
 21
0.2640510446
 31
0.0
  0
LINE
  5
263
330
1F
100
AcDbEntity
  8
FORMAT
 62
     7
100
AcDbLine
 10
0.0839383151
 20
0.2035822225
 30
0.0
 11
0.0683953476
 21
0.2393286048
 31
0.0
  0
LINE
  5
264
330
1F
100
AcDbEntity
  8
FORMAT
 62
     7
100
AcDbLine
 10
0.1443905504
 20
0.1682596448
 30
0.0
 11
0.155294045
 21
0.1860525309
 31
0.0
  0
LINE
  5
265
330
1F
100
AcDbEntity
  8
FORMAT
 62
     7
100
AcDbLine
 10
0.0923202893
 20
0.1843049993
 30
0.0
 11
0.0683953476
 21
0.2393286048
 31
0.0
  0
LINE
  5
266
330
1F
100
AcDbEntity
  8
FORMAT
 62
     7
100
AcDbLine
 10
0.0548543455
 20
0.1561214976
 30
0.0
 11
0.0956092335
 21
0.2226274304
 31
0.0
  0
LINE
  5
267
330
1F
100
AcDbEntity
  8
FORMAT
 62
     7
100
AcDbLine
 10
0.0548543455
 20
0.1561214976
 30
0.0
 11
0.0839383151
 21
0.2035822225
 31
0.0
  0
LINE
  5
268
330
1F
100
AcDbEntity
  8
FORMAT
 62
     7
100
AcDbLine
 10
0.114539157
 20
0.119546598
 30
0.0
 11
0.155294045
 21
0.1860525309
 31
0.0
  0
LINE
  5
269
330
1F
100
AcDbEntity
  8
FORMAT
 62
     7
100
AcDbLine
 10
0.1443905504
 20
0.1682596448
 30
0.0
 11
0.1715153031
 21
0.1341591571
 31
0.0
  0
LINE
  5
26A
330
1F
100
AcDbEntity
  8
FORMAT
 62
     7
100
AcDbLine
 10
0.1341644249
 20
0.1811156465
 30
0.0
 11
0.1715153031
 21
0.1341591571
 31
0.0
  0
LINE
  5
26B
330
1F
100
AcDbEntity
  8
FORMAT
 62
     7
100
AcDbLine
 10
0.0446340517
 20
0.1098999721
 30
0.0
 11
0.1341644249
 21
0.1811156465
 31
0.0
  0
LINE
  5
26C
330
1F
100
AcDbEntity
  8
FORMAT
 62
     7
100
AcDbLine
 10
0.1715153031
 20
0.1341591571
 30
0.0
 11
0.0819849299
 21
0.0629434827
 31
0.0
  0
LINE
  5
26D
330
1F
100
AcDbEntity
  8
FORMAT
 62
     7
100
AcDbLine
 10
0.0819849299
 20
0.0629434827
 30
0.0
 11
0.0446340517
 21
0.1098999721
 31
0.0
  0
LINE
  5
26E
330
1F
100
AcDbEntity
  8
FORMAT
 62
     7
100
AcDbLine
 10
0.0661411866
 20
0.0687594146
 30
0.0
 11
0.1018305538
 21
0.1169908263
 31
0.0
  0
LINE
  5
26F
330
1F
100
AcDbEntity
  8
FORMAT
 62
     7
100
AcDbLine
 10
0.115980312
 20
0.0318804019
 30
0.0
 11
0.1516696792
 21
0.0801118135
 31
0.0
  0
LINE
  5
270
330
1F
100
AcDbEntity
  8
FORMAT
 62
     7
100
AcDbLine
 10
0.0661411866
 20
0.0687594146
 30
0.0
 11
0.0715473093
 21
0.0760653702
 31
0.0
  0
ARC
  5
271
330
1F
100
AcDbEntity
  8
FORMAT
 62
     7
100
AcDbCircle
 10
0.0968242105
 20
0.2516898247
 30
0.0
 40
0.031
100
AcDbArc
 50
23.4999974921
 51
203.4999974921
  0
ARC
  5
272
330
1F
100
AcDbEntity
  8
FORMAT
 62
     7
100
AcDbCircle
 10
0.1166522884
 20
0.1899807451
 30
0.0
 40
0.0388409090909091
100
AcDbArc
 50
354.1954097174
 51
39.0297018753
  0
ARC
  5
273
330
1F
100
AcDbEntity
  8
FORMAT
 62
     7
100
AcDbCircle
 10
0.1207491522
 20
0.1966662192
 30
0.0
 40
0.031
100
AcDbArc
 50
203.4999974921
 51
23.4999974921
  0
ARC
  5
274
330
1F
100
AcDbEntity
  8
FORMAT
 62
     7
100
AcDbCircle
 10
0.1166522884
 20
0.1899807451
 30
0.0
 40
0.0388409090909091
100
AcDbArc
 50
58.5
 51
122.8045902826
  0
ARC
  5
275
330
1F
100
AcDbEntity
  8
FORMAT
 62
     7
100
AcDbCircle
 10
0.1166522884
 20
0.1899807451
 30
0.0
 40
0.0388409090909091
100
AcDbArc
 50
354.1954097174
 51
58.5
  0
ARC
  5
276
330
1F
100
AcDbEntity
  8
FORMAT
 62
     7
100
AcDbCircle
 10
0.0934961021
 20
0.1521932833
 30
0.0
 40
0.0388409090909118
100
AcDbArc
 50
174.1954097174
 51
222.4591049177
  0
ARC
  5
277
330
1F
100
AcDbEntity
  8
FORMAT
 62
     7
100
AcDbCircle
 10
0.0934961021
 20
0.1521932833
 30
0.0
 40
0.0388409090909091
100
AcDbArc
 50
238.5
 51
302.8045902826
  0
ARC
  5
278
330
1F
100
AcDbEntity
  8
FORMAT
 62
     7
100
AcDbCircle
 10
0.0934961021
 20
0.1521932833
 30
0.0
 40
0.0388409090909091
100
AcDbArc
 50
174.1954097174
 51
238.5
  0
ARC
  5
279
330
1F
100
AcDbEntity
  8
FORMAT
 62
     7
100
AcDbCircle
 10
0.1267501165
 20
0.0985513199
 30
0.0
 40
0.031
100
AcDbArc
 50
323.5
 51
143.5
  0
ARC
  5
27A
330
1F
100
AcDbEntity
  8
FORMAT
 62
     7
100
AcDbCircle
 10
0.0910607493
 20
0.0503199082
 30
0.0
 40
0.031
100
AcDbArc
 50
143.5
 51
323.5
  0
ENDSEC
  0
SECTION
  2
OBJECTS
  0
DICTIONARY
  5
C
330
0
100
AcDbDictionary
281
     1
  3
ACAD_DETAILVIEWSTYLE
350
283
  3
ACAD_GROUP
350
D
  3
ACAD_LAYOUT
350
1A
  3
ACAD_MATERIAL
350
43
  3
ACAD_MLEADERSTYLE
350
6B
  3
ACAD_MLINESTYLE
350
17
  3
ACAD_PLOTSETTINGS
350
19
  3
ACAD_PLOTSTYLENAME
350
E
  3
ACAD_SCALELIST
350
47
  3
ACAD_SECTIONVIEWSTYLE
350
284
  3
ACAD_TABLESTYLE
350
69
  3
ACAD_VISUALSTYLE
350
2A
  3
ACDB_RECOMPOSE_DATA
350
280
  3
AcDbVariableDictionary
350
27B
  0
SUN
  5
6D
330
29
100
AcDbSun
 90
        1
290
     0
 63
     7
421
 16777215
 40
1.0
291
     1
 91
  2455826
 92
 54000000
292
     0
 70
     2
 71
   256
280
     1
  0
DICTIONARY
  5
283
102
{ACAD_REACTORS
330
C
102
}
330
C
100
AcDbDictionary
281
     1
  0
DICTIONARY
  5
D
102
{ACAD_REACTORS
330
C
102
}
330
C
100
AcDbDictionary
281
     1
  0
DICTIONARY
  5
1A
102
{ACAD_REACTORS
330
C
102
}
330
C
100
AcDbDictionary
281
     1
  3
Layout1
350
1E
  3
Layout2
350
26
  3
Model
350
22
  0
DICTIONARY
  5
43
102
{ACAD_REACTORS
330
C
102
}
330
C
100
AcDbDictionary
281
     1
  3
ByBlock
350
45
  3
ByLayer
350
44
  3
Global
350
46
  0
DICTIONARY
  5
6B
102
{ACAD_REACTORS
330
C
102
}
330
C
100
AcDbDictionary
281
     1
  3
Standard
350
6C
  0
DICTIONARY
  5
17
102
{ACAD_REACTORS
330
C
102
}
330
C
100
AcDbDictionary
281
     1
  3
Standard
350
18
  0
DICTIONARY
  5
19
102
{ACAD_REACTORS
330
C
102
}
330
C
100
AcDbDictionary
281
     1
  0
ACDBDICTIONARYWDFLT
  5
E
102
{ACAD_REACTORS
330
C
102
}
330
C
100
AcDbDictionary
281
     1
  3
Normal
350
F
100
AcDbDictionaryWithDefault
340
F
  0
DICTIONARY
  5
47
102
{ACAD_REACTORS
330
C
102
}
330
C
100
AcDbDictionary
281
     1
  3
A0
350
48
  3
A1
350
49
  3
A2
350
4A
  3
A3
350
4B
  3
A4
350
4C
  3
A5
350
4D
  3
A6
350
4E
  3
A7
350
4F
  3
A8
350
50
  3
A9
350
51
  3
B0
350
52
  3
B1
350
53
  3
B2
350
54
  3
B3
350
55
  3
B4
350
56
  3
B5
350
57
  3
B6
350
58
  3
B7
350
59
  3
B8
350
5A
  3
B9
350
5B
  3
C0
350
5C
  3
C1
350
5D
  3
C2
350
5E
  3
C3
350
5F
  3
C4
350
60
  3
C5
350
61
  3
C6
350
62
  3
C7
350
63
  3
C8
350
64
  3
C9
350
65
  3
D0
350
66
  3
D1
350
67
  3
D2
350
68
  0
DICTIONARY
  5
284
102
{ACAD_REACTORS
330
C
102
}
330
C
100
AcDbDictionary
281
     1
  0
DICTIONARY
  5
69
102
{ACAD_REACTORS
330
C
102
}
330
C
100
AcDbDictionary
281
     1
  3
Standard
350
6A
  0
DICTIONARY
  5
2A
102
{ACAD_REACTORS
330
C
102
}
330
C
100
AcDbDictionary
281
     1
  3
2dWireframe
350
2F
  3
Basic
350
32
  3
Brighten
350
36
  3
ColorChange
350
3A
  3
Conceptual
350
34
  3
Dim
350
35
  3
EdgeColorOff
350
3D
  3
Facepattern
350
39
  3
Flat
350
2B
  3
FlatWithEdges
350
2C
  3
Gouraud
350
2D
  3
GouraudWithEdges
350
2E
  3
Hidden
350
31
  3
JitterOff
350
3B
  3
Linepattern
350
38
  3
OverhangOff
350
3C
  3
Realistic
350
33
  3
Shaded
350
42
  3
Shaded with edges
350
41
  3
Shades of Gray
350
3E
  3
Sketchy
350
3F
  3
Thicken
350
37
  3
Wireframe
350
30
  3
X-Ray
350
40
  0
XRECORD
  5
280
102
{ACAD_REACTORS
330
C
102
}
330
C
100
AcDbXrecord
280
     1
 90
        1
330
6A
  0
DICTIONARY
  5
27B
102
{ACAD_REACTORS
330
C
102
}
330
C
100
AcDbDictionary
281
     1
  3
CANNOSCALE
350
27C
  3
CMLEADERSTYLE
350
282
  3
CTABLESTYLE
350
281
  0
LAYOUT
  5
1E
102
{ACAD_REACTORS
330
1A
102
}
330
1A
100
AcDbPlotSettings
  1

  2
none_device
  4

  6

 40
0.0
 41
0.0
 42
0.0
 43
0.0
 44
0.0
 45
0.0
 46
0.0
 47
0.0
 48
0.0
 49
0.0
140
0.0
141
0.0
142
1.0
143
1.0
 70
   688
 72
     1
 73
     0
 74
     5
  7

 75
    16
 76
     0
 77
     2
 78
   300
147
1.0
148
0.0
149
0.0
100
AcDbLayout
  1
Layout1
 70
     1
 71
     1
 10
0.0
 20
0.0
 11
420.0
 21
297.0
 12
0.0
 22
0.0
 32
0.0
 14
1.0000000000E+20
 24
1.0000000000E+20
 34
1.0000000000E+20
 15
-1.0000000000E+20
 25
-1.0000000000E+20
 35
-1.0000000000E+20
146
0.0
 13
0.0
 23
0.0
 33
0.0
 16
1.0
 26
0.0
 36
0.0
 17
0.0
 27
1.0
 37
0.0
 76
     0
330
1B
  0
LAYOUT
  5
26
102
{ACAD_REACTORS
330
1A
102
}
330
1A
100
AcDbPlotSettings
  1

  2
none_device
  4

  6

 40
0.0
 41
0.0
 42
0.0
 43
0.0
 44
0.0
 45
0.0
 46
0.0
 47
0.0
 48
0.0
 49
0.0
140
0.0
141
0.0
142
1.0
143
1.0
 70
   688
 72
     1
 73
     0
 74
     5
  7

 75
    16
 76
     0
 77
     2
 78
   300
147
1.0
148
0.0
149
0.0
100
AcDbLayout
  1
Layout2
 70
     1
 71
     2
 10
0.0
 20
0.0
 11
0.0
 21
0.0
 12
0.0
 22
0.0
 32
0.0
 14
0.0
 24
0.0
 34
0.0
 15
0.0
 25
0.0
 35
0.0
146
0.0
 13
0.0
 23
0.0
 33
0.0
 16
1.0
 26
0.0
 36
0.0
 17
0.0
 27
1.0
 37
0.0
 76
     0
330
23
  0
LAYOUT
  5
22
102
{ACAD_REACTORS
330
1A
102
}
330
1A
100
AcDbPlotSettings
  1

  2
none_device
  4
Letter_(8.50_x_11.00_Inches)
  6

 40
6.35
 41
6.35
 42
6.35000508
 43
6.35000508
 44
215.9
 45
279.4
 46
0.0
 47
0.0
 48
0.0
 49
0.0
140
0.0
141
0.0
142
1.0
143
1.0
 70
  1712
 72
     1
 73
     0
 74
     0
  7

 75
     0
 76
     0
 77
     2
 78
   300
147
1.0
148
0.0
149
0.0
100
AcDbLayout
  1
Model
 70
     1
 71
     0
 10
0.0
 20
0.0
 11
0.21
 21
0.297
 12
0.0
 22
0.0
 32
0.0
 14
0.0
 24
0.0
 34
0.0
 15
0.21
 25
0.297
 35
0.0
146
0.0
 13
0.0
 23
0.0
 33
0.0
 16
1.0
 26
0.0
 36
0.0
 17
0.0
 27
1.0
 37
0.0
 76
     0
330
1F
331
29
  0
MATERIAL
  5
45
102
{ACAD_REACTORS
330
43
102
}
330
43
100
AcDbMaterial
  1
ByBlock
 72
     1
 94
      127
  0
MATERIAL
  5
44
102
{ACAD_REACTORS
330
43
102
}
330
43
100
AcDbMaterial
  1
ByLayer
 72
     1
 94
      127
  0
MATERIAL
  5
46
102
{ACAD_REACTORS
330
43
102
}
330
43
100
AcDbMaterial
  1
Global
 72
     1
 94
      127
  0
MLEADERSTYLE
  5
6C
102
{ACAD_REACTORS
330
6B
102
}
330
6B
100
AcDbMLeaderStyle
170
     2
171
     1
172
     0
 90
        2
 40
0.0
 41
0.0
173
     1
 91
-1056964608
340
14
 92
       -2
290
     1
 42
2.0
291
     1
 43
8.0
  3
Standard
341
0
 44
4.0
300

342
11
174
     1
178
     6
175
     1
176
     0
 93
-1056964608
 45
4.0
292
     0
297
     0
 46
4.0
343
0
 94
-1056964608
 47
1.0
 49
1.0
140
1.0
293
     1
141
0.0
294
     1
177
     0
142
1.0
295
     0
296
     0
143
3.75
1001
ACAD_MLEADERVER
1070
     2
  0
MLINESTYLE
  5
18
102
{ACAD_REACTORS
330
17
102
}
330
17
100
AcDbMlineStyle
  2
Standard
 70
     0
  3

 62
   256
 51
90.0
 52
90.0
 71
     2
 49
0.5
 62
   256
  6
BYLAYER
 49
-0.5
 62
   256
  6
BYLAYER
  0
ACDBPLACEHOLDER
  5
F
102
{ACAD_REACTORS
330
E
102
}
330
E
  0
SCALE
  5
48
102
{ACAD_REACTORS
330
47
102
}
330
47
100
AcDbScale
 70
     0
300
1:1
140
1.0
141
1.0
290
     1
  0
SCALE
  5
49
102
{ACAD_REACTORS
330
47
102
}
330
47
100
AcDbScale
 70
     0
300
1:2
140
1.0
141
2.0
290
     0
  0
SCALE
  5
4A
102
{ACAD_REACTORS
330
47
102
}
330
47
100
AcDbScale
 70
     0
300
1:4
140
1.0
141
4.0
290
     0
  0
SCALE
  5
4B
102
{ACAD_REACTORS
330
47
102
}
330
47
100
AcDbScale
 70
     0
300
1:5
140
1.0
141
5.0
290
     0
  0
SCALE
  5
4C
102
{ACAD_REACTORS
330
47
102
}
330
47
100
AcDbScale
 70
     0
300
1:8
140
1.0
141
8.0
290
     0
  0
SCALE
  5
4D
102
{ACAD_REACTORS
330
47
102
}
330
47
100
AcDbScale
 70
     0
300
1:10
140
1.0
141
10.0
290
     0
  0
SCALE
  5
4E
102
{ACAD_REACTORS
330
47
102
}
330
47
100
AcDbScale
 70
     0
300
1:16
140
1.0
141
16.0
290
     0
  0
SCALE
  5
4F
102
{ACAD_REACTORS
330
47
102
}
330
47
100
AcDbScale
 70
     0
300
1:20
140
1.0
141
20.0
290
     0
  0
SCALE
  5
50
102
{ACAD_REACTORS
330
47
102
}
330
47
100
AcDbScale
 70
     0
300
1:30
140
1.0
141
30.0
290
     0
  0
SCALE
  5
51
102
{ACAD_REACTORS
330
47
102
}
330
47
100
AcDbScale
 70
     0
300
1:40
140
1.0
141
40.0
290
     0
  0
SCALE
  5
52
102
{ACAD_REACTORS
330
47
102
}
330
47
100
AcDbScale
 70
     0
300
1:50
140
1.0
141
50.0
290
     0
  0
SCALE
  5
53
102
{ACAD_REACTORS
330
47
102
}
330
47
100
AcDbScale
 70
     0
300
1:100
140
1.0
141
100.0
290
     0
  0
SCALE
  5
54
102
{ACAD_REACTORS
330
47
102
}
330
47
100
AcDbScale
 70
     0
300
2:1
140
2.0
141
1.0
290
     0
  0
SCALE
  5
55
102
{ACAD_REACTORS
330
47
102
}
330
47
100
AcDbScale
 70
     0
300
4:1
140
4.0
141
1.0
290
     0
  0
SCALE
  5
56
102
{ACAD_REACTORS
330
47
102
}
330
47
100
AcDbScale
 70
     0
300
8:1
140
8.0
141
1.0
290
     0
  0
SCALE
  5
57
102
{ACAD_REACTORS
330
47
102
}
330
47
100
AcDbScale
 70
     0
300
10:1
140
10.0
141
1.0
290
     0
  0
SCALE
  5
58
102
{ACAD_REACTORS
330
47
102
}
330
47
100
AcDbScale
 70
     0
300
100:1
140
100.0
141
1.0
290
     0
  0
SCALE
  5
59
102
{ACAD_REACTORS
330
47
102
}
330
47
100
AcDbScale
 70
     0
300
1/128" = 1'-0"
140
0.0078125
141
12.0
290
     0
  0
SCALE
  5
5A
102
{ACAD_REACTORS
330
47
102
}
330
47
100
AcDbScale
 70
     0
300
1/64" = 1'-0"
140
0.015625
141
12.0
290
     0
  0
SCALE
  5
5B
102
{ACAD_REACTORS
330
47
102
}
330
47
100
AcDbScale
 70
     0
300
1/32" = 1'-0"
140
0.03125
141
12.0
290
     0
  0
SCALE
  5
5C
102
{ACAD_REACTORS
330
47
102
}
330
47
100
AcDbScale
 70
     0
300
1/16" = 1'-0"
140
0.0625
141
12.0
290
     0
  0
SCALE
  5
5D
102
{ACAD_REACTORS
330
47
102
}
330
47
100
AcDbScale
 70
     0
300
3/32" = 1'-0"
140
0.09375
141
12.0
290
     0
  0
SCALE
  5
5E
102
{ACAD_REACTORS
330
47
102
}
330
47
100
AcDbScale
 70
     0
300
1/8" = 1'-0"
140
0.125
141
12.0
290
     0
  0
SCALE
  5
5F
102
{ACAD_REACTORS
330
47
102
}
330
47
100
AcDbScale
 70
     0
300
3/16" = 1'-0"
140
0.1875
141
12.0
290
     0
  0
SCALE
  5
60
102
{ACAD_REACTORS
330
47
102
}
330
47
100
AcDbScale
 70
     0
300
1/4" = 1'-0"
140
0.25
141
12.0
290
     0
  0
SCALE
  5
61
102
{ACAD_REACTORS
330
47
102
}
330
47
100
AcDbScale
 70
     0
300
3/8" = 1'-0"
140
0.375
141
12.0
290
     0
  0
SCALE
  5
62
102
{ACAD_REACTORS
330
47
102
}
330
47
100
AcDbScale
 70
     0
300
1/2" = 1'-0"
140
0.5
141
12.0
290
     0
  0
SCALE
  5
63
102
{ACAD_REACTORS
330
47
102
}
330
47
100
AcDbScale
 70
     0
300
3/4" = 1'-0"
140
0.75
141
12.0
290
     0
  0
SCALE
  5
64
102
{ACAD_REACTORS
330
47
102
}
330
47
100
AcDbScale
 70
     0
300
1" = 1'-0"
140
1.0
141
12.0
290
     0
  0
SCALE
  5
65
102
{ACAD_REACTORS
330
47
102
}
330
47
100
AcDbScale
 70
     0
300
1-1/2" = 1'-0"
140
1.5
141
12.0
290
     0
  0
SCALE
  5
66
102
{ACAD_REACTORS
330
47
102
}
330
47
100
AcDbScale
 70
     0
300
3" = 1'-0"
140
3.0
141
12.0
290
     0
  0
SCALE
  5
67
102
{ACAD_REACTORS
330
47
102
}
330
47
100
AcDbScale
 70
     0
300
6" = 1'-0"
140
6.0
141
12.0
290
     0
  0
SCALE
  5
68
102
{ACAD_REACTORS
330
47
102
}
330
47
100
AcDbScale
 70
     0
300
1'-0" = 1'-0"
140
12.0
141
12.0
290
     0
  0
TABLESTYLE
  5
6A
102
{ACAD_REACTORS
330
69
102
}
102
{ACAD_XDICTIONARY
360
27D
102
}
330
69
100
AcDbTableStyle
  3
Standard
 70
     0
 71
     0
 40
0.06
 41
0.06
280
     0
281
     0
  7
Standard
140
4.5
170
     2
 62
     0
 63
   257
283
     0
 90
        4
 91
        0
  1

274
    -2
284
     1
 64
     0
275
    -2
285
     1
 65
     0
276
    -2
286
     1
 66
     0
277
    -2
287
     1
 67
     0
278
    -2
288
     1
 68
     0
279
    -2
289
     1
 69
     0
  7
Standard
140
6.0
170
     5
 62
     0
 63
   257
283
     0
 90
        4
 91
        0
  1

274
    -2
284
     1
 64
     0
275
    -2
285
     1
 65
     0
276
    -2
286
     1
 66
     0
277
    -2
287
     1
 67
     0
278
    -2
288
     1
 68
     0
279
    -2
289
     1
 69
     0
  7
Standard
140
4.5
170
     5
 62
     0
 63
   257
283
     0
 90
        4
 91
        0
  1

274
    -2
284
     1
 64
     0
275
    -2
285
     1
 65
     0
276
    -2
286
     1
 66
     0
277
    -2
287
     1
 67
     0
278
    -2
288
     1
 68
     0
279
    -2
289
     1
 69
     0
  0
VISUALSTYLE
  5
2F
102
{ACAD_REACTORS
330
2A
102
}
330
2A
100
AcDbVisualStyle
  2
2dWireframe
 70
     4
 71
     0
 72
     2
 73
     0
 90
        0
 40
0.6
 41
30.0
 62
     5
 63
     7
421
 16777215
 74
     1
 91
        4
 64
     7
 65
   257
 75
     1
175
     1
 42
1.0
 92
        0
 66
   257
 43
1.0
 76
     1
 77
     6
 78
     2
 67
     7
 79
     5
170
     0
171
     0
290
     0
174
     0
 93
        1
 44
0.0
173
     0
291
     0
 45
0.0
  0
VISUALSTYLE
  5
32
102
{ACAD_REACTORS
330
2A
102
}
330
2A
100
AcDbVisualStyle
  2
Basic
 70
     7
 71
     1
 72
     0
 73
     1
 90
        0
 40
0.6
 41
30.0
 62
     5
 63
     7
421
 16777215
 74
     0
 91
        4
 64
     7
 65
   257
 75
     1
175
     1
 42
1.0
 92
        8
 66
     7
 43
1.0
 76
     1
 77
     6
 78
     2
 67
     7
 79
     5
170
     0
171
     0
290
     0
174
     0
 93
        1
 44
0.0
173
     0
291
     1
 45
0.0
  0
VISUALSTYLE
  5
36
102
{ACAD_REACTORS
330
2A
102
}
330
2A
100
AcDbVisualStyle
  2
Brighten
 70
    12
 71
     2
 72
     2
 73
     0
 90
        0
 40
0.6
 41
30.0
 62
     5
 63
     7
421
 16777215
 74
     1
 91
        4
 64
     7
 65
   257
 75
     1
175
     1
 42
1.0
 92
        8
 66
     7
 43
1.0
 76
     1
 77
     6
 78
     2
 67
     7
 79
     5
170
     0
171
     0
290
     0
174
     0
 93
        1
 44
50.0
173
     0
291
     1
 45
0.0
  0
VISUALSTYLE
  5
3A
102
{ACAD_REACTORS
330
2A
102
}
330
2A
100
AcDbVisualStyle
  2
ColorChange
 70
    16
 71
     2
 72
     2
 73
     3
 90
        0
 40
0.6
 41
30.0
 62
     5
 63
     8
421
  8421504
 74
     1
 91
        4
 64
     7
 65
   257
 75
     1
175
     1
 42
1.0
 92
        8
 66
     8
424
  8421504
 43
1.0
 76
     1
 77
     6
 78
     2
 67
     7
 79
     5
170
     0
171
     0
290
     0
174
     0
 93
        1
 44
0.0
173
     0
291
     1
 45
0.0
  0
VISUALSTYLE
  5
34
102
{ACAD_REACTORS
330
2A
102
}
330
2A
100
AcDbVisualStyle
  2
Conceptual
 70
     9
 71
     3
 72
     2
 73
     0
 90
        0
 40
0.6
 41
30.0
 62
     5
 63
     7
421
 16777215
 74
     2
 91
        2
 64
     7
 65
   257
 75
     1
175
     1
 42
179.0
 92
        8
 66
     7
 43
1.0
 76
     1
 77
     6
 78
     2
 67
     7
 79
     3
170
     0
171
     0
290
     0
174
     0
 93
        1
 44
0.0
173
     0
291
     0
 45
0.0
  0
VISUALSTYLE
  5
35
102
{ACAD_REACTORS
330
2A
102
}
330
2A
100
AcDbVisualStyle
  2
Dim
 70
    11
 71
     2
 72
     2
 73
     0
 90
        0
 40
0.6
 41
30.0
 62
     5
 63
     7
421
 16777215
 74
     1
 91
        4
 64
     7
 65
   257
 75
     1
175
     1
 42
1.0
 92
        8
 66
     7
 43
1.0
 76
     1
 77
     6
 78
     2
 67
     7
 79
     5
170
     0
171
     0
290
     0
174
     0
 93
        1
 44
-50.0
173
     0
291
     1
 45
0.0
  0
VISUALSTYLE
  5
3D
102
{ACAD_REACTORS
330
2A
102
}
330
2A
100
AcDbVisualStyle
  2
EdgeColorOff
 70
    22
 71
     2
 72
     2
 73
     0
 90
        0
 40
0.6
 41
30.0
 62
     5
 63
     7
421
 16777215
 74
     1
 91
        4
 64
     7
 65
   257
 75
     1
175
     1
 42
1.0
 92
        8
 66
     7
 43
1.0
 76
     1
 77
     6
 78
     2
 67
     7
 79
     5
170
     0
171
     0
290
     0
174
     0
 93
        1
 44
0.0
173
     0
291
     1
 45
0.0
  0
VISUALSTYLE
  5
39
102
{ACAD_REACTORS
330
2A
102
}
330
2A
100
AcDbVisualStyle
  2
Facepattern
 70
    15
 71
     2
 72
     2
 73
     0
 90
        0
 40
0.6
 41
30.0
 62
     5
 63
     7
421
 16777215
 74
     1
 91
        4
 64
     7
 65
   257
 75
     1
175
     1
 42
1.0
 92
        8
 66
     7
 43
1.0
 76
     1
 77
     6
 78
     2
 67
     7
 79
     5
170
     0
171
     0
290
     0
174
     0
 93
        1
 44
0.0
173
     0
291
     1
 45
0.0
  0
VISUALSTYLE
  5
2B
102
{ACAD_REACTORS
330
2A
102
}
330
2A
100
AcDbVisualStyle
  2
Flat
 70
     0
 71
     2
 72
     1
 73
     1
 90
        2
 40
0.6
 41
30.0
 62
     5
 63
     7
421
 16777215
 74
     0
 91
        0
 64
     7
 65
   257
 75
     1
175
     1
 42
1.0
 92
        8
 66
     7
 43
1.0
 76
     1
 77
     6
 78
     2
 67
     7
 79
     5
170
     0
171
     0
290
     0
174
     0
 93
       13
 44
0.0
173
     0
291
     1
 45
0.0
  0
VISUALSTYLE
  5
2C
102
{ACAD_REACTORS
330
2A
102
}
330
2A
100
AcDbVisualStyle
  2
FlatWithEdges
 70
     1
 71
     2
 72
     1
 73
     1
 90
        2
 40
0.6
 41
30.0
 62
     5
 63
     7
421
 16777215
 74
     1
 91
        0
 64
     7
 65
   257
 75
     1
175
     1
 42
1.0
 92
        0
 66
   257
 43
1.0
 76
     1
 77
     6
 78
     2
 67
     7
 79
     5
170
     0
171
     0
290
     0
174
     0
 93
       13
 44
0.0
173
     0
291
     1
 45
0.0
  0
VISUALSTYLE
  5
2D
102
{ACAD_REACTORS
330
2A
102
}
330
2A
100
AcDbVisualStyle
  2
Gouraud
 70
     2
 71
     2
 72
     2
 73
     1
 90
        2
 40
0.6
 41
30.0
 62
     5
 63
     7
421
 16777215
 74
     0
 91
        0
 64
     7
 65
   257
 75
     1
175
     1
 42
1.0
 92
        0
 66
     7
 43
1.0
 76
     1
 77
     6
 78
     2
 67
     7
 79
     5
170
     0
171
     0
290
     0
174
     0
 93
       13
 44
0.0
173
     0
291
     1
 45
0.0
  0
VISUALSTYLE
  5
2E
102
{ACAD_REACTORS
330
2A
102
}
330
2A
100
AcDbVisualStyle
  2
GouraudWithEdges
 70
     3
 71
     2
 72
     2
 73
     1
 90
        2
 40
0.6
 41
30.0
 62
     5
 63
     7
421
 16777215
 74
     1
 91
        0
 64
     7
 65
   257
 75
     1
175
     1
 42
1.0
 92
        0
 66
   257
 43
1.0
 76
     1
 77
     6
 78
     2
 67
     7
 79
     5
170
     0
171
     0
290
     0
174
     0
 93
       13
 44
0.0
173
     0
291
     1
 45
0.0
  0
VISUALSTYLE
  5
31
102
{ACAD_REACTORS
330
2A
102
}
330
2A
100
AcDbVisualStyle
  2
Hidden
 70
     6
 71
     1
 72
     2
 73
     2
 90
        0
 40
0.6
 41
30.0
 62
     5
 63
     7
421
 16777215
 74
     2
 91
        2
 64
     7
 65
   257
 75
     2
175
     1
 42
40.0
 92
        0
 66
   257
 43
1.0
 76
     1
 77
     6
 78
     2
 67
     7
 79
     3
170
     0
171
     0
290
     0
174
     0
 93
        1
 44
0.0
173
     0
291
     0
 45
0.0
  0
VISUALSTYLE
  5
3B
102
{ACAD_REACTORS
330
2A
102
}
330
2A
100
AcDbVisualStyle
  2
JitterOff
 70
    20
 71
     2
 72
     2
 73
     0
 90
        0
 40
0.6
 41
30.0
 62
     5
 63
     7
421
 16777215
 74
     1
 91
        4
 64
     7
 65
   257
 75
     1
175
     1
 42
1.0
 92
       10
 66
     7
 43
1.0
 76
     1
 77
     6
 78
     2
 67
     7
 79
     5
170
     0
171
     0
290
     0
174
     0
 93
        1
 44
0.0
173
     0
291
     1
 45
0.0
  0
VISUALSTYLE
  5
38
102
{ACAD_REACTORS
330
2A
102
}
330
2A
100
AcDbVisualStyle
  2
Linepattern
 70
    14
 71
     2
 72
     2
 73
     0
 90
        0
 40
0.6
 41
30.0
 62
     5
 63
     7
421
 16777215
 74
     1
 91
        4
 64
     7
 65
   257
 75
     7
175
     7
 42
1.0
 92
        8
 66
     7
 43
1.0
 76
     1
 77
     6
 78
     2
 67
     7
 79
     5
170
     0
171
     0
290
     0
174
     0
 93
        1
 44
0.0
173
     0
291
     1
 45
0.0
  0
VISUALSTYLE
  5
3C
102
{ACAD_REACTORS
330
2A
102
}
330
2A
100
AcDbVisualStyle
  2
OverhangOff
 70
    21
 71
     2
 72
     2
 73
     0
 90
        0
 40
0.6
 41
30.0
 62
     5
 63
     7
421
 16777215
 74
     1
 91
        4
 64
     7
 65
   257
 75
     1
175
     1
 42
1.0
 92
        9
 66
     7
 43
1.0
 76
     1
 77
     6
 78
     2
 67
     7
 79
     5
170
     0
171
     0
290
     0
174
     0
 93
        1
 44
0.0
173
     0
291
     1
 45
0.0
  0
VISUALSTYLE
  5
33
102
{ACAD_REACTORS
330
2A
102
}
330
2A
100
AcDbVisualStyle
  2
Realistic
 70
     8
 71
     2
 72
     3
 73
     0
 90
        2
 40
0.6
 41
30.0
 62
     5
 63
     7
421
 16777215
 74
     0
 91
        0
 64
     7
 65
   257
 75
     1
175
     1
 42
1.0
 92
        8
 66
   257
 43
1.0
 76
     1
 77
     6
 78
     2
 67
     7
 79
     3
170
     0
171
     0
290
     0
174
     0
 93
       13
 44
0.0
173
     0
291
     0
 45
0.0
  0
VISUALSTYLE
  5
42
102
{ACAD_REACTORS
330
2A
102
}
330
2A
100
AcDbVisualStyle
  2
Shaded
 70
    27
 71
     2
 72
     2
 73
     1
 90
        2
 40
0.6
 41
30.0
 62
     5
 63
     7
421
 16777215
 74
     0
 91
        4
 64
     7
 65
   257
 75
     1
175
     1
 42
1.0
 92
        8
 66
   257
 43
1.0
 76
     1
 77
     6
 78
     2
 67
     8
425
  7895160
 79
     3
170
     0
171
     0
290
     0
174
     0
 93
        5
 44
0.0
173
     0
291
     0
 45
0.0
  0
VISUALSTYLE
  5
41
102
{ACAD_REACTORS
330
2A
102
}
330
2A
100
AcDbVisualStyle
  2
Shaded with edges
 70
    26
 71
     2
 72
     2
 73
     1
 90
        2
 40
0.6
 41
30.0
 62
     5
 63
     7
421
 16777215
 74
     1
 91
       10
 64
     7
 65
   257
 75
     2
175
     1
 42
1.0
 92
        8
 66
   257
 43
1.0
 76
     1
 77
     6
 78
     2
 67
     7
 79
     3
170
     0
171
     0
290
     0
174
     0
 93
        5
 44
0.0
173
     0
291
     0
 45
0.0
  0
VISUALSTYLE
  5
3E
102
{ACAD_REACTORS
330
2A
102
}
330
2A
100
AcDbVisualStyle
  2
Shades of Gray
 70
    23
 71
     2
 72
     2
 73
     3
 90
        0
 40
0.6
 41
30.0
 62
     5
 63
     7
421
 16777215
 74
     2
 91
        2
 64
     7
 65
     7
 75
     1
175
     1
 42
40.0
 92
        8
 66
     7
 43
1.0
 76
     1
 77
     6
 78
     2
 67
     7
 79
     3
170
     0
171
     0
290
     0
174
     0
 93
        1
 44
0.0
173
     0
291
     0
 45
0.0
  0
VISUALSTYLE
  5
3F
102
{ACAD_REACTORS
330
2A
102
}
330
2A
100
AcDbVisualStyle
  2
Sketchy
 70
    24
 71
     1
 72
     2
 73
     2
 90
        0
 40
0.6
 41
30.0
 62
     5
 63
     7
421
 16777215
 74
     2
 91
        2
 64
     7
 65
     7
 75
     1
175
     1
 42
40.0
 92
       11
 66
     7
 43
1.0
 76
     1
 77
     6
 78
     2
 67
     7
 79
     6
170
     0
171
     0
290
     0
174
     0
 93
        1
 44
0.0
173
     0
291
     0
 45
0.0
  0
VISUALSTYLE
  5
37
102
{ACAD_REACTORS
330
2A
102
}
330
2A
100
AcDbVisualStyle
  2
Thicken
 70
    13
 71
     2
 72
     2
 73
     0
 90
        0
 40
0.6
 41
30.0
 62
     5
 63
     7
421
 16777215
 74
     1
 91
        4
 64
     7
 65
   257
 75
     1
175
     1
 42
1.0
 92
       12
 66
     7
 43
1.0
 76
     1
 77
     6
 78
     2
 67
     7
 79
     5
170
     0
171
     0
290
     0
174
     0
 93
        1
 44
0.0
173
     0
291
     1
 45
0.0
  0
VISUALSTYLE
  5
30
102
{ACAD_REACTORS
330
2A
102
}
330
2A
100
AcDbVisualStyle
  2
Wireframe
 70
     5
 71
     0
 72
     2
 73
     0
 90
        0
 40
0.6
 41
30.0
 62
     5
 63
     7
421
 16777215
 74
     1
 91
        4
 64
     7
 65
   257
 75
     1
175
     1
 42
1.0
 92
        0
 66
   257
 43
1.0
 76
     1
 77
     6
 78
     2
 67
     7
 79
     3
170
     0
171
     0
290
     0
174
     0
 93
        1
 44
0.0
173
     0
291
     0
 45
0.0
  0
VISUALSTYLE
  5
40
102
{ACAD_REACTORS
330
2A
102
}
330
2A
100
AcDbVisualStyle
  2
X-Ray
 70
    25
 71
     2
 72
     2
 73
     1
 90
        1
 40
0.5
 41
30.0
 62
     5
 63
     7
421
 16777215
 74
     1
 91
        0
 64
     7
 65
   257
 75
     1
175
     1
 42
1.0
 92
        8
 66
     7
 43
1.0
 76
     1
 77
     6
 78
     2
 67
     7
 79
     3
170
     0
171
     0
290
     0
174
     0
 93
       13
 44
0.0
173
     0
291
     0
 45
0.0
  0
DICTIONARYVAR
  5
27C
102
{ACAD_REACTORS
330
27B
102
}
330
27B
100
DictionaryVariables
280
     0
  1
1:1
  0
DICTIONARYVAR
  5
282
102
{ACAD_REACTORS
330
27B
102
}
330
27B
100
DictionaryVariables
280
     0
  1
Standard
  0
DICTIONARYVAR
  5
281
102
{ACAD_REACTORS
330
27B
102
}
330
27B
100
DictionaryVariables
280
     0
  1
Standard
  0
DICTIONARY
  5
27D
330
6A
100
AcDbDictionary
280
     1
281
     1
  3
ACAD_ROUNDTRIP_2008_TABLESTYLE_CELLSTYLEMAP
360
27E
  0
CELLSTYLEMAP
  5
27E
102
{ACAD_REACTORS
330
27D
102
}
330
27D
100
AcDbCellStyleMap
 90
        3
300
CELLSTYLE
  1
TABLEFORMAT_BEGIN
 90
        5
170
     1
 91
        0
 92
    32768
 62
   257
 93
        1
300
CONTENTFORMAT
  1
CONTENTFORMAT_BEGIN
 90
        0
 91
        0
 92
        4
 93
        0
300

 40
0.0
140
1.0
 94
        5
 62
     0
340
11
144
6.0
309
CONTENTFORMAT_END
171
     1
301
MARGIN
  1
CELLMARGIN_BEGIN
 40
1.5
 40
1.5
 40
1.5
 40
1.5
 40
1.5
 40
1.5
309
CELLMARGIN_END
 94
        6
 95
        1
302
GRIDFORMAT
  1
GRIDFORMAT_BEGIN
 90
        0
 91
        1
 62
     0
 92
       -2
340
14
 93
        0
 40
0.045
309
GRIDFORMAT_END
 95
        2
302
GRIDFORMAT
  1
GRIDFORMAT_BEGIN
 90
        0
 91
        1
 62
     0
 92
       -2
340
14
 93
        0
 40
0.045
309
GRIDFORMAT_END
 95
        4
302
GRIDFORMAT
  1
GRIDFORMAT_BEGIN
 90
        0
 91
        1
 62
     0
 92
       -2
340
14
 93
        0
 40
0.045
309
GRIDFORMAT_END
 95
        8
302
GRIDFORMAT
  1
GRIDFORMAT_BEGIN
 90
        0
 91
        1
 62
     0
 92
       -2
340
14
 93
        0
 40
0.045
309
GRIDFORMAT_END
 95
       16
302
GRIDFORMAT
  1
GRIDFORMAT_BEGIN
 90
        0
 91
        1
 62
     0
 92
       -2
340
14
 93
        0
 40
0.045
309
GRIDFORMAT_END
 95
       32
302
GRIDFORMAT
  1
GRIDFORMAT_BEGIN
 90
        0
 91
        1
 62
     0
 92
       -2
340
14
 93
        0
 40
0.045
309
GRIDFORMAT_END
309
TABLEFORMAT_END
  1
CELLSTYLE_BEGIN
 90
        1
 91
        1
300
_TITLE
309
CELLSTYLE_END
300
CELLSTYLE
  1
TABLEFORMAT_BEGIN
 90
        5
170
     1
 91
        0
 92
        0
 62
   257
 93
        1
300
CONTENTFORMAT
  1
CONTENTFORMAT_BEGIN
 90
        0
 91
        0
 92
        4
 93
        0
300

 40
0.0
140
1.0
 94
        5
 62
     0
340
11
144
4.5
309
CONTENTFORMAT_END
171
     1
301
MARGIN
  1
CELLMARGIN_BEGIN
 40
1.5
 40
1.5
 40
1.5
 40
1.5
 40
1.5
 40
1.5
309
CELLMARGIN_END
 94
        6
 95
        1
302
GRIDFORMAT
  1
GRIDFORMAT_BEGIN
 90
        0
 91
        1
 62
     0
 92
       -2
340
14
 93
        0
 40
0.045
309
GRIDFORMAT_END
 95
        2
302
GRIDFORMAT
  1
GRIDFORMAT_BEGIN
 90
        0
 91
        1
 62
     0
 92
       -2
340
14
 93
        0
 40
0.045
309
GRIDFORMAT_END
 95
        4
302
GRIDFORMAT
  1
GRIDFORMAT_BEGIN
 90
        0
 91
        1
 62
     0
 92
       -2
340
14
 93
        0
 40
0.045
309
GRIDFORMAT_END
 95
        8
302
GRIDFORMAT
  1
GRIDFORMAT_BEGIN
 90
        0
 91
        1
 62
     0
 92
       -2
340
14
 93
        0
 40
0.045
309
GRIDFORMAT_END
 95
       16
302
GRIDFORMAT
  1
GRIDFORMAT_BEGIN
 90
        0
 91
        1
 62
     0
 92
       -2
340
14
 93
        0
 40
0.045
309
GRIDFORMAT_END
 95
       32
302
GRIDFORMAT
  1
GRIDFORMAT_BEGIN
 90
        0
 91
        1
 62
     0
 92
       -2
340
14
 93
        0
 40
0.045
309
GRIDFORMAT_END
309
TABLEFORMAT_END
  1
CELLSTYLE_BEGIN
 90
        2
 91
        1
300
_HEADER
309
CELLSTYLE_END
300
CELLSTYLE
  1
TABLEFORMAT_BEGIN
 90
        5
170
     1
 91
        0
 92
        0
 62
   257
 93
        1
300
CONTENTFORMAT
  1
CONTENTFORMAT_BEGIN
 90
        0
 91
        0
 92
        4
 93
        0
300

 40
0.0
140
1.0
 94
        2
 62
     0
340
11
144
4.5
309
CONTENTFORMAT_END
171
     1
301
MARGIN
  1
CELLMARGIN_BEGIN
 40
1.5
 40
1.5
 40
1.5
 40
1.5
 40
1.5
 40
1.5
309
CELLMARGIN_END
 94
        6
 95
        1
302
GRIDFORMAT
  1
GRIDFORMAT_BEGIN
 90
        0
 91
        1
 62
     0
 92
       -2
340
14
 93
        0
 40
0.045
309
GRIDFORMAT_END
 95
        2
302
GRIDFORMAT
  1
GRIDFORMAT_BEGIN
 90
        0
 91
        1
 62
     0
 92
       -2
340
14
 93
        0
 40
0.045
309
GRIDFORMAT_END
 95
        4
302
GRIDFORMAT
  1
GRIDFORMAT_BEGIN
 90
        0
 91
        1
 62
     0
 92
       -2
340
14
 93
        0
 40
0.045
309
GRIDFORMAT_END
 95
        8
302
GRIDFORMAT
  1
GRIDFORMAT_BEGIN
 90
        0
 91
        1
 62
     0
 92
       -2
340
14
 93
        0
 40
0.045
309
GRIDFORMAT_END
 95
       16
302
GRIDFORMAT
  1
GRIDFORMAT_BEGIN
 90
        0
 91
        1
 62
     0
 92
       -2
340
14
 93
        0
 40
0.045
309
GRIDFORMAT_END
 95
       32
302
GRIDFORMAT
  1
GRIDFORMAT_BEGIN
 90
        0
 91
        1
 62
     0
 92
       -2
340
14
 93
        0
 40
0.045
309
GRIDFORMAT_END
309
TABLEFORMAT_END
  1
CELLSTYLE_BEGIN
 90
        3
 91
        2
300
_DATA
309
CELLSTYLE_END
  0
ENDSEC
  0
EOF
