  0
SECTION
  2
HEADER
  9
$ACADVER
  1
AC1021
  9
$ACADMAINTVER
 70
    25
  9
$DWGCODEPAGE
  3
ANSI_1250
  9
$INSBASE
 10
0.0
 20
0.0
 30
0.0
  9
$EXTMIN
 10
0.0
 20
0.0
 30
0.0
  9
$EXTMAX
 10
210.0
 20
297.0
 30
0.0
  9
$LIMMIN
 10
0.0
 20
0.0
  9
$LIMMAX
 10
210.0
 20
297.0
  9
$ORTHOMODE
 70
     0
  9
$REGENMODE
 70
     1
  9
$FILLMODE
 70
     1
  9
$QTEXTMODE
 70
     0
  9
$MIRRTEXT
 70
     1
  9
$LTSCALE
 40
1.0
  9
$ATTMODE
 70
     1
  9
$TEXTSIZE
 40
3.5
  9
$TRACEWID
 40
1.0
  9
$TEXTSTYLE
  7
Standard
  9
$CLAYER
  8
0
  9
$CELTYPE
  6
ByLayer
  9
$CECOLOR
 62
   256
  9
$CELTSCALE
 40
1.0
  9
$DISPSILH
 70
     0
  9
$DIMSCALE
 40
1.0
  9
$DIMASZ
 40
3.302
  9
$DIMEXO
 40
1.0
  9
$DIMDLI
 40
3.75
  9
$DIMRND
 40
0.0
  9
$DIMDLE
 40
0.0
  9
$DIMEXE
 40
1.0
  9
$DIMTP
 40
0.0
  9
$DIMTM
 40
0.0
  9
$DIMTXT
 40
3.5
  9
$DIMCEN
 40
2.5
  9
$DIMTSZ
 40
0.0
  9
$DIMTOL
 70
     0
  9
$DIMLIM
 70
     0
  9
$DIMTIH
 70
     1
  9
$DIMTOH
 70
     1
  9
$DIMSE1
 70
     0
  9
$DIMSE2
 70
     0
  9
$DIMTAD
 70
     1
  9
$DIMZIN
 70
     0
  9
$DIMBLK
  1

  9
$DIMASO
 70
     1
  9
$DIMSHO
 70
     1
  9
$DIMPOST
  1

  9
$DIMAPOST
  1

  9
$DIMALT
 70
     0
  9
$DIMALTD
 70
     3
  9
$DIMALTF
 40
0.0393700787
  9
$DIMLFAC
 40
1.0
  9
$DIMTOFL
 70
     1
  9
$DIMTVP
 40
0.0
  9
$DIMTIX
 70
     0
  9
$DIMSOXD
 70
     0
  9
$DIMSAH
 70
     0
  9
$DIMBLK1
  1

  9
$DIMBLK2
  1

  9
$DIMSTYLE
  2
ISO-25
  9
$DIMCLRD
 70
     0
  9
$DIMCLRE
 70
     0
  9
$DIMCLRT
 70
     0
  9
$DIMTFAC
 40
1.0
  9
$DIMGAP
 40
1.524
  9
$DIMJUST
 70
     0
  9
$DIMSD1
 70
     0
  9
$DIMSD2
 70
     0
  9
$DIMTOLJ
 70
     0
  9
$DIMTZIN
 70
     0
  9
$DIMALTZ
 70
     0
  9
$DIMALTTZ
 70
     0
  9
$DIMUPT
 70
     0
  9
$DIMDEC
 70
     2
  9
$DIMTDEC
 70
     2
  9
$DIMALTU
 70
     2
  9
$DIMALTTD
 70
     3
  9
$DIMTXSTY
  7
Standard
  9
$DIMAUNIT
 70
     0
  9
$DIMADEC
 70
     2
  9
$DIMALTRND
 40
0.0
  9
$DIMAZIN
 70
     0
  9
$DIMDSEP
 70
    44
  9
$DIMATFIT
 70
     3
  9
$DIMFRAC
 70
     0
  9
$DIMLDRBLK
  1

  9
$DIMLUNIT
 70
     2
  9
$DIMLWD
 70
    -2
  9
$DIMLWE
 70
    -2
  9
$DIMTMOVE
 70
     0
  9
$DIMFXL
 40
1.0
  9
$DIMFXLON
 70
     0
  9
$DIMJOGANG
 40
0.7853981634
  9
$DIMTFILL
 70
     0
  9
$DIMTFILLCLR
 70
     0
  9
$DIMARCSYM
 70
     0
  9
$DIMLTYPE
  6

  9
$DIMLTEX1
  6

  9
$DIMLTEX2
  6

  9
$LUNITS
 70
     2
  9
$LUPREC
 70
     2
  9
$SKETCHINC
 40
1.0
  9
$FILLETRAD
 40
10.0
  9
$AUNITS
 70
     0
  9
$AUPREC
 70
     2
  9
$MENU
  1
.
  9
$ELEVATION
 40
0.0
  9
$PELEVATION
 40
0.0
  9
$THICKNESS
 40
0.0
  9
$LIMCHECK
 70
     0
  9
$CHAMFERA
 40
0.0
  9
$CHAMFERB
 40
0.0
  9
$CHAMFERC
 40
0.0
  9
$CHAMFERD
 40
0.0
  9
$SKPOLY
 70
     0
  9
$TDCREATE
 40
2458577.331884259
  9
$TDUCREATE
 40
2458577.248550926
  9
$TDUPDATE
 40
2458577.331884664
  9
$TDUUPDATE
 40
2458577.248551331
  9
$TDINDWG
 40
0.0000000116
  9
$TDUSRTIMER
 40
0.0000000116
  9
$USRTIMER
 70
     1
  9
$ANGBASE
 50
0.0
  9
$ANGDIR
 70
     0
  9
$PDMODE
 70
     0
  9
$PDSIZE
 40
-1.0
  9
$PLINEWID
 40
0.0
  9
$SPLFRAME
 70
     0
  9
$SPLINETYPE
 70
     6
  9
$SPLINESEGS
 70
     8
  9
$HANDSEED
  5
276
  9
$SURFTAB1
 70
     6
  9
$SURFTAB2
 70
     6
  9
$SURFTYPE
 70
     6
  9
$SURFU
 70
     6
  9
$SURFV
 70
     6
  9
$UCSBASE
  2

  9
$UCSNAME
  2

  9
$UCSORG
 10
0.0
 20
0.0
 30
0.0
  9
$UCSXDIR
 10
1.0
 20
0.0
 30
0.0
  9
$UCSYDIR
 10
0.0
 20
1.0
 30
0.0
  9
$UCSORTHOREF
  2

  9
$UCSORTHOVIEW
 70
     0
  9
$UCSORGTOP
 10
0.0
 20
0.0
 30
0.0
  9
$UCSORGBOTTOM
 10
0.0
 20
0.0
 30
0.0
  9
$UCSORGLEFT
 10
0.0
 20
0.0
 30
0.0
  9
$UCSORGRIGHT
 10
0.0
 20
0.0
 30
0.0
  9
$UCSORGFRONT
 10
0.0
 20
0.0
 30
0.0
  9
$UCSORGBACK
 10
0.0
 20
0.0
 30
0.0
  9
$PUCSBASE
  2

  9
$PUCSNAME
  2

  9
$PUCSORG
 10
0.0
 20
0.0
 30
0.0
  9
$PUCSXDIR
 10
1.0
 20
0.0
 30
0.0
  9
$PUCSYDIR
 10
0.0
 20
1.0
 30
0.0
  9
$PUCSORTHOREF
  2

  9
$PUCSORTHOVIEW
 70
     0
  9
$PUCSORGTOP
 10
0.0
 20
0.0
 30
0.0
  9
$PUCSORGBOTTOM
 10
0.0
 20
0.0
 30
0.0
  9
$PUCSORGLEFT
 10
0.0
 20
0.0
 30
0.0
  9
$PUCSORGRIGHT
 10
0.0
 20
0.0
 30
0.0
  9
$PUCSORGFRONT
 10
0.0
 20
0.0
 30
0.0
  9
$PUCSORGBACK
 10
0.0
 20
0.0
 30
0.0
  9
$USERI1
 70
     0
  9
$USERI2
 70
     0
  9
$USERI3
 70
     0
  9
$USERI4
 70
     0
  9
$USERI5
 70
     0
  9
$USERR1
 40
0.0
  9
$USERR2
 40
0.0
  9
$USERR3
 40
0.0
  9
$USERR4
 40
0.0
  9
$USERR5
 40
0.0
  9
$WORLDVIEW
 70
     1
  9
$SHADEDGE
 70
     3
  9
$SHADEDIF
 70
    70
  9
$TILEMODE
 70
     1
  9
$MAXACTVP
 70
    64
  9
$PINSBASE
 10
0.0
 20
0.0
 30
0.0
  9
$PLIMCHECK
 70
     0
  9
$PEXTMIN
 10
1.0000000000E+20
 20
1.0000000000E+20
 30
1.0000000000E+20
  9
$PEXTMAX
 10
-1.0000000000E+20
 20
-1.0000000000E+20
 30
-1.0000000000E+20
  9
$PLIMMIN
 10
0.0
 20
0.0
  9
$PLIMMAX
 10
420.0
 20
297.0
  9
$UNITMODE
 70
     0
  9
$VISRETAIN
 70
     1
  9
$PLINEGEN
 70
     0
  9
$PSLTSCALE
 70
     1
  9
$TREEDEPTH
 70
  3020
  9
$CMLSTYLE
  2
Standard
  9
$CMLJUST
 70
     0
  9
$CMLSCALE
 40
20.0
  9
$PROXYGRAPHICS
 70
     1
  9
$MEASUREMENT
 70
     1
  9
$CELWEIGHT
370
    -1
  9
$ENDCAPS
280
     0
  9
$JOINSTYLE
280
     0
  9
$LWDISPLAY
290
     1
  9
$INSUNITS
 70
     4
  9
$HYPERLINKBASE
  1

  9
$STYLESHEET
  1

  9
$XEDIT
290
     1
  9
$CEPSNTYPE
380
     0
  9
$PSTYLEMODE
290
     1
  9
$FINGERPRINTGUID
  2
{BBAF1723-7958-4B47-AC29-8A002F11C71B}
  9
$VERSIONGUID
  2
{FAEB1C32-E019-11D5-929B-00C0DF256EC4}
  9
$EXTNAMES
290
     1
  9
$PSVPSCALE
 40
0.0
  9
$OLESTARTUP
290
     0
  9
$SORTENTS
280
   127
  9
$INDEXCTL
280
     0
  9
$HIDETEXT
280
     1
  9
$XCLIPFRAME
290
     0
  9
$HALOGAP
280
     0
  9
$OBSCOLOR
 70
   257
  9
$OBSLTYPE
280
     0
  9
$INTERSECTIONDISPLAY
280
     0
  9
$INTERSECTIONCOLOR
 70
   257
  9
$DIMASSOC
280
     2
  9
$PROJECTNAME
  1

  9
$CAMERADISPLAY
290
     0
  9
$LENSLENGTH
 40
50.0
  9
$CAMERAHEIGHT
 40
0.0
  9
$STEPSPERSEC
 40
2.0
  9
$STEPSIZE
 40
6.0
  9
$3DDWFPREC
 40
2.0
  9
$PSOLWIDTH
 40
5.0
  9
$PSOLHEIGHT
 40
80.0
  9
$LOFTANG1
 40
1.5707963268
  9
$LOFTANG2
 40
1.5707963268
  9
$LOFTMAG1
 40
0.0
  9
$LOFTMAG2
 40
0.0
  9
$LOFTPARAM
 70
     7
  9
$LOFTNORMALS
280
     1
  9
$LATITUDE
 40
37.795
  9
$LONGITUDE
 40
-122.394
  9
$NORTHDIRECTION
 40
0.0
  9
$TIMEZONE
 70
 -8000
  9
$LIGHTGLYPHDISPLAY
280
     1
  9
$TILEMODELIGHTSYNCH
280
     1
  9
$CMATERIAL
347
44
  9
$SOLIDHIST
280
     0
  9
$SHOWHIST
280
     1
  9
$DWFFRAME
280
     2
  9
$DGNFRAME
280
     2
  9
$REALWORLDSCALE
290
     1
  9
$INTERFERECOLOR
 62
   256
  9
$CSHADOW
280
     0
  9
$SHADOWPLANELOCATION
 40
0.0
  0
ENDSEC
  0
SECTION
  2
CLASSES
  0
CLASS
  1
ACDBDICTIONARYWDFLT
  2
AcDbDictionaryWithDefault
  3
ObjectDBX Classes
 90
        0
 91
        4
280
     0
281
     0
  0
CLASS
  1
VISUALSTYLE
  2
AcDbVisualStyle
  3
ObjectDBX Classes
 90
     4095
 91
        4
280
     0
281
     0
  0
CLASS
  1
MATERIAL
  2
AcDbMaterial
  3
ObjectDBX Classes
 90
     1153
 91
        4
280
     0
281
     0
  0
CLASS
  1
SCALE
  2
AcDbScale
  3
ObjectDBX Classes
 90
     1153
 91
        4
280
     0
281
     0
  0
CLASS
  1
TABLESTYLE
  2
AcDbTableStyle
  3
ObjectDBX Classes
 90
     4095
 91
        4
280
     0
281
     0
  0
CLASS
  1
MLEADERSTYLE
  2
AcDbMLeaderStyle
  3
ACDB_MLEADERSTYLE_CLASS
 90
     4095
 91
        4
280
     0
281
     0
  0
CLASS
  1
SUN
  2
AcDbSun
  3
SCENEOE
 90
     1153
 91
        4
280
     0
281
     0
  0
CLASS
  1
DICTIONARYVAR
  2
AcDbDictionaryVar
  3
ObjectDBX Classes
 90
        0
 91
        4
280
     0
281
     0
  0
CLASS
  1
CELLSTYLEMAP
  2
AcDbCellStyleMap
  3
ObjectDBX Classes
 90
     1152
 91
        4
280
     0
281
     0
  0
ENDSEC
  0
SECTION
  2
TABLES
  0
TABLE
  2
VPORT
  5
8
330
0
100
AcDbSymbolTable
 70
     1
  0
VPORT
  5
29
330
8
100
AcDbSymbolTableRecord
100
AcDbViewportTableRecord
  2
*Active
 70
     0
 10
0.0
 20
0.0
 11
1.0
 21
1.0
 12
105.0
 22
148.5
 13
0.0
 23
0.0
 14
10.0
 24
10.0
 15
10.0
 25
10.0
 16
0.0
 26
0.0
 36
1.0
 17
0.0
 27
0.0
 37
0.0
 40
297.0
 41
0.7070707071
 42
50.0
 43
0.0
 44
0.0
 50
0.0
 51
0.0
 71
     0
 72
  2000
 73
     1
 74
     3
 75
     0
 76
     0
 77
     0
 78
     0
281
     0
 65
     1
110
0.0
120
0.0
130
0.0
111
1.0
121
0.0
131
0.0
112
0.0
122
1.0
132
0.0
 79
     0
146
0.0
 60
     3
 61
     5
292
     1
282
     1
141
0.0
142
0.0
 63
   250
361
6D
  0
ENDTAB
  0
TABLE
  2
LTYPE
  5
5
330
0
100
AcDbSymbolTable
 70
     6
  0
LTYPE
  5
14
330
5
100
AcDbSymbolTableRecord
100
AcDbLinetypeTableRecord
  2
ByBlock
 70
     0
  3

 72
    65
 73
     0
 40
0.0
  0
LTYPE
  5
15
330
5
100
AcDbSymbolTableRecord
100
AcDbLinetypeTableRecord
  2
ByLayer
 70
     0
  3

 72
    65
 73
     0
 40
0.0
  0
LTYPE
  5
16
330
5
100
AcDbSymbolTableRecord
100
AcDbLinetypeTableRecord
  2
Continuous
 70
     0
  3
Solid line
 72
    65
 73
     0
 40
0.0
  0
LTYPE
  5
6E
330
5
100
AcDbSymbolTableRecord
100
AcDbLinetypeTableRecord
  2
HIDDEN
 70
     0
  3
Hidden __ __ __ __ __ __ __ __ __ __ __ __ __ __
 72
    65
 73
     2
 40
1.905
 49
1.27
 74
     0
 49
-0.635
 74
     0
  0
LTYPE
  5
6F
330
5
100
AcDbSymbolTableRecord
100
AcDbLinetypeTableRecord
  2
PHANTOM
 70
     0
  3
Phantom ______  __  __  ______  __  __  ______
 72
    65
 73
     6
 40
12.7
 49
6.35
 74
     0
 49
-1.27
 74
     0
 49
1.27
 74
     0
 49
-1.27
 74
     0
 49
1.27
 74
     0
 49
-1.27
 74
     0
  0
LTYPE
  5
70
330
5
100
AcDbSymbolTableRecord
100
AcDbLinetypeTableRecord
  2
CENTER
 70
     0
  3
Center ____ _ ____ _ ____ _ ____ _ ____ _ ____
 72
    65
 73
     4
 40
10.16
 49
6.35
 74
     0
 49
-1.27
 74
     0
 49
1.27
 74
     0
 49
-1.27
 74
     0
  0
LTYPE
  5
71
330
5
100
AcDbSymbolTableRecord
100
AcDbLinetypeTableRecord
  2
CENTERX2
 70
     0
  3
Center (2x) ________  __  ________  __  _____
 72
    65
 73
     4
 40
20.32
 49
12.7
 74
     0
 49
-2.54
 74
     0
 49
2.54
 74
     0
 49
-2.54
 74
     0
  0
LTYPE
  5
72
330
5
100
AcDbSymbolTableRecord
100
AcDbLinetypeTableRecord
  2
DOT2
 70
     0
  3
Dot (.5x) ........................................
 72
    65
 73
     2
 40
0.635
 49
0.0
 74
     0
 49
-0.635
 74
     0
  0
ENDTAB
  0
TABLE
  2
LAYER
  5
2
330
0
100
AcDbSymbolTable
 70
     1
  0
LAYER
  5
10
330
2
100
AcDbSymbolTableRecord
100
AcDbLayerTableRecord
  2
0
 70
     0
 62
     7
  6
Continuous
370
    -3
390
F
347
46
  0
ENDTAB
  0
TABLE
  2
STYLE
  5
3
330
0
100
AcDbSymbolTable
 70
     1
  0
STYLE
  5
11
330
3
100
AcDbSymbolTableRecord
100
AcDbTextStyleTableRecord
  2
Standard
 70
     0
 40
0.0
 41
1.0
 50
0.0
 71
     0
 42
3.5
  3
txt
  4

  0
ENDTAB
  0
TABLE
  2
VIEW
  5
6
330
0
100
AcDbSymbolTable
 70
     0
  0
ENDTAB
  0
TABLE
  2
UCS
  5
7
330
0
100
AcDbSymbolTable
 70
     0
  0
ENDTAB
  0
TABLE
  2
APPID
  5
9
330
0
100
AcDbSymbolTable
 70
     2
  0
APPID
  5
12
330
9
100
AcDbSymbolTableRecord
100
AcDbRegAppTableRecord
  2
ACAD
 70
     0
  0
APPID
  5
270
330
9
100
AcDbSymbolTableRecord
100
AcDbRegAppTableRecord
  2
ACAD_MLEADERVER
 70
     0
  0
ENDTAB
  0
TABLE
  2
DIMSTYLE
  5
A
330
0
100
AcDbSymbolTable
 70
     1
100
AcDbDimStyleTable
  0
DIMSTYLE
105
27
330
A
100
AcDbSymbolTableRecord
100
AcDbDimStyleTableRecord
  2
ISO-25
 70
     0
 41
2.5
 42
0.625
 43
3.75
 44
1.25
 73
     0
 74
     0
 77
     1
 78
     8
140
2.5
141
2.5
143
0.0393700787
147
0.625
171
     3
172
     1
178
     0
271
     2
272
     2
274
     3
278
    44
283
     0
284
     8
340
11
  0
ENDTAB
  0
TABLE
  2
BLOCK_RECORD
  5
1
330
0
100
AcDbSymbolTable
 70
     1
  0
BLOCK_RECORD
  5
1F
330
1
100
AcDbSymbolTableRecord
100
AcDbBlockTableRecord
  2
*Model_Space
340
22
 70
     0
280
     1
281
     0
  0
BLOCK_RECORD
  5
1B
330
1
100
AcDbSymbolTableRecord
100
AcDbBlockTableRecord
  2
*Paper_Space
340
1E
 70
     0
280
     1
281
     0
  0
BLOCK_RECORD
  5
23
330
1
100
AcDbSymbolTableRecord
100
AcDbBlockTableRecord
  2
*Paper_Space0
340
26
 70
     0
280
     1
281
     0
  0
ENDTAB
  0
ENDSEC
  0
SECTION
  2
BLOCKS
  0
BLOCK
  5
20
330
1F
100
AcDbEntity
  8
0
100
AcDbBlockBegin
  2
*Model_Space
 70
     0
 10
0.0
 20
0.0
 30
0.0
  3
*Model_Space
  1

  0
ENDBLK
  5
21
330
1F
100
AcDbEntity
  8
0
100
AcDbBlockEnd
  0
BLOCK
  5
1C
330
1B
100
AcDbEntity
 67
     1
  8
0
100
AcDbBlockBegin
  2
*Paper_Space
 70
     0
 10
0.0
 20
0.0
 30
0.0
  3
*Paper_Space
  1

  0
ENDBLK
  5
1D
330
1B
100
AcDbEntity
 67
     1
  8
0
100
AcDbBlockEnd
  0
BLOCK
  5
24
330
23
100
AcDbEntity
  8
0
100
AcDbBlockBegin
  2
*Paper_Space0
 70
     0
 10
0.0
 20
0.0
 30
0.0
  3
*Paper_Space0
  1

  0
ENDBLK
  5
25
330
23
100
AcDbEntity
  8
0
100
AcDbBlockEnd
  0
ENDSEC
  0
SECTION
  2
ENTITIES
  0
LINE
  5
73
330
1F
100
AcDbEntity
  8
0
  6
Continuous
 62
     7
370
    25
100
AcDbLine
 10
-193.6347183405
 20
838.7404154451
 30
0.0
 11
-193.6347183405
 21
-529.9376179068
 31
0.0
  0
LINE
  5
74
330
1F
100
AcDbEntity
  8
0
  6
Continuous
 62
     7
370
    25
100
AcDbLine
 10
-147.6664838015
 20
-501.2596775382
 30
0.0
 11
-147.6664838015
 21
810.0624750764
 31
0.0
  0
LINE
  5
75
330
1F
100
AcDbEntity
  8
0
  6
Continuous
 62
     7
370
    25
100
AcDbLine
 10
330.7147029222
 20
804.461068979
 30
0.0
 11
330.7147029222
 21
-495.6582714408
 31
0.0
  0
LINE
  5
76
330
1F
100
AcDbEntity
  8
0
  6
Continuous
 62
     7
370
    25
100
AcDbLine
 10
373.4606805624
 20
-535.5390240043
 30
0.0
 11
373.4606805624
 21
844.3418215425
 31
0.0
  0
LINE
  5
77
330
1F
100
AcDbEntity
  8
0
  6
Continuous
 62
     7
370
    25
100
AcDbLine
 10
-124.9273714243
 20
804.4014047296
 30
0.0
 11
-124.9273714243
 21
799.4014094979
 31
0.0
  0
LINE
  5
78
330
1F
100
AcDbEntity
  8
0
  6
Continuous
 62
     7
370
    25
100
AcDbLine
 10
-124.9273714243
 20
-490.5985523551
 30
0.0
 11
-124.9273714243
 21
-495.598666796
 31
0.0
  0
LINE
  5
79
330
1F
100
AcDbEntity
  8
0
  6
Continuous
 62
     7
370
    25
100
AcDbLine
 10
-78.9591368853
 20
-495.598666796
 30
0.0
 11
-78.9591368853
 21
804.4014047296
 31
0.0
  0
LINE
  5
7A
330
1F
100
AcDbEntity
  8
0
  6
Continuous
 62
     7
370
    25
100
AcDbLine
 10
3.1744766416
 20
804.4014047296
 30
0.0
 11
3.1744766416
 21
-495.598666796
 31
0.0
  0
LINE
  5
7B
330
1F
100
AcDbEntity
  8
0
  6
Continuous
 62
     7
370
    25
100
AcDbLine
 10
45.9204468311
 20
-495.598666796
 30
0.0
 11
45.9204468311
 21
-445.5984760611
 31
0.0
  0
LINE
  5
7C
330
1F
100
AcDbEntity
  8
0
  6
Continuous
 62
     7
370
    25
100
AcDbLine
 10
45.9204468311
 20
-405.5985142081
 30
0.0
 11
45.9204468311
 21
134.4014476449
 31
0.0
  0
LINE
  5
7D
330
1F
100
AcDbEntity
  8
0
  6
Continuous
 62
     7
370
    25
100
AcDbLine
 10
45.9204468311
 20
174.4014094979
 30
0.0
 11
45.9204468311
 21
714.4014309556
 31
0.0
  0
LINE
  5
7E
330
1F
100
AcDbEntity
  8
0
  6
Continuous
 62
     7
370
    25
100
AcDbLine
 10
45.9204468311
 20
754.4014524133
 30
0.0
 11
45.9204468311
 21
804.4014047296
 31
0.0
  0
LINE
  5
7F
330
1F
100
AcDbEntity
  8
0
  6
Continuous
 62
     7
370
    25
100
AcDbLine
 10
91.5883019002
 20
-431.3834835379
 30
0.0
 11
91.6510655911
 21
-431.3834835379
 31
0.0
  0
LINE
  5
80
330
1F
100
AcDbEntity
  8
0
  6
Continuous
 62
     7
370
    25
100
AcDbLine
 10
91.6510655911
 20
-419.8135067313
 30
0.0
 11
91.5883019002
 21
-419.8135067313
 31
0.0
  0
LINE
  5
81
330
1F
100
AcDbEntity
  8
0
  6
Continuous
 62
     7
370
    25
100
AcDbLine
 10
280.1720652164
 20
728.6164234788
 30
0.0
 11
280.2348289074
 21
728.6164234788
 31
0.0
  0
LINE
  5
82
330
1F
100
AcDbEntity
  8
0
  6
Continuous
 62
     7
370
    25
100
AcDbLine
 10
280.2348289074
 20
740.1864002854
 30
0.0
 11
280.1720652164
 21
740.1864002854
 31
0.0
  0
LINE
  5
83
330
1F
100
AcDbEntity
  8
0
  6
Continuous
 62
     7
370
    25
100
AcDbLine
 10
-131.0584839998
 20
160.1864169747
 30
0.0
 11
-131.5509971796
 21
160.1864169747
 31
0.0
  0
LINE
  5
84
330
1F
100
AcDbEntity
  8
0
  6
Continuous
 62
     7
370
    25
100
AcDbLine
 10
-131.5509971796
 20
148.6164401681
 30
0.0
 11
-131.0584839998
 21
148.6164401681
 31
0.0
  0
LINE
  5
85
330
1F
100
AcDbEntity
  8
0
  6
Continuous
 62
     7
370
    25
100
AcDbLine
 10
-131.0584839998
 20
-419.8135067313
 30
0.0
 11
-131.5509971796
 21
-419.8135067313
 31
0.0
  0
LINE
  5
86
330
1F
100
AcDbEntity
  8
0
  6
Continuous
 62
     7
370
    25
100
AcDbLine
 10
-131.5509971796
 20
-431.3834835379
 30
0.0
 11
-131.0584839998
 21
-431.3834835379
 31
0.0
  0
LINE
  5
87
330
1F
100
AcDbEntity
  8
0
  6
Continuous
 62
     7
370
    25
100
AcDbLine
 10
185.8801844896
 20
148.6164401681
 30
0.0
 11
185.9429481806
 21
148.6164401681
 31
0.0
  0
LINE
  5
88
330
1F
100
AcDbEntity
  8
0
  6
Continuous
 62
     7
370
    25
100
AcDbLine
 10
185.9429481806
 20
160.1864169747
 30
0.0
 11
185.8801844896
 21
160.1864169747
 31
0.0
  0
LINE
  5
89
330
1F
100
AcDbEntity
  8
0
  6
Continuous
 62
     7
370
    25
100
AcDbLine
 10
91.5883019002
 20
728.6164234788
 30
0.0
 11
91.6510655911
 21
728.6164234788
 31
0.0
  0
LINE
  5
8A
330
1F
100
AcDbEntity
  8
0
  6
Continuous
 62
     7
370
    25
100
AcDbLine
 10
91.6510655911
 20
740.1864002854
 30
0.0
 11
91.5883019002
 21
740.1864002854
 31
0.0
  0
LINE
  5
8B
330
1F
100
AcDbEntity
  8
0
  6
Continuous
 62
     7
370
    25
100
AcDbLine
 10
185.8801844896
 20
-431.3834835379
 30
0.0
 11
185.9429481806
 21
-431.3834835379
 31
0.0
  0
LINE
  5
8C
330
1F
100
AcDbEntity
  8
0
  6
Continuous
 62
     7
370
    25
100
AcDbLine
 10
185.9429481806
 20
-419.8135067313
 30
0.0
 11
185.8801844896
 21
-419.8135067313
 31
0.0
  0
LINE
  5
8D
330
1F
100
AcDbEntity
  8
0
  6
Continuous
 62
     7
370
    25
100
AcDbLine
 10
185.8801844896
 20
728.6164234788
 30
0.0
 11
185.9429481806
 21
728.6164234788
 31
0.0
  0
LINE
  5
8E
330
1F
100
AcDbEntity
  8
0
  6
Continuous
 62
     7
370
    25
100
AcDbLine
 10
185.9429481806
 20
740.1864002854
 30
0.0
 11
185.8801844896
 21
740.1864002854
 31
0.0
  0
LINE
  5
8F
330
1F
100
AcDbEntity
  8
0
  6
Continuous
 62
     7
370
    25
100
AcDbLine
 10
280.1720652164
 20
-431.3834835379
 30
0.0
 11
280.2348289074
 21
-431.3834835379
 31
0.0
  0
LINE
  5
90
330
1F
100
AcDbEntity
  8
0
  6
Continuous
 62
     7
370
    25
100
AcDbLine
 10
280.2348289074
 20
-419.8135067313
 30
0.0
 11
280.1720652164
 21
-419.8135067313
 31
0.0
  0
LINE
  5
91
330
1F
100
AcDbEntity
  8
0
  6
Continuous
 62
     7
370
    25
100
AcDbLine
 10
280.1720652164
 20
148.6164401681
 30
0.0
 11
280.2348289074
 21
148.6164401681
 31
0.0
  0
LINE
  5
92
330
1F
100
AcDbEntity
  8
0
  6
Continuous
 62
     7
370
    25
100
AcDbLine
 10
280.2348289074
 20
160.1864169747
 30
0.0
 11
280.1720652164
 21
160.1864169747
 31
0.0
  0
LINE
  5
93
330
1F
100
AcDbEntity
  8
0
  6
Continuous
 62
     7
370
    25
100
AcDbLine
 10
-103.2831814705
 20
-419.8135067313
 30
0.0
 11
-103.7756797491
 21
-419.8135067313
 31
0.0
  0
LINE
  5
94
330
1F
100
AcDbEntity
  8
0
  6
Continuous
 62
     7
370
    25
100
AcDbLine
 10
-103.7756797491
 20
-431.3834835379
 30
0.0
 11
-103.2831814705
 21
-431.3834835379
 31
0.0
  0
LINE
  5
95
330
1F
100
AcDbEntity
  8
0
  6
Continuous
 62
     7
370
    25
100
AcDbLine
 10
-103.2831814705
 20
740.1864002854
 30
0.0
 11
-103.7756797491
 21
740.1864002854
 31
0.0
  0
LINE
  5
96
330
1F
100
AcDbEntity
  8
0
  6
Continuous
 62
     7
370
    25
100
AcDbLine
 10
-103.7756797491
 20
728.6164234788
 30
0.0
 11
-103.2831814705
 21
728.6164234788
 31
0.0
  0
LINE
  5
97
330
1F
100
AcDbEntity
  8
0
  6
Continuous
 62
     7
370
    25
100
AcDbLine
 10
91.5883019002
 20
148.6164401681
 30
0.0
 11
91.6510655911
 21
148.6164401681
 31
0.0
  0
LINE
  5
98
330
1F
100
AcDbEntity
  8
0
  6
Continuous
 62
     7
370
    25
100
AcDbLine
 10
91.6510655911
 20
160.1864169747
 30
0.0
 11
91.5883019002
 21
160.1864169747
 31
0.0
  0
LINE
  5
99
330
1F
100
AcDbEntity
  8
0
  6
Continuous
 62
     7
370
    25
100
AcDbLine
 10
-103.2831814705
 20
160.1864169747
 30
0.0
 11
-103.7756797491
 21
160.1864169747
 31
0.0
  0
LINE
  5
9A
330
1F
100
AcDbEntity
  8
0
  6
Continuous
 62
     7
370
    25
100
AcDbLine
 10
-103.7756797491
 20
148.6164401681
 30
0.0
 11
-103.2831814705
 21
148.6164401681
 31
0.0
  0
LINE
  5
9B
330
1F
100
AcDbEntity
  8
0
  6
Continuous
 62
     7
370
    25
100
AcDbLine
 10
-131.0584839998
 20
740.1864002854
 30
0.0
 11
-131.5509971796
 21
740.1864002854
 31
0.0
  0
LINE
  5
9C
330
1F
100
AcDbEntity
  8
0
  6
Continuous
 62
     7
370
    25
100
AcDbLine
 10
-131.5509971796
 20
728.6164234788
 30
0.0
 11
-131.0584839998
 21
728.6164234788
 31
0.0
  0
LINE
  5
9D
330
1F
100
AcDbEntity
  8
0
  6
Continuous
 62
     7
370
    25
100
AcDbLine
 10
-150.9123143374
 20
850.8014153154
 30
0.0
 11
-150.9123143374
 21
898.0014394433
 31
0.0
  0
LINE
  5
9E
330
1F
100
AcDbEntity
  8
0
  6
Continuous
 62
     7
370
    25
100
AcDbLine
 10
377.0876828016
 20
898.0014394433
 30
0.0
 11
-150.9123143374
 21
898.0014394433
 31
0.0
  0
LINE
  5
9F
330
1F
100
AcDbEntity
  8
0
  6
Continuous
 62
     7
370
    25
100
AcDbLine
 10
377.0876828016
 20
850.8014153154
 30
0.0
 11
377.0876828016
 21
898.0014394433
 31
0.0
  0
LINE
  5
A0
330
1F
100
AcDbEntity
  8
0
  6
Continuous
 62
     7
370
    25
100
AcDbLine
 10
377.0876828016
 20
850.8014153154
 30
0.0
 11
-150.9123143374
 21
850.8014153154
 31
0.0
  0
LINE
  5
A1
330
1F
100
AcDbEntity
  8
0
  6
Continuous
 62
     7
370
    25
100
AcDbLine
 10
382.0876780332
 20
898.0014394433
 30
0.0
 11
377.0876828016
 21
898.0014394433
 31
0.0
  0
ELLIPSE
  5
A2
330
1F
100
AcDbEntity
  8
0
  6
Continuous
 62
     7
370
    25
100
AcDbEllipse
 10
375.6876890844
 20
898.0014285714
 30
0.0
 11
0.0
 21
6.399999999999977
 31
0.0
210
0.0
220
0.0
230
1.0
 40
0.21875
 41
4.712388980384693
 42
6.283185307179586
  0
ARC
  5
A3
330
1F
100
AcDbEntity
  8
0
  6
Continuous
 62
     7
370
    25
100
AcDbCircle
 10
375.6876890844
 20
898.0014285714
 30
0.0
 40
6.400000000000091
100
AcDbArc
 50
0.0
 51
90.0
  0
ARC
  5
A4
330
1F
100
AcDbEntity
  8
0
  6
Continuous
 62
     7
370
    25
100
AcDbCircle
 10
-144.5123109156
 20
898.0014285714
 30
0.0
 40
6.400000000000006
100
AcDbArc
 50
90.0
 51
180.0
  0
LINE
  5
A5
330
1F
100
AcDbEntity
  8
0
  6
Continuous
 62
     7
370
    25
100
AcDbLine
 10
375.6876889051
 20
904.4014285714
 30
0.0
 11
-144.5123252092
 21
904.4014285714
 31
0.0
  0
ARC
  5
A6
330
1F
100
AcDbEntity
  8
0
  6
Continuous
 62
     7
370
    25
100
AcDbCircle
 10
-144.5123109156
 20
850.8014285714
 30
0.0
 40
6.400000000000006
100
AcDbArc
 50
180.0
 51
270.0
  0
ELLIPSE
  5
A7
330
1F
100
AcDbEntity
  8
0
  6
Continuous
 62
     7
370
    25
100
AcDbEllipse
 10
375.6876890844
 20
850.8014285714
 30
0.0
 11
0.0
 21
6.399999999999977
 31
0.0
210
0.0
220
0.0
230
1.0
 40
0.21875
 41
3.141592653589793
 42
4.712388980384693
  0
LINE
  5
A8
330
1F
100
AcDbEntity
  8
0
  6
Continuous
 62
     7
370
    25
100
AcDbLine
 10
375.6876889051
 20
844.4014261872
 30
0.0
 11
-115.5792471586
 21
844.4014261872
 31
0.0
  0
LINE
  5
A9
330
1F
100
AcDbEntity
  8
0
  6
Continuous
 62
     7
370
    25
100
AcDbLine
 10
382.0876780332
 20
850.8014153154
 30
0.0
 11
377.0876828016
 21
850.8014153154
 31
0.0
  0
ARC
  5
AA
330
1F
100
AcDbEntity
  8
0
  6
Continuous
 62
     7
370
    25
100
AcDbCircle
 10
375.6876890844
 20
850.8014285714
 30
0.0
 40
6.400000000000205
100
AcDbArc
 50
270.0
 51
0.0
  0
LINE
  5
AB
330
1F
100
AcDbEntity
  8
0
  6
Continuous
 62
     7
370
    25
100
AcDbLine
 10
382.0876780332
 20
898.0014394433
 30
0.0
 11
382.0876780332
 21
850.8014153154
 31
0.0
  0
LINE
  5
AC
330
1F
100
AcDbEntity
  8
0
  6
Continuous
 62
     7
370
    25
100
AcDbLine
 10
382.0876780332
 20
-589.1984630912
 30
0.0
 11
377.0876828016
 21
-589.1984630912
 31
0.0
  0
ARC
  5
AD
330
1F
100
AcDbEntity
  8
0
  6
Continuous
 62
     7
370
    25
100
AcDbCircle
 10
375.6876890844
 20
-589.1985714286
 30
0.0
 40
6.400000000000091
100
AcDbArc
 50
270.0
 51
0.0
  0
ELLIPSE
  5
AE
330
1F
100
AcDbEntity
  8
0
  6
Continuous
 62
     7
370
    25
100
AcDbEllipse
 10
375.6876890844
 20
-589.1985714286
 30
0.0
 11
0.0
 21
6.399999999999977
 31
0.0
210
0.0
220
0.0
230
1.0
 40
0.21875
 41
3.141592653589939
 42
4.712388980384693
  0
LINE
  5
AF
330
1F
100
AcDbEntity
  8
0
  6
Continuous
 62
     7
370
    25
100
AcDbLine
 10
382.0876780332
 20
-541.9984985679
 30
0.0
 11
377.0876828016
 21
-541.9984985679
 31
0.0
  0
ELLIPSE
  5
B0
330
1F
100
AcDbEntity
  8
0
  6
Continuous
 62
     7
370
    25
100
AcDbEllipse
 10
375.6876890844
 20
-541.9985714286
 30
0.0
 11
0.0
 21
6.399999999999977
 31
0.0
210
0.0
220
0.0
230
1.0
 40
0.21875
 41
4.712388980384693
 42
6.283185307179586
  0
ARC
  5
B1
330
1F
100
AcDbEntity
  8
0
  6
Continuous
 62
     7
370
    25
100
AcDbCircle
 10
375.6876890844
 20
-541.9985714286
 30
0.0
 40
6.400000000000091
100
AcDbArc
 50
0.0
 51
90.0
  0
ARC
  5
B2
330
1F
100
AcDbEntity
  8
0
  6
Continuous
 62
     7
370
    25
100
AcDbCircle
 10
-144.5123109156
 20
-541.9985714286
 30
0.0
 40
6.399999999999977
100
AcDbArc
 50
90.0
 51
180.0
  0
LINE
  5
B3
330
1F
100
AcDbEntity
  8
0
  6
Continuous
 62
     7
370
    25
100
AcDbLine
 10
375.6876889051
 20
-535.598628649
 30
0.0
 11
-115.5792471586
 21
-535.598628649
 31
0.0
  0
LINE
  5
B4
330
1F
100
AcDbEntity
  8
0
  6
Continuous
 62
     7
370
    25
100
AcDbLine
 10
377.0876828016
 20
-541.9984985679
 30
0.0
 11
-150.9123143374
 21
-541.9984985679
 31
0.0
  0
LINE
  5
B5
330
1F
100
AcDbEntity
  8
0
  6
Continuous
 62
     7
370
    25
100
AcDbLine
 10
382.0876780332
 20
-541.9984985679
 30
0.0
 11
382.0876780332
 21
-589.1984630912
 31
0.0
  0
LINE
  5
B6
330
1F
100
AcDbEntity
  8
0
  6
Continuous
 62
     7
370
    25
100
AcDbLine
 10
377.0876828016
 20
-589.1984630912
 30
0.0
 11
377.0876828016
 21
-541.9984985679
 31
0.0
  0
LINE
  5
B7
330
1F
100
AcDbEntity
  8
0
  6
Continuous
 62
     7
370
    25
100
AcDbLine
 10
-150.9123143374
 20
-589.1984630912
 30
0.0
 11
-150.9123143374
 21
-541.9984985679
 31
0.0
  0
LINE
  5
B8
330
1F
100
AcDbEntity
  8
0
  6
Continuous
 62
     7
370
    25
100
AcDbLine
 10
377.0876828016
 20
-589.1984630912
 30
0.0
 11
-150.9123143374
 21
-589.1984630912
 31
0.0
  0
ARC
  5
B9
330
1F
100
AcDbEntity
  8
0
  6
Continuous
 62
     7
370
    25
100
AcDbCircle
 10
-144.5123109156
 20
-589.1985714286
 30
0.0
 40
6.400000000000034
100
AcDbArc
 50
180.0
 51
270.0
  0
LINE
  5
BA
330
1F
100
AcDbEntity
  8
0
  6
Continuous
 62
     7
370
    25
100
AcDbLine
 10
375.6876889051
 20
-595.5985714286
 30
0.0
 11
-144.5123252092
 21
-595.5985714286
 31
0.0
  0
LINE
  5
BB
330
1F
100
AcDbEntity
  8
0
  6
Continuous
 62
     7
370
    25
100
AcDbLine
 10
43.789036888
 20
714.4014309556
 30
0.0
 11
46.9237271131
 21
714.4014309556
 31
0.0
  0
LINE
  5
BC
330
1F
100
AcDbEntity
  8
0
  6
Continuous
 62
     7
370
    25
100
AcDbLine
 10
138.0809194775
 20
714.4014309556
 30
0.0
 11
141.2156097026
 21
714.4014309556
 31
0.0
  0
LINE
  5
BD
330
1F
100
AcDbEntity
  8
0
  6
Continuous
 62
     7
370
    25
100
AcDbLine
 10
232.3728057922
 20
714.4014309556
 30
0.0
 11
235.5074960174
 21
714.4014309556
 31
0.0
  0
LINE
  5
BE
330
1F
100
AcDbEntity
  8
0
  6
Continuous
 62
     7
370
    25
100
AcDbLine
 10
326.664686519
 20
714.4014309556
 30
0.0
 11
330.7147029222
 21
714.4014309556
 31
0.0
  0
LINE
  5
BF
330
1F
100
AcDbEntity
  8
0
  6
Continuous
 62
     7
370
    25
100
AcDbLine
 10
43.789036888
 20
754.4014524133
 30
0.0
 11
43.789036888
 21
714.4014309556
 31
0.0
  0
LINE
  5
C0
330
1F
100
AcDbEntity
  8
0
  6
Continuous
 62
     7
370
    25
100
AcDbLine
 10
330.7147029222
 20
754.4014524133
 30
0.0
 11
326.664686519
 21
754.4014524133
 31
0.0
  0
LINE
  5
C1
330
1F
100
AcDbEntity
  8
0
  6
Continuous
 62
     7
370
    25
100
AcDbLine
 10
235.5074960174
 20
754.4014524133
 30
0.0
 11
232.3728057922
 21
754.4014524133
 31
0.0
  0
LINE
  5
C2
330
1F
100
AcDbEntity
  8
0
  6
Continuous
 62
     7
370
    25
100
AcDbLine
 10
141.2156097026
 20
754.4014524133
 30
0.0
 11
138.0809194775
 21
754.4014524133
 31
0.0
  0
LINE
  5
C3
330
1F
100
AcDbEntity
  8
0
  6
Continuous
 62
     7
370
    25
100
AcDbLine
 10
46.9237271131
 20
754.4014524133
 30
0.0
 11
43.789036888
 21
754.4014524133
 31
0.0
  0
LINE
  5
C4
330
1F
100
AcDbEntity
  8
0
  6
Continuous
 62
     7
370
    25
100
AcDbLine
 10
43.789036888
 20
134.4014476449
 30
0.0
 11
46.9237271131
 21
134.4014476449
 31
0.0
  0
LINE
  5
C5
330
1F
100
AcDbEntity
  8
0
  6
Continuous
 62
     7
370
    25
100
AcDbLine
 10
138.0809194775
 20
134.4014476449
 30
0.0
 11
141.2156097026
 21
134.4014476449
 31
0.0
  0
LINE
  5
C6
330
1F
100
AcDbEntity
  8
0
  6
Continuous
 62
     7
370
    25
100
AcDbLine
 10
232.3728057922
 20
134.4014476449
 30
0.0
 11
235.5074960174
 21
134.4014476449
 31
0.0
  0
LINE
  5
C7
330
1F
100
AcDbEntity
  8
0
  6
Continuous
 62
     7
370
    25
100
AcDbLine
 10
326.664686519
 20
134.4014476449
 30
0.0
 11
330.7147029222
 21
134.4014476449
 31
0.0
  0
LINE
  5
C8
330
1F
100
AcDbEntity
  8
0
  6
Continuous
 62
     7
370
    25
100
AcDbLine
 10
43.789036888
 20
174.4014094979
 30
0.0
 11
43.789036888
 21
134.4014476449
 31
0.0
  0
LINE
  5
C9
330
1F
100
AcDbEntity
  8
0
  6
Continuous
 62
     7
370
    25
100
AcDbLine
 10
330.7147029222
 20
174.4014094979
 30
0.0
 11
326.664686519
 21
174.4014094979
 31
0.0
  0
LINE
  5
CA
330
1F
100
AcDbEntity
  8
0
  6
Continuous
 62
     7
370
    25
100
AcDbLine
 10
235.5074960174
 20
174.4014094979
 30
0.0
 11
232.3728057922
 21
174.4014094979
 31
0.0
  0
LINE
  5
CB
330
1F
100
AcDbEntity
  8
0
  6
Continuous
 62
     7
370
    25
100
AcDbLine
 10
141.2156097026
 20
174.4014094979
 30
0.0
 11
138.0809194775
 21
174.4014094979
 31
0.0
  0
LINE
  5
CC
330
1F
100
AcDbEntity
  8
0
  6
Continuous
 62
     7
370
    25
100
AcDbLine
 10
46.9237271131
 20
174.4014094979
 30
0.0
 11
43.789036888
 21
174.4014094979
 31
0.0
  0
LINE
  5
CD
330
1F
100
AcDbEntity
  8
0
  6
Continuous
 62
     7
370
    25
100
AcDbLine
 10
43.789036888
 20
-445.5984760611
 30
0.0
 11
46.9237271131
 21
-445.5984760611
 31
0.0
  0
LINE
  5
CE
330
1F
100
AcDbEntity
  8
0
  6
Continuous
 62
     7
370
    25
100
AcDbLine
 10
138.0809194775
 20
-445.5984760611
 30
0.0
 11
141.2156097026
 21
-445.5984760611
 31
0.0
  0
LINE
  5
CF
330
1F
100
AcDbEntity
  8
0
  6
Continuous
 62
     7
370
    25
100
AcDbLine
 10
232.3728057922
 20
-445.5984760611
 30
0.0
 11
235.5074960174
 21
-445.5984760611
 31
0.0
  0
LINE
  5
D0
330
1F
100
AcDbEntity
  8
0
  6
Continuous
 62
     7
370
    25
100
AcDbLine
 10
326.664686519
 20
-445.5984760611
 30
0.0
 11
330.7147029222
 21
-445.5984760611
 31
0.0
  0
LINE
  5
D1
330
1F
100
AcDbEntity
  8
0
  6
Continuous
 62
     7
370
    25
100
AcDbLine
 10
43.789036888
 20
-405.5985142081
 30
0.0
 11
43.789036888
 21
-445.5984760611
 31
0.0
  0
LINE
  5
D2
330
1F
100
AcDbEntity
  8
0
  6
Continuous
 62
     7
370
    25
100
AcDbLine
 10
330.7147029222
 20
-405.5985142081
 30
0.0
 11
326.664686519
 21
-405.5985142081
 31
0.0
  0
LINE
  5
D3
330
1F
100
AcDbEntity
  8
0
  6
Continuous
 62
     7
370
    25
100
AcDbLine
 10
235.5074960174
 20
-405.5985142081
 30
0.0
 11
232.3728057922
 21
-405.5985142081
 31
0.0
  0
LINE
  5
D4
330
1F
100
AcDbEntity
  8
0
  6
Continuous
 62
     7
370
    25
100
AcDbLine
 10
141.2156097026
 20
-405.5985142081
 30
0.0
 11
138.0809194775
 21
-405.5985142081
 31
0.0
  0
LINE
  5
D5
330
1F
100
AcDbEntity
  8
0
  6
Continuous
 62
     7
370
    25
100
AcDbLine
 10
46.9237271131
 20
-405.5985142081
 30
0.0
 11
43.789036888
 21
-405.5985142081
 31
0.0
  0
LINE
  5
D6
330
1F
100
AcDbEntity
  8
0
  6
Continuous
 62
     7
370
    25
100
AcDbLine
 10
-117.9017570435
 20
799.4014094979
 30
0.0
 11
-116.4399084269
 21
799.4014094979
 31
0.0
  0
LINE
  5
D7
330
1F
100
AcDbEntity
  8
0
  6
Continuous
 62
     7
370
    25
100
AcDbLine
 10
-116.4399084269
 20
-490.5985523551
 30
0.0
 11
-116.4399084269
 21
799.4014094979
 31
0.0
  0
LINE
  5
D8
330
1F
100
AcDbEntity
  8
0
  6
Continuous
 62
     7
370
    25
100
AcDbLine
 10
-117.9017570435
 20
-490.5985523551
 30
0.0
 11
-116.4399084269
 21
-490.5985523551
 31
0.0
  0
LINE
  5
D9
330
1F
100
AcDbEntity
  8
0
  6
Continuous
 62
     7
370
    25
100
AcDbLine
 10
-90.1264545141
 20
-490.5985523551
 30
0.0
 11
-90.1264545141
 21
799.4014094979
 31
0.0
  0
LINE
  5
DA
330
1F
100
AcDbEntity
  8
0
  6
Continuous
 62
     7
370
    25
100
AcDbLine
 10
-116.4399084269
 20
799.4014094979
 30
0.0
 11
-90.1264545141
 21
799.4014094979
 31
0.0
  0
LWPOLYLINE
  5
DB
330
1F
100
AcDbEntity
  8
0
  6
Continuous
 62
     7
370
    25
100
AcDbPolyline
 90
       27
 70
   128
 43
0.0
 10
-105.1251140057
 20
-425.5984951346
 10
-105.0715890347
 20
-427.1062542289
 10
-104.9141433655
 20
-428.526275286
 10
-104.6618965088
 20
-429.7763038962
 10
-104.3295261084
 20
-430.7833839743
 10
-103.9363440691
 20
-431.4891029685
 10
-103.5051938711
 20
-431.8526913016
 10
-103.0611541687
 20
-431.8526913016
 10
-102.6300188719
 20
-431.4891029685
 10
-102.2368368326
 20
-430.7833839743
 10
-101.9044664322
 20
-429.7763038962
 10
-101.6522195755
 20
-428.526275286
 10
-101.4947590052
 20
-427.1062542289
 10
-101.4412340342
 20
-425.5984951346
 10
-101.4947590052
 20
-424.090974459
 10
-101.6522195755
 20
-422.6707149833
 10
-101.9044664322
 20
-421.4209247916
 10
-102.2368368326
 20
-420.4138447135
 10
-102.6300188719
 20
-419.7078873008
 10
-103.0611541687
 20
-419.3445373862
 10
-103.5051938711
 20
-419.3445373862
 10
-103.9363440691
 20
-419.7078873008
 10
-104.3295261084
 20
-420.4138447135
 10
-104.6618965088
 20
-421.4209247916
 10
-104.9141433655
 20
-422.6707149833
 10
-105.0715890347
 20
-424.090974459
 10
-105.1251140057
 20
-425.5984951346
  0
LWPOLYLINE
  5
DC
330
1F
100
AcDbEntity
  8
0
  6
Continuous
 62
     7
370
    25
100
AcDbPolyline
 90
       27
 70
   128
 43
0.0
 10
-105.1251140057
 20
734.4014118821
 10
-105.0715890347
 20
732.8937123925
 10
-104.9141433655
 20
731.4736913354
 10
-104.6618965088
 20
730.2237819345
 10
-104.3295261084
 20
729.2166422517
 10
-103.9363440691
 20
728.5108040483
 10
-103.5051938711
 20
728.1473349244
 10
-103.0611541687
 20
728.1473349244
 10
-102.6300188719
 20
728.5108040483
 10
-102.2368368326
 20
729.2166422517
 10
-101.9044664322
 20
730.2237819345
 10
-101.6522195755
 20
731.4736913354
 10
-101.4947590052
 20
732.8937123925
 10
-101.4412340342
 20
734.4014118821
 10
-101.4947590052
 20
735.9091113717
 10
-101.6522195755
 20
737.3291920335
 10
-101.9044664322
 20
738.5791014344
 10
-102.2368368326
 20
739.5862411172
 10
-102.6300188719
 20
740.292019716
 10
-103.0611541687
 20
740.6554888398
 10
-103.5051938711
 20
740.6554888398
 10
-103.9363440691
 20
740.292019716
 10
-104.3295261084
 20
739.5862411172
 10
-104.6618965088
 20
738.5791014344
 10
-104.9141433655
 20
737.3291920335
 10
-105.0715890347
 20
735.9091113717
 10
-105.1251140057
 20
734.4014118821
  0
LWPOLYLINE
  5
DD
330
1F
100
AcDbEntity
  8
0
  6
Continuous
 62
     7
370
    25
100
AcDbPolyline
 90
       27
 70
   128
 43
0.0
 10
-105.1251140057
 20
154.4014285714
 10
-105.0715890347
 20
152.8937886865
 10
-104.9141433655
 20
151.4736484201
 10
-104.6618965088
 20
150.2237390191
 10
-104.3295261084
 20
149.216658941
 10
-103.9363440691
 20
148.5108207376
 10
-103.5051938711
 20
148.1473516137
 10
-103.0611541687
 20
148.1473516137
 10
-102.6300188719
 20
148.5108207376
 10
-102.2368368326
 20
149.216658941
 10
-101.9044664322
 20
150.2237390191
 10
-101.6522195755
 20
151.4736484201
 10
-101.4947590052
 20
152.8937886865
 10
-101.4412340342
 20
154.4014285714
 10
-101.4947590052
 20
155.9090684564
 10
-101.6522195755
 20
157.3292087228
 10
-101.9044664322
 20
158.5791181237
 10
-102.2368368326
 20
159.5861982019
 10
-102.6300188719
 20
160.2920364053
 10
-103.0611541687
 20
160.6555055291
 10
-103.5051938711
 20
160.6555055291
 10
-103.9363440691
 20
160.2920364053
 10
-104.3295261084
 20
159.5861982019
 10
-104.6618965088
 20
158.5791181237
 10
-104.9141433655
 20
157.3292087228
 10
-105.0715890347
 20
155.9090684564
 10
-105.1251140057
 20
154.4014285714
  0
LINE
  5
DE
330
1F
100
AcDbEntity
  8
0
  6
Continuous
 62
     7
370
    25
100
AcDbLine
 10
-116.4399084269
 20
-490.5985523551
 30
0.0
 11
-90.1264545141
 21
-490.5985523551
 31
0.0
  0
LINE
  5
DF
330
1F
100
AcDbEntity
  8
0
  6
Continuous
 62
     7
370
    25
100
AcDbLine
 10
-117.9017570435
 20
-490.5985523551
 30
0.0
 11
-117.9017570435
 21
799.4014094979
 31
0.0
  0
LINE
  5
E0
330
1F
100
AcDbEntity
  8
0
  6
Continuous
 62
     7
370
    25
100
AcDbLine
 10
-144.2152258574
 20
-490.5985523551
 30
0.0
 11
-117.9017570435
 21
-490.5985523551
 31
0.0
  0
LINE
  5
E1
330
1F
100
AcDbEntity
  8
0
  6
Continuous
 62
     7
370
    25
100
AcDbLine
 10
-144.2152258574
 20
-490.5985523551
 30
0.0
 11
-144.2152258574
 21
799.4014094979
 31
0.0
  0
LINE
  5
E2
330
1F
100
AcDbEntity
  8
0
  6
Continuous
 62
     7
370
    25
100
AcDbLine
 10
-144.2152258574
 20
799.4014094979
 30
0.0
 11
-117.9017570435
 21
799.4014094979
 31
0.0
  0
LWPOLYLINE
  5
E3
330
1F
100
AcDbEntity
  8
0
  6
Continuous
 62
     7
370
    25
100
AcDbPolyline
 90
       27
 70
   128
 43
0.0
 10
-132.9004463373
 20
734.4014118821
 10
-132.8469213663
 20
732.8937123925
 10
-132.6894458948
 20
731.4736913354
 10
-132.4371990381
 20
730.2237819345
 10
-132.1048435389
 20
729.2166422517
 10
-131.7116614996
 20
728.5108040483
 10
-131.2805113016
 20
728.1473349244
 10
-130.836456698
 20
728.1473349244
 10
-130.4053363024
 20
728.5108040483
 10
-130.0121542631
 20
729.2166422517
 10
-129.6797689615
 20
730.2237819345
 10
-129.4275221048
 20
731.4736913354
 10
-129.2700764357
 20
732.8937123925
 10
-129.2165514647
 20
734.4014118821
 10
-129.2700764357
 20
735.9091113717
 10
-129.4275221048
 20
737.3291920335
 10
-129.6797689615
 20
738.5791014344
 10
-130.0121542631
 20
739.5862411172
 10
-130.4053363024
 20
740.292019716
 10
-130.836456698
 20
740.6554888398
 10
-131.2805113016
 20
740.6554888398
 10
-131.7116614996
 20
740.292019716
 10
-132.1048435389
 20
739.5862411172
 10
-132.4371990381
 20
738.5791014344
 10
-132.6894458948
 20
737.3291920335
 10
-132.8469213663
 20
735.9091113717
 10
-132.9004463373
 20
734.4014118821
  0
LWPOLYLINE
  5
E4
330
1F
100
AcDbEntity
  8
0
  6
Continuous
 62
     7
370
    25
100
AcDbPolyline
 90
       27
 70
   128
 43
0.0
 10
-132.9004463373
 20
154.4014285714
 10
-132.8469213663
 20
152.8937886865
 10
-132.6894458948
 20
151.4736484201
 10
-132.4371990381
 20
150.2237390191
 10
-132.1048435389
 20
149.216658941
 10
-131.7116614996
 20
148.5108207376
 10
-131.2805113016
 20
148.1473516137
 10
-130.836456698
 20
148.1473516137
 10
-130.4053363024
 20
148.5108207376
 10
-130.0121542631
 20
149.216658941
 10
-129.6797689615
 20
150.2237390191
 10
-129.4275221048
 20
151.4736484201
 10
-129.2700764357
 20
152.8937886865
 10
-129.2165514647
 20
154.4014285714
 10
-129.2700764357
 20
155.9090684564
 10
-129.4275221048
 20
157.3292087228
 10
-129.6797689615
 20
158.5791181237
 10
-130.0121542631
 20
159.5861982019
 10
-130.4053363024
 20
160.2920364053
 10
-130.836456698
 20
160.6555055291
 10
-131.2805113016
 20
160.6555055291
 10
-131.7116614996
 20
160.2920364053
 10
-132.1048435389
 20
159.5861982019
 10
-132.4371990381
 20
158.5791181237
 10
-132.6894458948
 20
157.3292087228
 10
-132.8469213663
 20
155.9090684564
 10
-132.9004463373
 20
154.4014285714
  0
LWPOLYLINE
  5
E5
330
1F
100
AcDbEntity
  8
0
  6
Continuous
 62
     7
370
    25
100
AcDbPolyline
 90
       27
 70
   128
 43
0.0
 10
-132.9004463373
 20
-425.5984951346
 10
-132.8469213663
 20
-427.1062542289
 10
-132.6894458948
 20
-428.526275286
 10
-132.4371990381
 20
-429.7763038962
 10
-132.1048435389
 20
-430.7833839743
 10
-131.7116614996
 20
-431.4891029685
 10
-131.2805113016
 20
-431.8526913016
 10
-130.836456698
 20
-431.8526913016
 10
-130.4053363024
 20
-431.4891029685
 10
-130.0121542631
 20
-430.7833839743
 10
-129.6797689615
 20
-429.7763038962
 10
-129.4275221048
 20
-428.526275286
 10
-129.2700764357
 20
-427.1062542289
 10
-129.2165514647
 20
-425.5984951346
 10
-129.2700764357
 20
-424.090974459
 10
-129.4275221048
 20
-422.6707149833
 10
-129.6797689615
 20
-421.4209247916
 10
-130.0121542631
 20
-420.4138447135
 10
-130.4053363024
 20
-419.7078873008
 10
-130.836456698
 20
-419.3445373862
 10
-131.2805113016
 20
-419.3445373862
 10
-131.7116614996
 20
-419.7078873008
 10
-132.1048435389
 20
-420.4138447135
 10
-132.4371990381
 20
-421.4209247916
 10
-132.6894458948
 20
-422.6707149833
 10
-132.8469213663
 20
-424.090974459
 10
-132.9004463373
 20
-425.5984951346
  0
LINE
  5
E6
330
1F
100
AcDbEntity
  8
0
  6
Continuous
 62
     7
370
    25
100
AcDbLine
 10
-147.6664838015
 20
799.4014094979
 30
0.0
 11
-144.2152258574
 21
799.4014094979
 31
0.0
  0
LINE
  5
E7
330
1F
100
AcDbEntity
  8
0
  6
Continuous
 62
     7
370
    25
100
AcDbLine
 10
-147.6664838015
 20
-490.5985523551
 30
0.0
 11
-144.2152258574
 21
-490.5985523551
 31
0.0
  0
LINE
  5
E8
330
1F
100
AcDbEntity
  8
0
  6
Continuous
 62
     7
370
    25
100
AcDbLine
 10
138.0809194775
 20
799.4014094979
 30
0.0
 11
136.2528794812
 21
799.4014094979
 31
0.0
  0
LINE
  5
E9
330
1F
100
AcDbEntity
  8
0
  6
Continuous
 62
     7
370
    25
100
AcDbLine
 10
138.0809194775
 20
-490.5985523551
 30
0.0
 11
138.0809194775
 21
799.4014094979
 31
0.0
  0
LINE
  5
EA
330
1F
100
AcDbEntity
  8
0
  6
Continuous
 62
     7
370
    25
100
AcDbLine
 10
138.0809194775
 20
-490.5985523551
 30
0.0
 11
136.2528794812
 21
-490.5985523551
 31
0.0
  0
LINE
  5
EB
330
1F
100
AcDbEntity
  8
0
  6
Continuous
 62
     7
370
    25
100
AcDbLine
 10
136.2528794812
 20
-490.5985523551
 30
0.0
 11
136.2528794812
 21
799.4014094979
 31
0.0
  0
LINE
  5
EC
330
1F
100
AcDbEntity
  8
0
  6
Continuous
 62
     7
370
    25
100
AcDbLine
 10
46.9237271131
 20
-490.5985523551
 30
0.0
 11
136.2528794812
 21
-490.5985523551
 31
0.0
  0
LINE
  5
ED
330
1F
100
AcDbEntity
  8
0
  6
Continuous
 62
     7
370
    25
100
AcDbLine
 10
46.9237271131
 20
799.4014094979
 30
0.0
 11
46.9237271131
 21
-490.5985523551
 31
0.0
  0
LINE
  5
EE
330
1F
100
AcDbEntity
  8
0
  6
Continuous
 62
     7
370
    25
100
AcDbLine
 10
136.2528794812
 20
799.4014094979
 30
0.0
 11
46.9237271131
 21
799.4014094979
 31
0.0
  0
CIRCLE
  5
EF
330
1F
100
AcDbEntity
  8
0
  6
Continuous
 62
     7
370
    25
100
AcDbCircle
 10
91.6230098819
 20
734.4084400028
 30
0.0
 40
6.28775137395409
  0
CIRCLE
  5
F0
330
1F
100
AcDbEntity
  8
0
  6
Continuous
 62
     7
370
    25
100
AcDbCircle
 10
91.6230161531
 20
154.4083966083
 30
0.0
 40
6.28775757824583
  0
CIRCLE
  5
F1
330
1F
100
AcDbEntity
  8
0
  6
Continuous
 62
     7
370
    25
100
AcDbCircle
 10
91.6230161442
 20
-425.5916457596
 30
0.0
 40
6.287757438983976
  0
LINE
  5
F2
330
1F
100
AcDbEntity
  8
0
  6
Continuous
 62
     7
370
    25
100
AcDbLine
 10
141.2156097026
 20
-490.5985523551
 30
0.0
 11
230.5447611393
 21
-490.5985523551
 31
0.0
  0
LINE
  5
F3
330
1F
100
AcDbEntity
  8
0
  6
Continuous
 62
     7
370
    25
100
AcDbLine
 10
141.2156097026
 20
799.4014094979
 30
0.0
 11
141.2156097026
 21
-490.5985523551
 31
0.0
  0
LINE
  5
F4
330
1F
100
AcDbEntity
  8
0
  6
Continuous
 62
     7
370
    25
100
AcDbLine
 10
230.5447611393
 20
799.4014094979
 30
0.0
 11
141.2156097026
 21
799.4014094979
 31
0.0
  0
LINE
  5
F5
330
1F
100
AcDbEntity
  8
0
  6
Continuous
 62
     7
370
    25
100
AcDbLine
 10
230.5447611393
 20
-490.5985523551
 30
0.0
 11
230.5447611393
 21
799.4014094979
 31
0.0
  0
CIRCLE
  5
F6
330
1F
100
AcDbEntity
  8
0
  6
Continuous
 62
     7
370
    25
100
AcDbCircle
 10
185.9148938383
 20
734.4084400626
 30
0.0
 40
6.28775087832668
  0
CIRCLE
  5
F7
330
1F
100
AcDbEntity
  8
0
  6
Continuous
 62
     7
370
    25
100
AcDbCircle
 10
185.9149001095
 20
154.4083966681
 30
0.0
 40
6.287757082613243
  0
CIRCLE
  5
F8
330
1F
100
AcDbEntity
  8
0
  6
Continuous
 62
     7
370
    25
100
AcDbCircle
 10
185.9149001006
 20
-425.5916456999
 30
0.0
 40
6.287756943350213
  0
LINE
  5
F9
330
1F
100
AcDbEntity
  8
0
  6
Continuous
 62
     7
370
    25
100
AcDbLine
 10
232.3728057922
 20
799.4014094979
 30
0.0
 11
230.5447611393
 21
799.4014094979
 31
0.0
  0
LINE
  5
FA
330
1F
100
AcDbEntity
  8
0
  6
Continuous
 62
     7
370
    25
100
AcDbLine
 10
232.3728057922
 20
-490.5985523551
 30
0.0
 11
232.3728057922
 21
799.4014094979
 31
0.0
  0
LINE
  5
FB
330
1F
100
AcDbEntity
  8
0
  6
Continuous
 62
     7
370
    25
100
AcDbLine
 10
232.3728057922
 20
-490.5985523551
 30
0.0
 11
230.5447611393
 21
-490.5985523551
 31
0.0
  0
LINE
  5
FC
330
1F
100
AcDbEntity
  8
0
  6
Continuous
 62
     7
370
    25
100
AcDbLine
 10
235.5074960174
 20
-490.5985523551
 30
0.0
 11
324.8366418661
 21
-490.5985523551
 31
0.0
  0
LINE
  5
FD
330
1F
100
AcDbEntity
  8
0
  6
Continuous
 62
     7
370
    25
100
AcDbLine
 10
235.5074960174
 20
799.4014094979
 30
0.0
 11
235.5074960174
 21
-490.5985523551
 31
0.0
  0
LINE
  5
FE
330
1F
100
AcDbEntity
  8
0
  6
Continuous
 62
     7
370
    25
100
AcDbLine
 10
324.8366418661
 20
799.4014094979
 30
0.0
 11
235.5074960174
 21
799.4014094979
 31
0.0
  0
LINE
  5
FF
330
1F
100
AcDbEntity
  8
0
  6
Continuous
 62
     7
370
    25
100
AcDbLine
 10
324.8366418661
 20
-490.5985523551
 30
0.0
 11
324.8366418661
 21
799.4014094979
 31
0.0
  0
CIRCLE
  5
100
330
1F
100
AcDbEntity
  8
0
  6
Continuous
 62
     7
370
    25
100
AcDbCircle
 10
280.2067808734
 20
734.4084246642
 30
0.0
 40
6.287753444098908
  0
CIRCLE
  5
101
330
1F
100
AcDbEntity
  8
0
  6
Continuous
 62
     7
370
    25
100
AcDbCircle
 10
280.2067871448
 20
154.4083812691
 30
0.0
 40
6.287759648803755
  0
CIRCLE
  5
102
330
1F
100
AcDbEntity
  8
0
  6
Continuous
 62
     7
370
    25
100
AcDbCircle
 10
280.206787136
 20
-425.5916611001
 30
0.0
 40
6.287759509855414
  0
LINE
  5
103
330
1F
100
AcDbEntity
  8
0
  6
Continuous
 62
     7
370
    25
100
AcDbLine
 10
326.664686519
 20
799.4014094979
 30
0.0
 11
324.8366418661
 21
799.4014094979
 31
0.0
  0
LINE
  5
104
330
1F
100
AcDbEntity
  8
0
  6
Continuous
 62
     7
370
    25
100
AcDbLine
 10
326.664686519
 20
-490.5985523551
 30
0.0
 11
326.664686519
 21
799.4014094979
 31
0.0
  0
LINE
  5
105
330
1F
100
AcDbEntity
  8
0
  6
Continuous
 62
     7
370
    25
100
AcDbLine
 10
326.664686519
 20
-490.5985523551
 30
0.0
 11
324.8366418661
 21
-490.5985523551
 31
0.0
  0
LINE
  5
106
330
1F
100
AcDbEntity
  8
0
  6
Continuous
 62
     7
370
    25
100
AcDbLine
 10
-165.0223728834
 20
-535.598628649
 30
0.0
 11
-115.5792471586
 21
-535.598628649
 31
0.0
  0
ELLIPSE
  5
107
330
1F
100
AcDbEntity
  8
0
  6
Continuous
 62
     7
370
    25
100
AcDbEllipse
 10
-162.683407988
 20
-527.5985714286
 30
0.0
 11
6.430854884937901
 21
6.430854884937617
 31
0.0
210
0.0
220
0.0
230
1.0
 40
0.739961075
 41
3.778637830567761
 42
5.34943415736265
  0
LINE
  5
108
330
1F
100
AcDbEntity
  8
0
  6
Continuous
 62
     7
370
    25
100
AcDbLine
 10
-155.0329622446
 20
-527.5984932273
 30
0.0
 11
-30.7112631022
 21
-527.5984932273
 31
0.0
  0
ELLIPSE
  5
109
330
1F
100
AcDbEntity
  8
0
  6
Continuous
 62
     7
370
    25
100
AcDbEllipse
 10
-36.3990623758
 20
-527.5985714286
 30
0.0
 11
1.918465386552271E-13
 21
8.0
 31
0.0
210
0.0
220
0.0
230
1.0
 40
0.7109757664
 41
3.14159265358985
 42
4.712388980384773
  0
ELLIPSE
  5
10A
330
1F
100
AcDbEntity
  8
0
  6
Continuous
 62
     7
370
    25
100
AcDbEllipse
 10
-155.6664870747
 20
-503.5985714286
 30
0.0
 11
6.4308548849379
 21
6.43085488493756
 31
0.0
210
0.0
220
0.0
230
1.0
 40
0.739961075
 41
5.349434157362654
 42
5.646140130201702
  0
LINE
  5
10B
330
1F
100
AcDbEntity
  8
0
  6
Continuous
 62
     7
370
    25
100
AcDbLine
 10
-155.0329622446
 20
-527.5984932273
 30
0.0
 11
-148.0160352408
 21
-503.5985637992
 31
0.0
  0
LINE
  5
10C
330
1F
100
AcDbEntity
  8
0
  6
Continuous
 62
     7
370
    25
100
AcDbLine
 10
-187.9737075983
 20
-535.598628649
 30
0.0
 11
-165.0223728834
 21
-535.598628649
 31
0.0
  0
ELLIPSE
  5
10D
330
1F
100
AcDbEntity
  8
0
  6
Continuous
 62
     7
370
    25
100
AcDbEllipse
 10
-185.6347221312
 20
-527.5985714286
 30
0.0
 11
6.430854884937871
 21
6.430854884937615
 31
0.0
210
0.0
220
0.0
230
1.0
 40
0.739961075
 41
2.504547476611874
 42
3.778637830567769
  0
LINE
  5
10E
330
1F
100
AcDbEntity
  8
0
  6
Continuous
 62
     7
370
    25
100
AcDbLine
 10
-148.0160352408
 20
-503.5985637992
 30
0.0
 11
-30.7112631022
 21
-503.5985637992
 31
0.0
  0
LINE
  5
10F
330
1F
100
AcDbEntity
  8
0
  6
Continuous
 62
     7
370
    25
100
AcDbLine
 10
-30.7112631022
 20
-503.5985637992
 30
0.0
 11
-30.7112631022
 21
-527.5984932273
 31
0.0
  0
LINE
  5
110
330
1F
100
AcDbEntity
  8
0
  6
Continuous
 62
     7
370
    25
100
AcDbLine
 10
-147.6664838015
 20
-495.598666796
 30
0.0
 11
-96.3150259672
 21
-495.598666796
 31
0.0
  0
LINE
  5
111
330
1F
100
AcDbEntity
  8
0
  6
Continuous
 62
     7
370
    25
100
AcDbLine
 10
-78.9591368853
 20
-495.598666796
 30
0.0
 11
-36.3990661322
 21
-495.598666796
 31
0.0
  0
ELLIPSE
  5
112
330
1F
100
AcDbEntity
  8
0
  6
Continuous
 62
     7
370
    25
100
AcDbEllipse
 10
-36.3990623758
 20
-503.5985714286
 30
0.0
 11
1.989519660128281E-13
 21
8.0
 31
0.0
210
0.0
220
0.0
230
1.0
 40
0.7109757664
 41
4.712388980384767
 42
6.283185307179586
  0
LINE
  5
113
330
1F
100
AcDbEntity
  8
0
  6
Continuous
 62
     7
370
    25
100
AcDbLine
 10
-30.7112631022
 20
-527.5984932273
 30
0.0
 11
361.5608516516
 21
-527.5984932273
 31
0.0
  0
ELLIPSE
  5
114
330
1F
100
AcDbEntity
  8
0
  6
Continuous
 62
     7
370
    25
100
AcDbEllipse
 10
362.5358107832
 20
-527.5985714286
 30
0.0
 11
7.985078387374926
 21
-7.985078387374641
 31
0.0
210
0.0
220
0.0
230
1.0
 40
0.0611626202
 41
4.651302456564885
 42
6.22209878335971
  0
ELLIPSE
  5
115
330
1F
100
AcDbEntity
  8
0
  6
Continuous
 62
     7
370
    25
100
AcDbEllipse
 10
-36.3990623758
 20
-527.5985714286
 30
0.0
 11
3.055333763768431E-13
 21
8.0
 31
0.0
210
0.0
220
0.0
230
1.0
 40
0.7109757664
 41
3.141592653589857
 42
4.712388980384727
  0
ELLIPSE
  5
116
330
1F
100
AcDbEntity
  8
0
  6
Continuous
 62
     7
370
    25
100
AcDbEllipse
 10
365.4606750249
 20
-527.5985714286
 30
0.0
 11
7.985078387374926
 21
-7.985078387374756
 31
0.0
210
0.0
220
0.0
230
1.0
 40
0.0611626202
 41
6.222098783359829
 42
6.344271830999451
  0
LINE
  5
117
330
1F
100
AcDbEntity
  8
0
  6
Continuous
 62
     7
370
    25
100
AcDbLine
 10
337.739751059
 20
-503.5985637992
 30
0.0
 11
361.5608516516
 21
-527.5984932273
 31
0.0
  0
ELLIPSE
  5
118
330
1F
100
AcDbEntity
  8
0
  6
Continuous
 62
     7
370
    25
100
AcDbEllipse
 10
338.7147031438
 20
-503.5985714286
 30
0.0
 11
7.985078387374983
 21
-7.985078387374698
 31
0.0
210
0.0
220
0.0
230
1.0
 40
0.0611626202
 41
3.202679177409772
 42
4.651302456564885
  0
LINE
  5
119
330
1F
100
AcDbEntity
  8
0
  6
Continuous
 62
     7
370
    25
100
AcDbLine
 10
-30.7112631022
 20
-503.5985637992
 30
0.0
 11
337.739751059
 21
-503.5985637992
 31
0.0
  0
LINE
  5
11A
330
1F
100
AcDbEntity
  8
0
  6
Continuous
 62
     7
370
    25
100
AcDbLine
 10
-36.3990661322
 20
-495.598666796
 30
0.0
 11
3.1744766416
 21
-495.598666796
 31
0.0
  0
LINE
  5
11B
330
1F
100
AcDbEntity
  8
0
  6
Continuous
 62
     7
370
    25
100
AcDbLine
 10
42.9359528603
 20
-495.598666796
 30
0.0
 11
330.7147029222
 21
-495.598666796
 31
0.0
  0
ELLIPSE
  5
11C
330
1F
100
AcDbEntity
  8
0
  6
Continuous
 62
     7
370
    25
100
AcDbEllipse
 10
-36.3990623758
 20
-503.5985714286
 30
0.0
 11
3.055333763768431E-13
 21
8.000000000000057
 31
0.0
210
0.0
220
0.0
230
1.0
 40
0.7109757664
 41
4.712388980384727
 42
6.283185307179586
  0
LINE
  5
11D
330
1F
100
AcDbEntity
  8
0
  6
Continuous
 62
     7
370
    25
100
AcDbLine
 10
-165.0223728834
 20
844.4014261872
 30
0.0
 11
-165.0223728834
 21
-535.598628649
 31
0.0
  0
ELLIPSE
  5
11E
330
1F
100
AcDbEntity
  8
0
  6
Continuous
 62
     7
370
    25
100
AcDbEllipse
 10
-162.683407988
 20
836.4014285714
 30
0.0
 11
6.430854884937759
 21
-6.43085488493773
 31
0.0
210
0.0
220
0.0
230
1.0
 40
0.739961075
 41
0.9337511498169384
 42
2.504547476611868
  0
LINE
  5
11F
330
1F
100
AcDbEntity
  8
0
  6
Continuous
 62
     7
370
    25
100
AcDbLine
 10
-155.0329622446
 20
836.4014099748
 30
0.0
 11
-155.0329622446
 21
-527.5984932273
 31
0.0
  0
ELLIPSE
  5
120
330
1F
100
AcDbEntity
  8
0
  6
Continuous
 62
     7
370
    25
100
AcDbEllipse
 10
-162.683407988
 20
-527.5985714286
 30
0.0
 11
6.430854884937928
 21
6.430854884937389
 31
0.0
210
0.0
220
0.0
230
1.0
 40
0.739961075
 41
3.778637830567789
 42
5.349434157362611
  0
LINE
  5
121
330
1F
100
AcDbEntity
  8
0
  6
Continuous
 62
     7
370
    25
100
AcDbLine
 10
-187.9737075983
 20
844.4014261872
 30
0.0
 11
-187.9737075983
 21
-535.598628649
 31
0.0
  0
LINE
  5
122
330
1F
100
AcDbEntity
  8
0
  6
Continuous
 62
     7
370
    25
100
AcDbLine
 10
-187.9737075983
 20
844.4014261872
 30
0.0
 11
-165.0223728834
 21
844.4014261872
 31
0.0
  0
LINE
  5
123
330
1F
100
AcDbEntity
  8
0
  6
Continuous
 62
     7
370
    25
100
AcDbLine
 10
-148.0160352408
 20
812.401420942
 30
0.0
 11
-148.0160352408
 21
-503.5985637992
 31
0.0
  0
LINE
  5
124
330
1F
100
AcDbEntity
  8
0
  6
Continuous
 62
     7
370
    25
100
AcDbLine
 10
-155.0329622446
 20
836.4014099748
 30
0.0
 11
-148.0160352408
 21
812.401420942
 31
0.0
  0
ELLIPSE
  5
125
330
1F
100
AcDbEntity
  8
0
  6
Continuous
 62
     7
370
    25
100
AcDbEllipse
 10
-185.6347221312
 20
-527.5985714286
 30
0.0
 11
6.430854884937928
 21
6.430854884937389
 31
0.0
210
0.0
220
0.0
230
1.0
 40
0.739961075
 41
2.504547476611909
 42
3.778637830567789
  0
ELLIPSE
  5
126
330
1F
100
AcDbEntity
  8
0
  6
Continuous
 62
     7
370
    25
100
AcDbEllipse
 10
-185.6347221312
 20
836.4014285714
 30
0.0
 11
6.430854884937759
 21
-6.43085488493773
 31
0.0
210
0.0
220
0.0
230
1.0
 40
0.739961075
 41
2.504547476611868
 42
3.778637830567737
  0
ELLIPSE
  5
127
330
1F
100
AcDbEntity
  8
0
  6
Continuous
 62
     7
370
    25
100
AcDbEllipse
 10
-155.6664870747
 20
-503.5985714286
 30
0.0
 11
6.430854884937957
 21
6.430854884937332
 31
0.0
210
0.0
220
0.0
230
1.0
 40
0.739961075
 41
5.349434157362676
 42
5.646140130201726
  0
ELLIPSE
  5
128
330
1F
100
AcDbEntity
  8
0
  6
Continuous
 62
     7
370
    25
100
AcDbEllipse
 10
-155.6664870747
 20
812.4014285714
 30
0.0
 11
6.430854884937788
 21
-6.43085488493773
 31
0.0
210
0.0
220
0.0
230
1.0
 40
0.739961075
 41
0.6370451769779268
 42
0.9337511498169658
  0
ELLIPSE
  5
129
330
1F
100
AcDbEntity
  8
0
  6
Continuous
 62
     7
370
    25
100
AcDbEllipse
 10
-185.6347221312
 20
836.4014285714
 30
0.0
 11
6.430854884937759
 21
-6.43085488493773
 31
0.0
210
0.0
220
0.0
230
1.0
 40
0.739961075
 41
2.504547476611868
 42
3.778637830567736
  0
ELLIPSE
  5
12A
330
1F
100
AcDbEntity
  8
0
  6
Continuous
 62
     7
370
    25
100
AcDbEllipse
 10
-162.683407988
 20
836.4014285714
 30
0.0
 11
6.430854884937759
 21
-6.43085488493773
 31
0.0
210
0.0
220
0.0
230
1.0
 40
0.739961075
 41
0.9337511498169667
 42
2.504547476611868
  0
ELLIPSE
  5
12B
330
1F
100
AcDbEntity
  8
0
  6
Continuous
 62
     7
370
    25
100
AcDbEllipse
 10
-155.6664870747
 20
812.4014285714
 30
0.0
 11
6.430854884937788
 21
-6.43085488493773
 31
0.0
210
0.0
220
0.0
230
1.0
 40
0.739961075
 41
0.6370451769779268
 42
0.93375114981698
  0
LINE
  5
12C
330
1F
100
AcDbEntity
  8
0
  6
Continuous
 62
     7
370
    25
100
AcDbLine
 10
-115.5792471586
 20
844.4014261872
 30
0.0
 11
-165.0223728834
 21
844.4014261872
 31
0.0
  0
ELLIPSE
  5
12D
330
1F
100
AcDbEntity
  8
0
  6
Continuous
 62
     7
370
    25
100
AcDbEllipse
 10
-36.3990623758
 20
836.4014285714
 30
0.0
 11
0.0
 21
8.0
 31
0.0
210
0.0
220
0.0
230
1.0
 40
0.7109757664
 41
4.712388980384699
 42
6.283185307179586
  0
LINE
  5
12E
330
1F
100
AcDbEntity
  8
0
  6
Continuous
 62
     7
370
    25
100
AcDbLine
 10
-30.7112631022
 20
836.4014099748
 30
0.0
 11
-155.0329622446
 21
836.4014099748
 31
0.0
  0
LINE
  5
12F
330
1F
100
AcDbEntity
  8
0
  6
Continuous
 62
     7
370
    25
100
AcDbLine
 10
-30.7112631022
 20
836.4014099748
 30
0.0
 11
-30.7112631022
 21
812.401420942
 31
0.0
  0
LINE
  5
130
330
1F
100
AcDbEntity
  8
0
  6
Continuous
 62
     7
370
    25
100
AcDbLine
 10
-30.7112631022
 20
812.401420942
 30
0.0
 11
-148.0160352408
 21
812.401420942
 31
0.0
  0
ELLIPSE
  5
131
330
1F
100
AcDbEntity
  8
0
  6
Continuous
 62
     7
370
    25
100
AcDbEllipse
 10
-36.3990623758
 20
812.4014285714
 30
0.0
 11
0.0
 21
8.0
 31
0.0
210
0.0
220
0.0
230
1.0
 40
0.7109757664
 41
3.141592653589793
 42
4.712388980384699
  0
LINE
  5
132
330
1F
100
AcDbEntity
  8
0
  6
Continuous
 62
     7
370
    25
100
AcDbLine
 10
-36.3990661322
 20
804.4014047296
 30
0.0
 11
-78.9591368853
 21
804.4014047296
 31
0.0
  0
LINE
  5
133
330
1F
100
AcDbEntity
  8
0
  6
Continuous
 62
     7
370
    25
100
AcDbLine
 10
-96.3150259672
 20
804.4014047296
 30
0.0
 11
-147.6664838015
 21
804.4014047296
 31
0.0
  0
ELLIPSE
  5
134
330
1F
100
AcDbEntity
  8
0
  6
Continuous
 62
     7
370
    25
100
AcDbEllipse
 10
362.5358107832
 20
836.4014285714
 30
0.0
 11
7.985078387374926
 21
7.985078387374756
 31
0.0
210
0.0
220
0.0
230
1.0
 40
0.0611626202
 41
0.0610865238198694
 42
1.631882850614699
  0
LINE
  5
135
330
1F
100
AcDbEntity
  8
0
  6
Continuous
 62
     7
370
    25
100
AcDbLine
 10
361.5608516516
 20
836.4014099748
 30
0.0
 11
-30.7112631022
 21
836.4014099748
 31
0.0
  0
ELLIPSE
  5
136
330
1F
100
AcDbEntity
  8
0
  6
Continuous
 62
     7
370
    25
100
AcDbEllipse
 10
-36.3990623758
 20
836.4014285714
 30
0.0
 11
5.684341886080801E-14
 21
8.0
 31
0.0
210
0.0
220
0.0
230
1.0
 40
0.7109757664
 41
4.712388980384705
 42
6.283185307179586
  0
ELLIPSE
  5
137
330
1F
100
AcDbEntity
  8
0
  6
Continuous
 62
     7
370
    25
100
AcDbEllipse
 10
338.7147031438
 20
812.4014285714
 30
0.0
 11
7.985078387374926
 21
7.985078387374869
 31
0.0
210
0.0
220
0.0
230
1.0
 40
0.0611626202
 41
1.631882850614705
 42
3.080506129769929
  0
LINE
  5
138
330
1F
100
AcDbEntity
  8
0
  6
Continuous
 62
     7
370
    25
100
AcDbLine
 10
361.5608516516
 20
836.4014099748
 30
0.0
 11
337.739751059
 21
812.401420942
 31
0.0
  0
ELLIPSE
  5
139
330
1F
100
AcDbEntity
  8
0
  6
Continuous
 62
     7
370
    25
100
AcDbEllipse
 10
365.4606750249
 20
836.4014285714
 30
0.0
 11
7.985078387375097
 21
7.985078387374871
 31
0.0
210
0.0
220
0.0
230
1.0
 40
0.0611626202
 41
6.222098783360106
 42
6.34427183099939
  0
LINE
  5
13A
330
1F
100
AcDbEntity
  8
0
  6
Continuous
 62
     7
370
    25
100
AcDbLine
 10
337.739751059
 20
812.401420942
 30
0.0
 11
-30.7112631022
 21
812.401420942
 31
0.0
  0
LINE
  5
13B
330
1F
100
AcDbEntity
  8
0
  6
Continuous
 62
     7
370
    25
100
AcDbLine
 10
330.7147029222
 20
804.4014047296
 30
0.0
 11
42.9359528603
 21
804.4014047296
 31
0.0
  0
LINE
  5
13C
330
1F
100
AcDbEntity
  8
0
  6
Continuous
 62
     7
370
    25
100
AcDbLine
 10
3.1744766416
 20
804.4014047296
 30
0.0
 11
-36.3990661322
 21
804.4014047296
 31
0.0
  0
ELLIPSE
  5
13D
330
1F
100
AcDbEntity
  8
0
  6
Continuous
 62
     7
370
    25
100
AcDbEllipse
 10
-36.3990623758
 20
812.4014285714
 30
0.0
 11
5.684341886080801E-14
 21
8.0
 31
0.0
210
0.0
220
0.0
230
1.0
 40
0.7109757664
 41
3.141592653589828
 42
4.712388980384705
  0
LINE
  5
13E
330
1F
100
AcDbEntity
  8
0
  6
Continuous
 62
     7
370
    25
100
AcDbLine
 10
370.4761865915
 20
-535.598628649
 30
0.0
 11
370.4761865915
 21
844.4014261872
 31
0.0
  0
ELLIPSE
  5
13F
330
1F
100
AcDbEntity
  8
0
  6
Continuous
 62
     7
370
    25
100
AcDbEllipse
 10
362.5358107832
 20
-527.5985714286
 30
0.0
 11
7.985078387374983
 21
-7.985078387374756
 31
0.0
210
0.0
220
0.0
230
1.0
 40
0.0611626202
 41
4.651302456564949
 42
6.222098783359819
  0
LINE
  5
140
330
1F
100
AcDbEntity
  8
0
  6
Continuous
 62
     7
370
    25
100
AcDbLine
 10
361.5608516516
 20
-527.5984932273
 30
0.0
 11
361.5608516516
 21
836.4014099748
 31
0.0
  0
ELLIPSE
  5
141
330
1F
100
AcDbEntity
  8
0
  6
Continuous
 62
     7
370
    25
100
AcDbEllipse
 10
362.5358107832
 20
836.4014285714
 30
0.0
 11
7.985078387374926
 21
7.985078387374983
 31
0.0
210
0.0
220
0.0
230
1.0
 40
0.0611626202
 41
0.0610865238199914
 42
1.631882850614749
  0
LINE
  5
142
330
1F
100
AcDbEntity
  8
0
  6
Continuous
 62
     7
370
    25
100
AcDbLine
 10
337.739751059
 20
-503.5985637992
 30
0.0
 11
337.739751059
 21
812.401420942
 31
0.0
  0
ELLIPSE
  5
143
330
1F
100
AcDbEntity
  8
0
  6
Continuous
 62
     7
370
    25
100
AcDbEllipse
 10
338.7147031438
 20
-503.5985714286
 30
0.0
 11
7.985078387374926
 21
-7.985078387374813
 31
0.0
210
0.0
220
0.0
230
1.0
 40
0.0611626202
 41
3.20267917740949
 42
4.651302456564894
  0
ELLIPSE
  5
144
330
1F
100
AcDbEntity
  8
0
  6
Continuous
 62
     7
370
    25
100
AcDbEllipse
 10
338.7147031438
 20
812.4014285714
 30
0.0
 11
7.985078387374926
 21
7.985078387374983
 31
0.0
210
0.0
220
0.0
230
1.0
 40
0.0611626202
 41
1.631882850614693
 42
3.080506129769629
  0
LINE
  5
145
330
1F
100
AcDbEntity
  8
0
  6
Continuous
 62
     7
370
    25
100
AcDbLine
 10
373.4010461153
 20
-535.598628649
 30
0.0
 11
373.4010461153
 21
844.4014261872
 31
0.0
  0
ELLIPSE
  5
146
330
1F
100
AcDbEntity
  8
0
  6
Continuous
 62
     7
370
    25
100
AcDbEllipse
 10
365.4606750249
 20
-527.5985714286
 30
0.0
 11
7.985078387374926
 21
-7.985078387374756
 31
0.0
210
0.0
220
0.0
230
1.0
 40
0.0611626202
 41
6.222098783359819
 42
6.344271830998984
  0
ELLIPSE
  5
147
330
1F
100
AcDbEntity
  8
0
  6
Continuous
 62
     7
370
    25
100
AcDbEllipse
 10
365.4606750249
 20
836.4014285714
 30
0.0
 11
7.985078387374983
 21
7.985078387374983
 31
0.0
210
0.0
220
0.0
230
1.0
 40
0.0611626202
 41
6.222098783359937
 42
6.344271830999402
  0
LINE
  5
148
330
1F
100
AcDbEntity
  8
0
  6
Continuous
 62
     7
370
    25
100
AcDbLine
 10
-86.3256153284
 20
804.4014047296
 30
0.0
 11
-86.3256153284
 21
-495.598666796
 31
0.0
  0
LINE
  5
149
330
1F
100
AcDbEntity
  8
0
  6
Continuous
 62
     7
370
    25
100
AcDbLine
 10
-86.3256153284
 20
-495.598666796
 30
0.0
 11
-96.3150259672
 21
-495.598666796
 31
0.0
  0
LINE
  5
14A
330
1F
100
AcDbEntity
  8
0
  6
Continuous
 62
     7
370
    25
100
AcDbLine
 10
-96.3150259672
 20
804.4014047296
 30
0.0
 11
-86.3256153284
 21
804.4014047296
 31
0.0
  0
LINE
  5
14B
330
1F
100
AcDbEntity
  8
0
  6
Continuous
 62
     7
370
    25
100
AcDbLine
 10
-79.3087032257
 20
804.4014047296
 30
0.0
 11
-79.3087032257
 21
-495.598666796
 31
0.0
  0
LINE
  5
14C
330
1F
100
AcDbEntity
  8
0
  6
Continuous
 62
     7
370
    25
100
AcDbLine
 10
-86.3256153284
 20
-495.598666796
 30
0.0
 11
-79.3087032257
 21
-495.598666796
 31
0.0
  0
LINE
  5
14D
330
1F
100
AcDbEntity
  8
0
  6
Continuous
 62
     7
370
    25
100
AcDbLine
 10
-79.3087032257
 20
804.4014047296
 30
0.0
 11
-86.3256153284
 21
804.4014047296
 31
0.0
  0
LINE
  5
14E
330
1F
100
AcDbEntity
  8
0
  6
Continuous
 62
     7
370
    25
100
AcDbLine
 10
-78.9591368853
 20
-495.598666796
 30
0.0
 11
-79.3087032257
 21
-495.598666796
 31
0.0
  0
LINE
  5
14F
330
1F
100
AcDbEntity
  8
0
  6
Continuous
 62
     7
370
    25
100
AcDbLine
 10
-79.3087032257
 20
804.4014047296
 30
0.0
 11
-78.9591368853
 21
804.4014047296
 31
0.0
  0
LINE
  5
150
330
1F
100
AcDbEntity
  8
0
  6
Continuous
 62
     7
370
    25
100
AcDbLine
 10
34.0206253709
 20
-495.598666796
 30
0.0
 11
34.0206253709
 21
804.4014047296
 31
0.0
  0
LINE
  5
151
330
1F
100
AcDbEntity
  8
0
  6
Continuous
 62
     7
370
    25
100
AcDbLine
 10
34.0206253709
 20
804.4014047296
 30
0.0
 11
42.9359528603
 21
804.4014047296
 31
0.0
  0
LINE
  5
152
330
1F
100
AcDbEntity
  8
0
  6
Continuous
 62
     7
370
    25
100
AcDbLine
 10
42.9359528603
 20
-495.598666796
 30
0.0
 11
42.9359528603
 21
804.4014047296
 31
0.0
  0
LINE
  5
153
330
1F
100
AcDbEntity
  8
0
  6
Continuous
 62
     7
370
    25
100
AcDbLine
 10
42.9359528603
 20
-495.598666796
 30
0.0
 11
34.0206253709
 21
-495.598666796
 31
0.0
  0
LINE
  5
154
330
1F
100
AcDbEntity
  8
0
  6
Continuous
 62
     7
370
    25
100
AcDbLine
 10
10.1995173277
 20
-495.598666796
 30
0.0
 11
10.1995173277
 21
804.4014047296
 31
0.0
  0
LINE
  5
155
330
1F
100
AcDbEntity
  8
0
  6
Continuous
 62
     7
370
    25
100
AcDbLine
 10
10.1995173277
 20
-495.598666796
 30
0.0
 11
34.0206253709
 21
-495.598666796
 31
0.0
  0
LINE
  5
156
330
1F
100
AcDbEntity
  8
0
  6
Continuous
 62
     7
370
    25
100
AcDbLine
 10
34.0206253709
 20
804.4014047296
 30
0.0
 11
10.1995173277
 21
804.4014047296
 31
0.0
  0
LINE
  5
157
330
1F
100
AcDbEntity
  8
0
  6
Continuous
 62
     7
370
    25
100
AcDbLine
 10
10.1995173277
 20
-495.598666796
 30
0.0
 11
3.1744766416
 21
-495.598666796
 31
0.0
  0
LINE
  5
158
330
1F
100
AcDbEntity
  8
0
  6
Continuous
 62
     7
370
    25
100
AcDbLine
 10
3.1744766416
 20
804.4014047296
 30
0.0
 11
10.1995173277
 21
804.4014047296
 31
0.0
  0
CIRCLE
  5
159
330
1F
100
AcDbEntity
  8
0
  6
Continuous
 62
     7
370
    25
100
AcDbCircle
 10
91.5783736447
 20
-425.6306870208
 30
0.0
 40
5.75340735981468
  0
ARC
  5
15A
330
1F
100
AcDbEntity
  8
0
  6
Continuous
 62
     7
370
    25
100
AcDbCircle
 10
91.6122133449
 20
-425.6023968778
 30
0.0
 40
5.789020523775532
100
AcDbArc
 50
287.4015030147
 51
89.6154640609
  0
LWPOLYLINE
  5
15B
330
1F
100
AcDbEntity
  8
0
  6
Continuous
 62
     7
370
    25
100
AcDbPolyline
 90
        3
 70
   128
 43
0.0
 10
91.6510655911
 20
-431.3834835379
 10
91.9258336903
 20
-431.3770462363
 10
93.3435115398
 20
-431.1264683097
  0
LINE
  5
15C
330
1F
100
AcDbEntity
  8
0
  6
Continuous
 62
     7
370
    25
100
AcDbLine
 10
93.2769964816
 20
-427.1773029654
 30
0.0
 11
91.0756926419
 21
-427.8613258689
 31
0.0
  0
LINE
  5
15D
330
1F
100
AcDbEntity
  8
0
  6
Continuous
 62
     7
370
    25
100
AcDbLine
 10
93.7896057398
 20
-424.9144722312
 30
0.0
 11
93.2769964816
 21
-427.1773029654
 31
0.0
  0
LINE
  5
15E
330
1F
100
AcDbEntity
  8
0
  6
Continuous
 62
     7
370
    25
100
AcDbLine
 10
92.1009130211
 20
-423.335902819
 30
0.0
 11
93.7896057398
 21
-424.9144722312
 31
0.0
  0
LINE
  5
15F
330
1F
100
AcDbEntity
  8
0
  6
Continuous
 62
     7
370
    25
100
AcDbLine
 10
89.8996110441
 20
-424.0199257224
 30
0.0
 11
92.1009130211
 21
-423.335902819
 31
0.0
  0
LINE
  5
160
330
1F
100
AcDbEntity
  8
0
  6
Continuous
 62
     7
370
    25
100
AcDbLine
 10
89.3869999231
 20
-426.2827564566
 30
0.0
 11
89.8996110441
 21
-424.0199257224
 31
0.0
  0
LINE
  5
161
330
1F
100
AcDbEntity
  8
0
  6
Continuous
 62
     7
370
    25
100
AcDbLine
 10
91.0756926419
 20
-427.8613258689
 30
0.0
 11
89.3869999231
 21
-426.2827564566
 31
0.0
  0
LINE
  5
162
330
1F
100
AcDbEntity
  8
0
  6
Continuous
 62
     7
370
    25
100
AcDbLine
 10
91.304935831
 20
-423.6777950614
 30
0.0
 11
92.1769294323
 21
-423.4069515555
 31
0.0
  0
LINE
  5
163
330
1F
100
AcDbEntity
  8
0
  6
Continuous
 62
     7
370
    25
100
AcDbLine
 10
90.2042839111
 20
-424.0199257224
 30
0.0
 11
91.304935831
 21
-423.6777950614
 31
0.0
  0
LINE
  5
164
330
1F
100
AcDbEntity
  8
0
  6
Continuous
 62
     7
370
    25
100
AcDbLine
 10
90.2042839111
 20
-424.0199257224
 30
0.0
 11
89.8996110441
 21
-424.0199257224
 31
0.0
  0
LINE
  5
165
330
1F
100
AcDbEntity
  8
0
  6
Continuous
 62
     7
370
    25
100
AcDbLine
 10
89.6916727902
 20
-426.2827564566
 30
0.0
 11
89.3869999231
 21
-426.2827564566
 31
0.0
  0
LINE
  5
166
330
1F
100
AcDbEntity
  8
0
  6
Continuous
 62
     7
370
    25
100
AcDbLine
 10
90.5360191496
 20
-427.0719219535
 30
0.0
 11
89.6916727902
 21
-426.2827564566
 31
0.0
  0
LINE
  5
167
330
1F
100
AcDbEntity
  8
0
  6
Continuous
 62
     7
370
    25
100
AcDbLine
 10
91.3043509604
 20
-427.7902771323
 30
0.0
 11
90.5360191496
 21
-427.0719219535
 31
0.0
  0
LINE
  5
168
330
1F
100
AcDbEntity
  8
0
  6
Continuous
 62
     7
370
    25
100
AcDbLine
 10
89.947976488
 20
-425.1512218802
 30
0.0
 11
90.2042839111
 21
-424.0199257224
 31
0.0
  0
LINE
  5
169
330
1F
100
AcDbEntity
  8
0
  6
Continuous
 62
     7
370
    25
100
AcDbLine
 10
89.6916727902
 20
-426.2827564566
 30
0.0
 11
89.947976488
 21
-425.1512218802
 31
0.0
  0
LINE
  5
16A
330
1F
100
AcDbEntity
  8
0
  6
Continuous
 62
     7
370
    25
100
AcDbLine
 10
93.7814454915
 20
-424.9504734366
 30
0.0
 11
93.7580171408
 21
-424.8849083274
 31
0.0
  0
ARC
  5
16B
330
1F
100
AcDbEntity
  8
0
  6
Continuous
 62
     7
370
    25
100
AcDbCircle
 10
91.89429831
 20
-425.6214597981
 30
0.0
 40
1.987149400994399
100
AcDbArc
 50
226.8797748822
 51
269.8476591051
  0
ARC
  5
16C
330
1F
100
AcDbEntity
  8
0
  6
Continuous
 62
     7
370
    25
100
AcDbCircle
 10
91.9167072442
 20
-425.5988418964
 30
0.0
 40
2.01897609427609
100
AcDbArc
 50
167.1907193789
 51
226.8543276247
  0
ARC
  5
16D
330
1F
100
AcDbEntity
  8
0
  6
Continuous
 62
     7
370
    25
100
AcDbCircle
 10
91.9036620573
 20
-425.5907572357
 30
0.0
 40
2.00446934987309
100
AcDbArc
 50
107.3792762097
 51
167.3333897524
  0
ARC
  5
16E
330
1F
100
AcDbEntity
  8
0
  6
Continuous
 62
     7
370
    25
100
AcDbCircle
 10
91.8930211325
 20
-425.5729869575
 30
0.0
 40
1.984337835420224
100
AcDbArc
 50
73.3993384956
 51
107.2393166817
  0
LWPOLYLINE
  5
16F
330
1F
100
AcDbEntity
  8
0
  6
Continuous
 62
     7
370
    25
100
AcDbPolyline
 90
        3
 70
   128
 43
0.0
 10
93.0200781108
 20
-427.2571731894
 10
93.1657965661
 20
-427.1463085502
 10
93.3153297187
 20
-427.0080257743
  0
LINE
  5
170
330
1F
100
AcDbEntity
  8
0
  6
Continuous
 62
     7
370
    25
100
AcDbLine
 10
281.8607691111
 20
732.8227828653
 30
0.0
 11
279.6594652714
 21
732.1387003572
 31
0.0
  0
LINE
  5
171
330
1F
100
AcDbEntity
  8
0
  6
Continuous
 62
     7
370
    25
100
AcDbLine
 10
282.3733690561
 20
735.0855539949
 30
0.0
 11
281.8607691111
 21
732.8227828653
 31
0.0
  0
LINE
  5
172
330
1F
100
AcDbEntity
  8
0
  6
Continuous
 62
     7
370
    25
100
AcDbLine
 10
280.6846800627
 20
736.6641830117
 30
0.0
 11
282.3733690561
 21
735.0855539949
 31
0.0
  0
LINE
  5
173
330
1F
100
AcDbEntity
  8
0
  6
Continuous
 62
     7
370
    25
100
AcDbLine
 10
278.483376223
 20
735.9801005036
 30
0.0
 11
280.6846800627
 21
736.6641830117
 31
0.0
  0
LINE
  5
174
330
1F
100
AcDbEntity
  8
0
  6
Continuous
 62
     7
370
    25
100
AcDbLine
 10
277.9707613768
 20
733.717329374
 30
0.0
 11
278.483376223
 21
735.9801005036
 31
0.0
  0
LINE
  5
175
330
1F
100
AcDbEntity
  8
0
  6
Continuous
 62
     7
370
    25
100
AcDbLine
 10
279.6594652714
 20
732.1387003572
 30
0.0
 11
277.9707613768
 21
733.717329374
 31
0.0
  0
CIRCLE
  5
176
330
1F
100
AcDbEntity
  8
0
  6
Continuous
 62
     7
370
    25
100
AcDbCircle
 10
280.1628235091
 20
734.3695018682
 30
0.0
 40
5.753476820520476
  0
ARC
  5
177
330
1F
100
AcDbEntity
  8
0
  6
Continuous
 62
     7
370
    25
100
AcDbCircle
 10
280.1959820407
 20
734.3975089484
 30
0.0
 40
5.789021678226653
100
AcDbArc
 50
287.4015788727
 51
89.6155173819
  0
LWPOLYLINE
  5
178
330
1F
100
AcDbEntity
  8
0
  6
Continuous
 62
     7
370
    25
100
AcDbPolyline
 90
        3
 70
   128
 43
0.0
 10
280.2348289074
 20
728.6164234788
 10
280.5096063198
 20
728.6230395944
 10
281.9272878946
 20
728.8734387071
  0
LINE
  5
179
330
1F
100
AcDbEntity
  8
0
  6
Continuous
 62
     7
370
    25
100
AcDbLine
 10
279.8887047352
 20
736.3221119554
 30
0.0
 11
280.7606908859
 21
736.5931342752
 31
0.0
  0
LINE
  5
17A
330
1F
100
AcDbEntity
  8
0
  6
Continuous
 62
     7
370
    25
100
AcDbLine
 10
278.7880453648
 20
735.9801005036
 30
0.0
 11
279.8887047352
 21
736.3221119554
 31
0.0
  0
LINE
  5
17B
330
1F
100
AcDbEntity
  8
0
  6
Continuous
 62
     7
370
    25
100
AcDbLine
 10
278.7880453648
 20
735.9801005036
 30
0.0
 11
278.483376223
 21
735.9801005036
 31
0.0
  0
LINE
  5
17C
330
1F
100
AcDbEntity
  8
0
  6
Continuous
 62
     7
370
    25
100
AcDbLine
 10
278.2754454197
 20
733.717329374
 30
0.0
 11
277.9707613768
 21
733.717329374
 31
0.0
  0
LINE
  5
17D
330
1F
100
AcDbEntity
  8
0
  6
Continuous
 62
     7
370
    25
100
AcDbLine
 10
279.1197899164
 20
732.9279850633
 30
0.0
 11
278.2754454197
 21
733.717329374
 31
0.0
  0
LINE
  5
17E
330
1F
100
AcDbEntity
  8
0
  6
Continuous
 62
     7
370
    25
100
AcDbLine
 10
279.8881235899
 20
732.2097490937
 30
0.0
 11
279.1197899164
 21
732.9279850633
 31
0.0
  0
LINE
  5
17F
330
1F
100
AcDbEntity
  8
0
  6
Continuous
 62
     7
370
    25
100
AcDbLine
 10
278.5317453922
 20
734.8486851365
 30
0.0
 11
278.7880453648
 21
735.9801005036
 31
0.0
  0
LINE
  5
180
330
1F
100
AcDbEntity
  8
0
  6
Continuous
 62
     7
370
    25
100
AcDbLine
 10
278.2754454197
 20
733.717329374
 30
0.0
 11
278.5317453922
 21
734.8486851365
 31
0.0
  0
LINE
  5
181
330
1F
100
AcDbEntity
  8
0
  6
Continuous
 62
     7
370
    25
100
AcDbLine
 10
282.3652181209
 20
735.0494931848
 30
0.0
 11
282.3417785944
 21
735.115058294
 31
0.0
  0
ARC
  5
182
330
1F
100
AcDbEntity
  8
0
  6
Continuous
 62
     7
370
    25
100
AcDbCircle
 10
280.4778461008
 20
734.3783264366
 30
0.0
 40
1.986908830046492
100
AcDbArc
 50
226.8820874824
 51
269.8540705637
  0
ARC
  5
183
330
1F
100
AcDbEntity
  8
0
  6
Continuous
 62
     7
370
    25
100
AcDbCircle
 10
280.5007645952
 20
734.4011547706
 30
0.0
 40
2.019237492284709
100
AcDbArc
 50
167.1950144884
 51
226.8501341194
  0
ARC
  5
184
330
1F
100
AcDbEntity
  8
0
  6
Continuous
 62
     7
370
    25
100
AcDbCircle
 10
280.4869657575
 20
734.4095782128
 30
0.0
 40
2.003921547162941
100
AcDbArc
 50
107.3702413065
 51
167.3424246557
  0
ARC
  5
185
330
1F
100
AcDbEntity
  8
0
  6
Continuous
 62
     7
370
    25
100
AcDbCircle
 10
280.4767653899
 20
734.4308501469
 30
0.0
 40
1.98057733047119
100
AcDbArc
 50
73.3663281496
 51
107.2723301175
  0
LWPOLYLINE
  5
186
330
1F
100
AcDbEntity
  8
0
  6
Continuous
 62
     7
370
    25
100
AcDbPolyline
 90
        3
 70
   128
 43
0.0
 10
281.6038432897
 20
732.7429126413
 10
281.7495617451
 20
732.8536580712
 10
281.8990948976
 20
732.9920004518
  0
LWPOLYLINE
  5
187
330
1F
100
AcDbEntity
  8
0
  6
Continuous
 62
     7
370
    25
100
AcDbPolyline
 90
       26
 70
   128
 43
0.0
 10
-131.0584839998
 20
148.6164401681
 10
-130.6378540217
 20
148.7982343347
 10
-130.2436587034
 20
149.3320535333
 10
-129.9006637751
 20
150.1843999536
 10
-129.6304163157
 20
151.3016294152
 10
-129.449903649
 20
152.6137660653
 10
-129.3704506575
 20
154.0381978662
 10
-129.3970641314
 20
155.4853986413
 10
-129.5281049429
 20
156.8645309121
 10
-129.7552582441
 20
158.0889295251
 10
-130.0643381296
 20
159.0815852792
 10
-130.4358538805
 20
159.780151716
 10
-130.8465000807
 20
160.1407598169
 10
-131.270467919
 20
160.1407598169
 10
-131.6811141192
 20
159.780151716
 10
-132.0526596724
 20
159.0815852792
 10
-132.3617097555
 20
158.0889295251
 10
-132.5888928591
 20
156.8645309121
 10
-132.7199038683
 20
155.4853986413
 10
-132.7465173422
 20
154.0381978662
 10
-132.6670643507
 20
152.6137660653
 10
-132.486551684
 20
151.3016294152
 10
-132.2163042246
 20
150.1843999536
 10
-131.8733092962
 20
149.3320535333
 10
-131.479113978
 20
148.7982343347
 10
-131.0584839998
 20
148.6164401681
  0
LWPOLYLINE
  5
188
330
1F
100
AcDbEntity
  8
0
  6
Continuous
 62
     7
370
    25
100
AcDbPolyline
 90
        3
 70
   128
 43
0.0
 10
-131.5509971796
 20
160.1864169747
 10
-131.7629810988
 20
160.1407598169
 10
-131.8448778807
 20
160.0984405191
  0
LINE
  5
189
330
1F
100
AcDbEntity
  8
0
  6
Continuous
 62
     7
370
    25
100
AcDbLine
 10
-131.8448778807
 20
148.7044166238
 30
0.0
 11
-131.5509971796
 21
148.6164401681
 31
0.0
  0
LINE
  5
18A
330
1F
100
AcDbEntity
  8
0
  6
Continuous
 62
     7
370
    25
100
AcDbLine
 10
-130.7192143618
 20
152.3914407403
 30
0.0
 11
-131.3977834402
 21
152.3914407403
 31
0.0
  0
LINE
  5
18B
330
1F
100
AcDbEntity
  8
0
  6
Continuous
 62
     7
370
    25
100
AcDbLine
 10
-130.3799149214
 20
154.4014285714
 30
0.0
 11
-130.7192143618
 21
152.3914407403
 31
0.0
  0
LINE
  5
18C
330
1F
100
AcDbEntity
  8
0
  6
Continuous
 62
     7
370
    25
100
AcDbLine
 10
-130.7192143618
 20
156.4114164025
 30
0.0
 11
-130.3799149214
 21
154.4014285714
 31
0.0
  0
LINE
  5
18D
330
1F
100
AcDbEntity
  8
0
  6
Continuous
 62
     7
370
    25
100
AcDbLine
 10
-131.3977834402
 20
156.4114164025
 30
0.0
 11
-130.7192143618
 21
156.4114164025
 31
0.0
  0
LINE
  5
18E
330
1F
100
AcDbEntity
  8
0
  6
Continuous
 62
     7
370
    25
100
AcDbLine
 10
-131.7370828806
 20
154.4014285714
 30
0.0
 11
-131.3977834402
 21
156.4114164025
 31
0.0
  0
LINE
  5
18F
330
1F
100
AcDbEntity
  8
0
  6
Continuous
 62
     7
370
    25
100
AcDbLine
 10
-131.3977834402
 20
152.3914407403
 30
0.0
 11
-131.7370828806
 21
154.4014285714
 31
0.0
  0
LINE
  5
190
330
1F
100
AcDbEntity
  8
0
  6
Continuous
 62
     7
370
    25
100
AcDbLine
 10
-131.7370828806
 20
154.4014285714
 30
0.0
 11
-130.3799149214
 21
154.4014285714
 31
0.0
  0
LWPOLYLINE
  5
191
330
1F
100
AcDbEntity
  8
0
  6
Continuous
 62
     7
370
    25
100
AcDbPolyline
 90
       26
 70
   128
 43
0.0
 10
-131.0584839998
 20
-431.3834835379
 10
-130.6378540217
 20
-431.2018085807
 10
-130.2436587034
 20
-430.6679893821
 10
-129.9006637751
 20
-429.8156429618
 10
-129.6304163157
 20
-428.6984135001
 10
-129.449903649
 20
-427.3861576407
 10
-129.3704506575
 20
-425.9618450492
 10
-129.3970641314
 20
-424.514644274
 10
-129.5281049429
 20
-423.1353927939
 10
-129.7552582441
 20
-421.9111133902
 10
-130.0643381296
 20
-420.9183384269
 10
-130.4358538805
 20
-420.2197719901
 10
-130.8465000807
 20
-419.8592830985
 10
-131.270467919
 20
-419.8592830985
 10
-131.6811141192
 20
-420.2197719901
 10
-132.0526596724
 20
-420.9183384269
 10
-132.3617097555
 20
-421.9111133902
 10
-132.5888928591
 20
-423.1353927939
 10
-132.7199038683
 20
-424.514644274
 10
-132.7465173422
 20
-425.9618450492
 10
-132.6670643507
 20
-427.3861576407
 10
-132.486551684
 20
-428.6984135001
 10
-132.2163042246
 20
-429.8156429618
 10
-131.8733092962
 20
-430.6679893821
 10
-131.479113978
 20
-431.2018085807
 10
-131.0584839998
 20
-431.3834835379
  0
LWPOLYLINE
  5
192
330
1F
100
AcDbEntity
  8
0
  6
Continuous
 62
     7
370
    25
100
AcDbPolyline
 90
        3
 70
   128
 43
0.0
 10
-131.5509971796
 20
-419.8135067313
 10
-131.7629810988
 20
-419.8592830985
 10
-131.8449374853
 20
-419.9017216056
  0
LINE
  5
193
330
1F
100
AcDbEntity
  8
0
  6
Continuous
 62
     7
370
    25
100
AcDbLine
 10
-131.8449374853
 20
-431.2955070823
 30
0.0
 11
-131.5509971796
 21
-431.3834835379
 31
0.0
  0
LINE
  5
194
330
1F
100
AcDbEntity
  8
0
  6
Continuous
 62
     7
370
    25
100
AcDbLine
 10
-130.7192143618
 20
-427.608602175
 30
0.0
 11
-131.3977834402
 21
-427.608602175
 31
0.0
  0
LINE
  5
195
330
1F
100
AcDbEntity
  8
0
  6
Continuous
 62
     7
370
    25
100
AcDbLine
 10
-130.3799149214
 20
-425.5984951346
 30
0.0
 11
-130.7192143618
 21
-427.608602175
 31
0.0
  0
LINE
  5
196
330
1F
100
AcDbEntity
  8
0
  6
Continuous
 62
     7
370
    25
100
AcDbLine
 10
-130.7192143618
 20
-423.5886265128
 30
0.0
 11
-130.3799149214
 21
-425.5984951346
 31
0.0
  0
LINE
  5
197
330
1F
100
AcDbEntity
  8
0
  6
Continuous
 62
     7
370
    25
100
AcDbLine
 10
-131.3977834402
 20
-423.5886265128
 30
0.0
 11
-130.7192143618
 21
-423.5886265128
 31
0.0
  0
LINE
  5
198
330
1F
100
AcDbEntity
  8
0
  6
Continuous
 62
     7
370
    25
100
AcDbLine
 10
-131.7370828806
 20
-425.5984951346
 30
0.0
 11
-131.3977834402
 21
-423.5886265128
 31
0.0
  0
LINE
  5
199
330
1F
100
AcDbEntity
  8
0
  6
Continuous
 62
     7
370
    25
100
AcDbLine
 10
-131.3977834402
 20
-427.608602175
 30
0.0
 11
-131.7370828806
 21
-425.5984951346
 31
0.0
  0
LINE
  5
19A
330
1F
100
AcDbEntity
  8
0
  6
Continuous
 62
     7
370
    25
100
AcDbLine
 10
-131.7370828806
 20
-425.5984951346
 30
0.0
 11
-130.3799149214
 21
-425.5984951346
 31
0.0
  0
CIRCLE
  5
19B
330
1F
100
AcDbEntity
  8
0
  6
Continuous
 62
     7
370
    25
100
AcDbCircle
 10
185.8707120394
 20
154.3694149071
 30
0.0
 40
5.753443855665735
  0
ARC
  5
19C
330
1F
100
AcDbEntity
  8
0
  6
Continuous
 62
     7
370
    25
100
AcDbCircle
 10
185.9040992855
 20
154.3975264745
 30
0.0
 40
5.789020855099611
100
AcDbArc
 50
287.4015251872
 51
89.6154972509
  0
LWPOLYLINE
  5
19D
330
1F
100
AcDbEntity
  8
0
  6
Continuous
 62
     7
370
    25
100
AcDbPolyline
 90
        3
 70
   128
 43
0.0
 10
185.9429481806
 20
148.6164401681
 10
186.2177181424
 20
148.622996679
 10
187.6353997172
 20
148.8734553964
  0
LINE
  5
19E
330
1F
100
AcDbEntity
  8
0
  6
Continuous
 62
     7
370
    25
100
AcDbLine
 10
187.5688809337
 20
152.8227399499
 30
0.0
 11
185.367577094
 21
152.1387170465
 31
0.0
  0
LINE
  5
19F
330
1F
100
AcDbEntity
  8
0
  6
Continuous
 62
     7
370
    25
100
AcDbLine
 10
188.0814883293
 20
155.0855706842
 30
0.0
 11
187.5688809337
 21
152.8227399499
 31
0.0
  0
LINE
  5
1A0
330
1F
100
AcDbEntity
  8
0
  6
Continuous
 62
     7
370
    25
100
AcDbLine
 10
186.3927993359
 20
156.6641400964
 30
0.0
 11
188.0814883293
 21
155.0855706842
 31
0.0
  0
LINE
  5
1A1
330
1F
100
AcDbEntity
  8
0
  6
Continuous
 62
     7
370
    25
100
AcDbLine
 10
184.1914954962
 20
155.9801171929
 30
0.0
 11
186.3927993359
 21
156.6641400964
 31
0.0
  0
LINE
  5
1A2
330
1F
100
AcDbEntity
  8
0
  6
Continuous
 62
     7
370
    25
100
AcDbLine
 10
183.6788843752
 20
153.7172864587
 30
0.0
 11
184.1914954962
 21
155.9801171929
 31
0.0
  0
LINE
  5
1A3
330
1F
100
AcDbEntity
  8
0
  6
Continuous
 62
     7
370
    25
100
AcDbLine
 10
185.367577094
 20
152.1387170465
 30
0.0
 11
183.6788843752
 21
153.7172864587
 31
0.0
  0
LINE
  5
1A4
330
1F
100
AcDbEntity
  8
0
  6
Continuous
 62
     7
370
    25
100
AcDbLine
 10
185.5968165578
 20
156.3221286447
 30
0.0
 11
186.4688101591
 21
156.5930913598
 31
0.0
  0
LINE
  5
1A5
330
1F
100
AcDbEntity
  8
0
  6
Continuous
 62
     7
370
    25
100
AcDbLine
 10
184.4961646379
 20
155.9801171929
 30
0.0
 11
185.5968165578
 21
156.3221286447
 31
0.0
  0
LINE
  5
1A6
330
1F
100
AcDbEntity
  8
0
  6
Continuous
 62
     7
370
    25
100
AcDbLine
 10
184.4961646379
 20
155.9801171929
 30
0.0
 11
184.1914954962
 21
155.9801171929
 31
0.0
  0
LINE
  5
1A7
330
1F
100
AcDbEntity
  8
0
  6
Continuous
 62
     7
370
    25
100
AcDbLine
 10
183.9835572423
 20
153.7172864587
 30
0.0
 11
183.6788843752
 21
153.7172864587
 31
0.0
  0
LINE
  5
1A8
330
1F
100
AcDbEntity
  8
0
  6
Continuous
 62
     7
370
    25
100
AcDbLine
 10
184.827901739
 20
152.9280017526
 30
0.0
 11
183.9835572423
 21
153.7172864587
 31
0.0
  0
LINE
  5
1A9
330
1F
100
AcDbEntity
  8
0
  6
Continuous
 62
     7
370
    25
100
AcDbLine
 10
185.5962354125
 20
152.209765783
 30
0.0
 11
184.827901739
 21
152.9280017526
 31
0.0
  0
LINE
  5
1AA
330
1F
100
AcDbEntity
  8
0
  6
Continuous
 62
     7
370
    25
100
AcDbLine
 10
184.2398646654
 20
154.8487018258
 30
0.0
 11
184.4961646379
 21
155.9801171929
 31
0.0
  0
LINE
  5
1AB
330
1F
100
AcDbEntity
  8
0
  6
Continuous
 62
     7
370
    25
100
AcDbLine
 10
183.9835572423
 20
153.7172864587
 30
0.0
 11
184.2398646654
 21
154.8487018258
 31
0.0
  0
LINE
  5
1AC
330
1F
100
AcDbEntity
  8
0
  6
Continuous
 62
     7
370
    25
100
AcDbLine
 10
188.0733299436
 20
155.0495694787
 30
0.0
 11
188.0498978676
 21
155.1150153787
 31
0.0
  0
ARC
  5
1AD
330
1F
100
AcDbEntity
  8
0
  6
Continuous
 62
     7
370
    25
100
AcDbCircle
 10
186.1862164639
 20
154.3789950634
 30
0.0
 40
1.987561440529441
100
AcDbArc
 50
226.8894925859
 51
269.8466654602
  0
ARC
  5
1AE
330
1F
100
AcDbEntity
  8
0
  6
Continuous
 62
     7
370
    25
100
AcDbCircle
 10
186.208789317
 20
154.4011371553
 30
0.0
 40
2.019152896094567
100
AcDbArc
 50
167.1934706215
 51
226.8512715695
  0
ARC
  5
1AF
330
1F
100
AcDbEntity
  8
0
  6
Continuous
 62
     7
370
    25
100
AcDbCircle
 10
186.1951583449
 20
154.4095304086
 30
0.0
 40
2.004007212270454
100
AcDbArc
 50
107.3718946257
 51
167.3410848644
  0
ARC
  5
1B0
330
1F
100
AcDbEntity
  8
0
  6
Continuous
 62
     7
370
    25
100
AcDbCircle
 10
186.1848902632
 20
154.4291814076
 30
0.0
 40
1.982190688435383
100
AcDbArc
 50
73.3804287887
 51
107.2582253586
  0
LWPOLYLINE
  5
1B1
330
1F
100
AcDbEntity
  8
0
  6
Continuous
 62
     7
370
    25
100
AcDbPolyline
 90
        3
 70
   128
 43
0.0
 10
187.3119625629
 20
152.7429889352
 10
187.4576810183
 20
152.8536151559
 10
187.6072141708
 20
152.9920171411
  0
CIRCLE
  5
1B2
330
1F
100
AcDbEntity
  8
0
  6
Continuous
 62
     7
370
    25
100
AcDbCircle
 10
91.579048223
 20
734.3695042508
 30
0.0
 40
5.753479331445684
  0
ARC
  5
1B3
330
1F
100
AcDbEntity
  8
0
  6
Continuous
 62
     7
370
    25
100
AcDbCircle
 10
91.6122133449
 20
734.397510139
 30
0.0
 40
5.789020523775588
100
AcDbArc
 50
287.4015030147
 51
89.6154640609
  0
LWPOLYLINE
  5
1B4
330
1F
100
AcDbEntity
  8
0
  6
Continuous
 62
     7
370
    25
100
AcDbPolyline
 90
        3
 70
   128
 43
0.0
 10
91.6510655911
 20
728.6164234788
 10
91.9258336903
 20
728.6230395944
 10
93.3435115398
 20
728.8734387071
  0
LINE
  5
1B5
330
1F
100
AcDbEntity
  8
0
  6
Continuous
 62
     7
370
    25
100
AcDbLine
 10
93.2769964816
 20
732.8227828653
 30
0.0
 11
91.0756926419
 21
732.1387003572
 31
0.0
  0
LINE
  5
1B6
330
1F
100
AcDbEntity
  8
0
  6
Continuous
 62
     7
370
    25
100
AcDbLine
 10
93.7896057398
 20
735.0855539949
 30
0.0
 11
93.2769964816
 21
732.8227828653
 31
0.0
  0
LINE
  5
1B7
330
1F
100
AcDbEntity
  8
0
  6
Continuous
 62
     7
370
    25
100
AcDbLine
 10
92.1009130211
 20
736.6641830117
 30
0.0
 11
93.7896057398
 21
735.0855539949
 31
0.0
  0
LINE
  5
1B8
330
1F
100
AcDbEntity
  8
0
  6
Continuous
 62
     7
370
    25
100
AcDbLine
 10
89.8996110441
 20
735.9801005036
 30
0.0
 11
92.1009130211
 21
736.6641830117
 31
0.0
  0
LINE
  5
1B9
330
1F
100
AcDbEntity
  8
0
  6
Continuous
 62
     7
370
    25
100
AcDbLine
 10
89.3869999231
 20
733.717329374
 30
0.0
 11
89.8996110441
 21
735.9801005036
 31
0.0
  0
LINE
  5
1BA
330
1F
100
AcDbEntity
  8
0
  6
Continuous
 62
     7
370
    25
100
AcDbLine
 10
91.0756926419
 20
732.1387003572
 30
0.0
 11
89.3869999231
 21
733.717329374
 31
0.0
  0
LINE
  5
1BB
330
1F
100
AcDbEntity
  8
0
  6
Continuous
 62
     7
370
    25
100
AcDbLine
 10
91.304935831
 20
736.3221119554
 30
0.0
 11
92.1769294323
 21
736.5931342752
 31
0.0
  0
LINE
  5
1BC
330
1F
100
AcDbEntity
  8
0
  6
Continuous
 62
     7
370
    25
100
AcDbLine
 10
90.2042839111
 20
735.9801005036
 30
0.0
 11
91.304935831
 21
736.3221119554
 31
0.0
  0
LINE
  5
1BD
330
1F
100
AcDbEntity
  8
0
  6
Continuous
 62
     7
370
    25
100
AcDbLine
 10
90.2042839111
 20
735.9801005036
 30
0.0
 11
89.8996110441
 21
735.9801005036
 31
0.0
  0
LINE
  5
1BE
330
1F
100
AcDbEntity
  8
0
  6
Continuous
 62
     7
370
    25
100
AcDbLine
 10
89.6916727902
 20
733.717329374
 30
0.0
 11
89.3869999231
 21
733.717329374
 31
0.0
  0
LINE
  5
1BF
330
1F
100
AcDbEntity
  8
0
  6
Continuous
 62
     7
370
    25
100
AcDbLine
 10
90.5360191496
 20
732.9279850633
 30
0.0
 11
89.6916727902
 21
733.717329374
 31
0.0
  0
LINE
  5
1C0
330
1F
100
AcDbEntity
  8
0
  6
Continuous
 62
     7
370
    25
100
AcDbLine
 10
91.3043509604
 20
732.2097490937
 30
0.0
 11
90.5360191496
 21
732.9279850633
 31
0.0
  0
LINE
  5
1C1
330
1F
100
AcDbEntity
  8
0
  6
Continuous
 62
     7
370
    25
100
AcDbLine
 10
89.947976488
 20
734.8486851365
 30
0.0
 11
90.2042839111
 21
735.9801005036
 31
0.0
  0
LINE
  5
1C2
330
1F
100
AcDbEntity
  8
0
  6
Continuous
 62
     7
370
    25
100
AcDbLine
 10
89.6916727902
 20
733.717329374
 30
0.0
 11
89.947976488
 21
734.8486851365
 31
0.0
  0
LINE
  5
1C3
330
1F
100
AcDbEntity
  8
0
  6
Continuous
 62
     7
370
    25
100
AcDbLine
 10
93.7814454915
 20
735.0494931848
 30
0.0
 11
93.7580171408
 21
735.115058294
 31
0.0
  0
ARC
  5
1C4
330
1F
100
AcDbEntity
  8
0
  6
Continuous
 62
     7
370
    25
100
AcDbCircle
 10
91.8940818598
 20
734.3783428922
 30
0.0
 40
1.986925302296093
100
AcDbArc
 50
226.8822744558
 51
269.8538835903
  0
ARC
  5
1C5
330
1F
100
AcDbEntity
  8
0
  6
Continuous
 62
     7
370
    25
100
AcDbCircle
 10
91.9170341341
 20
734.4011652011
 30
0.0
 40
2.019272667575437
100
AcDbArc
 50
167.1955448456
 51
226.8495021581
  0
ARC
  5
1C6
330
1F
100
AcDbEntity
  8
0
  6
Continuous
 62
     7
370
    25
100
AcDbCircle
 10
91.9032042797
 20
734.4095713734
 30
0.0
 40
2.00393029177374
100
AcDbArc
 50
107.3703855765
 51
167.3422803857
  0
ARC
  5
1C7
330
1F
100
AcDbEntity
  8
0
  6
Continuous
 62
     7
370
    25
100
AcDbCircle
 10
91.8929996502
 20
734.4307744941
 30
0.0
 40
1.980650511272106
100
AcDbArc
 50
73.3668874303
 51
107.2717677469
  0
LWPOLYLINE
  5
1C8
330
1F
100
AcDbEntity
  8
0
  6
Continuous
 62
     7
370
    25
100
AcDbPolyline
 90
        3
 70
   128
 43
0.0
 10
93.0200781108
 20
732.7429126413
 10
93.1657965661
 20
732.8536580712
 10
93.3153297187
 20
732.9920004518
  0
CIRCLE
  5
1C9
330
1F
100
AcDbEntity
  8
0
  6
Continuous
 62
     7
370
    25
100
AcDbCircle
 10
185.8702603585
 20
-425.630687162
 30
0.0
 40
5.753407106929923
  0
ARC
  5
1CA
330
1F
100
AcDbEntity
  8
0
  6
Continuous
 62
     7
370
    25
100
AcDbCircle
 10
185.9040992855
 20
-425.6023972316
 30
0.0
 40
5.789020855099611
100
AcDbArc
 50
287.4015251872
 51
89.6154972509
  0
LWPOLYLINE
  5
1CB
330
1F
100
AcDbEntity
  8
0
  6
Continuous
 62
     7
370
    25
100
AcDbPolyline
 90
        3
 70
   128
 43
0.0
 10
185.9429481806
 20
-431.3834835379
 10
186.2177181424
 20
-431.3770462363
 10
187.6353997172
 20
-431.1264683097
  0
LINE
  5
1CC
330
1F
100
AcDbEntity
  8
0
  6
Continuous
 62
     7
370
    25
100
AcDbLine
 10
187.5688809337
 20
-427.1773029654
 30
0.0
 11
185.367577094
 21
-427.8613258689
 31
0.0
  0
LINE
  5
1CD
330
1F
100
AcDbEntity
  8
0
  6
Continuous
 62
     7
370
    25
100
AcDbLine
 10
188.0814883293
 20
-424.9144722312
 30
0.0
 11
187.5688809337
 21
-427.1773029654
 31
0.0
  0
LINE
  5
1CE
330
1F
100
AcDbEntity
  8
0
  6
Continuous
 62
     7
370
    25
100
AcDbLine
 10
186.3927993359
 20
-423.335902819
 30
0.0
 11
188.0814883293
 21
-424.9144722312
 31
0.0
  0
LINE
  5
1CF
330
1F
100
AcDbEntity
  8
0
  6
Continuous
 62
     7
370
    25
100
AcDbLine
 10
184.1914954962
 20
-424.0199257224
 30
0.0
 11
186.3927993359
 21
-423.335902819
 31
0.0
  0
LINE
  5
1D0
330
1F
100
AcDbEntity
  8
0
  6
Continuous
 62
     7
370
    25
100
AcDbLine
 10
183.6788843752
 20
-426.2827564566
 30
0.0
 11
184.1914954962
 21
-424.0199257224
 31
0.0
  0
LINE
  5
1D1
330
1F
100
AcDbEntity
  8
0
  6
Continuous
 62
     7
370
    25
100
AcDbLine
 10
185.367577094
 20
-427.8613258689
 30
0.0
 11
183.6788843752
 21
-426.2827564566
 31
0.0
  0
LINE
  5
1D2
330
1F
100
AcDbEntity
  8
0
  6
Continuous
 62
     7
370
    25
100
AcDbLine
 10
185.5968165578
 20
-423.6777950614
 30
0.0
 11
186.4688101591
 21
-423.4069515555
 31
0.0
  0
LINE
  5
1D3
330
1F
100
AcDbEntity
  8
0
  6
Continuous
 62
     7
370
    25
100
AcDbLine
 10
184.4961646379
 20
-424.0199257224
 30
0.0
 11
185.5968165578
 21
-423.6777950614
 31
0.0
  0
LINE
  5
1D4
330
1F
100
AcDbEntity
  8
0
  6
Continuous
 62
     7
370
    25
100
AcDbLine
 10
184.4961646379
 20
-424.0199257224
 30
0.0
 11
184.1914954962
 21
-424.0199257224
 31
0.0
  0
LINE
  5
1D5
330
1F
100
AcDbEntity
  8
0
  6
Continuous
 62
     7
370
    25
100
AcDbLine
 10
183.9835572423
 20
-426.2827564566
 30
0.0
 11
183.6788843752
 21
-426.2827564566
 31
0.0
  0
LINE
  5
1D6
330
1F
100
AcDbEntity
  8
0
  6
Continuous
 62
     7
370
    25
100
AcDbLine
 10
184.827901739
 20
-427.0719219535
 30
0.0
 11
183.9835572423
 21
-426.2827564566
 31
0.0
  0
LINE
  5
1D7
330
1F
100
AcDbEntity
  8
0
  6
Continuous
 62
     7
370
    25
100
AcDbLine
 10
185.5962354125
 20
-427.7902771323
 30
0.0
 11
184.827901739
 21
-427.0719219535
 31
0.0
  0
LINE
  5
1D8
330
1F
100
AcDbEntity
  8
0
  6
Continuous
 62
     7
370
    25
100
AcDbLine
 10
184.2398646654
 20
-425.1512218802
 30
0.0
 11
184.4961646379
 21
-424.0199257224
 31
0.0
  0
LINE
  5
1D9
330
1F
100
AcDbEntity
  8
0
  6
Continuous
 62
     7
370
    25
100
AcDbLine
 10
183.9835572423
 20
-426.2827564566
 30
0.0
 11
184.2398646654
 21
-425.1512218802
 31
0.0
  0
LINE
  5
1DA
330
1F
100
AcDbEntity
  8
0
  6
Continuous
 62
     7
370
    25
100
AcDbLine
 10
188.0733299436
 20
-424.9504734366
 30
0.0
 11
188.0498978676
 21
-424.8849083274
 31
0.0
  0
ARC
  5
1DB
330
1F
100
AcDbEntity
  8
0
  6
Continuous
 62
     7
370
    25
100
AcDbCircle
 10
186.1861876957
 20
-425.6214426645
 30
0.0
 40
1.98716655261529
100
AcDbArc
 50
226.8799695229
 51
269.8474644644
  0
ARC
  5
1DC
330
1F
100
AcDbEntity
  8
0
  6
Continuous
 62
     7
370
    25
100
AcDbCircle
 10
186.2085570238
 20
-425.598857669
 30
0.0
 40
2.018942149132771
100
AcDbArc
 50
167.1900413125
 51
226.8547008785
  0
ARC
  5
1DD
330
1F
100
AcDbEntity
  8
0
  6
Continuous
 62
     7
370
    25
100
AcDbCircle
 10
186.1955420557
 20
-425.5907466757
 30
0.0
 40
2.004459054352714
100
AcDbArc
 50
107.3793464996
 51
167.3336329905
  0
ARC
  5
1DE
330
1F
100
AcDbEntity
  8
0
  6
Continuous
 62
     7
370
    25
100
AcDbCircle
 10
186.1849027109
 20
-425.5729757231
 30
0.0
 40
1.98432735811038
100
AcDbArc
 50
73.3992178442
 51
107.2394363031
  0
LWPOLYLINE
  5
1DF
330
1F
100
AcDbEntity
  8
0
  6
Continuous
 62
     7
370
    25
100
AcDbPolyline
 90
        3
 70
   128
 43
0.0
 10
187.3119625629
 20
-427.2571731894
 10
187.4576810183
 20
-427.1463085502
 10
187.6072141708
 20
-427.0080257743
  0
LINE
  5
1E0
330
1F
100
AcDbEntity
  8
0
  6
Continuous
 62
     7
370
    25
100
AcDbLine
 10
187.5688809337
 20
732.8227828653
 30
0.0
 11
185.367577094
 21
732.1387003572
 31
0.0
  0
LINE
  5
1E1
330
1F
100
AcDbEntity
  8
0
  6
Continuous
 62
     7
370
    25
100
AcDbLine
 10
188.0814883293
 20
735.0855539949
 30
0.0
 11
187.5688809337
 21
732.8227828653
 31
0.0
  0
LINE
  5
1E2
330
1F
100
AcDbEntity
  8
0
  6
Continuous
 62
     7
370
    25
100
AcDbLine
 10
186.3927993359
 20
736.6641830117
 30
0.0
 11
188.0814883293
 21
735.0855539949
 31
0.0
  0
LINE
  5
1E3
330
1F
100
AcDbEntity
  8
0
  6
Continuous
 62
     7
370
    25
100
AcDbLine
 10
184.1914954962
 20
735.9801005036
 30
0.0
 11
186.3927993359
 21
736.6641830117
 31
0.0
  0
LINE
  5
1E4
330
1F
100
AcDbEntity
  8
0
  6
Continuous
 62
     7
370
    25
100
AcDbLine
 10
183.6788843752
 20
733.717329374
 30
0.0
 11
184.1914954962
 21
735.9801005036
 31
0.0
  0
LINE
  5
1E5
330
1F
100
AcDbEntity
  8
0
  6
Continuous
 62
     7
370
    25
100
AcDbLine
 10
185.367577094
 20
732.1387003572
 30
0.0
 11
183.6788843752
 21
733.717329374
 31
0.0
  0
CIRCLE
  5
1E6
330
1F
100
AcDbEntity
  8
0
  6
Continuous
 62
     7
370
    25
100
AcDbCircle
 10
185.8709349358
 20
734.36950411
 30
0.0
 40
5.753479079167166
  0
ARC
  5
1E7
330
1F
100
AcDbEntity
  8
0
  6
Continuous
 62
     7
370
    25
100
AcDbCircle
 10
185.9040992855
 20
734.3975097852
 30
0.0
 40
5.789020855099667
100
AcDbArc
 50
287.4015251872
 51
89.6154972509
  0
LWPOLYLINE
  5
1E8
330
1F
100
AcDbEntity
  8
0
  6
Continuous
 62
     7
370
    25
100
AcDbPolyline
 90
        3
 70
   128
 43
0.0
 10
185.9429481806
 20
728.6164234788
 10
186.2177181424
 20
728.6230395944
 10
187.6353997172
 20
728.8734387071
  0
LINE
  5
1E9
330
1F
100
AcDbEntity
  8
0
  6
Continuous
 62
     7
370
    25
100
AcDbLine
 10
185.5968165578
 20
736.3221119554
 30
0.0
 11
186.4688101591
 21
736.5931342752
 31
0.0
  0
LINE
  5
1EA
330
1F
100
AcDbEntity
  8
0
  6
Continuous
 62
     7
370
    25
100
AcDbLine
 10
184.4961646379
 20
735.9801005036
 30
0.0
 11
185.5968165578
 21
736.3221119554
 31
0.0
  0
LINE
  5
1EB
330
1F
100
AcDbEntity
  8
0
  6
Continuous
 62
     7
370
    25
100
AcDbLine
 10
184.4961646379
 20
735.9801005036
 30
0.0
 11
184.1914954962
 21
735.9801005036
 31
0.0
  0
LINE
  5
1EC
330
1F
100
AcDbEntity
  8
0
  6
Continuous
 62
     7
370
    25
100
AcDbLine
 10
183.9835572423
 20
733.717329374
 30
0.0
 11
183.6788843752
 21
733.717329374
 31
0.0
  0
LINE
  5
1ED
330
1F
100
AcDbEntity
  8
0
  6
Continuous
 62
     7
370
    25
100
AcDbLine
 10
184.827901739
 20
732.9279850633
 30
0.0
 11
183.9835572423
 21
733.717329374
 31
0.0
  0
LINE
  5
1EE
330
1F
100
AcDbEntity
  8
0
  6
Continuous
 62
     7
370
    25
100
AcDbLine
 10
185.5962354125
 20
732.2097490937
 30
0.0
 11
184.827901739
 21
732.9279850633
 31
0.0
  0
LINE
  5
1EF
330
1F
100
AcDbEntity
  8
0
  6
Continuous
 62
     7
370
    25
100
AcDbLine
 10
184.2398646654
 20
734.8486851365
 30
0.0
 11
184.4961646379
 21
735.9801005036
 31
0.0
  0
LINE
  5
1F0
330
1F
100
AcDbEntity
  8
0
  6
Continuous
 62
     7
370
    25
100
AcDbLine
 10
183.9835572423
 20
733.717329374
 30
0.0
 11
184.2398646654
 21
734.8486851365
 31
0.0
  0
LINE
  5
1F1
330
1F
100
AcDbEntity
  8
0
  6
Continuous
 62
     7
370
    25
100
AcDbLine
 10
188.0733299436
 20
735.0494931848
 30
0.0
 11
188.0498978676
 21
735.115058294
 31
0.0
  0
ARC
  5
1F2
330
1F
100
AcDbEntity
  8
0
  6
Continuous
 62
     7
370
    25
100
AcDbCircle
 10
186.1859712457
 20
734.3783600302
 30
0.0
 40
1.986942457588654
100
AcDbArc
 50
226.8824691788
 51
269.8536888674
  0
ARC
  5
1F3
330
1F
100
AcDbEntity
  8
0
  6
Continuous
 62
     7
370
    25
100
AcDbCircle
 10
186.2088839022
 20
734.401149424
 30
0.0
 40
2.019238710182389
100
AcDbArc
 50
167.1948667636
 51
226.8498754274
  0
ARC
  5
1F4
330
1F
100
AcDbEntity
  8
0
  6
Continuous
 62
     7
370
    25
100
AcDbCircle
 10
186.1950842774
 20
734.4095819318
 30
0.0
 40
2.00391999728755
100
AcDbArc
 50
107.3704558067
 51
167.3425236834
  0
ARC
  5
1F5
330
1F
100
AcDbEntity
  8
0
  6
Continuous
 62
     7
370
    25
100
AcDbCircle
 10
186.1848812288
 20
734.4307857105
 30
0.0
 40
1.980640053581326
100
AcDbArc
 50
73.3667665358
 51
107.2718876115
  0
LWPOLYLINE
  5
1F6
330
1F
100
AcDbEntity
  8
0
  6
Continuous
 62
     7
370
    25
100
AcDbPolyline
 90
        3
 70
   128
 43
0.0
 10
187.3119625629
 20
732.7429126413
 10
187.4576810183
 20
732.8536580712
 10
187.6072141708
 20
732.9920004518
  0
CIRCLE
  5
1F7
330
1F
100
AcDbEntity
  8
0
  6
Continuous
 62
     7
370
    25
100
AcDbCircle
 10
280.1621489322
 20
-425.6306894043
 30
0.0
 40
5.753404847731255
  0
ARC
  5
1F8
330
1F
100
AcDbEntity
  8
0
  6
Continuous
 62
     7
370
    25
100
AcDbCircle
 10
280.1959820407
 20
-425.6023980683
 30
0.0
 40
5.789021678226596
100
AcDbArc
 50
287.4015788727
 51
89.6155173819
  0
LWPOLYLINE
  5
1F9
330
1F
100
AcDbEntity
  8
0
  6
Continuous
 62
     7
370
    25
100
AcDbPolyline
 90
        3
 70
   128
 43
0.0
 10
280.2348289074
 20
-431.3834835379
 10
280.5096063198
 20
-431.3770462363
 10
281.9272878946
 20
-431.1264683097
  0
LINE
  5
1FA
330
1F
100
AcDbEntity
  8
0
  6
Continuous
 62
     7
370
    25
100
AcDbLine
 10
281.8607691111
 20
-427.1773029654
 30
0.0
 11
279.6594652714
 21
-427.8613258689
 31
0.0
  0
LINE
  5
1FB
330
1F
100
AcDbEntity
  8
0
  6
Continuous
 62
     7
370
    25
100
AcDbLine
 10
282.3733690561
 20
-424.9144722312
 30
0.0
 11
281.8607691111
 21
-427.1773029654
 31
0.0
  0
LINE
  5
1FC
330
1F
100
AcDbEntity
  8
0
  6
Continuous
 62
     7
370
    25
100
AcDbLine
 10
280.6846800627
 20
-423.335902819
 30
0.0
 11
282.3733690561
 21
-424.9144722312
 31
0.0
  0
LINE
  5
1FD
330
1F
100
AcDbEntity
  8
0
  6
Continuous
 62
     7
370
    25
100
AcDbLine
 10
278.483376223
 20
-424.0199257224
 30
0.0
 11
280.6846800627
 21
-423.335902819
 31
0.0
  0
LINE
  5
1FE
330
1F
100
AcDbEntity
  8
0
  6
Continuous
 62
     7
370
    25
100
AcDbLine
 10
277.9707613768
 20
-426.2827564566
 30
0.0
 11
278.483376223
 21
-424.0199257224
 31
0.0
  0
LINE
  5
1FF
330
1F
100
AcDbEntity
  8
0
  6
Continuous
 62
     7
370
    25
100
AcDbLine
 10
279.6594652714
 20
-427.8613258689
 30
0.0
 11
277.9707613768
 21
-426.2827564566
 31
0.0
  0
LINE
  5
200
330
1F
100
AcDbEntity
  8
0
  6
Continuous
 62
     7
370
    25
100
AcDbLine
 10
279.8887047352
 20
-423.6777950614
 30
0.0
 11
280.7606908859
 21
-423.4069515555
 31
0.0
  0
LINE
  5
201
330
1F
100
AcDbEntity
  8
0
  6
Continuous
 62
     7
370
    25
100
AcDbLine
 10
278.7880453648
 20
-424.0199257224
 30
0.0
 11
279.8887047352
 21
-423.6777950614
 31
0.0
  0
LINE
  5
202
330
1F
100
AcDbEntity
  8
0
  6
Continuous
 62
     7
370
    25
100
AcDbLine
 10
278.7880453648
 20
-424.0199257224
 30
0.0
 11
278.483376223
 21
-424.0199257224
 31
0.0
  0
LINE
  5
203
330
1F
100
AcDbEntity
  8
0
  6
Continuous
 62
     7
370
    25
100
AcDbLine
 10
278.2754454197
 20
-426.2827564566
 30
0.0
 11
277.9707613768
 21
-426.2827564566
 31
0.0
  0
LINE
  5
204
330
1F
100
AcDbEntity
  8
0
  6
Continuous
 62
     7
370
    25
100
AcDbLine
 10
279.1197899164
 20
-427.0719219535
 30
0.0
 11
278.2754454197
 21
-426.2827564566
 31
0.0
  0
LINE
  5
205
330
1F
100
AcDbEntity
  8
0
  6
Continuous
 62
     7
370
    25
100
AcDbLine
 10
279.8881235899
 20
-427.7902771323
 30
0.0
 11
279.1197899164
 21
-427.0719219535
 31
0.0
  0
LINE
  5
206
330
1F
100
AcDbEntity
  8
0
  6
Continuous
 62
     7
370
    25
100
AcDbLine
 10
278.5317453922
 20
-425.1512218802
 30
0.0
 11
278.7880453648
 21
-424.0199257224
 31
0.0
  0
LINE
  5
207
330
1F
100
AcDbEntity
  8
0
  6
Continuous
 62
     7
370
    25
100
AcDbLine
 10
278.2754454197
 20
-426.2827564566
 30
0.0
 11
278.5317453922
 21
-425.1512218802
 31
0.0
  0
LINE
  5
208
330
1F
100
AcDbEntity
  8
0
  6
Continuous
 62
     7
370
    25
100
AcDbLine
 10
282.3652181209
 20
-424.9504734366
 30
0.0
 11
282.3417785944
 21
-424.8849083274
 31
0.0
  0
ARC
  5
209
330
1F
100
AcDbEntity
  8
0
  6
Continuous
 62
     7
370
    25
100
AcDbCircle
 10
280.4780625699
 20
-425.6214762023
 30
0.0
 40
1.987132979542879
100
AcDbArc
 50
226.8795885242
 51
269.8478454631
  0
ARC
  5
20A
330
1F
100
AcDbEntity
  8
0
  6
Continuous
 62
     7
370
    25
100
AcDbCircle
 10
280.5004377202
 20
-425.5988523227
 30
0.0
 40
2.018940934030535
100
AcDbArc
 50
167.190189069
 51
226.8549595387
  0
ARC
  5
20B
330
1F
100
AcDbEntity
  8
0
  6
Continuous
 62
     7
370
    25
100
AcDbCircle
 10
280.4874235366
 20
-425.5907503977
 30
0.0
 40
2.004460606228424
100
AcDbArc
 50
107.3791320461
 51
167.333533916
  0
ARC
  5
20C
330
1F
100
AcDbEntity
  8
0
  6
Continuous
 62
     7
370
    25
100
AcDbCircle
 10
280.4767868715
 20
-425.5729111654
 30
0.0
 40
1.984264510302841
100
AcDbArc
 50
73.3987802825
 51
107.2398779845
  0
LWPOLYLINE
  5
20D
330
1F
100
AcDbEntity
  8
0
  6
Continuous
 62
     7
370
    25
100
AcDbPolyline
 90
        3
 70
   128
 43
0.0
 10
281.6038432897
 20
-427.2571731894
 10
281.7495617451
 20
-427.1463085502
 10
281.8990948976
 20
-427.0080257743
  0
CIRCLE
  5
20E
330
1F
100
AcDbEntity
  8
0
  6
Continuous
 62
     7
370
    25
100
AcDbCircle
 10
280.1626006129
 20
154.3694126651
 30
0.0
 40
5.753441596835227
  0
ARC
  5
20F
330
1F
100
AcDbEntity
  8
0
  6
Continuous
 62
     7
370
    25
100
AcDbCircle
 10
280.1959820407
 20
154.3975256377
 30
0.0
 40
5.789021678226596
100
AcDbArc
 50
287.4015788727
 51
89.6155173819
  0
LWPOLYLINE
  5
210
330
1F
100
AcDbEntity
  8
0
  6
Continuous
 62
     7
370
    25
100
AcDbPolyline
 90
        3
 70
   128
 43
0.0
 10
280.2348289074
 20
148.6164401681
 10
280.5096063198
 20
148.622996679
 10
281.9272878946
 20
148.8734553964
  0
LINE
  5
211
330
1F
100
AcDbEntity
  8
0
  6
Continuous
 62
     7
370
    25
100
AcDbLine
 10
281.8607691111
 20
152.8227399499
 30
0.0
 11
279.6594652714
 21
152.1387170465
 31
0.0
  0
LINE
  5
212
330
1F
100
AcDbEntity
  8
0
  6
Continuous
 62
     7
370
    25
100
AcDbLine
 10
282.3733690561
 20
155.0855706842
 30
0.0
 11
281.8607691111
 21
152.8227399499
 31
0.0
  0
LINE
  5
213
330
1F
100
AcDbEntity
  8
0
  6
Continuous
 62
     7
370
    25
100
AcDbLine
 10
280.6846800627
 20
156.6641400964
 30
0.0
 11
282.3733690561
 21
155.0855706842
 31
0.0
  0
LINE
  5
214
330
1F
100
AcDbEntity
  8
0
  6
Continuous
 62
     7
370
    25
100
AcDbLine
 10
278.483376223
 20
155.9801171929
 30
0.0
 11
280.6846800627
 21
156.6641400964
 31
0.0
  0
LINE
  5
215
330
1F
100
AcDbEntity
  8
0
  6
Continuous
 62
     7
370
    25
100
AcDbLine
 10
277.9707613768
 20
153.7172864587
 30
0.0
 11
278.483376223
 21
155.9801171929
 31
0.0
  0
LINE
  5
216
330
1F
100
AcDbEntity
  8
0
  6
Continuous
 62
     7
370
    25
100
AcDbLine
 10
279.6594652714
 20
152.1387170465
 30
0.0
 11
277.9707613768
 21
153.7172864587
 31
0.0
  0
LINE
  5
217
330
1F
100
AcDbEntity
  8
0
  6
Continuous
 62
     7
370
    25
100
AcDbLine
 10
279.8887047352
 20
156.3221286447
 30
0.0
 11
280.7606908859
 21
156.5930913598
 31
0.0
  0
LINE
  5
218
330
1F
100
AcDbEntity
  8
0
  6
Continuous
 62
     7
370
    25
100
AcDbLine
 10
278.7880453648
 20
155.9801171929
 30
0.0
 11
279.8887047352
 21
156.3221286447
 31
0.0
  0
LINE
  5
219
330
1F
100
AcDbEntity
  8
0
  6
Continuous
 62
     7
370
    25
100
AcDbLine
 10
278.7880453648
 20
155.9801171929
 30
0.0
 11
278.483376223
 21
155.9801171929
 31
0.0
  0
LINE
  5
21A
330
1F
100
AcDbEntity
  8
0
  6
Continuous
 62
     7
370
    25
100
AcDbLine
 10
278.2754454197
 20
153.7172864587
 30
0.0
 11
277.9707613768
 21
153.7172864587
 31
0.0
  0
LINE
  5
21B
330
1F
100
AcDbEntity
  8
0
  6
Continuous
 62
     7
370
    25
100
AcDbLine
 10
279.1197899164
 20
152.9280017526
 30
0.0
 11
278.2754454197
 21
153.7172864587
 31
0.0
  0
LINE
  5
21C
330
1F
100
AcDbEntity
  8
0
  6
Continuous
 62
     7
370
    25
100
AcDbLine
 10
279.8881235899
 20
152.209765783
 30
0.0
 11
279.1197899164
 21
152.9280017526
 31
0.0
  0
LINE
  5
21D
330
1F
100
AcDbEntity
  8
0
  6
Continuous
 62
     7
370
    25
100
AcDbLine
 10
278.5317453922
 20
154.8487018258
 30
0.0
 11
278.7880453648
 21
155.9801171929
 31
0.0
  0
LINE
  5
21E
330
1F
100
AcDbEntity
  8
0
  6
Continuous
 62
     7
370
    25
100
AcDbLine
 10
278.2754454197
 20
153.7172864587
 30
0.0
 11
278.5317453922
 21
154.8487018258
 31
0.0
  0
LINE
  5
21F
330
1F
100
AcDbEntity
  8
0
  6
Continuous
 62
     7
370
    25
100
AcDbLine
 10
282.3652181209
 20
155.0495694787
 30
0.0
 11
282.3417785944
 21
155.1150153787
 31
0.0
  0
ARC
  5
220
330
1F
100
AcDbEntity
  8
0
  6
Continuous
 62
     7
370
    25
100
AcDbCircle
 10
280.478091319
 20
154.3789614697
 30
0.0
 40
1.987527811364854
100
AcDbArc
 50
226.8891111273
 51
269.8470469188
  0
ARC
  5
221
330
1F
100
AcDbEntity
  8
0
  6
Continuous
 62
     7
370
    25
100
AcDbCircle
 10
280.500670016
 20
154.4011425034
 30
0.0
 40
2.01915168350928
100
AcDbArc
 50
167.1936184288
 51
226.851530179
  0
ARC
  5
222
330
1F
100
AcDbEntity
  8
0
  6
Continuous
 62
     7
370
    25
100
AcDbCircle
 10
280.4870398238
 20
154.4095266904
 30
0.0
 40
2.00400876094532
100
AcDbArc
 50
107.3716801079
 51
167.3409858542
  0
ARC
  5
223
330
1F
100
AcDbEntity
  8
0
  6
Continuous
 62
     7
370
    25
100
AcDbCircle
 10
280.476774424
 20
154.429245916
 30
0.0
 40
1.982127892784166
100
AcDbArc
 50
73.3799905727
 51
107.2586676944
  0
LWPOLYLINE
  5
224
330
1F
100
AcDbEntity
  8
0
  6
Continuous
 62
     7
370
    25
100
AcDbPolyline
 90
        3
 70
   128
 43
0.0
 10
281.6038432897
 20
152.7429889352
 10
281.7495617451
 20
152.8536151559
 10
281.8990948976
 20
152.9920171411
  0
LINE
  5
225
330
1F
100
AcDbEntity
  8
0
  6
Continuous
 62
     7
370
    25
100
AcDbLine
 10
-102.9438820301
 20
-427.608602175
 30
0.0
 11
-103.6224660097
 21
-427.608602175
 31
0.0
  0
LINE
  5
226
330
1F
100
AcDbEntity
  8
0
  6
Continuous
 62
     7
370
    25
100
AcDbLine
 10
-102.6045974909
 20
-425.5984951346
 30
0.0
 11
-102.9438820301
 21
-427.608602175
 31
0.0
  0
LINE
  5
227
330
1F
100
AcDbEntity
  8
0
  6
Continuous
 62
     7
370
    25
100
AcDbLine
 10
-102.9438820301
 20
-423.5886265128
 30
0.0
 11
-102.6045974909
 21
-425.5984951346
 31
0.0
  0
LINE
  5
228
330
1F
100
AcDbEntity
  8
0
  6
Continuous
 62
     7
370
    25
100
AcDbLine
 10
-103.6224660097
 20
-423.5886265128
 30
0.0
 11
-102.9438820301
 21
-423.5886265128
 31
0.0
  0
LINE
  5
229
330
1F
100
AcDbEntity
  8
0
  6
Continuous
 62
     7
370
    25
100
AcDbLine
 10
-103.9617505489
 20
-425.5984951346
 30
0.0
 11
-103.6224660097
 21
-423.5886265128
 31
0.0
  0
LINE
  5
22A
330
1F
100
AcDbEntity
  8
0
  6
Continuous
 62
     7
370
    25
100
AcDbLine
 10
-103.6224660097
 20
-427.608602175
 30
0.0
 11
-103.9617505489
 21
-425.5984951346
 31
0.0
  0
LWPOLYLINE
  5
22B
330
1F
100
AcDbEntity
  8
0
  6
Continuous
 62
     7
370
    25
100
AcDbPolyline
 90
       26
 70
   128
 43
0.0
 10
-103.2831814705
 20
-431.3834835379
 10
-102.8625514923
 20
-431.2018085807
 10
-102.4683561741
 20
-430.6679893821
 10
-102.1253612457
 20
-429.8156429618
 10
-101.8551137863
 20
-428.6984135001
 10
-101.6745862185
 20
-427.3861576407
 10
-101.5951481281
 20
-425.9618450492
 10
-101.621761602
 20
-424.514644274
 10
-101.7527875124
 20
-423.1353927939
 10
-101.9799557148
 20
-421.9111133902
 10
-102.2890206991
 20
-420.9183384269
 10
-102.66053645
 20
-420.2197719901
 10
-103.0711975514
 20
-419.8592830985
 10
-103.4951653896
 20
-419.8592830985
 10
-103.9058115898
 20
-420.2197719901
 10
-104.2773422419
 20
-420.9183384269
 10
-104.5864072262
 20
-421.9111133902
 10
-104.8135754286
 20
-423.1353927939
 10
-104.9445864378
 20
-424.514644274
 10
-104.9712148129
 20
-425.9618450492
 10
-104.8917618214
 20
-427.3861576407
 10
-104.7112491547
 20
-428.6984135001
 10
-104.4410016953
 20
-429.8156429618
 10
-104.0980067669
 20
-430.6679893821
 10
-103.7038114487
 20
-431.2018085807
 10
-103.2831814705
 20
-431.3834835379
  0
LWPOLYLINE
  5
22C
330
1F
100
AcDbEntity
  8
0
  6
Continuous
 62
     7
370
    25
100
AcDbPolyline
 90
        3
 70
   128
 43
0.0
 10
-103.7756797491
 20
-419.8135067313
 10
-103.9876636683
 20
-419.8592830985
 10
-104.0696200548
 20
-419.9017216056
  0
LINE
  5
22D
330
1F
100
AcDbEntity
  8
0
  6
Continuous
 62
     7
370
    25
100
AcDbLine
 10
-104.0696200548
 20
-431.2955070823
 30
0.0
 11
-103.7756797491
 21
-431.3834835379
 31
0.0
  0
LINE
  5
22E
330
1F
100
AcDbEntity
  8
0
  6
Continuous
 62
     7
370
    25
100
AcDbLine
 10
-103.9617505489
 20
-425.5984951346
 30
0.0
 11
-102.6045974909
 21
-425.5984951346
 31
0.0
  0
LWPOLYLINE
  5
22F
330
1F
100
AcDbEntity
  8
0
  6
Continuous
 62
     7
370
    25
100
AcDbPolyline
 90
       26
 70
   128
 43
0.0
 10
-103.2831814705
 20
728.6164234788
 10
-102.8625514923
 20
728.7981580407
 10
-102.4683561741
 20
729.3319772393
 10
-102.1253612457
 20
730.1843236596
 10
-101.8551137863
 20
731.3016723306
 10
-101.6745862185
 20
732.613749376
 10
-101.5951481281
 20
734.0381811769
 10
-101.621761602
 20
735.4854415567
 10
-101.7527875124
 20
736.8645738275
 10
-101.9799557148
 20
738.0889128358
 10
-102.2890206991
 20
739.0815685899
 10
-102.66053645
 20
739.7801946313
 10
-103.0711975514
 20
740.1408027322
 10
-103.4951653896
 20
740.1408027322
 10
-103.9058115898
 20
739.7801946313
 10
-104.2773422419
 20
739.0815685899
 10
-104.5864072262
 20
738.0889128358
 10
-104.8135754286
 20
736.8645738275
 10
-104.9445864378
 20
735.4854415567
 10
-104.9712148129
 20
734.0381811769
 10
-104.8917618214
 20
732.613749376
 10
-104.7112491547
 20
731.3016723306
 10
-104.4410016953
 20
730.1843236596
 10
-104.0980067669
 20
729.3319772393
 10
-103.7038114487
 20
728.7981580407
 10
-103.2831814705
 20
728.6164234788
  0
LWPOLYLINE
  5
230
330
1F
100
AcDbEntity
  8
0
  6
Continuous
 62
     7
370
    25
100
AcDbPolyline
 90
        3
 70
   128
 43
0.0
 10
-103.7756797491
 20
740.1864002854
 10
-103.9876636683
 20
740.1408027322
 10
-104.0695604502
 20
740.0984238298
  0
LINE
  5
231
330
1F
100
AcDbEntity
  8
0
  6
Continuous
 62
     7
370
    25
100
AcDbLine
 10
-104.0695604502
 20
728.7043999345
 30
0.0
 11
-103.7756797491
 21
728.6164234788
 31
0.0
  0
LINE
  5
232
330
1F
100
AcDbEntity
  8
0
  6
Continuous
 62
     7
370
    25
100
AcDbLine
 10
-102.9438820301
 20
732.391424051
 30
0.0
 11
-103.6224660097
 21
732.391424051
 31
0.0
  0
LINE
  5
233
330
1F
100
AcDbEntity
  8
0
  6
Continuous
 62
     7
370
    25
100
AcDbLine
 10
-102.6045974909
 20
734.4014118821
 30
0.0
 11
-102.9438820301
 21
732.391424051
 31
0.0
  0
LINE
  5
234
330
1F
100
AcDbEntity
  8
0
  6
Continuous
 62
     7
370
    25
100
AcDbLine
 10
-102.9438820301
 20
736.4113997132
 30
0.0
 11
-102.6045974909
 21
734.4014118821
 31
0.0
  0
LINE
  5
235
330
1F
100
AcDbEntity
  8
0
  6
Continuous
 62
     7
370
    25
100
AcDbLine
 10
-103.6224660097
 20
736.4113997132
 30
0.0
 11
-102.9438820301
 21
736.4113997132
 31
0.0
  0
LINE
  5
236
330
1F
100
AcDbEntity
  8
0
  6
Continuous
 62
     7
370
    25
100
AcDbLine
 10
-103.9617505489
 20
734.4014118821
 30
0.0
 11
-103.6224660097
 21
736.4113997132
 31
0.0
  0
LINE
  5
237
330
1F
100
AcDbEntity
  8
0
  6
Continuous
 62
     7
370
    25
100
AcDbLine
 10
-103.6224660097
 20
732.391424051
 30
0.0
 11
-103.9617505489
 21
734.4014118821
 31
0.0
  0
LINE
  5
238
330
1F
100
AcDbEntity
  8
0
  6
Continuous
 62
     7
370
    25
100
AcDbLine
 10
-103.9617505489
 20
734.4014118821
 30
0.0
 11
-102.6045974909
 21
734.4014118821
 31
0.0
  0
LINE
  5
239
330
1F
100
AcDbEntity
  8
0
  6
Continuous
 62
     7
370
    25
100
AcDbLine
 10
93.2769964816
 20
152.8227399499
 30
0.0
 11
91.0756926419
 21
152.1387170465
 31
0.0
  0
LINE
  5
23A
330
1F
100
AcDbEntity
  8
0
  6
Continuous
 62
     7
370
    25
100
AcDbLine
 10
93.7896057398
 20
155.0855706842
 30
0.0
 11
93.2769964816
 21
152.8227399499
 31
0.0
  0
LINE
  5
23B
330
1F
100
AcDbEntity
  8
0
  6
Continuous
 62
     7
370
    25
100
AcDbLine
 10
92.1009130211
 20
156.6641400964
 30
0.0
 11
93.7896057398
 21
155.0855706842
 31
0.0
  0
LINE
  5
23C
330
1F
100
AcDbEntity
  8
0
  6
Continuous
 62
     7
370
    25
100
AcDbLine
 10
89.8996110441
 20
155.9801171929
 30
0.0
 11
92.1009130211
 21
156.6641400964
 31
0.0
  0
LINE
  5
23D
330
1F
100
AcDbEntity
  8
0
  6
Continuous
 62
     7
370
    25
100
AcDbLine
 10
89.3869999231
 20
153.7172864587
 30
0.0
 11
89.8996110441
 21
155.9801171929
 31
0.0
  0
LINE
  5
23E
330
1F
100
AcDbEntity
  8
0
  6
Continuous
 62
     7
370
    25
100
AcDbLine
 10
91.0756926419
 20
152.1387170465
 30
0.0
 11
89.3869999231
 21
153.7172864587
 31
0.0
  0
CIRCLE
  5
23F
330
1F
100
AcDbEntity
  8
0
  6
Continuous
 62
     7
370
    25
100
AcDbCircle
 10
91.5788253263
 20
154.369415048
 30
0.0
 40
5.753444108163779
  0
ARC
  5
240
330
1F
100
AcDbEntity
  8
0
  6
Continuous
 62
     7
370
    25
100
AcDbCircle
 10
91.6122133449
 20
154.3975268283
 30
0.0
 40
5.789020523775544
100
AcDbArc
 50
287.4015030147
 51
89.6154640609
  0
LWPOLYLINE
  5
241
330
1F
100
AcDbEntity
  8
0
  6
Continuous
 62
     7
370
    25
100
AcDbPolyline
 90
        3
 70
   128
 43
0.0
 10
91.6510655911
 20
148.6164401681
 10
91.9258336903
 20
148.622996679
 10
93.3435115398
 20
148.8734553964
  0
LINE
  5
242
330
1F
100
AcDbEntity
  8
0
  6
Continuous
 62
     7
370
    25
100
AcDbLine
 10
91.304935831
 20
156.3221286447
 30
0.0
 11
92.1769294323
 21
156.5930913598
 31
0.0
  0
LINE
  5
243
330
1F
100
AcDbEntity
  8
0
  6
Continuous
 62
     7
370
    25
100
AcDbLine
 10
90.2042839111
 20
155.9801171929
 30
0.0
 11
91.304935831
 21
156.3221286447
 31
0.0
  0
LINE
  5
244
330
1F
100
AcDbEntity
  8
0
  6
Continuous
 62
     7
370
    25
100
AcDbLine
 10
90.2042839111
 20
155.9801171929
 30
0.0
 11
89.8996110441
 21
155.9801171929
 31
0.0
  0
LINE
  5
245
330
1F
100
AcDbEntity
  8
0
  6
Continuous
 62
     7
370
    25
100
AcDbLine
 10
89.6916727902
 20
153.7172864587
 30
0.0
 11
89.3869999231
 21
153.7172864587
 31
0.0
  0
LINE
  5
246
330
1F
100
AcDbEntity
  8
0
  6
Continuous
 62
     7
370
    25
100
AcDbLine
 10
90.5360191496
 20
152.9280017526
 30
0.0
 11
89.6916727902
 21
153.7172864587
 31
0.0
  0
LINE
  5
247
330
1F
100
AcDbEntity
  8
0
  6
Continuous
 62
     7
370
    25
100
AcDbLine
 10
91.3043509604
 20
152.209765783
 30
0.0
 11
90.5360191496
 21
152.9280017526
 31
0.0
  0
LINE
  5
248
330
1F
100
AcDbEntity
  8
0
  6
Continuous
 62
     7
370
    25
100
AcDbLine
 10
89.947976488
 20
154.8487018258
 30
0.0
 11
90.2042839111
 21
155.9801171929
 31
0.0
  0
LINE
  5
249
330
1F
100
AcDbEntity
  8
0
  6
Continuous
 62
     7
370
    25
100
AcDbLine
 10
89.6916727902
 20
153.7172864587
 30
0.0
 11
89.947976488
 21
154.8487018258
 31
0.0
  0
LINE
  5
24A
330
1F
100
AcDbEntity
  8
0
  6
Continuous
 62
     7
370
    25
100
AcDbLine
 10
93.7814454915
 20
155.0495694787
 30
0.0
 11
93.7580171408
 21
155.1150153787
 31
0.0
  0
ARC
  5
24B
330
1F
100
AcDbEntity
  8
0
  6
Continuous
 62
     7
370
    25
100
AcDbCircle
 10
91.894327078
 20
154.3789779254
 30
0.0
 40
1.987544284409225
100
AcDbArc
 50
226.8892979843
 51
269.8468600618
  0
ARC
  5
24C
330
1F
100
AcDbEntity
  8
0
  6
Continuous
 62
     7
370
    25
100
AcDbCircle
 10
91.9169395498
 20
154.4011529325
 30
0.0
 40
2.019186853833856
100
AcDbArc
 50
167.1941487623
 51
226.8508982413
  0
ARC
  5
24D
330
1F
100
AcDbEntity
  8
0
  6
Continuous
 62
     7
370
    25
100
AcDbCircle
 10
91.9032783476
 20
154.4095198496
 30
0.0
 40
2.004017507463271
100
AcDbArc
 50
107.3718243947
 51
167.3408415674
  0
ARC
  5
24E
330
1F
100
AcDbEntity
  8
0
  6
Continuous
 62
     7
370
    25
100
AcDbCircle
 10
91.8930086848
 20
154.4291701663
 30
0.0
 40
1.982201170936393
100
AcDbArc
 50
73.3805497267
 51
107.2581054506
  0
LWPOLYLINE
  5
24F
330
1F
100
AcDbEntity
  8
0
  6
Continuous
 62
     7
370
    25
100
AcDbPolyline
 90
        3
 70
   128
 43
0.0
 10
93.0200781108
 20
152.7429889352
 10
93.1657965661
 20
152.8536151559
 10
93.3153297187
 20
152.9920171411
  0
LINE
  5
250
330
1F
100
AcDbEntity
  8
0
  6
Continuous
 62
     7
370
    25
100
AcDbLine
 10
-102.9438820301
 20
152.3914407403
 30
0.0
 11
-103.6224660097
 21
152.3914407403
 31
0.0
  0
LINE
  5
251
330
1F
100
AcDbEntity
  8
0
  6
Continuous
 62
     7
370
    25
100
AcDbLine
 10
-102.6045974909
 20
154.4014285714
 30
0.0
 11
-102.9438820301
 21
152.3914407403
 31
0.0
  0
LINE
  5
252
330
1F
100
AcDbEntity
  8
0
  6
Continuous
 62
     7
370
    25
100
AcDbLine
 10
-102.9438820301
 20
156.4114164025
 30
0.0
 11
-102.6045974909
 21
154.4014285714
 31
0.0
  0
LINE
  5
253
330
1F
100
AcDbEntity
  8
0
  6
Continuous
 62
     7
370
    25
100
AcDbLine
 10
-103.6224660097
 20
156.4114164025
 30
0.0
 11
-102.9438820301
 21
156.4114164025
 31
0.0
  0
LINE
  5
254
330
1F
100
AcDbEntity
  8
0
  6
Continuous
 62
     7
370
    25
100
AcDbLine
 10
-103.9617505489
 20
154.4014285714
 30
0.0
 11
-103.6224660097
 21
156.4114164025
 31
0.0
  0
LINE
  5
255
330
1F
100
AcDbEntity
  8
0
  6
Continuous
 62
     7
370
    25
100
AcDbLine
 10
-103.6224660097
 20
152.3914407403
 30
0.0
 11
-103.9617505489
 21
154.4014285714
 31
0.0
  0
LWPOLYLINE
  5
256
330
1F
100
AcDbEntity
  8
0
  6
Continuous
 62
     7
370
    25
100
AcDbPolyline
 90
       26
 70
   128
 43
0.0
 10
-103.2831814705
 20
148.6164401681
 10
-102.8625514923
 20
148.7982343347
 10
-102.4683561741
 20
149.3320535333
 10
-102.1253612457
 20
150.1843999536
 10
-101.8551137863
 20
151.3016294152
 10
-101.6745862185
 20
152.6137660653
 10
-101.5951481281
 20
154.0381978662
 10
-101.621761602
 20
155.4853986413
 10
-101.7527875124
 20
156.8645309121
 10
-101.9799557148
 20
158.0889295251
 10
-102.2890206991
 20
159.0815852792
 10
-102.66053645
 20
159.780151716
 10
-103.0711975514
 20
160.1407598169
 10
-103.4951653896
 20
160.1407598169
 10
-103.9058115898
 20
159.780151716
 10
-104.2773422419
 20
159.0815852792
 10
-104.5864072262
 20
158.0889295251
 10
-104.8135754286
 20
156.8645309121
 10
-104.9445864378
 20
155.4853986413
 10
-104.9712148129
 20
154.0381978662
 10
-104.8917618214
 20
152.6137660653
 10
-104.7112491547
 20
151.3016294152
 10
-104.4410016953
 20
150.1843999536
 10
-104.0980067669
 20
149.3320535333
 10
-103.7038114487
 20
148.7982343347
 10
-103.2831814705
 20
148.6164401681
  0
LWPOLYLINE
  5
257
330
1F
100
AcDbEntity
  8
0
  6
Continuous
 62
     7
370
    25
100
AcDbPolyline
 90
        3
 70
   128
 43
0.0
 10
-103.7756797491
 20
160.1864169747
 10
-103.9876636683
 20
160.1407598169
 10
-104.069545549
 20
160.0984405191
  0
LINE
  5
258
330
1F
100
AcDbEntity
  8
0
  6
Continuous
 62
     7
370
    25
100
AcDbLine
 10
-104.069545549
 20
148.7044166238
 30
0.0
 11
-103.7756797491
 21
148.6164401681
 31
0.0
  0
LINE
  5
259
330
1F
100
AcDbEntity
  8
0
  6
Continuous
 62
     7
370
    25
100
AcDbLine
 10
-103.9617505489
 20
154.4014285714
 30
0.0
 11
-102.6045974909
 21
154.4014285714
 31
0.0
  0
LINE
  5
25A
330
1F
100
AcDbEntity
  8
0
  6
Continuous
 62
     7
370
    25
100
AcDbLine
 10
-130.7192143618
 20
732.391424051
 30
0.0
 11
-131.3977834402
 21
732.391424051
 31
0.0
  0
LINE
  5
25B
330
1F
100
AcDbEntity
  8
0
  6
Continuous
 62
     7
370
    25
100
AcDbLine
 10
-130.3799149214
 20
734.4014118821
 30
0.0
 11
-130.7192143618
 21
732.391424051
 31
0.0
  0
LINE
  5
25C
330
1F
100
AcDbEntity
  8
0
  6
Continuous
 62
     7
370
    25
100
AcDbLine
 10
-130.7192143618
 20
736.4113997132
 30
0.0
 11
-130.3799149214
 21
734.4014118821
 31
0.0
  0
LINE
  5
25D
330
1F
100
AcDbEntity
  8
0
  6
Continuous
 62
     7
370
    25
100
AcDbLine
 10
-131.3977834402
 20
736.4113997132
 30
0.0
 11
-130.7192143618
 21
736.4113997132
 31
0.0
  0
LINE
  5
25E
330
1F
100
AcDbEntity
  8
0
  6
Continuous
 62
     7
370
    25
100
AcDbLine
 10
-131.7370828806
 20
734.4014118821
 30
0.0
 11
-131.3977834402
 21
736.4113997132
 31
0.0
  0
LINE
  5
25F
330
1F
100
AcDbEntity
  8
0
  6
Continuous
 62
     7
370
    25
100
AcDbLine
 10
-131.3977834402
 20
732.391424051
 30
0.0
 11
-131.7370828806
 21
734.4014118821
 31
0.0
  0
LWPOLYLINE
  5
260
330
1F
100
AcDbEntity
  8
0
  6
Continuous
 62
     7
370
    25
100
AcDbPolyline
 90
       26
 70
   128
 43
0.0
 10
-131.0584839998
 20
728.6164234788
 10
-130.6378540217
 20
728.7981580407
 10
-130.2436587034
 20
729.3319772393
 10
-129.9006637751
 20
730.1843236596
 10
-129.6304163157
 20
731.3016723306
 10
-129.449903649
 20
732.613749376
 10
-129.3704506575
 20
734.0381811769
 10
-129.3970641314
 20
735.4854415567
 10
-129.5281049429
 20
736.8645738275
 10
-129.7552582441
 20
738.0889128358
 10
-130.0643381296
 20
739.0815685899
 10
-130.4358538805
 20
739.7801946313
 10
-130.8465000807
 20
740.1408027322
 10
-131.270467919
 20
740.1408027322
 10
-131.6811141192
 20
739.7801946313
 10
-132.0526596724
 20
739.0815685899
 10
-132.3617097555
 20
738.0889128358
 10
-132.5888928591
 20
736.8645738275
 10
-132.7199038683
 20
735.4854415567
 10
-132.7465173422
 20
734.0381811769
 10
-132.6670643507
 20
732.613749376
 10
-132.486551684
 20
731.3016723306
 10
-132.2163042246
 20
730.1843236596
 10
-131.8733092962
 20
729.3319772393
 10
-131.479113978
 20
728.7981580407
 10
-131.0584839998
 20
728.6164234788
  0
LWPOLYLINE
  5
261
330
1F
100
AcDbEntity
  8
0
  6
Continuous
 62
     7
370
    25
100
AcDbPolyline
 90
        3
 70
   128
 43
0.0
 10
-131.5509971796
 20
740.1864002854
 10
-131.7629810988
 20
740.1408027322
 10
-131.8448778807
 20
740.0984238298
  0
LINE
  5
262
330
1F
100
AcDbEntity
  8
0
  6
Continuous
 62
     7
370
    25
100
AcDbLine
 10
-131.8448778807
 20
728.7043999345
 30
0.0
 11
-131.5509971796
 21
728.6164234788
 31
0.0
  0
LINE
  5
263
330
1F
100
AcDbEntity
  8
0
  6
Continuous
 62
     7
370
    25
100
AcDbLine
 10
-131.7370828806
 20
734.4014118821
 30
0.0
 11
-130.3799149214
 21
734.4014118821
 31
0.0
  0
LINE
  5
264
330
1F
100
AcDbEntity
  8
0
  6
Continuous
 62
     1
370
    25
100
AcDbLine
 10
-96.3150259672
 20
804.4014047296
 30
0.0
 11
-96.3150259672
 21
799.4014094979
 31
0.0
  0
LINE
  5
265
330
1F
100
AcDbEntity
  8
0
  6
Continuous
 62
     1
370
    25
100
AcDbLine
 10
-96.3150259672
 20
-490.5985523551
 30
0.0
 11
-96.3150259672
 21
-495.598666796
 31
0.0
  0
LINE
  5
266
330
1F
100
AcDbEntity
  8
0
  6
Continuous
 62
     1
370
    25
100
AcDbLine
 10
-119.266345781
 20
804.4014047296
 30
0.0
 11
-119.266345781
 21
799.4014094979
 31
0.0
  0
LINE
  5
267
330
1F
100
AcDbEntity
  8
0
  6
Continuous
 62
     1
370
    25
100
AcDbLine
 10
-119.266345781
 20
-490.5985523551
 30
0.0
 11
-119.266345781
 21
-495.598666796
 31
0.0
  0
LINE
  5
268
330
1F
100
AcDbEntity
  8
0
  6
Continuous
 62
     1
370
    25
100
AcDbLine
 10
45.860812384
 20
-495.598666796
 30
0.0
 11
45.860812384
 21
-445.5984760611
 31
0.0
  0
LINE
  5
269
330
1F
100
AcDbEntity
  8
0
  6
Continuous
 62
     1
370
    25
100
AcDbLine
 10
45.860812384
 20
-405.5985142081
 30
0.0
 11
45.860812384
 21
134.4014476449
 31
0.0
  0
LINE
  5
26A
330
1F
100
AcDbEntity
  8
0
  6
Continuous
 62
     1
370
    25
100
AcDbLine
 10
45.860812384
 20
174.4014094979
 30
0.0
 11
45.860812384
 21
714.4014309556
 31
0.0
  0
LINE
  5
26B
330
1F
100
AcDbEntity
  8
0
  6
Continuous
 62
     1
370
    25
100
AcDbLine
 10
45.860812384
 20
754.4014524133
 30
0.0
 11
45.860812384
 21
804.4014047296
 31
0.0
  0
ENDSEC
  0
SECTION
  2
OBJECTS
  0
DICTIONARY
  5
C
330
0
100
AcDbDictionary
281
     1
  3
ACAD_DETAILVIEWSTYLE
350
274
  3
ACAD_GROUP
350
D
  3
ACAD_LAYOUT
350
1A
  3
ACAD_MATERIAL
350
43
  3
ACAD_MLEADERSTYLE
350
6B
  3
ACAD_MLINESTYLE
350
17
  3
ACAD_PLOTSETTINGS
350
19
  3
ACAD_PLOTSTYLENAME
350
E
  3
ACAD_SCALELIST
350
47
  3
ACAD_SECTIONVIEWSTYLE
350
275
  3
ACAD_TABLESTYLE
350
69
  3
ACAD_VISUALSTYLE
350
2A
  3
ACDB_RECOMPOSE_DATA
350
271
  3
AcDbVariableDictionary
350
26C
  0
SUN
  5
6D
330
29
100
AcDbSun
 90
        1
290
     0
 63
     7
421
 16777215
 40
1.0
291
     1
 91
  2455826
 92
 54000000
292
     0
 70
     2
 71
   256
280
     1
  0
DICTIONARY
  5
274
102
{ACAD_REACTORS
330
C
102
}
330
C
100
AcDbDictionary
281
     1
  0
DICTIONARY
  5
D
102
{ACAD_REACTORS
330
C
102
}
330
C
100
AcDbDictionary
281
     1
  0
DICTIONARY
  5
1A
102
{ACAD_REACTORS
330
C
102
}
330
C
100
AcDbDictionary
281
     1
  3
Layout1
350
1E
  3
Layout2
350
26
  3
Model
350
22
  0
DICTIONARY
  5
43
102
{ACAD_REACTORS
330
C
102
}
330
C
100
AcDbDictionary
281
     1
  3
ByBlock
350
45
  3
ByLayer
350
44
  3
Global
350
46
  0
DICTIONARY
  5
6B
102
{ACAD_REACTORS
330
C
102
}
330
C
100
AcDbDictionary
281
     1
  3
Standard
350
6C
  0
DICTIONARY
  5
17
102
{ACAD_REACTORS
330
C
102
}
330
C
100
AcDbDictionary
281
     1
  3
Standard
350
18
  0
DICTIONARY
  5
19
102
{ACAD_REACTORS
330
C
102
}
330
C
100
AcDbDictionary
281
     1
  0
ACDBDICTIONARYWDFLT
  5
E
102
{ACAD_REACTORS
330
C
102
}
330
C
100
AcDbDictionary
281
     1
  3
Normal
350
F
100
AcDbDictionaryWithDefault
340
F
  0
DICTIONARY
  5
47
102
{ACAD_REACTORS
330
C
102
}
330
C
100
AcDbDictionary
281
     1
  3
A0
350
48
  3
A1
350
49
  3
A2
350
4A
  3
A3
350
4B
  3
A4
350
4C
  3
A5
350
4D
  3
A6
350
4E
  3
A7
350
4F
  3
A8
350
50
  3
A9
350
51
  3
B0
350
52
  3
B1
350
53
  3
B2
350
54
  3
B3
350
55
  3
B4
350
56
  3
B5
350
57
  3
B6
350
58
  3
B7
350
59
  3
B8
350
5A
  3
B9
350
5B
  3
C0
350
5C
  3
C1
350
5D
  3
C2
350
5E
  3
C3
350
5F
  3
C4
350
60
  3
C5
350
61
  3
C6
350
62
  3
C7
350
63
  3
C8
350
64
  3
C9
350
65
  3
D0
350
66
  3
D1
350
67
  3
D2
350
68
  0
DICTIONARY
  5
275
102
{ACAD_REACTORS
330
C
102
}
330
C
100
AcDbDictionary
281
     1
  0
DICTIONARY
  5
69
102
{ACAD_REACTORS
330
C
102
}
330
C
100
AcDbDictionary
281
     1
  3
Standard
350
6A
  0
DICTIONARY
  5
2A
102
{ACAD_REACTORS
330
C
102
}
330
C
100
AcDbDictionary
281
     1
  3
2dWireframe
350
2F
  3
Basic
350
32
  3
Brighten
350
36
  3
ColorChange
350
3A
  3
Conceptual
350
34
  3
Dim
350
35
  3
EdgeColorOff
350
3D
  3
Facepattern
350
39
  3
Flat
350
2B
  3
FlatWithEdges
350
2C
  3
Gouraud
350
2D
  3
GouraudWithEdges
350
2E
  3
Hidden
350
31
  3
JitterOff
350
3B
  3
Linepattern
350
38
  3
OverhangOff
350
3C
  3
Realistic
350
33
  3
Shaded
350
42
  3
Shaded with edges
350
41
  3
Shades of Gray
350
3E
  3
Sketchy
350
3F
  3
Thicken
350
37
  3
Wireframe
350
30
  3
X-Ray
350
40
  0
XRECORD
  5
271
102
{ACAD_REACTORS
330
C
102
}
330
C
100
AcDbXrecord
280
     1
 90
        1
330
6A
  0
DICTIONARY
  5
26C
102
{ACAD_REACTORS
330
C
102
}
330
C
100
AcDbDictionary
281
     1
  3
CANNOSCALE
350
26D
  3
CMLEADERSTYLE
350
273
  3
CTABLESTYLE
350
272
  0
LAYOUT
  5
1E
102
{ACAD_REACTORS
330
1A
102
}
330
1A
100
AcDbPlotSettings
  1

  2
none_device
  4

  6

 40
0.0
 41
0.0
 42
0.0
 43
0.0
 44
0.0
 45
0.0
 46
0.0
 47
0.0
 48
0.0
 49
0.0
140
0.0
141
0.0
142
1.0
143
1.0
 70
   688
 72
     1
 73
     0
 74
     5
  7

 75
    16
 76
     0
 77
     2
 78
   300
147
1.0
148
0.0
149
0.0
100
AcDbLayout
  1
Layout1
 70
     1
 71
     1
 10
0.0
 20
0.0
 11
420.0
 21
297.0
 12
0.0
 22
0.0
 32
0.0
 14
1.0000000000E+20
 24
1.0000000000E+20
 34
1.0000000000E+20
 15
-1.0000000000E+20
 25
-1.0000000000E+20
 35
-1.0000000000E+20
146
0.0
 13
0.0
 23
0.0
 33
0.0
 16
1.0
 26
0.0
 36
0.0
 17
0.0
 27
1.0
 37
0.0
 76
     0
330
1B
  0
LAYOUT
  5
26
102
{ACAD_REACTORS
330
1A
102
}
330
1A
100
AcDbPlotSettings
  1

  2
none_device
  4

  6

 40
0.0
 41
0.0
 42
0.0
 43
0.0
 44
0.0
 45
0.0
 46
0.0
 47
0.0
 48
0.0
 49
0.0
140
0.0
141
0.0
142
1.0
143
1.0
 70
   688
 72
     1
 73
     0
 74
     5
  7

 75
    16
 76
     0
 77
     2
 78
   300
147
1.0
148
0.0
149
0.0
100
AcDbLayout
  1
Layout2
 70
     1
 71
     2
 10
0.0
 20
0.0
 11
0.0
 21
0.0
 12
0.0
 22
0.0
 32
0.0
 14
0.0
 24
0.0
 34
0.0
 15
0.0
 25
0.0
 35
0.0
146
0.0
 13
0.0
 23
0.0
 33
0.0
 16
1.0
 26
0.0
 36
0.0
 17
0.0
 27
1.0
 37
0.0
 76
     0
330
23
  0
LAYOUT
  5
22
102
{ACAD_REACTORS
330
1A
102
}
330
1A
100
AcDbPlotSettings
  1

  2
none_device
  4
Letter_(8.50_x_11.00_Inches)
  6

 40
6.35
 41
6.35
 42
6.35000508
 43
6.35000508
 44
215.9
 45
279.4
 46
0.0
 47
0.0
 48
0.0
 49
0.0
140
0.0
141
0.0
142
1.0
143
1.0
 70
  1712
 72
     1
 73
     0
 74
     0
  7

 75
     0
 76
     0
 77
     2
 78
   300
147
1.0
148
0.0
149
0.0
100
AcDbLayout
  1
Model
 70
     1
 71
     0
 10
0.0
 20
0.0
 11
210.0
 21
297.0
 12
0.0
 22
0.0
 32
0.0
 14
0.0
 24
0.0
 34
0.0
 15
210.0
 25
297.0
 35
0.0
146
0.0
 13
0.0
 23
0.0
 33
0.0
 16
1.0
 26
0.0
 36
0.0
 17
0.0
 27
1.0
 37
0.0
 76
     0
330
1F
331
29
  0
MATERIAL
  5
45
102
{ACAD_REACTORS
330
43
102
}
330
43
100
AcDbMaterial
  1
ByBlock
 72
     1
 94
      127
  0
MATERIAL
  5
44
102
{ACAD_REACTORS
330
43
102
}
330
43
100
AcDbMaterial
  1
ByLayer
 72
     1
 94
      127
  0
MATERIAL
  5
46
102
{ACAD_REACTORS
330
43
102
}
330
43
100
AcDbMaterial
  1
Global
 72
     1
 94
      127
  0
MLEADERSTYLE
  5
6C
102
{ACAD_REACTORS
330
6B
102
}
330
6B
100
AcDbMLeaderStyle
170
     2
171
     1
172
     0
 90
        2
 40
0.0
 41
0.0
173
     1
 91
-1056964608
340
14
 92
       -2
290
     1
 42
2.0
291
     1
 43
8.0
  3
Standard
341
0
 44
4.0
300

342
11
174
     1
178
     6
175
     1
176
     0
 93
-1056964608
 45
4.0
292
     0
297
     0
 46
4.0
343
0
 94
-1056964608
 47
1.0
 49
1.0
140
1.0
293
     1
141
0.0
294
     1
177
     0
142
1.0
295
     0
296
     0
143
3.75
1001
ACAD_MLEADERVER
1070
     2
  0
MLINESTYLE
  5
18
102
{ACAD_REACTORS
330
17
102
}
330
17
100
AcDbMlineStyle
  2
Standard
 70
     0
  3

 62
   256
 51
90.0
 52
90.0
 71
     2
 49
0.5
 62
   256
  6
BYLAYER
 49
-0.5
 62
   256
  6
BYLAYER
  0
ACDBPLACEHOLDER
  5
F
102
{ACAD_REACTORS
330
E
102
}
330
E
  0
SCALE
  5
48
102
{ACAD_REACTORS
330
47
102
}
330
47
100
AcDbScale
 70
     0
300
1:1
140
1.0
141
1.0
290
     1
  0
SCALE
  5
49
102
{ACAD_REACTORS
330
47
102
}
330
47
100
AcDbScale
 70
     0
300
1:2
140
1.0
141
2.0
290
     0
  0
SCALE
  5
4A
102
{ACAD_REACTORS
330
47
102
}
330
47
100
AcDbScale
 70
     0
300
1:4
140
1.0
141
4.0
290
     0
  0
SCALE
  5
4B
102
{ACAD_REACTORS
330
47
102
}
330
47
100
AcDbScale
 70
     0
300
1:5
140
1.0
141
5.0
290
     0
  0
SCALE
  5
4C
102
{ACAD_REACTORS
330
47
102
}
330
47
100
AcDbScale
 70
     0
300
1:8
140
1.0
141
8.0
290
     0
  0
SCALE
  5
4D
102
{ACAD_REACTORS
330
47
102
}
330
47
100
AcDbScale
 70
     0
300
1:10
140
1.0
141
10.0
290
     0
  0
SCALE
  5
4E
102
{ACAD_REACTORS
330
47
102
}
330
47
100
AcDbScale
 70
     0
300
1:16
140
1.0
141
16.0
290
     0
  0
SCALE
  5
4F
102
{ACAD_REACTORS
330
47
102
}
330
47
100
AcDbScale
 70
     0
300
1:20
140
1.0
141
20.0
290
     0
  0
SCALE
  5
50
102
{ACAD_REACTORS
330
47
102
}
330
47
100
AcDbScale
 70
     0
300
1:30
140
1.0
141
30.0
290
     0
  0
SCALE
  5
51
102
{ACAD_REACTORS
330
47
102
}
330
47
100
AcDbScale
 70
     0
300
1:40
140
1.0
141
40.0
290
     0
  0
SCALE
  5
52
102
{ACAD_REACTORS
330
47
102
}
330
47
100
AcDbScale
 70
     0
300
1:50
140
1.0
141
50.0
290
     0
  0
SCALE
  5
53
102
{ACAD_REACTORS
330
47
102
}
330
47
100
AcDbScale
 70
     0
300
1:100
140
1.0
141
100.0
290
     0
  0
SCALE
  5
54
102
{ACAD_REACTORS
330
47
102
}
330
47
100
AcDbScale
 70
     0
300
2:1
140
2.0
141
1.0
290
     0
  0
SCALE
  5
55
102
{ACAD_REACTORS
330
47
102
}
330
47
100
AcDbScale
 70
     0
300
4:1
140
4.0
141
1.0
290
     0
  0
SCALE
  5
56
102
{ACAD_REACTORS
330
47
102
}
330
47
100
AcDbScale
 70
     0
300
8:1
140
8.0
141
1.0
290
     0
  0
SCALE
  5
57
102
{ACAD_REACTORS
330
47
102
}
330
47
100
AcDbScale
 70
     0
300
10:1
140
10.0
141
1.0
290
     0
  0
SCALE
  5
58
102
{ACAD_REACTORS
330
47
102
}
330
47
100
AcDbScale
 70
     0
300
100:1
140
100.0
141
1.0
290
     0
  0
SCALE
  5
59
102
{ACAD_REACTORS
330
47
102
}
330
47
100
AcDbScale
 70
     0
300
1/128" = 1'-0"
140
0.0078125
141
12.0
290
     0
  0
SCALE
  5
5A
102
{ACAD_REACTORS
330
47
102
}
330
47
100
AcDbScale
 70
     0
300
1/64" = 1'-0"
140
0.015625
141
12.0
290
     0
  0
SCALE
  5
5B
102
{ACAD_REACTORS
330
47
102
}
330
47
100
AcDbScale
 70
     0
300
1/32" = 1'-0"
140
0.03125
141
12.0
290
     0
  0
SCALE
  5
5C
102
{ACAD_REACTORS
330
47
102
}
330
47
100
AcDbScale
 70
     0
300
1/16" = 1'-0"
140
0.0625
141
12.0
290
     0
  0
SCALE
  5
5D
102
{ACAD_REACTORS
330
47
102
}
330
47
100
AcDbScale
 70
     0
300
3/32" = 1'-0"
140
0.09375
141
12.0
290
     0
  0
SCALE
  5
5E
102
{ACAD_REACTORS
330
47
102
}
330
47
100
AcDbScale
 70
     0
300
1/8" = 1'-0"
140
0.125
141
12.0
290
     0
  0
SCALE
  5
5F
102
{ACAD_REACTORS
330
47
102
}
330
47
100
AcDbScale
 70
     0
300
3/16" = 1'-0"
140
0.1875
141
12.0
290
     0
  0
SCALE
  5
60
102
{ACAD_REACTORS
330
47
102
}
330
47
100
AcDbScale
 70
     0
300
1/4" = 1'-0"
140
0.25
141
12.0
290
     0
  0
SCALE
  5
61
102
{ACAD_REACTORS
330
47
102
}
330
47
100
AcDbScale
 70
     0
300
3/8" = 1'-0"
140
0.375
141
12.0
290
     0
  0
SCALE
  5
62
102
{ACAD_REACTORS
330
47
102
}
330
47
100
AcDbScale
 70
     0
300
1/2" = 1'-0"
140
0.5
141
12.0
290
     0
  0
SCALE
  5
63
102
{ACAD_REACTORS
330
47
102
}
330
47
100
AcDbScale
 70
     0
300
3/4" = 1'-0"
140
0.75
141
12.0
290
     0
  0
SCALE
  5
64
102
{ACAD_REACTORS
330
47
102
}
330
47
100
AcDbScale
 70
     0
300
1" = 1'-0"
140
1.0
141
12.0
290
     0
  0
SCALE
  5
65
102
{ACAD_REACTORS
330
47
102
}
330
47
100
AcDbScale
 70
     0
300
1-1/2" = 1'-0"
140
1.5
141
12.0
290
     0
  0
SCALE
  5
66
102
{ACAD_REACTORS
330
47
102
}
330
47
100
AcDbScale
 70
     0
300
3" = 1'-0"
140
3.0
141
12.0
290
     0
  0
SCALE
  5
67
102
{ACAD_REACTORS
330
47
102
}
330
47
100
AcDbScale
 70
     0
300
6" = 1'-0"
140
6.0
141
12.0
290
     0
  0
SCALE
  5
68
102
{ACAD_REACTORS
330
47
102
}
330
47
100
AcDbScale
 70
     0
300
1'-0" = 1'-0"
140
12.0
141
12.0
290
     0
  0
TABLESTYLE
  5
6A
102
{ACAD_REACTORS
330
69
102
}
102
{ACAD_XDICTIONARY
360
26E
102
}
330
69
100
AcDbTableStyle
  3
Standard
 70
     0
 71
     0
 40
0.06
 41
0.06
280
     0
281
     0
  7
Standard
140
4.5
170
     2
 62
     0
 63
   257
283
     0
 90
        4
 91
        0
  1

274
    -2
284
     1
 64
     0
275
    -2
285
     1
 65
     0
276
    -2
286
     1
 66
     0
277
    -2
287
     1
 67
     0
278
    -2
288
     1
 68
     0
279
    -2
289
     1
 69
     0
  7
Standard
140
6.0
170
     5
 62
     0
 63
   257
283
     0
 90
        4
 91
        0
  1

274
    -2
284
     1
 64
     0
275
    -2
285
     1
 65
     0
276
    -2
286
     1
 66
     0
277
    -2
287
     1
 67
     0
278
    -2
288
     1
 68
     0
279
    -2
289
     1
 69
     0
  7
Standard
140
4.5
170
     5
 62
     0
 63
   257
283
     0
 90
        4
 91
        0
  1

274
    -2
284
     1
 64
     0
275
    -2
285
     1
 65
     0
276
    -2
286
     1
 66
     0
277
    -2
287
     1
 67
     0
278
    -2
288
     1
 68
     0
279
    -2
289
     1
 69
     0
  0
VISUALSTYLE
  5
2F
102
{ACAD_REACTORS
330
2A
102
}
330
2A
100
AcDbVisualStyle
  2
2dWireframe
 70
     4
 71
     0
 72
     2
 73
     0
 90
        0
 40
0.6
 41
30.0
 62
     5
 63
     7
421
 16777215
 74
     1
 91
        4
 64
     7
 65
   257
 75
     1
175
     1
 42
1.0
 92
        0
 66
   257
 43
1.0
 76
     1
 77
     6
 78
     2
 67
     7
 79
     5
170
     0
171
     0
290
     0
174
     0
 93
        1
 44
0.0
173
     0
291
     0
 45
0.0
  0
VISUALSTYLE
  5
32
102
{ACAD_REACTORS
330
2A
102
}
330
2A
100
AcDbVisualStyle
  2
Basic
 70
     7
 71
     1
 72
     0
 73
     1
 90
        0
 40
0.6
 41
30.0
 62
     5
 63
     7
421
 16777215
 74
     0
 91
        4
 64
     7
 65
   257
 75
     1
175
     1
 42
1.0
 92
        8
 66
     7
 43
1.0
 76
     1
 77
     6
 78
     2
 67
     7
 79
     5
170
     0
171
     0
290
     0
174
     0
 93
        1
 44
0.0
173
     0
291
     1
 45
0.0
  0
VISUALSTYLE
  5
36
102
{ACAD_REACTORS
330
2A
102
}
330
2A
100
AcDbVisualStyle
  2
Brighten
 70
    12
 71
     2
 72
     2
 73
     0
 90
        0
 40
0.6
 41
30.0
 62
     5
 63
     7
421
 16777215
 74
     1
 91
        4
 64
     7
 65
   257
 75
     1
175
     1
 42
1.0
 92
        8
 66
     7
 43
1.0
 76
     1
 77
     6
 78
     2
 67
     7
 79
     5
170
     0
171
     0
290
     0
174
     0
 93
        1
 44
50.0
173
     0
291
     1
 45
0.0
  0
VISUALSTYLE
  5
3A
102
{ACAD_REACTORS
330
2A
102
}
330
2A
100
AcDbVisualStyle
  2
ColorChange
 70
    16
 71
     2
 72
     2
 73
     3
 90
        0
 40
0.6
 41
30.0
 62
     5
 63
     8
421
  8421504
 74
     1
 91
        4
 64
     7
 65
   257
 75
     1
175
     1
 42
1.0
 92
        8
 66
     8
424
  8421504
 43
1.0
 76
     1
 77
     6
 78
     2
 67
     7
 79
     5
170
     0
171
     0
290
     0
174
     0
 93
        1
 44
0.0
173
     0
291
     1
 45
0.0
  0
VISUALSTYLE
  5
34
102
{ACAD_REACTORS
330
2A
102
}
330
2A
100
AcDbVisualStyle
  2
Conceptual
 70
     9
 71
     3
 72
     2
 73
     0
 90
        0
 40
0.6
 41
30.0
 62
     5
 63
     7
421
 16777215
 74
     2
 91
        2
 64
     7
 65
   257
 75
     1
175
     1
 42
179.0
 92
        8
 66
     7
 43
1.0
 76
     1
 77
     6
 78
     2
 67
     7
 79
     3
170
     0
171
     0
290
     0
174
     0
 93
        1
 44
0.0
173
     0
291
     0
 45
0.0
  0
VISUALSTYLE
  5
35
102
{ACAD_REACTORS
330
2A
102
}
330
2A
100
AcDbVisualStyle
  2
Dim
 70
    11
 71
     2
 72
     2
 73
     0
 90
        0
 40
0.6
 41
30.0
 62
     5
 63
     7
421
 16777215
 74
     1
 91
        4
 64
     7
 65
   257
 75
     1
175
     1
 42
1.0
 92
        8
 66
     7
 43
1.0
 76
     1
 77
     6
 78
     2
 67
     7
 79
     5
170
     0
171
     0
290
     0
174
     0
 93
        1
 44
-50.0
173
     0
291
     1
 45
0.0
  0
VISUALSTYLE
  5
3D
102
{ACAD_REACTORS
330
2A
102
}
330
2A
100
AcDbVisualStyle
  2
EdgeColorOff
 70
    22
 71
     2
 72
     2
 73
     0
 90
        0
 40
0.6
 41
30.0
 62
     5
 63
     7
421
 16777215
 74
     1
 91
        4
 64
     7
 65
   257
 75
     1
175
     1
 42
1.0
 92
        8
 66
     7
 43
1.0
 76
     1
 77
     6
 78
     2
 67
     7
 79
     5
170
     0
171
     0
290
     0
174
     0
 93
        1
 44
0.0
173
     0
291
     1
 45
0.0
  0
VISUALSTYLE
  5
39
102
{ACAD_REACTORS
330
2A
102
}
330
2A
100
AcDbVisualStyle
  2
Facepattern
 70
    15
 71
     2
 72
     2
 73
     0
 90
        0
 40
0.6
 41
30.0
 62
     5
 63
     7
421
 16777215
 74
     1
 91
        4
 64
     7
 65
   257
 75
     1
175
     1
 42
1.0
 92
        8
 66
     7
 43
1.0
 76
     1
 77
     6
 78
     2
 67
     7
 79
     5
170
     0
171
     0
290
     0
174
     0
 93
        1
 44
0.0
173
     0
291
     1
 45
0.0
  0
VISUALSTYLE
  5
2B
102
{ACAD_REACTORS
330
2A
102
}
330
2A
100
AcDbVisualStyle
  2
Flat
 70
     0
 71
     2
 72
     1
 73
     1
 90
        2
 40
0.6
 41
30.0
 62
     5
 63
     7
421
 16777215
 74
     0
 91
        0
 64
     7
 65
   257
 75
     1
175
     1
 42
1.0
 92
        8
 66
     7
 43
1.0
 76
     1
 77
     6
 78
     2
 67
     7
 79
     5
170
     0
171
     0
290
     0
174
     0
 93
       13
 44
0.0
173
     0
291
     1
 45
0.0
  0
VISUALSTYLE
  5
2C
102
{ACAD_REACTORS
330
2A
102
}
330
2A
100
AcDbVisualStyle
  2
FlatWithEdges
 70
     1
 71
     2
 72
     1
 73
     1
 90
        2
 40
0.6
 41
30.0
 62
     5
 63
     7
421
 16777215
 74
     1
 91
        0
 64
     7
 65
   257
 75
     1
175
     1
 42
1.0
 92
        0
 66
   257
 43
1.0
 76
     1
 77
     6
 78
     2
 67
     7
 79
     5
170
     0
171
     0
290
     0
174
     0
 93
       13
 44
0.0
173
     0
291
     1
 45
0.0
  0
VISUALSTYLE
  5
2D
102
{ACAD_REACTORS
330
2A
102
}
330
2A
100
AcDbVisualStyle
  2
Gouraud
 70
     2
 71
     2
 72
     2
 73
     1
 90
        2
 40
0.6
 41
30.0
 62
     5
 63
     7
421
 16777215
 74
     0
 91
        0
 64
     7
 65
   257
 75
     1
175
     1
 42
1.0
 92
        0
 66
     7
 43
1.0
 76
     1
 77
     6
 78
     2
 67
     7
 79
     5
170
     0
171
     0
290
     0
174
     0
 93
       13
 44
0.0
173
     0
291
     1
 45
0.0
  0
VISUALSTYLE
  5
2E
102
{ACAD_REACTORS
330
2A
102
}
330
2A
100
AcDbVisualStyle
  2
GouraudWithEdges
 70
     3
 71
     2
 72
     2
 73
     1
 90
        2
 40
0.6
 41
30.0
 62
     5
 63
     7
421
 16777215
 74
     1
 91
        0
 64
     7
 65
   257
 75
     1
175
     1
 42
1.0
 92
        0
 66
   257
 43
1.0
 76
     1
 77
     6
 78
     2
 67
     7
 79
     5
170
     0
171
     0
290
     0
174
     0
 93
       13
 44
0.0
173
     0
291
     1
 45
0.0
  0
VISUALSTYLE
  5
31
102
{ACAD_REACTORS
330
2A
102
}
330
2A
100
AcDbVisualStyle
  2
Hidden
 70
     6
 71
     1
 72
     2
 73
     2
 90
        0
 40
0.6
 41
30.0
 62
     5
 63
     7
421
 16777215
 74
     2
 91
        2
 64
     7
 65
   257
 75
     2
175
     1
 42
40.0
 92
        0
 66
   257
 43
1.0
 76
     1
 77
     6
 78
     2
 67
     7
 79
     3
170
     0
171
     0
290
     0
174
     0
 93
        1
 44
0.0
173
     0
291
     0
 45
0.0
  0
VISUALSTYLE
  5
3B
102
{ACAD_REACTORS
330
2A
102
}
330
2A
100
AcDbVisualStyle
  2
JitterOff
 70
    20
 71
     2
 72
     2
 73
     0
 90
        0
 40
0.6
 41
30.0
 62
     5
 63
     7
421
 16777215
 74
     1
 91
        4
 64
     7
 65
   257
 75
     1
175
     1
 42
1.0
 92
       10
 66
     7
 43
1.0
 76
     1
 77
     6
 78
     2
 67
     7
 79
     5
170
     0
171
     0
290
     0
174
     0
 93
        1
 44
0.0
173
     0
291
     1
 45
0.0
  0
VISUALSTYLE
  5
38
102
{ACAD_REACTORS
330
2A
102
}
330
2A
100
AcDbVisualStyle
  2
Linepattern
 70
    14
 71
     2
 72
     2
 73
     0
 90
        0
 40
0.6
 41
30.0
 62
     5
 63
     7
421
 16777215
 74
     1
 91
        4
 64
     7
 65
   257
 75
     7
175
     7
 42
1.0
 92
        8
 66
     7
 43
1.0
 76
     1
 77
     6
 78
     2
 67
     7
 79
     5
170
     0
171
     0
290
     0
174
     0
 93
        1
 44
0.0
173
     0
291
     1
 45
0.0
  0
VISUALSTYLE
  5
3C
102
{ACAD_REACTORS
330
2A
102
}
330
2A
100
AcDbVisualStyle
  2
OverhangOff
 70
    21
 71
     2
 72
     2
 73
     0
 90
        0
 40
0.6
 41
30.0
 62
     5
 63
     7
421
 16777215
 74
     1
 91
        4
 64
     7
 65
   257
 75
     1
175
     1
 42
1.0
 92
        9
 66
     7
 43
1.0
 76
     1
 77
     6
 78
     2
 67
     7
 79
     5
170
     0
171
     0
290
     0
174
     0
 93
        1
 44
0.0
173
     0
291
     1
 45
0.0
  0
VISUALSTYLE
  5
33
102
{ACAD_REACTORS
330
2A
102
}
330
2A
100
AcDbVisualStyle
  2
Realistic
 70
     8
 71
     2
 72
     3
 73
     0
 90
        2
 40
0.6
 41
30.0
 62
     5
 63
     7
421
 16777215
 74
     0
 91
        0
 64
     7
 65
   257
 75
     1
175
     1
 42
1.0
 92
        8
 66
   257
 43
1.0
 76
     1
 77
     6
 78
     2
 67
     7
 79
     3
170
     0
171
     0
290
     0
174
     0
 93
       13
 44
0.0
173
     0
291
     0
 45
0.0
  0
VISUALSTYLE
  5
42
102
{ACAD_REACTORS
330
2A
102
}
330
2A
100
AcDbVisualStyle
  2
Shaded
 70
    27
 71
     2
 72
     2
 73
     1
 90
        2
 40
0.6
 41
30.0
 62
     5
 63
     7
421
 16777215
 74
     0
 91
        4
 64
     7
 65
   257
 75
     1
175
     1
 42
1.0
 92
        8
 66
   257
 43
1.0
 76
     1
 77
     6
 78
     2
 67
     8
425
  7895160
 79
     3
170
     0
171
     0
290
     0
174
     0
 93
        5
 44
0.0
173
     0
291
     0
 45
0.0
  0
VISUALSTYLE
  5
41
102
{ACAD_REACTORS
330
2A
102
}
330
2A
100
AcDbVisualStyle
  2
Shaded with edges
 70
    26
 71
     2
 72
     2
 73
     1
 90
        2
 40
0.6
 41
30.0
 62
     5
 63
     7
421
 16777215
 74
     1
 91
       10
 64
     7
 65
   257
 75
     2
175
     1
 42
1.0
 92
        8
 66
   257
 43
1.0
 76
     1
 77
     6
 78
     2
 67
     7
 79
     3
170
     0
171
     0
290
     0
174
     0
 93
        5
 44
0.0
173
     0
291
     0
 45
0.0
  0
VISUALSTYLE
  5
3E
102
{ACAD_REACTORS
330
2A
102
}
330
2A
100
AcDbVisualStyle
  2
Shades of Gray
 70
    23
 71
     2
 72
     2
 73
     3
 90
        0
 40
0.6
 41
30.0
 62
     5
 63
     7
421
 16777215
 74
     2
 91
        2
 64
     7
 65
     7
 75
     1
175
     1
 42
40.0
 92
        8
 66
     7
 43
1.0
 76
     1
 77
     6
 78
     2
 67
     7
 79
     3
170
     0
171
     0
290
     0
174
     0
 93
        1
 44
0.0
173
     0
291
     0
 45
0.0
  0
VISUALSTYLE
  5
3F
102
{ACAD_REACTORS
330
2A
102
}
330
2A
100
AcDbVisualStyle
  2
Sketchy
 70
    24
 71
     1
 72
     2
 73
     2
 90
        0
 40
0.6
 41
30.0
 62
     5
 63
     7
421
 16777215
 74
     2
 91
        2
 64
     7
 65
     7
 75
     1
175
     1
 42
40.0
 92
       11
 66
     7
 43
1.0
 76
     1
 77
     6
 78
     2
 67
     7
 79
     6
170
     0
171
     0
290
     0
174
     0
 93
        1
 44
0.0
173
     0
291
     0
 45
0.0
  0
VISUALSTYLE
  5
37
102
{ACAD_REACTORS
330
2A
102
}
330
2A
100
AcDbVisualStyle
  2
Thicken
 70
    13
 71
     2
 72
     2
 73
     0
 90
        0
 40
0.6
 41
30.0
 62
     5
 63
     7
421
 16777215
 74
     1
 91
        4
 64
     7
 65
   257
 75
     1
175
     1
 42
1.0
 92
       12
 66
     7
 43
1.0
 76
     1
 77
     6
 78
     2
 67
     7
 79
     5
170
     0
171
     0
290
     0
174
     0
 93
        1
 44
0.0
173
     0
291
     1
 45
0.0
  0
VISUALSTYLE
  5
30
102
{ACAD_REACTORS
330
2A
102
}
330
2A
100
AcDbVisualStyle
  2
Wireframe
 70
     5
 71
     0
 72
     2
 73
     0
 90
        0
 40
0.6
 41
30.0
 62
     5
 63
     7
421
 16777215
 74
     1
 91
        4
 64
     7
 65
   257
 75
     1
175
     1
 42
1.0
 92
        0
 66
   257
 43
1.0
 76
     1
 77
     6
 78
     2
 67
     7
 79
     3
170
     0
171
     0
290
     0
174
     0
 93
        1
 44
0.0
173
     0
291
     0
 45
0.0
  0
VISUALSTYLE
  5
40
102
{ACAD_REACTORS
330
2A
102
}
330
2A
100
AcDbVisualStyle
  2
X-Ray
 70
    25
 71
     2
 72
     2
 73
     1
 90
        1
 40
0.5
 41
30.0
 62
     5
 63
     7
421
 16777215
 74
     1
 91
        0
 64
     7
 65
   257
 75
     1
175
     1
 42
1.0
 92
        8
 66
     7
 43
1.0
 76
     1
 77
     6
 78
     2
 67
     7
 79
     3
170
     0
171
     0
290
     0
174
     0
 93
       13
 44
0.0
173
     0
291
     0
 45
0.0
  0
DICTIONARYVAR
  5
26D
102
{ACAD_REACTORS
330
26C
102
}
330
26C
100
DictionaryVariables
280
     0
  1
1:1
  0
DICTIONARYVAR
  5
273
102
{ACAD_REACTORS
330
26C
102
}
330
26C
100
DictionaryVariables
280
     0
  1
Standard
  0
DICTIONARYVAR
  5
272
102
{ACAD_REACTORS
330
26C
102
}
330
26C
100
DictionaryVariables
280
     0
  1
Standard
  0
DICTIONARY
  5
26E
330
6A
100
AcDbDictionary
280
     1
281
     1
  3
ACAD_ROUNDTRIP_2008_TABLESTYLE_CELLSTYLEMAP
360
26F
  0
CELLSTYLEMAP
  5
26F
102
{ACAD_REACTORS
330
26E
102
}
330
26E
100
AcDbCellStyleMap
 90
        3
300
CELLSTYLE
  1
TABLEFORMAT_BEGIN
 90
        5
170
     1
 91
        0
 92
    32768
 62
   257
 93
        1
300
CONTENTFORMAT
  1
CONTENTFORMAT_BEGIN
 90
        0
 91
        0
 92
        4
 93
        0
300

 40
0.0
140
1.0
 94
        5
 62
     0
340
11
144
6.0
309
CONTENTFORMAT_END
171
     1
301
MARGIN
  1
CELLMARGIN_BEGIN
 40
1.5
 40
1.5
 40
1.5
 40
1.5
 40
1.5
 40
1.5
309
CELLMARGIN_END
 94
        6
 95
        1
302
GRIDFORMAT
  1
GRIDFORMAT_BEGIN
 90
        0
 91
        1
 62
     0
 92
       -2
340
14
 93
        0
 40
0.045
309
GRIDFORMAT_END
 95
        2
302
GRIDFORMAT
  1
GRIDFORMAT_BEGIN
 90
        0
 91
        1
 62
     0
 92
       -2
340
14
 93
        0
 40
0.045
309
GRIDFORMAT_END
 95
        4
302
GRIDFORMAT
  1
GRIDFORMAT_BEGIN
 90
        0
 91
        1
 62
     0
 92
       -2
340
14
 93
        0
 40
0.045
309
GRIDFORMAT_END
 95
        8
302
GRIDFORMAT
  1
GRIDFORMAT_BEGIN
 90
        0
 91
        1
 62
     0
 92
       -2
340
14
 93
        0
 40
0.045
309
GRIDFORMAT_END
 95
       16
302
GRIDFORMAT
  1
GRIDFORMAT_BEGIN
 90
        0
 91
        1
 62
     0
 92
       -2
340
14
 93
        0
 40
0.045
309
GRIDFORMAT_END
 95
       32
302
GRIDFORMAT
  1
GRIDFORMAT_BEGIN
 90
        0
 91
        1
 62
     0
 92
       -2
340
14
 93
        0
 40
0.045
309
GRIDFORMAT_END
309
TABLEFORMAT_END
  1
CELLSTYLE_BEGIN
 90
        1
 91
        1
300
_TITLE
309
CELLSTYLE_END
300
CELLSTYLE
  1
TABLEFORMAT_BEGIN
 90
        5
170
     1
 91
        0
 92
        0
 62
   257
 93
        1
300
CONTENTFORMAT
  1
CONTENTFORMAT_BEGIN
 90
        0
 91
        0
 92
        4
 93
        0
300

 40
0.0
140
1.0
 94
        5
 62
     0
340
11
144
4.5
309
CONTENTFORMAT_END
171
     1
301
MARGIN
  1
CELLMARGIN_BEGIN
 40
1.5
 40
1.5
 40
1.5
 40
1.5
 40
1.5
 40
1.5
309
CELLMARGIN_END
 94
        6
 95
        1
302
GRIDFORMAT
  1
GRIDFORMAT_BEGIN
 90
        0
 91
        1
 62
     0
 92
       -2
340
14
 93
        0
 40
0.045
309
GRIDFORMAT_END
 95
        2
302
GRIDFORMAT
  1
GRIDFORMAT_BEGIN
 90
        0
 91
        1
 62
     0
 92
       -2
340
14
 93
        0
 40
0.045
309
GRIDFORMAT_END
 95
        4
302
GRIDFORMAT
  1
GRIDFORMAT_BEGIN
 90
        0
 91
        1
 62
     0
 92
       -2
340
14
 93
        0
 40
0.045
309
GRIDFORMAT_END
 95
        8
302
GRIDFORMAT
  1
GRIDFORMAT_BEGIN
 90
        0
 91
        1
 62
     0
 92
       -2
340
14
 93
        0
 40
0.045
309
GRIDFORMAT_END
 95
       16
302
GRIDFORMAT
  1
GRIDFORMAT_BEGIN
 90
        0
 91
        1
 62
     0
 92
       -2
340
14
 93
        0
 40
0.045
309
GRIDFORMAT_END
 95
       32
302
GRIDFORMAT
  1
GRIDFORMAT_BEGIN
 90
        0
 91
        1
 62
     0
 92
       -2
340
14
 93
        0
 40
0.045
309
GRIDFORMAT_END
309
TABLEFORMAT_END
  1
CELLSTYLE_BEGIN
 90
        2
 91
        1
300
_HEADER
309
CELLSTYLE_END
300
CELLSTYLE
  1
TABLEFORMAT_BEGIN
 90
        5
170
     1
 91
        0
 92
        0
 62
   257
 93
        1
300
CONTENTFORMAT
  1
CONTENTFORMAT_BEGIN
 90
        0
 91
        0
 92
        4
 93
        0
300

 40
0.0
140
1.0
 94
        2
 62
     0
340
11
144
4.5
309
CONTENTFORMAT_END
171
     1
301
MARGIN
  1
CELLMARGIN_BEGIN
 40
1.5
 40
1.5
 40
1.5
 40
1.5
 40
1.5
 40
1.5
309
CELLMARGIN_END
 94
        6
 95
        1
302
GRIDFORMAT
  1
GRIDFORMAT_BEGIN
 90
        0
 91
        1
 62
     0
 92
       -2
340
14
 93
        0
 40
0.045
309
GRIDFORMAT_END
 95
        2
302
GRIDFORMAT
  1
GRIDFORMAT_BEGIN
 90
        0
 91
        1
 62
     0
 92
       -2
340
14
 93
        0
 40
0.045
309
GRIDFORMAT_END
 95
        4
302
GRIDFORMAT
  1
GRIDFORMAT_BEGIN
 90
        0
 91
        1
 62
     0
 92
       -2
340
14
 93
        0
 40
0.045
309
GRIDFORMAT_END
 95
        8
302
GRIDFORMAT
  1
GRIDFORMAT_BEGIN
 90
        0
 91
        1
 62
     0
 92
       -2
340
14
 93
        0
 40
0.045
309
GRIDFORMAT_END
 95
       16
302
GRIDFORMAT
  1
GRIDFORMAT_BEGIN
 90
        0
 91
        1
 62
     0
 92
       -2
340
14
 93
        0
 40
0.045
309
GRIDFORMAT_END
 95
       32
302
GRIDFORMAT
  1
GRIDFORMAT_BEGIN
 90
        0
 91
        1
 62
     0
 92
       -2
340
14
 93
        0
 40
0.045
309
GRIDFORMAT_END
309
TABLEFORMAT_END
  1
CELLSTYLE_BEGIN
 90
        3
 91
        2
300
_DATA
309
CELLSTYLE_END
  0
ENDSEC
  0
EOF
