  0
SECTION
  2
HEADER
  9
$ACADVER
  1
AC1021
  9
$ACADMAINTVER
 70
    25
  9
$DWGCODEPAGE
  3
ANSI_1250
  9
$INSBASE
 10
0.0
 20
0.0
 30
0.0
  9
$EXTMIN
 10
0.0
 20
0.0
 30
0.0
  9
$EXTMAX
 10
210.0
 20
297.0
 30
0.0
  9
$LIMMIN
 10
0.0
 20
0.0
  9
$LIMMAX
 10
210.0
 20
297.0
  9
$ORTHOMODE
 70
     0
  9
$REGENMODE
 70
     1
  9
$FILLMODE
 70
     1
  9
$QTEXTMODE
 70
     0
  9
$MIRRTEXT
 70
     1
  9
$LTSCALE
 40
1.0
  9
$ATTMODE
 70
     1
  9
$TEXTSIZE
 40
3.5
  9
$TRACEWID
 40
1.0
  9
$TEXTSTYLE
  7
Standard
  9
$CLAYER
  8
0
  9
$CELTYPE
  6
ByLayer
  9
$CECOLOR
 62
   256
  9
$CELTSCALE
 40
1.0
  9
$DISPSILH
 70
     0
  9
$DIMSCALE
 40
1.0
  9
$DIMASZ
 40
3.302
  9
$DIMEXO
 40
1.0
  9
$DIMDLI
 40
3.75
  9
$DIMRND
 40
0.0
  9
$DIMDLE
 40
0.0
  9
$DIMEXE
 40
1.0
  9
$DIMTP
 40
0.0
  9
$DIMTM
 40
0.0
  9
$DIMTXT
 40
3.5
  9
$DIMCEN
 40
2.5
  9
$DIMTSZ
 40
0.0
  9
$DIMTOL
 70
     0
  9
$DIMLIM
 70
     0
  9
$DIMTIH
 70
     1
  9
$DIMTOH
 70
     1
  9
$DIMSE1
 70
     0
  9
$DIMSE2
 70
     0
  9
$DIMTAD
 70
     1
  9
$DIMZIN
 70
     0
  9
$DIMBLK
  1

  9
$DIMASO
 70
     1
  9
$DIMSHO
 70
     1
  9
$DIMPOST
  1

  9
$DIMAPOST
  1

  9
$DIMALT
 70
     0
  9
$DIMALTD
 70
     3
  9
$DIMALTF
 40
0.0393700787
  9
$DIMLFAC
 40
1.0
  9
$DIMTOFL
 70
     1
  9
$DIMTVP
 40
0.0
  9
$DIMTIX
 70
     0
  9
$DIMSOXD
 70
     0
  9
$DIMSAH
 70
     0
  9
$DIMBLK1
  1

  9
$DIMBLK2
  1

  9
$DIMSTYLE
  2
ISO-25
  9
$DIMCLRD
 70
     0
  9
$DIMCLRE
 70
     0
  9
$DIMCLRT
 70
     0
  9
$DIMTFAC
 40
1.0
  9
$DIMGAP
 40
1.524
  9
$DIMJUST
 70
     0
  9
$DIMSD1
 70
     0
  9
$DIMSD2
 70
     0
  9
$DIMTOLJ
 70
     0
  9
$DIMTZIN
 70
     0
  9
$DIMALTZ
 70
     0
  9
$DIMALTTZ
 70
     0
  9
$DIMUPT
 70
     0
  9
$DIMDEC
 70
     2
  9
$DIMTDEC
 70
     2
  9
$DIMALTU
 70
     2
  9
$DIMALTTD
 70
     3
  9
$DIMTXSTY
  7
Standard
  9
$DIMAUNIT
 70
     0
  9
$DIMADEC
 70
     2
  9
$DIMALTRND
 40
0.0
  9
$DIMAZIN
 70
     0
  9
$DIMDSEP
 70
    44
  9
$DIMATFIT
 70
     3
  9
$DIMFRAC
 70
     0
  9
$DIMLDRBLK
  1

  9
$DIMLUNIT
 70
     2
  9
$DIMLWD
 70
    -2
  9
$DIMLWE
 70
    -2
  9
$DIMTMOVE
 70
     0
  9
$DIMFXL
 40
1.0
  9
$DIMFXLON
 70
     0
  9
$DIMJOGANG
 40
0.7853981634
  9
$DIMTFILL
 70
     0
  9
$DIMTFILLCLR
 70
     0
  9
$DIMARCSYM
 70
     0
  9
$DIMLTYPE
  6

  9
$DIMLTEX1
  6

  9
$DIMLTEX2
  6

  9
$LUNITS
 70
     2
  9
$LUPREC
 70
     2
  9
$SKETCHINC
 40
1.0
  9
$FILLETRAD
 40
10.0
  9
$AUNITS
 70
     0
  9
$AUPREC
 70
     2
  9
$MENU
  1
.
  9
$ELEVATION
 40
0.0
  9
$PELEVATION
 40
0.0
  9
$THICKNESS
 40
0.0
  9
$LIMCHECK
 70
     0
  9
$CHAMFERA
 40
0.0
  9
$CHAMFERB
 40
0.0
  9
$CHAMFERC
 40
0.0
  9
$CHAMFERD
 40
0.0
  9
$SKPOLY
 70
     0
  9
$TDCREATE
 40
2458577.331302697
  9
$TDUCREATE
 40
2458577.247969363
  9
$TDUPDATE
 40
2458577.331303102
  9
$TDUUPDATE
 40
2458577.247969768
  9
$TDINDWG
 40
0.0000000116
  9
$TDUSRTIMER
 40
0.0000000116
  9
$USRTIMER
 70
     1
  9
$ANGBASE
 50
0.0
  9
$ANGDIR
 70
     0
  9
$PDMODE
 70
     0
  9
$PDSIZE
 40
-1.0
  9
$PLINEWID
 40
0.0
  9
$SPLFRAME
 70
     0
  9
$SPLINETYPE
 70
     6
  9
$SPLINESEGS
 70
     8
  9
$HANDSEED
  5
290
  9
$SURFTAB1
 70
     6
  9
$SURFTAB2
 70
     6
  9
$SURFTYPE
 70
     6
  9
$SURFU
 70
     6
  9
$SURFV
 70
     6
  9
$UCSBASE
  2

  9
$UCSNAME
  2

  9
$UCSORG
 10
0.0
 20
0.0
 30
0.0
  9
$UCSXDIR
 10
1.0
 20
0.0
 30
0.0
  9
$UCSYDIR
 10
0.0
 20
1.0
 30
0.0
  9
$UCSORTHOREF
  2

  9
$UCSORTHOVIEW
 70
     0
  9
$UCSORGTOP
 10
0.0
 20
0.0
 30
0.0
  9
$UCSORGBOTTOM
 10
0.0
 20
0.0
 30
0.0
  9
$UCSORGLEFT
 10
0.0
 20
0.0
 30
0.0
  9
$UCSORGRIGHT
 10
0.0
 20
0.0
 30
0.0
  9
$UCSORGFRONT
 10
0.0
 20
0.0
 30
0.0
  9
$UCSORGBACK
 10
0.0
 20
0.0
 30
0.0
  9
$PUCSBASE
  2

  9
$PUCSNAME
  2

  9
$PUCSORG
 10
0.0
 20
0.0
 30
0.0
  9
$PUCSXDIR
 10
1.0
 20
0.0
 30
0.0
  9
$PUCSYDIR
 10
0.0
 20
1.0
 30
0.0
  9
$PUCSORTHOREF
  2

  9
$PUCSORTHOVIEW
 70
     0
  9
$PUCSORGTOP
 10
0.0
 20
0.0
 30
0.0
  9
$PUCSORGBOTTOM
 10
0.0
 20
0.0
 30
0.0
  9
$PUCSORGLEFT
 10
0.0
 20
0.0
 30
0.0
  9
$PUCSORGRIGHT
 10
0.0
 20
0.0
 30
0.0
  9
$PUCSORGFRONT
 10
0.0
 20
0.0
 30
0.0
  9
$PUCSORGBACK
 10
0.0
 20
0.0
 30
0.0
  9
$USERI1
 70
     0
  9
$USERI2
 70
     0
  9
$USERI3
 70
     0
  9
$USERI4
 70
     0
  9
$USERI5
 70
     0
  9
$USERR1
 40
0.0
  9
$USERR2
 40
0.0
  9
$USERR3
 40
0.0
  9
$USERR4
 40
0.0
  9
$USERR5
 40
0.0
  9
$WORLDVIEW
 70
     1
  9
$SHADEDGE
 70
     3
  9
$SHADEDIF
 70
    70
  9
$TILEMODE
 70
     1
  9
$MAXACTVP
 70
    64
  9
$PINSBASE
 10
0.0
 20
0.0
 30
0.0
  9
$PLIMCHECK
 70
     0
  9
$PEXTMIN
 10
1.0000000000E+20
 20
1.0000000000E+20
 30
1.0000000000E+20
  9
$PEXTMAX
 10
-1.0000000000E+20
 20
-1.0000000000E+20
 30
-1.0000000000E+20
  9
$PLIMMIN
 10
0.0
 20
0.0
  9
$PLIMMAX
 10
420.0
 20
297.0
  9
$UNITMODE
 70
     0
  9
$VISRETAIN
 70
     1
  9
$PLINEGEN
 70
     0
  9
$PSLTSCALE
 70
     1
  9
$TREEDEPTH
 70
  3020
  9
$CMLSTYLE
  2
Standard
  9
$CMLJUST
 70
     0
  9
$CMLSCALE
 40
20.0
  9
$PROXYGRAPHICS
 70
     1
  9
$MEASUREMENT
 70
     1
  9
$CELWEIGHT
370
    -1
  9
$ENDCAPS
280
     0
  9
$JOINSTYLE
280
     0
  9
$LWDISPLAY
290
     1
  9
$INSUNITS
 70
     4
  9
$HYPERLINKBASE
  1

  9
$STYLESHEET
  1

  9
$XEDIT
290
     1
  9
$CEPSNTYPE
380
     0
  9
$PSTYLEMODE
290
     1
  9
$FINGERPRINTGUID
  2
{3611CA8A-4D79-496E-8729-0341F02D493D}
  9
$VERSIONGUID
  2
{FAEB1C32-E019-11D5-929B-00C0DF256EC4}
  9
$EXTNAMES
290
     1
  9
$PSVPSCALE
 40
0.0
  9
$OLESTARTUP
290
     0
  9
$SORTENTS
280
   127
  9
$INDEXCTL
280
     0
  9
$HIDETEXT
280
     1
  9
$XCLIPFRAME
290
     0
  9
$HALOGAP
280
     0
  9
$OBSCOLOR
 70
   257
  9
$OBSLTYPE
280
     0
  9
$INTERSECTIONDISPLAY
280
     0
  9
$INTERSECTIONCOLOR
 70
   257
  9
$DIMASSOC
280
     2
  9
$PROJECTNAME
  1

  9
$CAMERADISPLAY
290
     0
  9
$LENSLENGTH
 40
50.0
  9
$CAMERAHEIGHT
 40
0.0
  9
$STEPSPERSEC
 40
2.0
  9
$STEPSIZE
 40
6.0
  9
$3DDWFPREC
 40
2.0
  9
$PSOLWIDTH
 40
5.0
  9
$PSOLHEIGHT
 40
80.0
  9
$LOFTANG1
 40
1.5707963268
  9
$LOFTANG2
 40
1.5707963268
  9
$LOFTMAG1
 40
0.0
  9
$LOFTMAG2
 40
0.0
  9
$LOFTPARAM
 70
     7
  9
$LOFTNORMALS
280
     1
  9
$LATITUDE
 40
37.795
  9
$LONGITUDE
 40
-122.394
  9
$NORTHDIRECTION
 40
0.0
  9
$TIMEZONE
 70
 -8000
  9
$LIGHTGLYPHDISPLAY
280
     1
  9
$TILEMODELIGHTSYNCH
280
     1
  9
$CMATERIAL
347
44
  9
$SOLIDHIST
280
     0
  9
$SHOWHIST
280
     1
  9
$DWFFRAME
280
     2
  9
$DGNFRAME
280
     2
  9
$REALWORLDSCALE
290
     1
  9
$INTERFERECOLOR
 62
   256
  9
$CSHADOW
280
     0
  9
$SHADOWPLANELOCATION
 40
0.0
  0
ENDSEC
  0
SECTION
  2
CLASSES
  0
CLASS
  1
ACDBDICTIONARYWDFLT
  2
AcDbDictionaryWithDefault
  3
ObjectDBX Classes
 90
        0
 91
        4
280
     0
281
     0
  0
CLASS
  1
VISUALSTYLE
  2
AcDbVisualStyle
  3
ObjectDBX Classes
 90
     4095
 91
        4
280
     0
281
     0
  0
CLASS
  1
MATERIAL
  2
AcDbMaterial
  3
ObjectDBX Classes
 90
     1153
 91
        4
280
     0
281
     0
  0
CLASS
  1
SCALE
  2
AcDbScale
  3
ObjectDBX Classes
 90
     1153
 91
        4
280
     0
281
     0
  0
CLASS
  1
TABLESTYLE
  2
AcDbTableStyle
  3
ObjectDBX Classes
 90
     4095
 91
        4
280
     0
281
     0
  0
CLASS
  1
MLEADERSTYLE
  2
AcDbMLeaderStyle
  3
ACDB_MLEADERSTYLE_CLASS
 90
     4095
 91
        4
280
     0
281
     0
  0
CLASS
  1
SUN
  2
AcDbSun
  3
SCENEOE
 90
     1153
 91
        4
280
     0
281
     0
  0
CLASS
  1
DICTIONARYVAR
  2
AcDbDictionaryVar
  3
ObjectDBX Classes
 90
        0
 91
        4
280
     0
281
     0
  0
CLASS
  1
CELLSTYLEMAP
  2
AcDbCellStyleMap
  3
ObjectDBX Classes
 90
     1152
 91
        4
280
     0
281
     0
  0
ENDSEC
  0
SECTION
  2
TABLES
  0
TABLE
  2
VPORT
  5
8
330
0
100
AcDbSymbolTable
 70
     1
  0
VPORT
  5
29
330
8
100
AcDbSymbolTableRecord
100
AcDbViewportTableRecord
  2
*Active
 70
     0
 10
0.0
 20
0.0
 11
1.0
 21
1.0
 12
105.0
 22
148.5
 13
0.0
 23
0.0
 14
10.0
 24
10.0
 15
10.0
 25
10.0
 16
0.0
 26
0.0
 36
1.0
 17
0.0
 27
0.0
 37
0.0
 40
297.0
 41
0.7070707071
 42
50.0
 43
0.0
 44
0.0
 50
0.0
 51
0.0
 71
     0
 72
  2000
 73
     1
 74
     3
 75
     0
 76
     0
 77
     0
 78
     0
281
     0
 65
     1
110
0.0
120
0.0
130
0.0
111
1.0
121
0.0
131
0.0
112
0.0
122
1.0
132
0.0
 79
     0
146
0.0
 60
     3
 61
     5
292
     1
282
     1
141
0.0
142
0.0
 63
   250
361
6D
  0
ENDTAB
  0
TABLE
  2
LTYPE
  5
5
330
0
100
AcDbSymbolTable
 70
     6
  0
LTYPE
  5
14
330
5
100
AcDbSymbolTableRecord
100
AcDbLinetypeTableRecord
  2
ByBlock
 70
     0
  3

 72
    65
 73
     0
 40
0.0
  0
LTYPE
  5
15
330
5
100
AcDbSymbolTableRecord
100
AcDbLinetypeTableRecord
  2
ByLayer
 70
     0
  3

 72
    65
 73
     0
 40
0.0
  0
LTYPE
  5
16
330
5
100
AcDbSymbolTableRecord
100
AcDbLinetypeTableRecord
  2
Continuous
 70
     0
  3
Solid line
 72
    65
 73
     0
 40
0.0
  0
LTYPE
  5
6E
330
5
100
AcDbSymbolTableRecord
100
AcDbLinetypeTableRecord
  2
HIDDEN
 70
     0
  3
Hidden __ __ __ __ __ __ __ __ __ __ __ __ __ __
 72
    65
 73
     2
 40
1.905
 49
1.27
 74
     0
 49
-0.635
 74
     0
  0
LTYPE
  5
6F
330
5
100
AcDbSymbolTableRecord
100
AcDbLinetypeTableRecord
  2
PHANTOM
 70
     0
  3
Phantom ______  __  __  ______  __  __  ______
 72
    65
 73
     6
 40
12.7
 49
6.35
 74
     0
 49
-1.27
 74
     0
 49
1.27
 74
     0
 49
-1.27
 74
     0
 49
1.27
 74
     0
 49
-1.27
 74
     0
  0
LTYPE
  5
70
330
5
100
AcDbSymbolTableRecord
100
AcDbLinetypeTableRecord
  2
CENTER
 70
     0
  3
Center ____ _ ____ _ ____ _ ____ _ ____ _ ____
 72
    65
 73
     4
 40
10.16
 49
6.35
 74
     0
 49
-1.27
 74
     0
 49
1.27
 74
     0
 49
-1.27
 74
     0
  0
LTYPE
  5
71
330
5
100
AcDbSymbolTableRecord
100
AcDbLinetypeTableRecord
  2
CENTERX2
 70
     0
  3
Center (2x) ________  __  ________  __  _____
 72
    65
 73
     4
 40
20.32
 49
12.7
 74
     0
 49
-2.54
 74
     0
 49
2.54
 74
     0
 49
-2.54
 74
     0
  0
LTYPE
  5
72
330
5
100
AcDbSymbolTableRecord
100
AcDbLinetypeTableRecord
  2
DOT2
 70
     0
  3
Dot (.5x) ........................................
 72
    65
 73
     2
 40
0.635
 49
0.0
 74
     0
 49
-0.635
 74
     0
  0
ENDTAB
  0
TABLE
  2
LAYER
  5
2
330
0
100
AcDbSymbolTable
 70
     1
  0
LAYER
  5
10
330
2
100
AcDbSymbolTableRecord
100
AcDbLayerTableRecord
  2
0
 70
     0
 62
     7
  6
Continuous
370
    -3
390
F
347
46
  0
ENDTAB
  0
TABLE
  2
STYLE
  5
3
330
0
100
AcDbSymbolTable
 70
     1
  0
STYLE
  5
11
330
3
100
AcDbSymbolTableRecord
100
AcDbTextStyleTableRecord
  2
Standard
 70
     0
 40
0.0
 41
1.0
 50
0.0
 71
     0
 42
3.5
  3
txt
  4

  0
ENDTAB
  0
TABLE
  2
VIEW
  5
6
330
0
100
AcDbSymbolTable
 70
     0
  0
ENDTAB
  0
TABLE
  2
UCS
  5
7
330
0
100
AcDbSymbolTable
 70
     0
  0
ENDTAB
  0
TABLE
  2
APPID
  5
9
330
0
100
AcDbSymbolTable
 70
     2
  0
APPID
  5
12
330
9
100
AcDbSymbolTableRecord
100
AcDbRegAppTableRecord
  2
ACAD
 70
     0
  0
APPID
  5
28A
330
9
100
AcDbSymbolTableRecord
100
AcDbRegAppTableRecord
  2
ACAD_MLEADERVER
 70
     0
  0
ENDTAB
  0
TABLE
  2
DIMSTYLE
  5
A
330
0
100
AcDbSymbolTable
 70
     1
100
AcDbDimStyleTable
  0
DIMSTYLE
105
27
330
A
100
AcDbSymbolTableRecord
100
AcDbDimStyleTableRecord
  2
ISO-25
 70
     0
 41
2.5
 42
0.625
 43
3.75
 44
1.25
 73
     0
 74
     0
 77
     1
 78
     8
140
2.5
141
2.5
143
0.0393700787
147
0.625
171
     3
172
     1
178
     0
271
     2
272
     2
274
     3
278
    44
283
     0
284
     8
340
11
  0
ENDTAB
  0
TABLE
  2
BLOCK_RECORD
  5
1
330
0
100
AcDbSymbolTable
 70
     1
  0
BLOCK_RECORD
  5
1F
330
1
100
AcDbSymbolTableRecord
100
AcDbBlockTableRecord
  2
*Model_Space
340
22
 70
     0
280
     1
281
     0
  0
BLOCK_RECORD
  5
1B
330
1
100
AcDbSymbolTableRecord
100
AcDbBlockTableRecord
  2
*Paper_Space
340
1E
 70
     0
280
     1
281
     0
  0
BLOCK_RECORD
  5
23
330
1
100
AcDbSymbolTableRecord
100
AcDbBlockTableRecord
  2
*Paper_Space0
340
26
 70
     0
280
     1
281
     0
  0
ENDTAB
  0
ENDSEC
  0
SECTION
  2
BLOCKS
  0
BLOCK
  5
20
330
1F
100
AcDbEntity
  8
0
100
AcDbBlockBegin
  2
*Model_Space
 70
     0
 10
0.0
 20
0.0
 30
0.0
  3
*Model_Space
  1

  0
ENDBLK
  5
21
330
1F
100
AcDbEntity
  8
0
100
AcDbBlockEnd
  0
BLOCK
  5
1C
330
1B
100
AcDbEntity
 67
     1
  8
0
100
AcDbBlockBegin
  2
*Paper_Space
 70
     0
 10
0.0
 20
0.0
 30
0.0
  3
*Paper_Space
  1

  0
ENDBLK
  5
1D
330
1B
100
AcDbEntity
 67
     1
  8
0
100
AcDbBlockEnd
  0
BLOCK
  5
24
330
23
100
AcDbEntity
  8
0
100
AcDbBlockBegin
  2
*Paper_Space0
 70
     0
 10
0.0
 20
0.0
 30
0.0
  3
*Paper_Space0
  1

  0
ENDBLK
  5
25
330
23
100
AcDbEntity
  8
0
100
AcDbBlockEnd
  0
ENDSEC
  0
SECTION
  2
ENTITIES
  0
LINE
  5
73
330
1F
100
AcDbEntity
  8
0
  6
Continuous
 62
     7
370
    25
100
AcDbLine
 10
-233.899155108
 20
-594.1092510005
 30
0.0
 11
-185.8091144243
 21
-594.1092510005
 31
0.0
  0
LINE
  5
74
330
1F
100
AcDbEntity
  8
0
  6
Continuous
 62
     7
370
    25
100
AcDbLine
 10
-185.8091144243
 20
-533.8093776485
 30
0.0
 11
-233.899155108
 21
-533.8093776485
 31
0.0
  0
LINE
  5
75
330
1F
100
AcDbEntity
  8
0
  6
Continuous
 62
     7
370
    25
100
AcDbLine
 10
-233.899155108
 20
845.8906870106
 30
0.0
 11
-185.8091144243
 21
845.8906870106
 31
0.0
  0
LINE
  5
76
330
1F
100
AcDbEntity
  8
0
  6
Continuous
 62
     7
370
    25
100
AcDbLine
 10
-185.8091144243
 20
906.1907391766
 30
0.0
 11
-233.899155108
 21
906.1907391766
 31
0.0
  0
LINE
  5
77
330
1F
100
AcDbEntity
  8
0
  6
Continuous
 62
     7
370
    25
100
AcDbLine
 10
394.6874947867
 20
845.8906870106
 30
0.0
 11
458.3036513648
 21
845.8906870106
 31
0.0
  0
LINE
  5
78
330
1F
100
AcDbEntity
  8
0
  6
Continuous
 62
     7
370
    25
100
AcDbLine
 10
458.3036513648
 20
906.1907391766
 30
0.0
 11
385.9810592255
 21
906.1907391766
 31
0.0
  0
LINE
  5
79
330
1F
100
AcDbEntity
  8
0
  6
Continuous
 62
     7
370
    25
100
AcDbLine
 10
385.9810592255
 20
-594.1092510005
 30
0.0
 11
458.3036513648
 21
-594.1092510005
 31
0.0
  0
LINE
  5
7A
330
1F
100
AcDbEntity
  8
0
  6
Continuous
 62
     7
370
    25
100
AcDbLine
 10
458.3036513648
 20
-533.8093776485
 30
0.0
 11
394.6874947867
 21
-533.8093776485
 31
0.0
  0
LINE
  5
7B
330
1F
100
AcDbEntity
  8
0
  6
Continuous
 62
     7
370
    25
100
AcDbLine
 10
25.1629041156
 20
906.1907391766
 30
0.0
 11
-185.8091144243
 21
906.1907391766
 31
0.0
  0
LINE
  5
7C
330
1F
100
AcDbEntity
  8
0
  6
Continuous
 62
     7
370
    25
100
AcDbLine
 10
-185.8091144243
 20
845.8906870106
 30
0.0
 11
-168.1775538602
 21
845.8906870106
 31
0.0
  0
LINE
  5
7D
330
1F
100
AcDbEntity
  8
0
  6
Continuous
 62
     7
370
    25
100
AcDbLine
 10
-66.134610621
 20
845.8906870106
 30
0.0
 11
25.1629041156
 21
845.8906870106
 31
0.0
  0
LINE
  5
7E
330
1F
100
AcDbEntity
  8
0
  6
Continuous
 62
     7
370
    25
100
AcDbLine
 10
25.1629041156
 20
845.8906870106
 30
0.0
 11
241.5966601691
 21
845.8906870106
 31
0.0
  0
LINE
  5
7F
330
1F
100
AcDbEntity
  8
0
  6
Continuous
 62
     7
370
    25
100
AcDbLine
 10
241.5966601691
 20
906.1907391766
 30
0.0
 11
25.1629041156
 21
906.1907391766
 31
0.0
  0
LINE
  5
80
330
1F
100
AcDbEntity
  8
0
  6
Continuous
 62
     7
370
    25
100
AcDbLine
 10
385.9810592255
 20
906.1907391766
 30
0.0
 11
241.5966601691
 21
906.1907391766
 31
0.0
  0
LINE
  5
81
330
1F
100
AcDbEntity
  8
0
  6
Continuous
 62
     7
370
    25
100
AcDbLine
 10
241.5966601691
 20
845.8906870106
 30
0.0
 11
367.4090863785
 21
845.8906870106
 31
0.0
  0
LINE
  5
82
330
1F
100
AcDbEntity
  8
0
  6
Continuous
 62
     7
370
    25
100
AcDbLine
 10
25.1629041156
 20
-533.8093776485
 30
0.0
 11
-66.134610621
 21
-533.8093776485
 31
0.0
  0
LINE
  5
83
330
1F
100
AcDbEntity
  8
0
  6
Continuous
 62
     7
370
    25
100
AcDbLine
 10
-168.1775538602
 20
-533.8093776485
 30
0.0
 11
-185.8091144243
 21
-533.8093776485
 31
0.0
  0
LINE
  5
84
330
1F
100
AcDbEntity
  8
0
  6
Continuous
 62
     7
370
    25
100
AcDbLine
 10
-185.8091144243
 20
-594.1092510005
 30
0.0
 11
25.1629041156
 21
-594.1092510005
 31
0.0
  0
LINE
  5
85
330
1F
100
AcDbEntity
  8
0
  6
Continuous
 62
     7
370
    25
100
AcDbLine
 10
25.1629041156
 20
-594.1092510005
 30
0.0
 11
241.5966601691
 21
-594.1092510005
 31
0.0
  0
LINE
  5
86
330
1F
100
AcDbEntity
  8
0
  6
Continuous
 62
     7
370
    25
100
AcDbLine
 10
241.5966601691
 20
-533.8093776485
 30
0.0
 11
25.1629041156
 21
-533.8093776485
 31
0.0
  0
LINE
  5
87
330
1F
100
AcDbEntity
  8
0
  6
Continuous
 62
     7
370
    25
100
AcDbLine
 10
367.4090863785
 20
-533.8093776485
 30
0.0
 11
241.5966601691
 21
-533.8093776485
 31
0.0
  0
LINE
  5
88
330
1F
100
AcDbEntity
  8
0
  6
Continuous
 62
     7
370
    25
100
AcDbLine
 10
241.5966601691
 20
-594.1092510005
 30
0.0
 11
385.9810592255
 21
-594.1092510005
 31
0.0
  0
LINE
  5
89
330
1F
100
AcDbEntity
  8
0
  6
Continuous
 62
     7
370
    25
100
AcDbLine
 10
-172.4079041162
 20
840.3797011593
 30
0.0
 11
-172.4079041162
 21
-528.2983321926
 31
0.0
  0
LINE
  5
8A
330
1F
100
AcDbEntity
  8
0
  6
Continuous
 62
     7
370
    25
100
AcDbLine
 10
-126.4396695772
 20
-499.6203918239
 30
0.0
 11
-126.4396695772
 21
811.7017607907
 31
0.0
  0
LINE
  5
8B
330
1F
100
AcDbEntity
  8
0
  6
Continuous
 62
     7
370
    25
100
AcDbLine
 10
351.9415171465
 20
806.1003546933
 30
0.0
 11
351.9415171465
 21
-494.0189857265
 31
0.0
  0
LINE
  5
8C
330
1F
100
AcDbEntity
  8
0
  6
Continuous
 62
     7
370
    25
100
AcDbLine
 10
394.6874947867
 20
-533.89973829
 30
0.0
 11
394.6874947867
 21
845.9811072568
 31
0.0
  0
LINE
  5
8D
330
1F
100
AcDbEntity
  8
0
  6
Continuous
 62
     7
370
    25
100
AcDbLine
 10
-103.7005572
 20
806.0406904439
 30
0.0
 11
-103.7005572
 21
801.0406952122
 31
0.0
  0
LINE
  5
8E
330
1F
100
AcDbEntity
  8
0
  6
Continuous
 62
     7
370
    25
100
AcDbLine
 10
-103.7005572
 20
-488.9592666408
 30
0.0
 11
-103.7005572
 21
-493.9593810817
 31
0.0
  0
LINE
  5
8F
330
1F
100
AcDbEntity
  8
0
  6
Continuous
 62
     7
370
    25
100
AcDbLine
 10
-57.732322661
 20
-493.9593810817
 30
0.0
 11
-57.732322661
 21
806.0406904439
 31
0.0
  0
LINE
  5
90
330
1F
100
AcDbEntity
  8
0
  6
Continuous
 62
     7
370
    25
100
AcDbLine
 10
24.4012908658
 20
806.0406904439
 30
0.0
 11
24.4012908658
 21
-493.9593810817
 31
0.0
  0
LINE
  5
91
330
1F
100
AcDbEntity
  8
0
  6
Continuous
 62
     7
370
    25
100
AcDbLine
 10
67.1472610554
 20
-493.9593810817
 30
0.0
 11
67.1472610554
 21
-443.9591903469
 31
0.0
  0
LINE
  5
92
330
1F
100
AcDbEntity
  8
0
  6
Continuous
 62
     7
370
    25
100
AcDbLine
 10
67.1472610554
 20
-403.9592284938
 30
0.0
 11
67.1472610554
 21
136.0407333592
 31
0.0
  0
LINE
  5
93
330
1F
100
AcDbEntity
  8
0
  6
Continuous
 62
     7
370
    25
100
AcDbLine
 10
67.1472610554
 20
176.0406952122
 30
0.0
 11
67.1472610554
 21
716.0407166699
 31
0.0
  0
LINE
  5
94
330
1F
100
AcDbEntity
  8
0
  6
Continuous
 62
     7
370
    25
100
AcDbLine
 10
67.1472610554
 20
756.0407381276
 30
0.0
 11
67.1472610554
 21
806.0406904439
 31
0.0
  0
LINE
  5
95
330
1F
100
AcDbEntity
  8
0
  6
Continuous
 62
     7
370
    25
100
AcDbLine
 10
301.3988794407
 20
730.2557091931
 30
0.0
 11
301.4616431317
 21
730.2557091931
 31
0.0
  0
LINE
  5
96
330
1F
100
AcDbEntity
  8
0
  6
Continuous
 62
     7
370
    25
100
AcDbLine
 10
301.4616431317
 20
741.8256859997
 30
0.0
 11
301.3988794407
 21
741.8256859997
 31
0.0
  0
LINE
  5
97
330
1F
100
AcDbEntity
  8
0
  6
Continuous
 62
     7
370
    25
100
AcDbLine
 10
-109.8316697755
 20
-418.174221017
 30
0.0
 11
-110.3241829553
 21
-418.174221017
 31
0.0
  0
LINE
  5
98
330
1F
100
AcDbEntity
  8
0
  6
Continuous
 62
     7
370
    25
100
AcDbLine
 10
-110.3241829553
 20
-429.7441978237
 30
0.0
 11
-109.8316697755
 21
-429.7441978237
 31
0.0
  0
LINE
  5
99
330
1F
100
AcDbEntity
  8
0
  6
Continuous
 62
     7
370
    25
100
AcDbLine
 10
301.3988794407
 20
150.2557258824
 30
0.0
 11
301.4616431317
 21
150.2557258824
 31
0.0
  0
LINE
  5
9A
330
1F
100
AcDbEntity
  8
0
  6
Continuous
 62
     7
370
    25
100
AcDbLine
 10
301.4616431317
 20
161.825702689
 30
0.0
 11
301.3988794407
 21
161.825702689
 31
0.0
  0
LINE
  5
9B
330
1F
100
AcDbEntity
  8
0
  6
Continuous
 62
     7
370
    25
100
AcDbLine
 10
207.1069987139
 20
150.2557258824
 30
0.0
 11
207.1697624049
 21
150.2557258824
 31
0.0
  0
LINE
  5
9C
330
1F
100
AcDbEntity
  8
0
  6
Continuous
 62
     7
370
    25
100
AcDbLine
 10
207.1697624049
 20
161.825702689
 30
0.0
 11
207.1069987139
 21
161.825702689
 31
0.0
  0
LINE
  5
9D
330
1F
100
AcDbEntity
  8
0
  6
Continuous
 62
     7
370
    25
100
AcDbLine
 10
-109.8316697755
 20
161.825702689
 30
0.0
 11
-110.3241829553
 21
161.825702689
 31
0.0
  0
LINE
  5
9E
330
1F
100
AcDbEntity
  8
0
  6
Continuous
 62
     7
370
    25
100
AcDbLine
 10
-110.3241829553
 20
150.2557258824
 30
0.0
 11
-109.8316697755
 21
150.2557258824
 31
0.0
  0
LINE
  5
9F
330
1F
100
AcDbEntity
  8
0
  6
Continuous
 62
     7
370
    25
100
AcDbLine
 10
-82.0563672462
 20
741.8256859997
 30
0.0
 11
-82.5488655248
 21
741.8256859997
 31
0.0
  0
LINE
  5
A0
330
1F
100
AcDbEntity
  8
0
  6
Continuous
 62
     7
370
    25
100
AcDbLine
 10
-82.5488655248
 20
730.2557091931
 30
0.0
 11
-82.0563672462
 21
730.2557091931
 31
0.0
  0
LINE
  5
A1
330
1F
100
AcDbEntity
  8
0
  6
Continuous
 62
     7
370
    25
100
AcDbLine
 10
-82.0563672462
 20
161.825702689
 30
0.0
 11
-82.5488655248
 21
161.825702689
 31
0.0
  0
LINE
  5
A2
330
1F
100
AcDbEntity
  8
0
  6
Continuous
 62
     7
370
    25
100
AcDbLine
 10
-82.5488655248
 20
150.2557258824
 30
0.0
 11
-82.0563672462
 21
150.2557258824
 31
0.0
  0
LINE
  5
A3
330
1F
100
AcDbEntity
  8
0
  6
Continuous
 62
     7
370
    25
100
AcDbLine
 10
301.3988794407
 20
-429.7441978237
 30
0.0
 11
301.4616431317
 21
-429.7441978237
 31
0.0
  0
LINE
  5
A4
330
1F
100
AcDbEntity
  8
0
  6
Continuous
 62
     7
370
    25
100
AcDbLine
 10
301.4616431317
 20
-418.174221017
 30
0.0
 11
301.3988794407
 21
-418.174221017
 31
0.0
  0
LINE
  5
A5
330
1F
100
AcDbEntity
  8
0
  6
Continuous
 62
     7
370
    25
100
AcDbLine
 10
112.8151161245
 20
730.2557091931
 30
0.0
 11
112.8778798154
 21
730.2557091931
 31
0.0
  0
LINE
  5
A6
330
1F
100
AcDbEntity
  8
0
  6
Continuous
 62
     7
370
    25
100
AcDbLine
 10
112.8778798154
 20
741.8256859997
 30
0.0
 11
112.8151161245
 21
741.8256859997
 31
0.0
  0
LINE
  5
A7
330
1F
100
AcDbEntity
  8
0
  6
Continuous
 62
     7
370
    25
100
AcDbLine
 10
112.8151161245
 20
-429.7441978237
 30
0.0
 11
112.8778798154
 21
-429.7441978237
 31
0.0
  0
LINE
  5
A8
330
1F
100
AcDbEntity
  8
0
  6
Continuous
 62
     7
370
    25
100
AcDbLine
 10
112.8778798154
 20
-418.174221017
 30
0.0
 11
112.8151161245
 21
-418.174221017
 31
0.0
  0
LINE
  5
A9
330
1F
100
AcDbEntity
  8
0
  6
Continuous
 62
     7
370
    25
100
AcDbLine
 10
112.8151161245
 20
150.2557258824
 30
0.0
 11
112.8778798154
 21
150.2557258824
 31
0.0
  0
LINE
  5
AA
330
1F
100
AcDbEntity
  8
0
  6
Continuous
 62
     7
370
    25
100
AcDbLine
 10
112.8778798154
 20
161.825702689
 30
0.0
 11
112.8151161245
 21
161.825702689
 31
0.0
  0
LINE
  5
AB
330
1F
100
AcDbEntity
  8
0
  6
Continuous
 62
     7
370
    25
100
AcDbLine
 10
207.1069987139
 20
-429.7441978237
 30
0.0
 11
207.1697624049
 21
-429.7441978237
 31
0.0
  0
LINE
  5
AC
330
1F
100
AcDbEntity
  8
0
  6
Continuous
 62
     7
370
    25
100
AcDbLine
 10
207.1697624049
 20
-418.174221017
 30
0.0
 11
207.1069987139
 21
-418.174221017
 31
0.0
  0
LINE
  5
AD
330
1F
100
AcDbEntity
  8
0
  6
Continuous
 62
     7
370
    25
100
AcDbLine
 10
207.1069987139
 20
730.2557091931
 30
0.0
 11
207.1697624049
 21
730.2557091931
 31
0.0
  0
LINE
  5
AE
330
1F
100
AcDbEntity
  8
0
  6
Continuous
 62
     7
370
    25
100
AcDbLine
 10
207.1697624049
 20
741.8256859997
 30
0.0
 11
207.1069987139
 21
741.8256859997
 31
0.0
  0
LINE
  5
AF
330
1F
100
AcDbEntity
  8
0
  6
Continuous
 62
     7
370
    25
100
AcDbLine
 10
-82.0563672462
 20
-418.174221017
 30
0.0
 11
-82.5488655248
 21
-418.174221017
 31
0.0
  0
LINE
  5
B0
330
1F
100
AcDbEntity
  8
0
  6
Continuous
 62
     7
370
    25
100
AcDbLine
 10
-82.5488655248
 20
-429.7441978237
 30
0.0
 11
-82.0563672462
 21
-429.7441978237
 31
0.0
  0
LINE
  5
B1
330
1F
100
AcDbEntity
  8
0
  6
Continuous
 62
     7
370
    25
100
AcDbLine
 10
-109.8316697755
 20
741.8256859997
 30
0.0
 11
-110.3241829553
 21
741.8256859997
 31
0.0
  0
LINE
  5
B2
330
1F
100
AcDbEntity
  8
0
  6
Continuous
 62
     7
370
    25
100
AcDbLine
 10
-110.3241829553
 20
730.2557091931
 30
0.0
 11
-109.8316697755
 21
730.2557091931
 31
0.0
  0
ARC
  5
B3
330
1F
100
AcDbEntity
  8
0
  6
Continuous
 62
     7
370
    25
100
AcDbCircle
 10
-185.7113285505
 20
-564.0802230999
 30
0.0
 40
30.02918711415046
100
AcDbArc
 50
179.7693050689
 51
269.8134239285
  0
ARC
  5
B4
330
1F
100
AcDbEntity
  8
0
  6
Continuous
 62
     7
370
    25
100
AcDbCircle
 10
-185.6954604259
 20
-563.854158529
 30
0.0
 40
30.04499584602806
100
AcDbArc
 50
90.2167385876
 51
180.200532415
  0
ELLIPSE
  5
B5
330
1F
100
AcDbEntity
  8
0
  6
Continuous
 62
     7
370
    25
100
AcDbEllipse
 10
-233.8991435795
 20
-563.9592857143
 30
0.0
 11
-30.37044999807102
 21
0.0
 31
0.0
210
0.0
220
0.0
230
1.0
 40
0.9927412996
 41
4.712388980384702
 42
6.283185307179586
  0
ELLIPSE
  5
B6
330
1F
100
AcDbEntity
  8
0
  6
Continuous
 62
     7
370
    25
100
AcDbEllipse
 10
-233.8991435795
 20
-563.9592857143
 30
0.0
 11
-30.37044999807102
 21
0.0
 31
0.0
210
0.0
220
0.0
230
1.0
 40
0.9927412996
 41
0.0
 42
1.570796326794899
  0
ARC
  5
B7
330
1F
100
AcDbEntity
  8
0
  6
Continuous
 62
     7
370
    25
100
AcDbCircle
 10
-185.7110513038
 20
875.9199906234
 30
0.0
 40
30.02946372888132
100
AcDbArc
 50
179.7696058015
 51
269.8128966616
  0
ARC
  5
B8
330
1F
100
AcDbEntity
  8
0
  6
Continuous
 62
     7
370
    25
100
AcDbCircle
 10
-185.6953367196
 20
876.1458352798
 30
0.0
 40
30.04511932969324
100
AcDbArc
 50
90.2169736053
 51
180.2004106646
  0
ELLIPSE
  5
B9
330
1F
100
AcDbEntity
  8
0
  6
Continuous
 62
     7
370
    25
100
AcDbEllipse
 10
-233.8991435795
 20
876.0407142857
 30
0.0
 11
-30.37044999807108
 21
0.0
 31
0.0
210
0.0
220
0.0
230
1.0
 40
0.9927412996
 41
4.712388980384706
 42
6.283185307179586
  0
ELLIPSE
  5
BA
330
1F
100
AcDbEntity
  8
0
  6
Continuous
 62
     7
370
    25
100
AcDbEllipse
 10
-233.8991435795
 20
876.0407142857
 30
0.0
 11
-30.37044999807108
 21
0.0
 31
0.0
210
0.0
220
0.0
230
1.0
 40
0.9927412996
 41
0.0
 42
1.570796326794895
  0
LWPOLYLINE
  5
BB
330
1F
100
AcDbEntity
  8
0
  6
Continuous
 62
     7
370
    25
100
AcDbPolyline
 90
       30
 70
   128
 43
0.0
 10
388.9291198573
 20
846.0407119015
 10
390.7683552823
 20
846.2878923634
 10
393.8974948248
 20
846.989677451
 10
396.9338448367
 20
848.0320434788
 10
399.841746839
 20
849.4028310994
 10
402.5871665797
 20
851.0858874539
 10
405.1379175505
 20
853.0615430096
 10
407.4640186152
 20
855.3065519551
 10
409.5382900557
 20
857.7946882466
 10
411.3363535723
 20
860.4967456082
 10
412.8371687254
 20
863.3810739735
 10
414.0231223425
 20
866.4137582997
 10
414.8802967391
 20
869.5593338231
 10
415.3986485323
 20
872.7809052685
 10
415.572127851
 20
876.0407428959
 10
415.3986485323
 20
879.3005209187
 10
414.8802967391
 20
882.5220923642
 10
414.0231223425
 20
885.6676678876
 10
412.8371687254
 20
888.7003522137
 10
411.3363535723
 20
891.584680579
 10
409.5382900557
 20
894.2867379407
 10
407.4640186152
 20
896.7748742322
 10
405.1379175505
 20
899.0198831776
 10
402.5871665797
 20
900.9955387333
 10
399.841746839
 20
902.6785950879
 10
396.9338448367
 20
904.0493827084
 10
393.8974948248
 20
905.0917487362
 10
390.7683552823
 20
905.7935338238
 10
387.5830830655
 20
906.1465125302
 10
385.9810592255
 20
906.1907391766
  0
ELLIPSE
  5
BC
330
1F
100
AcDbEntity
  8
0
  6
Continuous
 62
     7
370
    25
100
AcDbEllipse
 10
458.3036573916
 20
876.0407142857
 30
0.0
 11
-30.71950761458129
 21
0.0
 31
0.0
210
0.0
220
0.0
230
1.0
 40
0.9814610435
 41
1.570796326794897
 42
4.712388980384704
  0
LWPOLYLINE
  5
BD
330
1F
100
AcDbEntity
  8
0
  6
Continuous
 62
     7
370
    25
100
AcDbPolyline
 90
       30
 70
   128
 43
0.0
 10
385.9810592255
 20
-594.1092510005
 10
387.5830830655
 20
-594.0651435634
 10
390.7683552823
 20
-593.7120456478
 10
393.8974948248
 20
-593.0103797695
 10
396.9338448367
 20
-591.9680137416
 10
399.841746839
 20
-590.5971069118
 10
402.5871665797
 20
-588.9141101619
 10
405.1379175505
 20
-586.9385738155
 10
407.4640186152
 20
-584.6933860561
 10
409.5382900557
 20
-582.2052497646
 10
411.3363535723
 20
-579.5032520076
 10
412.8371687254
 20
-576.6188640377
 10
414.0231223425
 20
-573.5861797115
 10
414.8802967391
 20
-570.4407233974
 10
415.3986485323
 20
-567.218973138
 10
415.572127851
 20
-563.9593143245
 10
415.3986485323
 20
-560.6994170925
 10
414.8802967391
 20
-557.4779052516
 10
414.0231223425
 20
-554.3324489376
 10
412.8371687254
 20
-551.2995261928
 10
411.3363535723
 20
-548.4153766414
 10
409.5382900557
 20
-545.7133788845
 10
407.4640186152
 20
-543.2252425929
 10
405.1379175505
 20
-540.9800548335
 10
402.5871665797
 20
-539.0045184871
 10
399.841746839
 20
-537.3212833187
 10
396.9338448367
 20
-535.9506149074
 10
393.8974948248
 20
-534.9082488796
 10
390.7683552823
 20
-534.2065830013
 10
388.9291198573
 20
-533.9593429347
  0
ELLIPSE
  5
BE
330
1F
100
AcDbEntity
  8
0
  6
Continuous
 62
     7
370
    25
100
AcDbEllipse
 10
458.3036573916
 20
-563.9592857143
 30
0.0
 11
-30.71950761458129
 21
0.0
 31
0.0
210
0.0
220
0.0
230
1.0
 40
0.9814610435
 41
1.570796326794897
 42
4.712388980384704
  0
ARC
  5
BF
330
1F
100
AcDbEntity
  8
0
  6
Continuous
 62
     7
370
    25
100
AcDbCircle
 10
-185.641057707
 20
876.0407130936
 30
0.0
 40
30.15049445474077
100
AcDbArc
 50
90.3193642643
 51
269.6806357357
  0
LWPOLYLINE
  5
C0
330
1F
100
AcDbEntity
  8
0
  6
Continuous
 62
     7
370
    25
100
AcDbPolyline
 90
       16
 70
   128
 43
0.0
 10
30.5695669374
 20
876.0407428959
 10
30.5378721675
 20
872.7809052685
 10
30.443160387
 20
869.5593338231
 10
30.2865417323
 20
866.4137582997
 10
30.0698564968
 20
863.3810739735
 10
29.7956453285
 20
860.4967456082
 10
29.4671119771
 20
857.7946882466
 10
29.0881158432
 20
855.3065519551
 10
28.6631049237
 20
853.0615430096
 10
28.1970562062
 20
851.0858874539
 10
27.6954309663
 20
849.4028310994
 10
27.1641151628
 20
848.0320434788
 10
26.609337481
 20
846.989677451
 10
26.0376022777
 20
846.2878923634
 10
25.4556150755
 20
845.9349136571
 10
25.1629041156
 20
845.8906870106
  0
LWPOLYLINE
  5
C1
330
1F
100
AcDbEntity
  8
0
  6
Continuous
 62
     7
370
    25
100
AcDbPolyline
 90
       16
 70
   128
 43
0.0
 10
25.1629041156
 20
906.1907391766
 10
25.4556150755
 20
906.1465125302
 10
26.0376022777
 20
905.7935338238
 10
26.609337481
 20
905.0917487362
 10
27.1641151628
 20
904.0493827084
 10
27.6954309663
 20
902.6785950879
 10
28.1970562062
 20
900.9955387333
 10
28.6631049237
 20
899.0198831776
 10
29.0881158432
 20
896.7748742322
 10
29.4671119771
 20
894.2867379407
 10
29.7956453285
 20
891.584680579
 10
30.0698564968
 20
888.7003522137
 10
30.2865417323
 20
885.6676678876
 10
30.443160387
 20
882.5220923642
 10
30.5378721675
 20
879.3005209187
 10
30.5695669374
 20
876.0407428959
  0
LWPOLYLINE
  5
C2
330
1F
100
AcDbEntity
  8
0
  6
Continuous
 62
     7
370
    25
100
AcDbPolyline
 90
       31
 70
   128
 43
0.0
 10
25.1629041156
 20
845.8906870106
 10
25.4556150755
 20
845.9349136571
 10
26.0376022777
 20
846.2878923634
 10
26.609337481
 20
846.989677451
 10
27.1641151628
 20
848.0320434788
 10
27.6954309663
 20
849.4028310994
 10
28.1970562062
 20
851.0858874539
 10
28.6631049237
 20
853.0615430096
 10
29.0881158432
 20
855.3065519551
 10
29.4671119771
 20
857.7946882466
 10
29.7956453285
 20
860.4967456082
 10
30.0698564968
 20
863.3810739735
 10
30.2865417323
 20
866.4137582997
 10
30.443160387
 20
869.5593338231
 10
30.5378721675
 20
872.7809052685
 10
30.5695669374
 20
876.0407428959
 10
30.5378721675
 20
879.3005209187
 10
30.443160387
 20
882.5220923642
 10
30.2865417323
 20
885.6676678876
 10
30.0698564968
 20
888.7003522137
 10
29.7956453285
 20
891.584680579
 10
29.4671119771
 20
894.2867379407
 10
29.0881158432
 20
896.7748742322
 10
28.6631049237
 20
899.0198831776
 10
28.1970562062
 20
900.9955387333
 10
27.6954309663
 20
902.6785950879
 10
27.1641151628
 20
904.0493827084
 10
26.609337481
 20
905.0917487362
 10
26.0376022777
 20
905.7935338238
 10
25.4556150755
 20
906.1465125302
 10
25.1629041156
 20
906.1907391766
  0
LWPOLYLINE
  5
C3
330
1F
100
AcDbEntity
  8
0
  6
Continuous
 62
     7
370
    25
100
AcDbPolyline
 90
       16
 70
   128
 43
0.0
 10
247.0033229908
 20
876.0407428959
 10
246.971628221
 20
872.7809052685
 10
246.8769164404
 20
869.5593338231
 10
246.7202977857
 20
866.4137582997
 10
246.5036125502
 20
863.3810739735
 10
246.2294013819
 20
860.4967456082
 10
245.9008680305
 20
857.7946882466
 10
245.5218718967
 20
855.3065519551
 10
245.0968609771
 20
853.0615430096
 10
244.6308122596
 20
851.0858874539
 10
244.1291870198
 20
849.4028310994
 10
243.5978712162
 20
848.0320434788
 10
243.0430935344
 20
846.989677451
 10
242.4713583312
 20
846.2878923634
 10
241.889371129
 20
845.9349136571
 10
241.5966601691
 20
845.8906870106
  0
LWPOLYLINE
  5
C4
330
1F
100
AcDbEntity
  8
0
  6
Continuous
 62
     7
370
    25
100
AcDbPolyline
 90
       16
 70
   128
 43
0.0
 10
241.5966601691
 20
906.1907391766
 10
241.889371129
 20
906.1465125302
 10
242.4713583312
 20
905.7935338238
 10
243.0430935344
 20
905.0917487362
 10
243.5978712162
 20
904.0493827084
 10
244.1291870198
 20
902.6785950879
 10
244.6308122596
 20
900.9955387333
 10
245.0968609771
 20
899.0198831776
 10
245.5218718967
 20
896.7748742322
 10
245.9008680305
 20
894.2867379407
 10
246.2294013819
 20
891.584680579
 10
246.5036125502
 20
888.7003522137
 10
246.7202977857
 20
885.6676678876
 10
246.8769164404
 20
882.5220923642
 10
246.971628221
 20
879.3005209187
 10
247.0033229908
 20
876.0407428959
  0
LWPOLYLINE
  5
C5
330
1F
100
AcDbEntity
  8
0
  6
Continuous
 62
     7
370
    25
100
AcDbPolyline
 90
       31
 70
   128
 43
0.0
 10
241.5966601691
 20
845.8906870106
 10
241.889371129
 20
845.9349136571
 10
242.4713583312
 20
846.2878923634
 10
243.0430935344
 20
846.989677451
 10
243.5978712162
 20
848.0320434788
 10
244.1291870198
 20
849.4028310994
 10
244.6308122596
 20
851.0858874539
 10
245.0968609771
 20
853.0615430096
 10
245.5218718967
 20
855.3065519551
 10
245.9008680305
 20
857.7946882466
 10
246.2294013819
 20
860.4967456082
 10
246.5036125502
 20
863.3810739735
 10
246.7202977857
 20
866.4137582997
 10
246.8769164404
 20
869.5593338231
 10
246.971628221
 20
872.7809052685
 10
247.0033229908
 20
876.0407428959
 10
246.971628221
 20
879.3005209187
 10
246.8769164404
 20
882.5220923642
 10
246.7202977857
 20
885.6676678876
 10
246.5036125502
 20
888.7003522137
 10
246.2294013819
 20
891.584680579
 10
245.9008680305
 20
894.2867379407
 10
245.5218718967
 20
896.7748742322
 10
245.0968609771
 20
899.0198831776
 10
244.6308122596
 20
900.9955387333
 10
244.1291870198
 20
902.6785950879
 10
243.5978712162
 20
904.0493827084
 10
243.0430935344
 20
905.0917487362
 10
242.4713583312
 20
905.7935338238
 10
241.889371129
 20
906.1465125302
 10
241.5966601691
 20
906.1907391766
  0
ARC
  5
C6
330
1F
100
AcDbEntity
  8
0
  6
Continuous
 62
     7
370
    25
100
AcDbCircle
 10
385.6406841877
 20
875.792004002
 30
0.0
 40
29.93247719120718
100
AcDbArc
 50
276.3073487142
 51
0.476133424
  0
ARC
  5
C7
330
1F
100
AcDbEntity
  8
0
  6
Continuous
 62
     7
370
    25
100
AcDbCircle
 10
385.6887835191
 20
876.3076323544
 30
0.0
 40
29.88453610879454
100
AcDbArc
 50
359.4883024857
 51
89.4396288654
  0
ARC
  5
C8
330
1F
100
AcDbEntity
  8
0
  6
Continuous
 62
     7
370
    25
100
AcDbCircle
 10
-185.6412511551
 20
-563.9593143245
 30
0.0
 40
30.1504039715137
100
AcDbArc
 50
90.3189976013
 51
269.6810023987
  0
LWPOLYLINE
  5
C9
330
1F
100
AcDbEntity
  8
0
  6
Continuous
 62
     7
370
    25
100
AcDbPolyline
 90
       16
 70
   128
 43
0.0
 10
30.5695669374
 20
-563.9593143245
 10
30.5378721675
 20
-567.218973138
 10
30.443160387
 20
-570.4407233974
 10
30.2865417323
 20
-573.5861797115
 10
30.0698564968
 20
-576.6188640377
 10
29.7956453285
 20
-579.5032520076
 10
29.4671119771
 20
-582.2052497646
 10
29.0881158432
 20
-584.6933860561
 10
28.6631049237
 20
-586.9385738155
 10
28.1970562062
 20
-588.9141101619
 10
27.6954309663
 20
-590.5971069118
 10
27.1641151628
 20
-591.9680137416
 10
26.609337481
 20
-593.0103797695
 10
26.0376022777
 20
-593.7120456478
 10
25.4556150755
 20
-594.0651435634
 10
25.1629041156
 20
-594.1092510005
  0
LWPOLYLINE
  5
CA
330
1F
100
AcDbEntity
  8
0
  6
Continuous
 62
     7
370
    25
100
AcDbPolyline
 90
       16
 70
   128
 43
0.0
 10
25.1629041156
 20
-533.8093776485
 10
25.4556150755
 20
-533.8534850856
 10
26.0376022777
 20
-534.2065830013
 10
26.609337481
 20
-534.9082488796
 10
27.1641151628
 20
-535.9506149074
 10
27.6954309663
 20
-537.3212833187
 10
28.1970562062
 20
-539.0045184871
 10
28.6631049237
 20
-540.9800548335
 10
29.0881158432
 20
-543.2252425929
 10
29.4671119771
 20
-545.7133788845
 10
29.7956453285
 20
-548.4153766414
 10
30.0698564968
 20
-551.2995261928
 10
30.2865417323
 20
-554.3324489376
 10
30.443160387
 20
-557.4779052516
 10
30.5378721675
 20
-560.6994170925
 10
30.5695669374
 20
-563.9593143245
  0
LWPOLYLINE
  5
CB
330
1F
100
AcDbEntity
  8
0
  6
Continuous
 62
     7
370
    25
100
AcDbPolyline
 90
       31
 70
   128
 43
0.0
 10
25.1629041156
 20
-594.1092510005
 10
25.4556150755
 20
-594.0651435634
 10
26.0376022777
 20
-593.7120456478
 10
26.609337481
 20
-593.0103797695
 10
27.1641151628
 20
-591.9680137416
 10
27.6954309663
 20
-590.5971069118
 10
28.1970562062
 20
-588.9141101619
 10
28.6631049237
 20
-586.9385738155
 10
29.0881158432
 20
-584.6933860561
 10
29.4671119771
 20
-582.2052497646
 10
29.7956453285
 20
-579.5032520076
 10
30.0698564968
 20
-576.6188640377
 10
30.2865417323
 20
-573.5861797115
 10
30.443160387
 20
-570.4407233974
 10
30.5378721675
 20
-567.218973138
 10
30.5695669374
 20
-563.9593143245
 10
30.5378721675
 20
-560.6994170925
 10
30.443160387
 20
-557.4779052516
 10
30.2865417323
 20
-554.3324489376
 10
30.0698564968
 20
-551.2995261928
 10
29.7956453285
 20
-548.4153766414
 10
29.4671119771
 20
-545.7133788845
 10
29.0881158432
 20
-543.2252425929
 10
28.6631049237
 20
-540.9800548335
 10
28.1970562062
 20
-539.0045184871
 10
27.6954309663
 20
-537.3212833187
 10
27.1641151628
 20
-535.9506149074
 10
26.609337481
 20
-534.9082488796
 10
26.0376022777
 20
-534.2065830013
 10
25.4556150755
 20
-533.8534850856
 10
25.1629041156
 20
-533.8093776485
  0
LWPOLYLINE
  5
CC
330
1F
100
AcDbEntity
  8
0
  6
Continuous
 62
     7
370
    25
100
AcDbPolyline
 90
       16
 70
   128
 43
0.0
 10
247.0033229908
 20
-563.9593143245
 10
246.971628221
 20
-567.218973138
 10
246.8769164404
 20
-570.4407233974
 10
246.7202977857
 20
-573.5861797115
 10
246.5036125502
 20
-576.6188640377
 10
246.2294013819
 20
-579.5032520076
 10
245.9008680305
 20
-582.2052497646
 10
245.5218718967
 20
-584.6933860561
 10
245.0968609771
 20
-586.9385738155
 10
244.6308122596
 20
-588.9141101619
 10
244.1291870198
 20
-590.5971069118
 10
243.5978712162
 20
-591.9680137416
 10
243.0430935344
 20
-593.0103797695
 10
242.4713583312
 20
-593.7120456478
 10
241.889371129
 20
-594.0651435634
 10
241.5966601691
 20
-594.1092510005
  0
LWPOLYLINE
  5
CD
330
1F
100
AcDbEntity
  8
0
  6
Continuous
 62
     7
370
    25
100
AcDbPolyline
 90
       16
 70
   128
 43
0.0
 10
241.5966601691
 20
-533.8093776485
 10
241.889371129
 20
-533.8534850856
 10
242.4713583312
 20
-534.2065830013
 10
243.0430935344
 20
-534.9082488796
 10
243.5978712162
 20
-535.9506149074
 10
244.1291870198
 20
-537.3212833187
 10
244.6308122596
 20
-539.0045184871
 10
245.0968609771
 20
-540.9800548335
 10
245.5218718967
 20
-543.2252425929
 10
245.9008680305
 20
-545.7133788845
 10
246.2294013819
 20
-548.4153766414
 10
246.5036125502
 20
-551.2995261928
 10
246.7202977857
 20
-554.3324489376
 10
246.8769164404
 20
-557.4779052516
 10
246.971628221
 20
-560.6994170925
 10
247.0033229908
 20
-563.9593143245
  0
LWPOLYLINE
  5
CE
330
1F
100
AcDbEntity
  8
0
  6
Continuous
 62
     7
370
    25
100
AcDbPolyline
 90
       31
 70
   128
 43
0.0
 10
241.5966601691
 20
-594.1092510005
 10
241.889371129
 20
-594.0651435634
 10
242.4713583312
 20
-593.7120456478
 10
243.0430935344
 20
-593.0103797695
 10
243.5978712162
 20
-591.9680137416
 10
244.1291870198
 20
-590.5971069118
 10
244.6308122596
 20
-588.9141101619
 10
245.0968609771
 20
-586.9385738155
 10
245.5218718967
 20
-584.6933860561
 10
245.9008680305
 20
-582.2052497646
 10
246.2294013819
 20
-579.5032520076
 10
246.5036125502
 20
-576.6188640377
 10
246.7202977857
 20
-573.5861797115
 10
246.8769164404
 20
-570.4407233974
 10
246.971628221
 20
-567.218973138
 10
247.0033229908
 20
-563.9593143245
 10
246.971628221
 20
-560.6994170925
 10
246.8769164404
 20
-557.4779052516
 10
246.7202977857
 20
-554.3324489376
 10
246.5036125502
 20
-551.2995261928
 10
246.2294013819
 20
-548.4153766414
 10
245.9008680305
 20
-545.7133788845
 10
245.5218718967
 20
-543.2252425929
 10
245.0968609771
 20
-540.9800548335
 10
244.6308122596
 20
-539.0045184871
 10
244.1291870198
 20
-537.3212833187
 10
243.5978712162
 20
-535.9506149074
 10
243.0430935344
 20
-534.9082488796
 10
242.4713583312
 20
-534.2065830013
 10
241.889371129
 20
-533.8534850856
 10
241.5966601691
 20
-533.8093776485
  0
ARC
  5
CF
330
1F
100
AcDbEntity
  8
0
  6
Continuous
 62
     7
370
    25
100
AcDbCircle
 10
385.7295214274
 20
-564.2661274843
 30
0.0
 40
29.84418356177231
100
AcDbArc
 50
270.4829157021
 51
0.5890396963
  0
ARC
  5
D0
330
1F
100
AcDbEntity
  8
0
  6
Continuous
 62
     7
370
    25
100
AcDbCircle
 10
385.6407059925
 20
-563.7106151763
 30
0.0
 40
29.93245505695758
100
AcDbArc
 50
359.5239423065
 51
83.6926885949
  0
LINE
  5
D1
330
1F
100
AcDbEntity
  8
0
  6
Continuous
 62
     7
370
    25
100
AcDbLine
 10
65.0158511123
 20
716.0407166699
 30
0.0
 11
68.1505413374
 21
716.0407166699
 31
0.0
  0
LINE
  5
D2
330
1F
100
AcDbEntity
  8
0
  6
Continuous
 62
     7
370
    25
100
AcDbLine
 10
159.3077337018
 20
716.0407166699
 30
0.0
 11
162.4424239269
 21
716.0407166699
 31
0.0
  0
LINE
  5
D3
330
1F
100
AcDbEntity
  8
0
  6
Continuous
 62
     7
370
    25
100
AcDbLine
 10
253.5996200165
 20
716.0407166699
 30
0.0
 11
256.7343102417
 21
716.0407166699
 31
0.0
  0
LINE
  5
D4
330
1F
100
AcDbEntity
  8
0
  6
Continuous
 62
     7
370
    25
100
AcDbLine
 10
347.8915007433
 20
716.0407166699
 30
0.0
 11
351.9415171465
 21
716.0407166699
 31
0.0
  0
LINE
  5
D5
330
1F
100
AcDbEntity
  8
0
  6
Continuous
 62
     7
370
    25
100
AcDbLine
 10
65.0158511123
 20
756.0407381276
 30
0.0
 11
65.0158511123
 21
716.0407166699
 31
0.0
  0
LINE
  5
D6
330
1F
100
AcDbEntity
  8
0
  6
Continuous
 62
     7
370
    25
100
AcDbLine
 10
351.9415171465
 20
756.0407381276
 30
0.0
 11
347.8915007433
 21
756.0407381276
 31
0.0
  0
LINE
  5
D7
330
1F
100
AcDbEntity
  8
0
  6
Continuous
 62
     7
370
    25
100
AcDbLine
 10
256.7343102417
 20
756.0407381276
 30
0.0
 11
253.5996200165
 21
756.0407381276
 31
0.0
  0
LINE
  5
D8
330
1F
100
AcDbEntity
  8
0
  6
Continuous
 62
     7
370
    25
100
AcDbLine
 10
162.4424239269
 20
756.0407381276
 30
0.0
 11
159.3077337018
 21
756.0407381276
 31
0.0
  0
LINE
  5
D9
330
1F
100
AcDbEntity
  8
0
  6
Continuous
 62
     7
370
    25
100
AcDbLine
 10
68.1505413374
 20
756.0407381276
 30
0.0
 11
65.0158511123
 21
756.0407381276
 31
0.0
  0
LINE
  5
DA
330
1F
100
AcDbEntity
  8
0
  6
Continuous
 62
     7
370
    25
100
AcDbLine
 10
65.0158511123
 20
136.0407333592
 30
0.0
 11
68.1505413374
 21
136.0407333592
 31
0.0
  0
LINE
  5
DB
330
1F
100
AcDbEntity
  8
0
  6
Continuous
 62
     7
370
    25
100
AcDbLine
 10
159.3077337018
 20
136.0407333592
 30
0.0
 11
162.4424239269
 21
136.0407333592
 31
0.0
  0
LINE
  5
DC
330
1F
100
AcDbEntity
  8
0
  6
Continuous
 62
     7
370
    25
100
AcDbLine
 10
253.5996200165
 20
136.0407333592
 30
0.0
 11
256.7343102417
 21
136.0407333592
 31
0.0
  0
LINE
  5
DD
330
1F
100
AcDbEntity
  8
0
  6
Continuous
 62
     7
370
    25
100
AcDbLine
 10
347.8915007433
 20
136.0407333592
 30
0.0
 11
351.9415171465
 21
136.0407333592
 31
0.0
  0
LINE
  5
DE
330
1F
100
AcDbEntity
  8
0
  6
Continuous
 62
     7
370
    25
100
AcDbLine
 10
65.0158511123
 20
176.0406952122
 30
0.0
 11
65.0158511123
 21
136.0407333592
 31
0.0
  0
LINE
  5
DF
330
1F
100
AcDbEntity
  8
0
  6
Continuous
 62
     7
370
    25
100
AcDbLine
 10
351.9415171465
 20
176.0406952122
 30
0.0
 11
347.8915007433
 21
176.0406952122
 31
0.0
  0
LINE
  5
E0
330
1F
100
AcDbEntity
  8
0
  6
Continuous
 62
     7
370
    25
100
AcDbLine
 10
256.7343102417
 20
176.0406952122
 30
0.0
 11
253.5996200165
 21
176.0406952122
 31
0.0
  0
LINE
  5
E1
330
1F
100
AcDbEntity
  8
0
  6
Continuous
 62
     7
370
    25
100
AcDbLine
 10
162.4424239269
 20
176.0406952122
 30
0.0
 11
159.3077337018
 21
176.0406952122
 31
0.0
  0
LINE
  5
E2
330
1F
100
AcDbEntity
  8
0
  6
Continuous
 62
     7
370
    25
100
AcDbLine
 10
68.1505413374
 20
176.0406952122
 30
0.0
 11
65.0158511123
 21
176.0406952122
 31
0.0
  0
LINE
  5
E3
330
1F
100
AcDbEntity
  8
0
  6
Continuous
 62
     7
370
    25
100
AcDbLine
 10
65.0158511123
 20
-443.9591903469
 30
0.0
 11
68.1505413374
 21
-443.9591903469
 31
0.0
  0
LINE
  5
E4
330
1F
100
AcDbEntity
  8
0
  6
Continuous
 62
     7
370
    25
100
AcDbLine
 10
159.3077337018
 20
-443.9591903469
 30
0.0
 11
162.4424239269
 21
-443.9591903469
 31
0.0
  0
LINE
  5
E5
330
1F
100
AcDbEntity
  8
0
  6
Continuous
 62
     7
370
    25
100
AcDbLine
 10
253.5996200165
 20
-443.9591903469
 30
0.0
 11
256.7343102417
 21
-443.9591903469
 31
0.0
  0
LINE
  5
E6
330
1F
100
AcDbEntity
  8
0
  6
Continuous
 62
     7
370
    25
100
AcDbLine
 10
347.8915007433
 20
-443.9591903469
 30
0.0
 11
351.9415171465
 21
-443.9591903469
 31
0.0
  0
LINE
  5
E7
330
1F
100
AcDbEntity
  8
0
  6
Continuous
 62
     7
370
    25
100
AcDbLine
 10
65.0158511123
 20
-403.9592284938
 30
0.0
 11
65.0158511123
 21
-443.9591903469
 31
0.0
  0
LINE
  5
E8
330
1F
100
AcDbEntity
  8
0
  6
Continuous
 62
     7
370
    25
100
AcDbLine
 10
351.9415171465
 20
-403.9592284938
 30
0.0
 11
347.8915007433
 21
-403.9592284938
 31
0.0
  0
LINE
  5
E9
330
1F
100
AcDbEntity
  8
0
  6
Continuous
 62
     7
370
    25
100
AcDbLine
 10
256.7343102417
 20
-403.9592284938
 30
0.0
 11
253.5996200165
 21
-403.9592284938
 31
0.0
  0
LINE
  5
EA
330
1F
100
AcDbEntity
  8
0
  6
Continuous
 62
     7
370
    25
100
AcDbLine
 10
162.4424239269
 20
-403.9592284938
 30
0.0
 11
159.3077337018
 21
-403.9592284938
 31
0.0
  0
LINE
  5
EB
330
1F
100
AcDbEntity
  8
0
  6
Continuous
 62
     7
370
    25
100
AcDbLine
 10
68.1505413374
 20
-403.9592284938
 30
0.0
 11
65.0158511123
 21
-403.9592284938
 31
0.0
  0
LINE
  5
EC
330
1F
100
AcDbEntity
  8
0
  6
Continuous
 62
     7
370
    25
100
AcDbLine
 10
-96.6749428192
 20
-488.9592666408
 30
0.0
 11
-95.2130942026
 21
-488.9592666408
 31
0.0
  0
LINE
  5
ED
330
1F
100
AcDbEntity
  8
0
  6
Continuous
 62
     7
370
    25
100
AcDbLine
 10
-96.6749428192
 20
801.0406952122
 30
0.0
 11
-95.2130942026
 21
801.0406952122
 31
0.0
  0
LINE
  5
EE
330
1F
100
AcDbEntity
  8
0
  6
Continuous
 62
     7
370
    25
100
AcDbLine
 10
-95.2130942026
 20
-488.9592666408
 30
0.0
 11
-95.2130942026
 21
801.0406952122
 31
0.0
  0
LINE
  5
EF
330
1F
100
AcDbEntity
  8
0
  6
Continuous
 62
     7
370
    25
100
AcDbLine
 10
-68.8996402898
 20
-488.9592666408
 30
0.0
 11
-68.8996402898
 21
801.0406952122
 31
0.0
  0
LINE
  5
F0
330
1F
100
AcDbEntity
  8
0
  6
Continuous
 62
     7
370
    25
100
AcDbLine
 10
-95.2130942026
 20
-488.9592666408
 30
0.0
 11
-68.8996402898
 21
-488.9592666408
 31
0.0
  0
LINE
  5
F1
330
1F
100
AcDbEntity
  8
0
  6
Continuous
 62
     7
370
    25
100
AcDbLine
 10
-95.2130942026
 20
801.0406952122
 30
0.0
 11
-68.8996402898
 21
801.0406952122
 31
0.0
  0
LWPOLYLINE
  5
F2
330
1F
100
AcDbEntity
  8
0
  6
Continuous
 62
     7
370
    25
100
AcDbPolyline
 90
       27
 70
   128
 43
0.0
 10
-83.8982997814
 20
-423.9592094203
 10
-83.8447748104
 20
-425.4669685146
 10
-83.6873291412
 20
-426.8869895717
 10
-83.4350822845
 20
-428.1370181819
 10
-83.1027118841
 20
-429.1440982601
 10
-82.7095298448
 20
-429.8498172542
 10
-82.2783796468
 20
-430.2134055873
 10
-81.8343399444
 20
-430.2134055873
 10
-81.4032046476
 20
-429.8498172542
 10
-81.0100226083
 20
-429.1440982601
 10
-80.6776522079
 20
-428.1370181819
 10
-80.4254053512
 20
-426.8869895717
 10
-80.2679447809
 20
-425.4669685146
 10
-80.2144198099
 20
-423.9592094203
 10
-80.2679447809
 20
-422.4516887447
 10
-80.4254053512
 20
-421.031429269
 10
-80.6776522079
 20
-419.7816390773
 10
-81.0100226083
 20
-418.7745589992
 10
-81.4032046476
 20
-418.0686015865
 10
-81.8343399444
 20
-417.7052516719
 10
-82.2783796468
 20
-417.7052516719
 10
-82.7095298448
 20
-418.0686015865
 10
-83.1027118841
 20
-418.7745589992
 10
-83.4350822845
 20
-419.7816390773
 10
-83.6873291412
 20
-421.031429269
 10
-83.8447748104
 20
-422.4516887447
 10
-83.8982997814
 20
-423.9592094203
  0
LWPOLYLINE
  5
F3
330
1F
100
AcDbEntity
  8
0
  6
Continuous
 62
     7
370
    25
100
AcDbPolyline
 90
       27
 70
   128
 43
0.0
 10
-83.8982997814
 20
736.0406975964
 10
-83.8447748104
 20
734.5329981068
 10
-83.6873291412
 20
733.1129770497
 10
-83.4350822845
 20
731.8630676488
 10
-83.1027118841
 20
730.855927966
 10
-82.7095298448
 20
730.1500897626
 10
-82.2783796468
 20
729.7866206387
 10
-81.8343399444
 20
729.7866206387
 10
-81.4032046476
 20
730.1500897626
 10
-81.0100226083
 20
730.855927966
 10
-80.6776522079
 20
731.8630676488
 10
-80.4254053512
 20
733.1129770497
 10
-80.2679447809
 20
734.5329981068
 10
-80.2144198099
 20
736.0406975964
 10
-80.2679447809
 20
737.548397086
 10
-80.4254053512
 20
738.9684777478
 10
-80.6776522079
 20
740.2183871487
 10
-81.0100226083
 20
741.2255268315
 10
-81.4032046476
 20
741.9313054303
 10
-81.8343399444
 20
742.2947745541
 10
-82.2783796468
 20
742.2947745541
 10
-82.7095298448
 20
741.9313054303
 10
-83.1027118841
 20
741.2255268315
 10
-83.4350822845
 20
740.2183871487
 10
-83.6873291412
 20
738.9684777478
 10
-83.8447748104
 20
737.548397086
 10
-83.8982997814
 20
736.0406975964
  0
LWPOLYLINE
  5
F4
330
1F
100
AcDbEntity
  8
0
  6
Continuous
 62
     7
370
    25
100
AcDbPolyline
 90
       27
 70
   128
 43
0.0
 10
-83.8982997814
 20
156.0407142857
 10
-83.8447748104
 20
154.5330744008
 10
-83.6873291412
 20
153.1129341343
 10
-83.4350822845
 20
151.8630247334
 10
-83.1027118841
 20
150.8559446553
 10
-82.7095298448
 20
150.1501064519
 10
-82.2783796468
 20
149.786637328
 10
-81.8343399444
 20
149.786637328
 10
-81.4032046476
 20
150.1501064519
 10
-81.0100226083
 20
150.8559446553
 10
-80.6776522079
 20
151.8630247334
 10
-80.4254053512
 20
153.1129341343
 10
-80.2679447809
 20
154.5330744008
 10
-80.2144198099
 20
156.0407142857
 10
-80.2679447809
 20
157.5483541707
 10
-80.4254053512
 20
158.9684944371
 10
-80.6776522079
 20
160.218403838
 10
-81.0100226083
 20
161.2254839161
 10
-81.4032046476
 20
161.9313221196
 10
-81.8343399444
 20
162.2947912434
 10
-82.2783796468
 20
162.2947912434
 10
-82.7095298448
 20
161.9313221196
 10
-83.1027118841
 20
161.2254839161
 10
-83.4350822845
 20
160.218403838
 10
-83.6873291412
 20
158.9684944371
 10
-83.8447748104
 20
157.5483541707
 10
-83.8982997814
 20
156.0407142857
  0
LINE
  5
F5
330
1F
100
AcDbEntity
  8
0
  6
Continuous
 62
     7
370
    25
100
AcDbLine
 10
-96.6749428192
 20
-488.9592666408
 30
0.0
 11
-96.6749428192
 21
801.0406952122
 31
0.0
  0
LINE
  5
F6
330
1F
100
AcDbEntity
  8
0
  6
Continuous
 62
     7
370
    25
100
AcDbLine
 10
-122.9884116331
 20
-488.9592666408
 30
0.0
 11
-96.6749428192
 21
-488.9592666408
 31
0.0
  0
LINE
  5
F7
330
1F
100
AcDbEntity
  8
0
  6
Continuous
 62
     7
370
    25
100
AcDbLine
 10
-122.9884116331
 20
-488.9592666408
 30
0.0
 11
-122.9884116331
 21
801.0406952122
 31
0.0
  0
LINE
  5
F8
330
1F
100
AcDbEntity
  8
0
  6
Continuous
 62
     7
370
    25
100
AcDbLine
 10
-122.9884116331
 20
801.0406952122
 30
0.0
 11
-96.6749428192
 21
801.0406952122
 31
0.0
  0
LWPOLYLINE
  5
F9
330
1F
100
AcDbEntity
  8
0
  6
Continuous
 62
     7
370
    25
100
AcDbPolyline
 90
       27
 70
   128
 43
0.0
 10
-111.673632113
 20
736.0406975964
 10
-111.620107142
 20
734.5329981068
 10
-111.4626316705
 20
733.1129770497
 10
-111.2103848138
 20
731.8630676488
 10
-110.8780293146
 20
730.855927966
 10
-110.4848472753
 20
730.1500897626
 10
-110.0536970773
 20
729.7866206387
 10
-109.6096424737
 20
729.7866206387
 10
-109.1785220781
 20
730.1500897626
 10
-108.7853400388
 20
730.855927966
 10
-108.4529547372
 20
731.8630676488
 10
-108.2007078805
 20
733.1129770497
 10
-108.0432622114
 20
734.5329981068
 10
-107.9897372404
 20
736.0406975964
 10
-108.0432622114
 20
737.548397086
 10
-108.2007078805
 20
738.9684777478
 10
-108.4529547372
 20
740.2183871487
 10
-108.7853400388
 20
741.2255268315
 10
-109.1785220781
 20
741.9313054303
 10
-109.6096424737
 20
742.2947745541
 10
-110.0536970773
 20
742.2947745541
 10
-110.4848472753
 20
741.9313054303
 10
-110.8780293146
 20
741.2255268315
 10
-111.2103848138
 20
740.2183871487
 10
-111.4626316705
 20
738.9684777478
 10
-111.620107142
 20
737.548397086
 10
-111.673632113
 20
736.0406975964
  0
LWPOLYLINE
  5
FA
330
1F
100
AcDbEntity
  8
0
  6
Continuous
 62
     7
370
    25
100
AcDbPolyline
 90
       27
 70
   128
 43
0.0
 10
-111.673632113
 20
156.0407142857
 10
-111.620107142
 20
154.5330744008
 10
-111.4626316705
 20
153.1129341343
 10
-111.2103848138
 20
151.8630247334
 10
-110.8780293146
 20
150.8559446553
 10
-110.4848472753
 20
150.1501064519
 10
-110.0536970773
 20
149.786637328
 10
-109.6096424737
 20
149.786637328
 10
-109.1785220781
 20
150.1501064519
 10
-108.7853400388
 20
150.8559446553
 10
-108.4529547372
 20
151.8630247334
 10
-108.2007078805
 20
153.1129341343
 10
-108.0432622114
 20
154.5330744008
 10
-107.9897372404
 20
156.0407142857
 10
-108.0432622114
 20
157.5483541707
 10
-108.2007078805
 20
158.9684944371
 10
-108.4529547372
 20
160.218403838
 10
-108.7853400388
 20
161.2254839161
 10
-109.1785220781
 20
161.9313221196
 10
-109.6096424737
 20
162.2947912434
 10
-110.0536970773
 20
162.2947912434
 10
-110.4848472753
 20
161.9313221196
 10
-110.8780293146
 20
161.2254839161
 10
-111.2103848138
 20
160.218403838
 10
-111.4626316705
 20
158.9684944371
 10
-111.620107142
 20
157.5483541707
 10
-111.673632113
 20
156.0407142857
  0
LWPOLYLINE
  5
FB
330
1F
100
AcDbEntity
  8
0
  6
Continuous
 62
     7
370
    25
100
AcDbPolyline
 90
       27
 70
   128
 43
0.0
 10
-111.673632113
 20
-423.9592094203
 10
-111.620107142
 20
-425.4669685146
 10
-111.4626316705
 20
-426.8869895717
 10
-111.2103848138
 20
-428.1370181819
 10
-110.8780293146
 20
-429.1440982601
 10
-110.4848472753
 20
-429.8498172542
 10
-110.0536970773
 20
-430.2134055873
 10
-109.6096424737
 20
-430.2134055873
 10
-109.1785220781
 20
-429.8498172542
 10
-108.7853400388
 20
-429.1440982601
 10
-108.4529547372
 20
-428.1370181819
 10
-108.2007078805
 20
-426.8869895717
 10
-108.0432622114
 20
-425.4669685146
 10
-107.9897372404
 20
-423.9592094203
 10
-108.0432622114
 20
-422.4516887447
 10
-108.2007078805
 20
-421.031429269
 10
-108.4529547372
 20
-419.7816390773
 10
-108.7853400388
 20
-418.7745589992
 10
-109.1785220781
 20
-418.0686015865
 10
-109.6096424737
 20
-417.7052516719
 10
-110.0536970773
 20
-417.7052516719
 10
-110.4848472753
 20
-418.0686015865
 10
-110.8780293146
 20
-418.7745589992
 10
-111.2103848138
 20
-419.7816390773
 10
-111.4626316705
 20
-421.031429269
 10
-111.620107142
 20
-422.4516887447
 10
-111.673632113
 20
-423.9592094203
  0
LINE
  5
FC
330
1F
100
AcDbEntity
  8
0
  6
Continuous
 62
     7
370
    25
100
AcDbLine
 10
-126.4396695772
 20
801.0406952122
 30
0.0
 11
-122.9884116331
 21
801.0406952122
 31
0.0
  0
LINE
  5
FD
330
1F
100
AcDbEntity
  8
0
  6
Continuous
 62
     7
370
    25
100
AcDbLine
 10
-126.4396695772
 20
-488.9592666408
 30
0.0
 11
-122.9884116331
 21
-488.9592666408
 31
0.0
  0
LINE
  5
FE
330
1F
100
AcDbEntity
  8
0
  6
Continuous
 62
     7
370
    25
100
AcDbLine
 10
159.3077337018
 20
801.0406952122
 30
0.0
 11
157.4796937055
 21
801.0406952122
 31
0.0
  0
LINE
  5
FF
330
1F
100
AcDbEntity
  8
0
  6
Continuous
 62
     7
370
    25
100
AcDbLine
 10
159.3077337018
 20
-488.9592666408
 30
0.0
 11
159.3077337018
 21
801.0406952122
 31
0.0
  0
LINE
  5
100
330
1F
100
AcDbEntity
  8
0
  6
Continuous
 62
     7
370
    25
100
AcDbLine
 10
159.3077337018
 20
-488.9592666408
 30
0.0
 11
157.4796937055
 21
-488.9592666408
 31
0.0
  0
LINE
  5
101
330
1F
100
AcDbEntity
  8
0
  6
Continuous
 62
     7
370
    25
100
AcDbLine
 10
157.4796937055
 20
-488.9592666408
 30
0.0
 11
157.4796937055
 21
801.0406952122
 31
0.0
  0
LINE
  5
102
330
1F
100
AcDbEntity
  8
0
  6
Continuous
 62
     7
370
    25
100
AcDbLine
 10
68.1505413374
 20
-488.9592666408
 30
0.0
 11
157.4796937055
 21
-488.9592666408
 31
0.0
  0
LINE
  5
103
330
1F
100
AcDbEntity
  8
0
  6
Continuous
 62
     7
370
    25
100
AcDbLine
 10
68.1505413374
 20
801.0406952122
 30
0.0
 11
68.1505413374
 21
-488.9592666408
 31
0.0
  0
CIRCLE
  5
104
330
1F
100
AcDbEntity
  8
0
  6
Continuous
 62
     7
370
    25
100
AcDbCircle
 10
112.8498241062
 20
736.0477257171
 30
0.0
 40
6.28775137395409
  0
CIRCLE
  5
105
330
1F
100
AcDbEntity
  8
0
  6
Continuous
 62
     7
370
    25
100
AcDbCircle
 10
112.8498303774
 20
156.0476823226
 30
0.0
 40
6.28775757824583
  0
CIRCLE
  5
106
330
1F
100
AcDbEntity
  8
0
  6
Continuous
 62
     7
370
    25
100
AcDbCircle
 10
112.8498303685
 20
-423.9523600453
 30
0.0
 40
6.287757438983963
  0
LINE
  5
107
330
1F
100
AcDbEntity
  8
0
  6
Continuous
 62
     7
370
    25
100
AcDbLine
 10
157.4796937055
 20
801.0406952122
 30
0.0
 11
68.1505413374
 21
801.0406952122
 31
0.0
  0
LINE
  5
108
330
1F
100
AcDbEntity
  8
0
  6
Continuous
 62
     7
370
    25
100
AcDbLine
 10
162.4424239269
 20
-488.9592666408
 30
0.0
 11
251.7715753636
 21
-488.9592666408
 31
0.0
  0
LINE
  5
109
330
1F
100
AcDbEntity
  8
0
  6
Continuous
 62
     7
370
    25
100
AcDbLine
 10
162.4424239269
 20
801.0406952122
 30
0.0
 11
162.4424239269
 21
-488.9592666408
 31
0.0
  0
LINE
  5
10A
330
1F
100
AcDbEntity
  8
0
  6
Continuous
 62
     7
370
    25
100
AcDbLine
 10
251.7715753636
 20
801.0406952122
 30
0.0
 11
162.4424239269
 21
801.0406952122
 31
0.0
  0
LINE
  5
10B
330
1F
100
AcDbEntity
  8
0
  6
Continuous
 62
     7
370
    25
100
AcDbLine
 10
251.7715753636
 20
-488.9592666408
 30
0.0
 11
251.7715753636
 21
801.0406952122
 31
0.0
  0
CIRCLE
  5
10C
330
1F
100
AcDbEntity
  8
0
  6
Continuous
 62
     7
370
    25
100
AcDbCircle
 10
207.1417080626
 20
736.0477257768
 30
0.0
 40
6.28775087832668
  0
CIRCLE
  5
10D
330
1F
100
AcDbEntity
  8
0
  6
Continuous
 62
     7
370
    25
100
AcDbCircle
 10
207.1417143338
 20
156.0476823824
 30
0.0
 40
6.287757082613243
  0
CIRCLE
  5
10E
330
1F
100
AcDbEntity
  8
0
  6
Continuous
 62
     7
370
    25
100
AcDbCircle
 10
207.1417143249
 20
-423.9523599856
 30
0.0
 40
6.287756943350213
  0
LINE
  5
10F
330
1F
100
AcDbEntity
  8
0
  6
Continuous
 62
     7
370
    25
100
AcDbLine
 10
253.5996200165
 20
801.0406952122
 30
0.0
 11
251.7715753636
 21
801.0406952122
 31
0.0
  0
LINE
  5
110
330
1F
100
AcDbEntity
  8
0
  6
Continuous
 62
     7
370
    25
100
AcDbLine
 10
253.5996200165
 20
-488.9592666408
 30
0.0
 11
253.5996200165
 21
801.0406952122
 31
0.0
  0
LINE
  5
111
330
1F
100
AcDbEntity
  8
0
  6
Continuous
 62
     7
370
    25
100
AcDbLine
 10
253.5996200165
 20
-488.9592666408
 30
0.0
 11
251.7715753636
 21
-488.9592666408
 31
0.0
  0
LINE
  5
112
330
1F
100
AcDbEntity
  8
0
  6
Continuous
 62
     7
370
    25
100
AcDbLine
 10
256.7343102417
 20
-488.9592666408
 30
0.0
 11
346.0634560904
 21
-488.9592666408
 31
0.0
  0
LINE
  5
113
330
1F
100
AcDbEntity
  8
0
  6
Continuous
 62
     7
370
    25
100
AcDbLine
 10
256.7343102417
 20
801.0406952122
 30
0.0
 11
256.7343102417
 21
-488.9592666408
 31
0.0
  0
LINE
  5
114
330
1F
100
AcDbEntity
  8
0
  6
Continuous
 62
     7
370
    25
100
AcDbLine
 10
346.0634560904
 20
801.0406952122
 30
0.0
 11
256.7343102417
 21
801.0406952122
 31
0.0
  0
LINE
  5
115
330
1F
100
AcDbEntity
  8
0
  6
Continuous
 62
     7
370
    25
100
AcDbLine
 10
346.0634560904
 20
-488.9592666408
 30
0.0
 11
346.0634560904
 21
801.0406952122
 31
0.0
  0
CIRCLE
  5
116
330
1F
100
AcDbEntity
  8
0
  6
Continuous
 62
     7
370
    25
100
AcDbCircle
 10
301.4335950977
 20
736.0477103785
 30
0.0
 40
6.287753444098908
  0
CIRCLE
  5
117
330
1F
100
AcDbEntity
  8
0
  6
Continuous
 62
     7
370
    25
100
AcDbCircle
 10
301.4336013691
 20
156.0476669833
 30
0.0
 40
6.287759648803755
  0
CIRCLE
  5
118
330
1F
100
AcDbEntity
  8
0
  6
Continuous
 62
     7
370
    25
100
AcDbCircle
 10
301.4336013603
 20
-423.9523753859
 30
0.0
 40
6.287759509855357
  0
LINE
  5
119
330
1F
100
AcDbEntity
  8
0
  6
Continuous
 62
     7
370
    25
100
AcDbLine
 10
347.8915007433
 20
801.0406952122
 30
0.0
 11
346.0634560904
 21
801.0406952122
 31
0.0
  0
LINE
  5
11A
330
1F
100
AcDbEntity
  8
0
  6
Continuous
 62
     7
370
    25
100
AcDbLine
 10
347.8915007433
 20
-488.9592666408
 30
0.0
 11
347.8915007433
 21
801.0406952122
 31
0.0
  0
LINE
  5
11B
330
1F
100
AcDbEntity
  8
0
  6
Continuous
 62
     7
370
    25
100
AcDbLine
 10
347.8915007433
 20
-488.9592666408
 30
0.0
 11
346.0634560904
 21
-488.9592666408
 31
0.0
  0
LINE
  5
11C
330
1F
100
AcDbEntity
  8
0
  6
Continuous
 62
     7
370
    25
100
AcDbLine
 10
-143.7955586591
 20
-533.9593429347
 30
0.0
 11
-68.4694884696
 21
-533.9593429347
 31
0.0
  0
ELLIPSE
  5
11D
330
1F
100
AcDbEntity
  8
0
  6
Continuous
 62
     7
370
    25
100
AcDbEllipse
 10
-141.4565937637
 20
-525.9592857143
 30
0.0
 11
6.430854884937871
 21
6.430854884937615
 31
0.0
210
0.0
220
0.0
230
1.0
 40
0.739961075
 41
3.778637830567753
 42
5.34943415736265
  0
LINE
  5
11E
330
1F
100
AcDbEntity
  8
0
  6
Continuous
 62
     7
370
    25
100
AcDbLine
 10
-133.8061480203
 20
-525.959207513
 30
0.0
 11
-9.4844488779
 21
-525.959207513
 31
0.0
  0
ELLIPSE
  5
11F
330
1F
100
AcDbEntity
  8
0
  6
Continuous
 62
     7
370
    25
100
AcDbEllipse
 10
-15.1722481515
 20
-525.9592857143
 30
0.0
 11
1.936228954946273E-13
 21
8.0
 31
0.0
210
0.0
220
0.0
230
1.0
 40
0.7109757664
 41
3.335545681391531
 42
4.712388980384773
  0
ELLIPSE
  5
120
330
1F
100
AcDbEntity
  8
0
  6
Continuous
 62
     7
370
    25
100
AcDbEllipse
 10
-134.4396728504
 20
-501.9592857143
 30
0.0
 11
6.4308548849379
 21
6.43085488493756
 31
0.0
210
0.0
220
0.0
230
1.0
 40
0.739961075
 41
5.349434157362654
 42
5.646140130201703
  0
LINE
  5
121
330
1F
100
AcDbEntity
  8
0
  6
Continuous
 62
     7
370
    25
100
AcDbLine
 10
-133.8061480203
 20
-525.959207513
 30
0.0
 11
-126.7892210165
 21
-501.9592780849
 31
0.0
  0
LINE
  5
122
330
1F
100
AcDbEntity
  8
0
  6
Continuous
 62
     7
370
    25
100
AcDbLine
 10
-166.746893374
 20
-533.9593429347
 30
0.0
 11
-143.7955586591
 21
-533.9593429347
 31
0.0
  0
ELLIPSE
  5
123
330
1F
100
AcDbEntity
  8
0
  6
Continuous
 62
     7
370
    25
100
AcDbEllipse
 10
-164.4079079069
 20
-525.9592857143
 30
0.0
 11
6.430854884937871
 21
6.430854884937615
 31
0.0
210
0.0
220
0.0
230
1.0
 40
0.739961075
 41
2.504547476611872
 42
3.778637830567769
  0
LINE
  5
124
330
1F
100
AcDbEntity
  8
0
  6
Continuous
 62
     7
370
    25
100
AcDbLine
 10
-126.7892210165
 20
-501.9592780849
 30
0.0
 11
-9.4844488779
 21
-501.9592780849
 31
0.0
  0
LINE
  5
125
330
1F
100
AcDbEntity
  8
0
  6
Continuous
 62
     7
370
    25
100
AcDbLine
 10
-9.4844488779
 20
-501.9592780849
 30
0.0
 11
-9.4844488779
 21
-525.959207513
 31
0.0
  0
LINE
  5
126
330
1F
100
AcDbEntity
  8
0
  6
Continuous
 62
     7
370
    25
100
AcDbLine
 10
-126.4396695772
 20
-493.9593810817
 30
0.0
 11
-75.0882117429
 21
-493.9593810817
 31
0.0
  0
LINE
  5
127
330
1F
100
AcDbEntity
  8
0
  6
Continuous
 62
     7
370
    25
100
AcDbLine
 10
-57.732322661
 20
-493.9593810817
 30
0.0
 11
-15.1722519079
 21
-493.9593810817
 31
0.0
  0
ELLIPSE
  5
128
330
1F
100
AcDbEntity
  8
0
  6
Continuous
 62
     7
370
    25
100
AcDbEllipse
 10
-15.1722481515
 20
-501.9592857143
 30
0.0
 11
1.936228954946273E-13
 21
8.0
 31
0.0
210
0.0
220
0.0
230
1.0
 40
0.7109757664
 41
4.712388980384766
 42
6.283185307179586
  0
LINE
  5
129
330
1F
100
AcDbEntity
  8
0
  6
Continuous
 62
     7
370
    25
100
AcDbLine
 10
-9.4844488779
 20
-525.959207513
 30
0.0
 11
382.7876658759
 21
-525.959207513
 31
0.0
  0
ELLIPSE
  5
12A
330
1F
100
AcDbEntity
  8
0
  6
Continuous
 62
     7
370
    25
100
AcDbEllipse
 10
383.7626250075
 20
-525.9592857143
 30
0.0
 11
7.985078387374983
 21
-7.985078387374756
 31
0.0
210
0.0
220
0.0
230
1.0
 40
0.0611626202
 41
4.651302456564882
 42
6.222098783359829
  0
LINE
  5
12B
330
1F
100
AcDbEntity
  8
0
  6
Continuous
 62
     7
370
    25
100
AcDbLine
 10
371.3840903363
 20
-533.9593429347
 30
0.0
 11
391.7030008158
 21
-533.9593429347
 31
0.0
  0
ELLIPSE
  5
12C
330
1F
100
AcDbEntity
  8
0
  6
Continuous
 62
     7
370
    25
100
AcDbEllipse
 10
-15.1722481515
 20
-525.9592857143
 30
0.0
 11
3.055333763768431E-13
 21
8.0
 31
0.0
210
0.0
220
0.0
230
1.0
 40
0.7109757664
 41
3.33554568139269
 42
4.712388980384727
  0
ELLIPSE
  5
12D
330
1F
100
AcDbEntity
  8
0
  6
Continuous
 62
     7
370
    25
100
AcDbEllipse
 10
386.6874892492
 20
-525.9592857143
 30
0.0
 11
7.985078387374926
 21
-7.985078387374756
 31
0.0
210
0.0
220
0.0
230
1.0
 40
0.0611626202
 41
6.222098783359826
 42
6.344271830999455
  0
LINE
  5
12E
330
1F
100
AcDbEntity
  8
0
  6
Continuous
 62
     7
370
    25
100
AcDbLine
 10
391.7030008158
 20
-533.9593429347
 30
0.0
 11
394.6278603396
 21
-533.9593429347
 31
0.0
  0
LINE
  5
12F
330
1F
100
AcDbEntity
  8
0
  6
Continuous
 62
     7
370
    25
100
AcDbLine
 10
358.9665652833
 20
-501.9592780849
 30
0.0
 11
382.7876658759
 21
-525.959207513
 31
0.0
  0
ELLIPSE
  5
130
330
1F
100
AcDbEntity
  8
0
  6
Continuous
 62
     7
370
    25
100
AcDbEllipse
 10
359.9415173681
 20
-501.9592857143
 30
0.0
 11
7.985078387374926
 21
-7.985078387374813
 31
0.0
210
0.0
220
0.0
230
1.0
 40
0.0611626202
 41
3.202679177409946
 42
4.651302456564887
  0
LINE
  5
131
330
1F
100
AcDbEntity
  8
0
  6
Continuous
 62
     7
370
    25
100
AcDbLine
 10
-9.4844488779
 20
-501.9592780849
 30
0.0
 11
358.9665652833
 21
-501.9592780849
 31
0.0
  0
LINE
  5
132
330
1F
100
AcDbEntity
  8
0
  6
Continuous
 62
     7
370
    25
100
AcDbLine
 10
-15.1722519079
 20
-493.9593810817
 30
0.0
 11
24.4012908658
 21
-493.9593810817
 31
0.0
  0
LINE
  5
133
330
1F
100
AcDbEntity
  8
0
  6
Continuous
 62
     7
370
    25
100
AcDbLine
 10
64.1627670846
 20
-493.9593810817
 30
0.0
 11
351.9415171465
 21
-493.9593810817
 31
0.0
  0
ELLIPSE
  5
134
330
1F
100
AcDbEntity
  8
0
  6
Continuous
 62
     7
370
    25
100
AcDbEllipse
 10
-15.1722481515
 20
-501.9592857143
 30
0.0
 11
3.055333763768431E-13
 21
8.000000000000057
 31
0.0
210
0.0
220
0.0
230
1.0
 40
0.7109757664
 41
4.712388980384727
 42
6.283185307179586
  0
LINE
  5
135
330
1F
100
AcDbEntity
  8
0
  6
Continuous
 62
     7
370
    25
100
AcDbLine
 10
-143.7955586591
 20
846.0407119015
 30
0.0
 11
-143.7955586591
 21
-533.9593429347
 31
0.0
  0
LINE
  5
136
330
1F
100
AcDbEntity
  8
0
  6
Continuous
 62
     7
370
    25
100
AcDbLine
 10
-133.8061480203
 20
838.0406956891
 30
0.0
 11
-133.8061480203
 21
-525.959207513
 31
0.0
  0
ELLIPSE
  5
137
330
1F
100
AcDbEntity
  8
0
  6
Continuous
 62
     7
370
    25
100
AcDbEllipse
 10
-141.4565937637
 20
-525.9592857143
 30
0.0
 11
6.430854884937928
 21
6.430854884937389
 31
0.0
210
0.0
220
0.0
230
1.0
 40
0.739961075
 41
3.778637830567789
 42
5.349434157362611
  0
ELLIPSE
  5
138
330
1F
100
AcDbEntity
  8
0
  6
Continuous
 62
     7
370
    25
100
AcDbEllipse
 10
-141.4565937637
 20
838.0407142857
 30
0.0
 11
6.430854884937729
 21
-6.430854884937729
 31
0.0
210
0.0
220
0.0
230
1.0
 40
0.739961075
 41
0.9337511498169396
 42
2.504547476611872
  0
LINE
  5
139
330
1F
100
AcDbEntity
  8
0
  6
Continuous
 62
     7
370
    25
100
AcDbLine
 10
-166.746893374
 20
846.0407119015
 30
0.0
 11
-166.746893374
 21
-533.9593429347
 31
0.0
  0
LINE
  5
13A
330
1F
100
AcDbEntity
  8
0
  6
Continuous
 62
     7
370
    25
100
AcDbLine
 10
-166.746893374
 20
846.0407119015
 30
0.0
 11
-143.7955586591
 21
846.0407119015
 31
0.0
  0
LINE
  5
13B
330
1F
100
AcDbEntity
  8
0
  6
Continuous
 62
     7
370
    25
100
AcDbLine
 10
-126.7892210165
 20
814.0407066563
 30
0.0
 11
-126.7892210165
 21
-501.9592780849
 31
0.0
  0
LINE
  5
13C
330
1F
100
AcDbEntity
  8
0
  6
Continuous
 62
     7
370
    25
100
AcDbLine
 10
-133.8061480203
 20
838.0406956891
 30
0.0
 11
-126.7892210165
 21
814.0407066563
 31
0.0
  0
ELLIPSE
  5
13D
330
1F
100
AcDbEntity
  8
0
  6
Continuous
 62
     7
370
    25
100
AcDbEllipse
 10
-164.4079079069
 20
-525.9592857143
 30
0.0
 11
6.430854884937928
 21
6.430854884937389
 31
0.0
210
0.0
220
0.0
230
1.0
 40
0.739961075
 41
2.504547476611908
 42
3.778637830567789
  0
ELLIPSE
  5
13E
330
1F
100
AcDbEntity
  8
0
  6
Continuous
 62
     7
370
    25
100
AcDbEllipse
 10
-164.4079079069
 20
838.0407142857
 30
0.0
 11
6.430854884937759
 21
-6.43085488493773
 31
0.0
210
0.0
220
0.0
230
1.0
 40
0.739961075
 41
2.504547476611868
 42
3.778637830567737
  0
ELLIPSE
  5
13F
330
1F
100
AcDbEntity
  8
0
  6
Continuous
 62
     7
370
    25
100
AcDbEllipse
 10
-134.4396728504
 20
-501.9592857143
 30
0.0
 11
6.430854884937957
 21
6.430854884937332
 31
0.0
210
0.0
220
0.0
230
1.0
 40
0.739961075
 41
5.349434157362676
 42
5.646140130201726
  0
ELLIPSE
  5
140
330
1F
100
AcDbEntity
  8
0
  6
Continuous
 62
     7
370
    25
100
AcDbEllipse
 10
-134.4396728504
 20
814.0407142857
 30
0.0
 11
6.430854884937759
 21
-6.43085488493773
 31
0.0
210
0.0
220
0.0
230
1.0
 40
0.739961075
 41
0.6370451769779277
 42
0.9337511498169667
  0
ELLIPSE
  5
141
330
1F
100
AcDbEntity
  8
0
  6
Continuous
 62
     7
370
    25
100
AcDbEllipse
 10
-164.4079079069
 20
838.0407142857
 30
0.0
 11
6.430854884937759
 21
-6.43085488493773
 31
0.0
210
0.0
220
0.0
230
1.0
 40
0.739961075
 41
2.50454747661186
 42
3.778637830567739
  0
ELLIPSE
  5
142
330
1F
100
AcDbEntity
  8
0
  6
Continuous
 62
     7
370
    25
100
AcDbEllipse
 10
-141.4565937637
 20
838.0407142857
 30
0.0
 11
6.430854884937729
 21
-6.430854884937729
 31
0.0
210
0.0
220
0.0
230
1.0
 40
0.739961075
 41
0.9337511498169678
 42
2.504547476611872
  0
ELLIPSE
  5
143
330
1F
100
AcDbEntity
  8
0
  6
Continuous
 62
     7
370
    25
100
AcDbEllipse
 10
-134.4396728504
 20
814.0407142857
 30
0.0
 11
6.430854884937759
 21
-6.43085488493773
 31
0.0
210
0.0
220
0.0
230
1.0
 40
0.739961075
 41
0.6370451769779277
 42
0.9337511498169667
  0
LINE
  5
144
330
1F
100
AcDbEntity
  8
0
  6
Continuous
 62
     7
370
    25
100
AcDbLine
 10
-68.4694884696
 20
846.0407119015
 30
0.0
 11
-143.7955586591
 21
846.0407119015
 31
0.0
  0
ELLIPSE
  5
145
330
1F
100
AcDbEntity
  8
0
  6
Continuous
 62
     7
370
    25
100
AcDbEllipse
 10
-15.1722481515
 20
838.0407142857
 30
0.0
 11
0.0
 21
8.0
 31
0.0
210
0.0
220
0.0
230
1.0
 40
0.7109757664
 41
4.712388980384699
 42
6.08923227938035
  0
LINE
  5
146
330
1F
100
AcDbEntity
  8
0
  6
Continuous
 62
     7
370
    25
100
AcDbLine
 10
-9.4844488779
 20
838.0406956891
 30
0.0
 11
-133.8061480203
 21
838.0406956891
 31
0.0
  0
LINE
  5
147
330
1F
100
AcDbEntity
  8
0
  6
Continuous
 62
     7
370
    25
100
AcDbLine
 10
-9.4844488779
 20
838.0406956891
 30
0.0
 11
-9.4844488779
 21
814.0407066563
 31
0.0
  0
LINE
  5
148
330
1F
100
AcDbEntity
  8
0
  6
Continuous
 62
     7
370
    25
100
AcDbLine
 10
-9.4844488779
 20
814.0407066563
 30
0.0
 11
-126.7892210165
 21
814.0407066563
 31
0.0
  0
ELLIPSE
  5
149
330
1F
100
AcDbEntity
  8
0
  6
Continuous
 62
     7
370
    25
100
AcDbEllipse
 10
-15.1722481515
 20
814.0407142857
 30
0.0
 11
0.0
 21
8.0
 31
0.0
210
0.0
220
0.0
230
1.0
 40
0.7109757664
 41
3.141592653589793
 42
4.712388980384699
  0
LINE
  5
14A
330
1F
100
AcDbEntity
  8
0
  6
Continuous
 62
     7
370
    25
100
AcDbLine
 10
-15.1722519079
 20
806.0406904439
 30
0.0
 11
-57.732322661
 21
806.0406904439
 31
0.0
  0
LINE
  5
14B
330
1F
100
AcDbEntity
  8
0
  6
Continuous
 62
     7
370
    25
100
AcDbLine
 10
-75.0882117429
 20
806.0406904439
 30
0.0
 11
-126.4396695772
 21
806.0406904439
 31
0.0
  0
ELLIPSE
  5
14C
330
1F
100
AcDbEntity
  8
0
  6
Continuous
 62
     7
370
    25
100
AcDbEllipse
 10
359.9415173681
 20
814.0407142857
 30
0.0
 11
7.985078387374926
 21
7.985078387374869
 31
0.0
210
0.0
220
0.0
230
1.0
 40
0.0611626202
 41
1.631882850614712
 42
3.08050612976982
  0
LINE
  5
14D
330
1F
100
AcDbEntity
  8
0
  6
Continuous
 62
     7
370
    25
100
AcDbLine
 10
382.7876658759
 20
838.0406956891
 30
0.0
 11
358.9665652833
 21
814.0407066563
 31
0.0
  0
ELLIPSE
  5
14E
330
1F
100
AcDbEntity
  8
0
  6
Continuous
 62
     7
370
    25
100
AcDbEllipse
 10
383.7626250075
 20
838.0407142857
 30
0.0
 11
7.985078387374926
 21
7.985078387374756
 31
0.0
210
0.0
220
0.0
230
1.0
 40
0.0611626202
 41
0.0610865238198694
 42
1.631882850614699
  0
LINE
  5
14F
330
1F
100
AcDbEntity
  8
0
  6
Continuous
 62
     7
370
    25
100
AcDbLine
 10
394.6278603396
 20
846.0407119015
 30
0.0
 11
391.7030008158
 21
846.0407119015
 31
0.0
  0
ELLIPSE
  5
150
330
1F
100
AcDbEntity
  8
0
  6
Continuous
 62
     7
370
    25
100
AcDbEllipse
 10
386.6874892492
 20
838.0407142857
 30
0.0
 11
7.985078387375097
 21
7.985078387374871
 31
0.0
210
0.0
220
0.0
230
1.0
 40
0.0611626202
 41
6.222098783360106
 42
6.34427183099939
  0
LINE
  5
151
330
1F
100
AcDbEntity
  8
0
  6
Continuous
 62
     7
370
    25
100
AcDbLine
 10
391.7030008158
 20
846.0407119015
 30
0.0
 11
371.3840903363
 21
846.0407119015
 31
0.0
  0
LINE
  5
152
330
1F
100
AcDbEntity
  8
0
  6
Continuous
 62
     7
370
    25
100
AcDbLine
 10
382.7876658759
 20
838.0406956891
 30
0.0
 11
-9.4844488779
 21
838.0406956891
 31
0.0
  0
ELLIPSE
  5
153
330
1F
100
AcDbEntity
  8
0
  6
Continuous
 62
     7
370
    25
100
AcDbEllipse
 10
-15.1722481515
 20
838.0407142857
 30
0.0
 11
5.506706202140776E-14
 21
8.0
 31
0.0
210
0.0
220
0.0
230
1.0
 40
0.7109757664
 41
4.712388980384705
 42
6.089232279379352
  0
LINE
  5
154
330
1F
100
AcDbEntity
  8
0
  6
Continuous
 62
     7
370
    25
100
AcDbLine
 10
358.9665652833
 20
814.0407066563
 30
0.0
 11
-9.4844488779
 21
814.0407066563
 31
0.0
  0
LINE
  5
155
330
1F
100
AcDbEntity
  8
0
  6
Continuous
 62
     7
370
    25
100
AcDbLine
 10
351.9415171465
 20
806.0406904439
 30
0.0
 11
64.1627670846
 21
806.0406904439
 31
0.0
  0
LINE
  5
156
330
1F
100
AcDbEntity
  8
0
  6
Continuous
 62
     7
370
    25
100
AcDbLine
 10
24.4012908658
 20
806.0406904439
 30
0.0
 11
-15.1722519079
 21
806.0406904439
 31
0.0
  0
ELLIPSE
  5
157
330
1F
100
AcDbEntity
  8
0
  6
Continuous
 62
     7
370
    25
100
AcDbEllipse
 10
-15.1722481515
 20
814.0407142857
 30
0.0
 11
5.506706202140776E-14
 21
8.0
 31
0.0
210
0.0
220
0.0
230
1.0
 40
0.7109757664
 41
3.141592653589832
 42
4.712388980384705
  0
LINE
  5
158
330
1F
100
AcDbEntity
  8
0
  6
Continuous
 62
     7
370
    25
100
AcDbLine
 10
391.7030008158
 20
-533.9593429347
 30
0.0
 11
391.7030008158
 21
846.0407119015
 31
0.0
  0
ELLIPSE
  5
159
330
1F
100
AcDbEntity
  8
0
  6
Continuous
 62
     7
370
    25
100
AcDbEllipse
 10
383.7626250075
 20
-525.9592857143
 30
0.0
 11
7.985078387374983
 21
-7.985078387374756
 31
0.0
210
0.0
220
0.0
230
1.0
 40
0.0611626202
 41
4.651302456564893
 42
6.222098783360281
  0
LINE
  5
15A
330
1F
100
AcDbEntity
  8
0
  6
Continuous
 62
     7
370
    25
100
AcDbLine
 10
382.7876658759
 20
-525.959207513
 30
0.0
 11
382.7876658759
 21
838.0406956891
 31
0.0
  0
ELLIPSE
  5
15B
330
1F
100
AcDbEntity
  8
0
  6
Continuous
 62
     7
370
    25
100
AcDbEllipse
 10
383.7626250075
 20
838.0407142857
 30
0.0
 11
7.985078387374926
 21
7.985078387374983
 31
0.0
210
0.0
220
0.0
230
1.0
 40
0.0611626202
 41
0.0610865238202229
 42
1.631882850614721
  0
LINE
  5
15C
330
1F
100
AcDbEntity
  8
0
  6
Continuous
 62
     7
370
    25
100
AcDbLine
 10
358.9665652833
 20
-501.9592780849
 30
0.0
 11
358.9665652833
 21
814.0407066563
 31
0.0
  0
ELLIPSE
  5
15D
330
1F
100
AcDbEntity
  8
0
  6
Continuous
 62
     7
370
    25
100
AcDbEllipse
 10
359.9415173681
 20
-501.9592857143
 30
0.0
 11
7.985078387374926
 21
-7.985078387374813
 31
0.0
210
0.0
220
0.0
230
1.0
 40
0.0611626202
 41
3.20267917740949
 42
4.651302456564894
  0
ELLIPSE
  5
15E
330
1F
100
AcDbEntity
  8
0
  6
Continuous
 62
     7
370
    25
100
AcDbEllipse
 10
359.9415173681
 20
814.0407142857
 30
0.0
 11
7.985078387374926
 21
7.985078387374983
 31
0.0
210
0.0
220
0.0
230
1.0
 40
0.0611626202
 41
1.631882850614693
 42
3.080506129769629
  0
LINE
  5
15F
330
1F
100
AcDbEntity
  8
0
  6
Continuous
 62
     7
370
    25
100
AcDbLine
 10
394.6278603396
 20
-533.9593429347
 30
0.0
 11
394.6278603396
 21
846.0407119015
 31
0.0
  0
ELLIPSE
  5
160
330
1F
100
AcDbEntity
  8
0
  6
Continuous
 62
     7
370
    25
100
AcDbEllipse
 10
386.6874892492
 20
-525.9592857143
 30
0.0
 11
7.985078387374926
 21
-7.985078387374756
 31
0.0
210
0.0
220
0.0
230
1.0
 40
0.0611626202
 41
6.222098783359819
 42
6.344271830998984
  0
ELLIPSE
  5
161
330
1F
100
AcDbEntity
  8
0
  6
Continuous
 62
     7
370
    25
100
AcDbEllipse
 10
386.6874892492
 20
838.0407142857
 30
0.0
 11
7.985078387374983
 21
7.985078387374983
 31
0.0
210
0.0
220
0.0
230
1.0
 40
0.0611626202
 41
6.222098783359995
 42
6.344271830999402
  0
LINE
  5
162
330
1F
100
AcDbEntity
  8
0
  6
Continuous
 62
     7
370
    25
100
AcDbLine
 10
-65.0988011041
 20
806.0406904439
 30
0.0
 11
-65.0988011041
 21
-493.9593810817
 31
0.0
  0
LINE
  5
163
330
1F
100
AcDbEntity
  8
0
  6
Continuous
 62
     7
370
    25
100
AcDbLine
 10
-65.0988011041
 20
-493.9593810817
 30
0.0
 11
-75.0882117429
 21
-493.9593810817
 31
0.0
  0
LINE
  5
164
330
1F
100
AcDbEntity
  8
0
  6
Continuous
 62
     7
370
    25
100
AcDbLine
 10
-75.0882117429
 20
806.0406904439
 30
0.0
 11
-65.0988011041
 21
806.0406904439
 31
0.0
  0
LINE
  5
165
330
1F
100
AcDbEntity
  8
0
  6
Continuous
 62
     7
370
    25
100
AcDbLine
 10
-58.0818890014
 20
806.0406904439
 30
0.0
 11
-58.0818890014
 21
-493.9593810817
 31
0.0
  0
LINE
  5
166
330
1F
100
AcDbEntity
  8
0
  6
Continuous
 62
     7
370
    25
100
AcDbLine
 10
-65.0988011041
 20
-493.9593810817
 30
0.0
 11
-58.0818890014
 21
-493.9593810817
 31
0.0
  0
LINE
  5
167
330
1F
100
AcDbEntity
  8
0
  6
Continuous
 62
     7
370
    25
100
AcDbLine
 10
-58.0818890014
 20
806.0406904439
 30
0.0
 11
-65.0988011041
 21
806.0406904439
 31
0.0
  0
LINE
  5
168
330
1F
100
AcDbEntity
  8
0
  6
Continuous
 62
     7
370
    25
100
AcDbLine
 10
-57.732322661
 20
-493.9593810817
 30
0.0
 11
-58.0818890014
 21
-493.9593810817
 31
0.0
  0
LINE
  5
169
330
1F
100
AcDbEntity
  8
0
  6
Continuous
 62
     7
370
    25
100
AcDbLine
 10
-58.0818890014
 20
806.0406904439
 30
0.0
 11
-57.732322661
 21
806.0406904439
 31
0.0
  0
LINE
  5
16A
330
1F
100
AcDbEntity
  8
0
  6
Continuous
 62
     7
370
    25
100
AcDbLine
 10
55.2474395952
 20
-493.9593810817
 30
0.0
 11
55.2474395952
 21
806.0406904439
 31
0.0
  0
LINE
  5
16B
330
1F
100
AcDbEntity
  8
0
  6
Continuous
 62
     7
370
    25
100
AcDbLine
 10
64.1627670846
 20
-493.9593810817
 30
0.0
 11
64.1627670846
 21
806.0406904439
 31
0.0
  0
LINE
  5
16C
330
1F
100
AcDbEntity
  8
0
  6
Continuous
 62
     7
370
    25
100
AcDbLine
 10
64.1627670846
 20
-493.9593810817
 30
0.0
 11
55.2474395952
 21
-493.9593810817
 31
0.0
  0
LINE
  5
16D
330
1F
100
AcDbEntity
  8
0
  6
Continuous
 62
     7
370
    25
100
AcDbLine
 10
55.2474395952
 20
806.0406904439
 30
0.0
 11
64.1627670846
 21
806.0406904439
 31
0.0
  0
LINE
  5
16E
330
1F
100
AcDbEntity
  8
0
  6
Continuous
 62
     7
370
    25
100
AcDbLine
 10
31.426331552
 20
-493.9593810817
 30
0.0
 11
31.426331552
 21
806.0406904439
 31
0.0
  0
LINE
  5
16F
330
1F
100
AcDbEntity
  8
0
  6
Continuous
 62
     7
370
    25
100
AcDbLine
 10
31.426331552
 20
-493.9593810817
 30
0.0
 11
55.2474395952
 21
-493.9593810817
 31
0.0
  0
LINE
  5
170
330
1F
100
AcDbEntity
  8
0
  6
Continuous
 62
     7
370
    25
100
AcDbLine
 10
55.2474395952
 20
806.0406904439
 30
0.0
 11
31.426331552
 21
806.0406904439
 31
0.0
  0
LINE
  5
171
330
1F
100
AcDbEntity
  8
0
  6
Continuous
 62
     7
370
    25
100
AcDbLine
 10
31.426331552
 20
-493.9593810817
 30
0.0
 11
24.4012908658
 21
-493.9593810817
 31
0.0
  0
LINE
  5
172
330
1F
100
AcDbEntity
  8
0
  6
Continuous
 62
     7
370
    25
100
AcDbLine
 10
24.4012908658
 20
806.0406904439
 30
0.0
 11
31.426331552
 21
806.0406904439
 31
0.0
  0
LINE
  5
173
330
1F
100
AcDbEntity
  8
0
  6
Continuous
 62
     7
370
    25
100
AcDbLine
 10
303.0875833354
 20
734.4620685795
 30
0.0
 11
300.8862794957
 21
733.7779860715
 31
0.0
  0
LINE
  5
174
330
1F
100
AcDbEntity
  8
0
  6
Continuous
 62
     7
370
    25
100
AcDbLine
 10
303.6001832804
 20
736.7248397091
 30
0.0
 11
303.0875833354
 21
734.4620685795
 31
0.0
  0
LINE
  5
175
330
1F
100
AcDbEntity
  8
0
  6
Continuous
 62
     7
370
    25
100
AcDbLine
 10
301.911494287
 20
738.303468726
 30
0.0
 11
303.6001832804
 21
736.7248397091
 31
0.0
  0
LINE
  5
176
330
1F
100
AcDbEntity
  8
0
  6
Continuous
 62
     7
370
    25
100
AcDbLine
 10
299.7101904473
 20
737.6193862179
 30
0.0
 11
301.911494287
 21
738.303468726
 31
0.0
  0
LINE
  5
177
330
1F
100
AcDbEntity
  8
0
  6
Continuous
 62
     7
370
    25
100
AcDbLine
 10
299.1975756011
 20
735.3566150883
 30
0.0
 11
299.7101904473
 21
737.6193862179
 31
0.0
  0
LINE
  5
178
330
1F
100
AcDbEntity
  8
0
  6
Continuous
 62
     7
370
    25
100
AcDbLine
 10
300.8862794957
 20
733.7779860715
 30
0.0
 11
299.1975756011
 21
735.3566150883
 31
0.0
  0
CIRCLE
  5
179
330
1F
100
AcDbEntity
  8
0
  6
Continuous
 62
     7
370
    25
100
AcDbCircle
 10
301.3896377334
 20
736.0087875824
 30
0.0
 40
5.753476820520476
  0
ARC
  5
17A
330
1F
100
AcDbEntity
  8
0
  6
Continuous
 62
     7
370
    25
100
AcDbCircle
 10
301.422796265
 20
736.0367946627
 30
0.0
 40
5.789021678226624
100
AcDbArc
 50
287.4015788727
 51
89.6155173819
  0
LWPOLYLINE
  5
17B
330
1F
100
AcDbEntity
  8
0
  6
Continuous
 62
     7
370
    25
100
AcDbPolyline
 90
        3
 70
   128
 43
0.0
 10
301.4616431317
 20
730.2557091931
 10
301.7364205441
 20
730.2623253087
 10
303.1541021189
 20
730.5127244214
  0
LINE
  5
17C
330
1F
100
AcDbEntity
  8
0
  6
Continuous
 62
     7
370
    25
100
AcDbLine
 10
301.1155189595
 20
737.9613976697
 30
0.0
 11
301.9875051102
 21
738.2324199894
 31
0.0
  0
LINE
  5
17D
330
1F
100
AcDbEntity
  8
0
  6
Continuous
 62
     7
370
    25
100
AcDbLine
 10
300.0148595891
 20
737.6193862179
 30
0.0
 11
301.1155189595
 21
737.9613976697
 31
0.0
  0
LINE
  5
17E
330
1F
100
AcDbEntity
  8
0
  6
Continuous
 62
     7
370
    25
100
AcDbLine
 10
300.0148595891
 20
737.6193862179
 30
0.0
 11
299.7101904473
 21
737.6193862179
 31
0.0
  0
LINE
  5
17F
330
1F
100
AcDbEntity
  8
0
  6
Continuous
 62
     7
370
    25
100
AcDbLine
 10
299.502259644
 20
735.3566150883
 30
0.0
 11
299.1975756011
 21
735.3566150883
 31
0.0
  0
LINE
  5
180
330
1F
100
AcDbEntity
  8
0
  6
Continuous
 62
     7
370
    25
100
AcDbLine
 10
300.3466041407
 20
734.5672707776
 30
0.0
 11
299.502259644
 21
735.3566150883
 31
0.0
  0
LINE
  5
181
330
1F
100
AcDbEntity
  8
0
  6
Continuous
 62
     7
370
    25
100
AcDbLine
 10
301.1149378142
 20
733.849034808
 30
0.0
 11
300.3466041407
 21
734.5672707776
 31
0.0
  0
LINE
  5
182
330
1F
100
AcDbEntity
  8
0
  6
Continuous
 62
     7
370
    25
100
AcDbLine
 10
299.7585596165
 20
736.4879708508
 30
0.0
 11
300.0148595891
 21
737.6193862179
 31
0.0
  0
LINE
  5
183
330
1F
100
AcDbEntity
  8
0
  6
Continuous
 62
     7
370
    25
100
AcDbLine
 10
299.502259644
 20
735.3566150883
 30
0.0
 11
299.7585596165
 21
736.4879708508
 31
0.0
  0
LINE
  5
184
330
1F
100
AcDbEntity
  8
0
  6
Continuous
 62
     7
370
    25
100
AcDbLine
 10
303.5920323452
 20
736.6887788991
 30
0.0
 11
303.5685928187
 21
736.7543440083
 31
0.0
  0
ARC
  5
185
330
1F
100
AcDbEntity
  8
0
  6
Continuous
 62
     7
370
    25
100
AcDbCircle
 10
301.7046603251
 20
736.0176121509
 30
0.0
 40
1.986908830046378
100
AcDbArc
 50
226.8820874824
 51
269.8540705637
  0
ARC
  5
186
330
1F
100
AcDbEntity
  8
0
  6
Continuous
 62
     7
370
    25
100
AcDbCircle
 10
301.7275788195
 20
736.0404404849
 30
0.0
 40
2.019237492284636
100
AcDbArc
 50
167.1950144884
 51
226.8501341194
  0
ARC
  5
187
330
1F
100
AcDbEntity
  8
0
  6
Continuous
 62
     7
370
    25
100
AcDbCircle
 10
301.7137799818
 20
736.0488639271
 30
0.0
 40
2.003921547162905
100
AcDbArc
 50
107.3702413065
 51
167.3424246557
  0
ARC
  5
188
330
1F
100
AcDbEntity
  8
0
  6
Continuous
 62
     7
370
    25
100
AcDbCircle
 10
301.7035796142
 20
736.0701358611
 30
0.0
 40
1.980577330471207
100
AcDbArc
 50
73.3663281496
 51
107.2723301175
  0
LWPOLYLINE
  5
189
330
1F
100
AcDbEntity
  8
0
  6
Continuous
 62
     7
370
    25
100
AcDbPolyline
 90
        3
 70
   128
 43
0.0
 10
302.830657514
 20
734.3821983555
 10
302.9763759694
 20
734.4929437855
 10
303.1259091219
 20
734.6312861661
  0
LWPOLYLINE
  5
18A
330
1F
100
AcDbEntity
  8
0
  6
Continuous
 62
     7
370
    25
100
AcDbPolyline
 90
       26
 70
   128
 43
0.0
 10
-109.8316697755
 20
-429.7441978237
 10
-109.4110397974
 20
-429.5625228664
 10
-109.0168444791
 20
-429.0287036678
 10
-108.6738495508
 20
-428.1763572475
 10
-108.4036020914
 20
-427.0591277858
 10
-108.2230894247
 20
-425.7468719264
 10
-108.1436364332
 20
-424.3225593349
 10
-108.1702499071
 20
-422.8753585597
 10
-108.3012907186
 20
-421.4961070796
 10
-108.5284440198
 20
-420.271827676
 10
-108.8375239053
 20
-419.2790527126
 10
-109.2090396562
 20
-418.5804862758
 10
-109.6196858564
 20
-418.2199973842
 10
-110.0436536947
 20
-418.2199973842
 10
-110.4542998949
 20
-418.5804862758
 10
-110.8258454481
 20
-419.2790527126
 10
-111.1348955312
 20
-420.271827676
 10
-111.3620786348
 20
-421.4961070796
 10
-111.493089644
 20
-422.8753585597
 10
-111.5197031179
 20
-424.3225593349
 10
-111.4402501264
 20
-425.7468719264
 10
-111.2597374597
 20
-427.0591277858
 10
-110.9894900003
 20
-428.1763572475
 10
-110.6464950719
 20
-429.0287036678
 10
-110.2522997537
 20
-429.5625228664
 10
-109.8316697755
 20
-429.7441978237
  0
LWPOLYLINE
  5
18B
330
1F
100
AcDbEntity
  8
0
  6
Continuous
 62
     7
370
    25
100
AcDbPolyline
 90
        3
 70
   128
 43
0.0
 10
-110.3241829553
 20
-418.174221017
 10
-110.5361668745
 20
-418.2199973842
 10
-110.618123261
 20
-418.2624358913
  0
LINE
  5
18C
330
1F
100
AcDbEntity
  8
0
  6
Continuous
 62
     7
370
    25
100
AcDbLine
 10
-110.618123261
 20
-429.656221368
 30
0.0
 11
-110.3241829553
 21
-429.7441978237
 31
0.0
  0
LINE
  5
18D
330
1F
100
AcDbEntity
  8
0
  6
Continuous
 62
     7
370
    25
100
AcDbLine
 10
-109.4924001375
 20
-425.9693164607
 30
0.0
 11
-110.1709692159
 21
-425.9693164607
 31
0.0
  0
LINE
  5
18E
330
1F
100
AcDbEntity
  8
0
  6
Continuous
 62
     7
370
    25
100
AcDbLine
 10
-109.1531006971
 20
-423.9592094203
 30
0.0
 11
-109.4924001375
 21
-425.9693164607
 31
0.0
  0
LINE
  5
18F
330
1F
100
AcDbEntity
  8
0
  6
Continuous
 62
     7
370
    25
100
AcDbLine
 10
-109.4924001375
 20
-421.9493407985
 30
0.0
 11
-109.1531006971
 21
-423.9592094203
 31
0.0
  0
LINE
  5
190
330
1F
100
AcDbEntity
  8
0
  6
Continuous
 62
     7
370
    25
100
AcDbLine
 10
-110.1709692159
 20
-421.9493407985
 30
0.0
 11
-109.4924001375
 21
-421.9493407985
 31
0.0
  0
LINE
  5
191
330
1F
100
AcDbEntity
  8
0
  6
Continuous
 62
     7
370
    25
100
AcDbLine
 10
-110.5102686563
 20
-423.9592094203
 30
0.0
 11
-110.1709692159
 21
-421.9493407985
 31
0.0
  0
LINE
  5
192
330
1F
100
AcDbEntity
  8
0
  6
Continuous
 62
     7
370
    25
100
AcDbLine
 10
-110.1709692159
 20
-425.9693164607
 30
0.0
 11
-110.5102686563
 21
-423.9592094203
 31
0.0
  0
LINE
  5
193
330
1F
100
AcDbEntity
  8
0
  6
Continuous
 62
     7
370
    25
100
AcDbLine
 10
-110.5102686563
 20
-423.9592094203
 30
0.0
 11
-109.1531006971
 21
-423.9592094203
 31
0.0
  0
CIRCLE
  5
194
330
1F
100
AcDbEntity
  8
0
  6
Continuous
 62
     7
370
    25
100
AcDbCircle
 10
301.3894148372
 20
156.0086983794
 30
0.0
 40
5.753441596835227
  0
ARC
  5
195
330
1F
100
AcDbEntity
  8
0
  6
Continuous
 62
     7
370
    25
100
AcDbCircle
 10
301.422796265
 20
156.036811352
 30
0.0
 40
5.789021678226624
100
AcDbArc
 50
287.4015788727
 51
89.6155173819
  0
LWPOLYLINE
  5
196
330
1F
100
AcDbEntity
  8
0
  6
Continuous
 62
     7
370
    25
100
AcDbPolyline
 90
        3
 70
   128
 43
0.0
 10
301.4616431317
 20
150.2557258824
 10
301.7364205441
 20
150.2622823933
 10
303.1541021189
 20
150.5127411107
  0
LINE
  5
197
330
1F
100
AcDbEntity
  8
0
  6
Continuous
 62
     7
370
    25
100
AcDbLine
 10
303.0875833354
 20
154.4620256642
 30
0.0
 11
300.8862794957
 21
153.7780027608
 31
0.0
  0
LINE
  5
198
330
1F
100
AcDbEntity
  8
0
  6
Continuous
 62
     7
370
    25
100
AcDbLine
 10
303.6001832804
 20
156.7248563984
 30
0.0
 11
303.0875833354
 21
154.4620256642
 31
0.0
  0
LINE
  5
199
330
1F
100
AcDbEntity
  8
0
  6
Continuous
 62
     7
370
    25
100
AcDbLine
 10
301.911494287
 20
158.3034258107
 30
0.0
 11
303.6001832804
 21
156.7248563984
 31
0.0
  0
LINE
  5
19A
330
1F
100
AcDbEntity
  8
0
  6
Continuous
 62
     7
370
    25
100
AcDbLine
 10
299.7101904473
 20
157.6194029072
 30
0.0
 11
301.911494287
 21
158.3034258107
 31
0.0
  0
LINE
  5
19B
330
1F
100
AcDbEntity
  8
0
  6
Continuous
 62
     7
370
    25
100
AcDbLine
 10
299.1975756011
 20
155.356572173
 30
0.0
 11
299.7101904473
 21
157.6194029072
 31
0.0
  0
LINE
  5
19C
330
1F
100
AcDbEntity
  8
0
  6
Continuous
 62
     7
370
    25
100
AcDbLine
 10
300.8862794957
 20
153.7780027608
 30
0.0
 11
299.1975756011
 21
155.356572173
 31
0.0
  0
LINE
  5
19D
330
1F
100
AcDbEntity
  8
0
  6
Continuous
 62
     7
370
    25
100
AcDbLine
 10
301.1155189595
 20
157.961414359
 30
0.0
 11
301.9875051102
 21
158.2323770741
 31
0.0
  0
LINE
  5
19E
330
1F
100
AcDbEntity
  8
0
  6
Continuous
 62
     7
370
    25
100
AcDbLine
 10
300.0148595891
 20
157.6194029072
 30
0.0
 11
301.1155189595
 21
157.961414359
 31
0.0
  0
LINE
  5
19F
330
1F
100
AcDbEntity
  8
0
  6
Continuous
 62
     7
370
    25
100
AcDbLine
 10
300.0148595891
 20
157.6194029072
 30
0.0
 11
299.7101904473
 21
157.6194029072
 31
0.0
  0
LINE
  5
1A0
330
1F
100
AcDbEntity
  8
0
  6
Continuous
 62
     7
370
    25
100
AcDbLine
 10
299.502259644
 20
155.356572173
 30
0.0
 11
299.1975756011
 21
155.356572173
 31
0.0
  0
LINE
  5
1A1
330
1F
100
AcDbEntity
  8
0
  6
Continuous
 62
     7
370
    25
100
AcDbLine
 10
300.3466041407
 20
154.5672874669
 30
0.0
 11
299.502259644
 21
155.356572173
 31
0.0
  0
LINE
  5
1A2
330
1F
100
AcDbEntity
  8
0
  6
Continuous
 62
     7
370
    25
100
AcDbLine
 10
301.1149378142
 20
153.8490514973
 30
0.0
 11
300.3466041407
 21
154.5672874669
 31
0.0
  0
LINE
  5
1A3
330
1F
100
AcDbEntity
  8
0
  6
Continuous
 62
     7
370
    25
100
AcDbLine
 10
299.7585596165
 20
156.4879875401
 30
0.0
 11
300.0148595891
 21
157.6194029072
 31
0.0
  0
LINE
  5
1A4
330
1F
100
AcDbEntity
  8
0
  6
Continuous
 62
     7
370
    25
100
AcDbLine
 10
299.502259644
 20
155.356572173
 30
0.0
 11
299.7585596165
 21
156.4879875401
 31
0.0
  0
LINE
  5
1A5
330
1F
100
AcDbEntity
  8
0
  6
Continuous
 62
     7
370
    25
100
AcDbLine
 10
303.5920323452
 20
156.688855193
 30
0.0
 11
303.5685928187
 21
156.754301093
 31
0.0
  0
ARC
  5
1A6
330
1F
100
AcDbEntity
  8
0
  6
Continuous
 62
     7
370
    25
100
AcDbCircle
 10
301.7049055433
 20
156.018247184
 30
0.0
 40
1.987527811364854
100
AcDbArc
 50
226.8891111273
 51
269.8470469188
  0
ARC
  5
1A7
330
1F
100
AcDbEntity
  8
0
  6
Continuous
 62
     7
370
    25
100
AcDbCircle
 10
301.7274842402
 20
156.0404282177
 30
0.0
 40
2.019151683509298
100
AcDbArc
 50
167.1936184288
 51
226.851530179
  0
ARC
  5
1A8
330
1F
100
AcDbEntity
  8
0
  6
Continuous
 62
     7
370
    25
100
AcDbCircle
 10
301.7138540481
 20
156.0488124047
 30
0.0
 40
2.004008760945293
100
AcDbArc
 50
107.3716801079
 51
167.3409858542
  0
ARC
  5
1A9
330
1F
100
AcDbEntity
  8
0
  6
Continuous
 62
     7
370
    25
100
AcDbCircle
 10
301.7035886483
 20
156.0685316303
 30
0.0
 40
1.982127892784166
100
AcDbArc
 50
73.3799905727
 51
107.2586676944
  0
LWPOLYLINE
  5
1AA
330
1F
100
AcDbEntity
  8
0
  6
Continuous
 62
     7
370
    25
100
AcDbPolyline
 90
        3
 70
   128
 43
0.0
 10
302.830657514
 20
154.3822746495
 10
302.9763759694
 20
154.4929008702
 10
303.1259091219
 20
154.6313028554
  0
LINE
  5
1AB
330
1F
100
AcDbEntity
  8
0
  6
Continuous
 62
     7
370
    25
100
AcDbLine
 10
208.795695158
 20
154.4620256642
 30
0.0
 11
206.5943913183
 21
153.7780027608
 31
0.0
  0
LINE
  5
1AC
330
1F
100
AcDbEntity
  8
0
  6
Continuous
 62
     7
370
    25
100
AcDbLine
 10
209.3083025536
 20
156.7248563984
 30
0.0
 11
208.795695158
 21
154.4620256642
 31
0.0
  0
LINE
  5
1AD
330
1F
100
AcDbEntity
  8
0
  6
Continuous
 62
     7
370
    25
100
AcDbLine
 10
207.6196135602
 20
158.3034258107
 30
0.0
 11
209.3083025536
 21
156.7248563984
 31
0.0
  0
LINE
  5
1AE
330
1F
100
AcDbEntity
  8
0
  6
Continuous
 62
     7
370
    25
100
AcDbLine
 10
205.4183097205
 20
157.6194029072
 30
0.0
 11
207.6196135602
 21
158.3034258107
 31
0.0
  0
LINE
  5
1AF
330
1F
100
AcDbEntity
  8
0
  6
Continuous
 62
     7
370
    25
100
AcDbLine
 10
204.9056985995
 20
155.356572173
 30
0.0
 11
205.4183097205
 21
157.6194029072
 31
0.0
  0
LINE
  5
1B0
330
1F
100
AcDbEntity
  8
0
  6
Continuous
 62
     7
370
    25
100
AcDbLine
 10
206.5943913183
 20
153.7780027608
 30
0.0
 11
204.9056985995
 21
155.356572173
 31
0.0
  0
CIRCLE
  5
1B1
330
1F
100
AcDbEntity
  8
0
  6
Continuous
 62
     7
370
    25
100
AcDbCircle
 10
207.0975262637
 20
156.0087006214
 30
0.0
 40
5.753443855665735
  0
ARC
  5
1B2
330
1F
100
AcDbEntity
  8
0
  6
Continuous
 62
     7
370
    25
100
AcDbCircle
 10
207.1309135098
 20
156.0368121888
 30
0.0
 40
5.789020855099611
100
AcDbArc
 50
287.4015251872
 51
89.6154972509
  0
LWPOLYLINE
  5
1B3
330
1F
100
AcDbEntity
  8
0
  6
Continuous
 62
     7
370
    25
100
AcDbPolyline
 90
        3
 70
   128
 43
0.0
 10
207.1697624049
 20
150.2557258824
 10
207.4445323667
 20
150.2622823933
 10
208.8622139415
 20
150.5127411107
  0
LINE
  5
1B4
330
1F
100
AcDbEntity
  8
0
  6
Continuous
 62
     7
370
    25
100
AcDbLine
 10
206.8236307821
 20
157.961414359
 30
0.0
 11
207.6956243834
 21
158.2323770741
 31
0.0
  0
LINE
  5
1B5
330
1F
100
AcDbEntity
  8
0
  6
Continuous
 62
     7
370
    25
100
AcDbLine
 10
205.7229788622
 20
157.6194029072
 30
0.0
 11
206.8236307821
 21
157.961414359
 31
0.0
  0
LINE
  5
1B6
330
1F
100
AcDbEntity
  8
0
  6
Continuous
 62
     7
370
    25
100
AcDbLine
 10
205.7229788622
 20
157.6194029072
 30
0.0
 11
205.4183097205
 21
157.6194029072
 31
0.0
  0
LINE
  5
1B7
330
1F
100
AcDbEntity
  8
0
  6
Continuous
 62
     7
370
    25
100
AcDbLine
 10
205.2103714666
 20
155.356572173
 30
0.0
 11
204.9056985995
 21
155.356572173
 31
0.0
  0
LINE
  5
1B8
330
1F
100
AcDbEntity
  8
0
  6
Continuous
 62
     7
370
    25
100
AcDbLine
 10
206.0547159633
 20
154.5672874669
 30
0.0
 11
205.2103714666
 21
155.356572173
 31
0.0
  0
LINE
  5
1B9
330
1F
100
AcDbEntity
  8
0
  6
Continuous
 62
     7
370
    25
100
AcDbLine
 10
206.8230496368
 20
153.8490514973
 30
0.0
 11
206.0547159633
 21
154.5672874669
 31
0.0
  0
LINE
  5
1BA
330
1F
100
AcDbEntity
  8
0
  6
Continuous
 62
     7
370
    25
100
AcDbLine
 10
205.4666788897
 20
156.4879875401
 30
0.0
 11
205.7229788622
 21
157.6194029072
 31
0.0
  0
LINE
  5
1BB
330
1F
100
AcDbEntity
  8
0
  6
Continuous
 62
     7
370
    25
100
AcDbLine
 10
205.2103714666
 20
155.356572173
 30
0.0
 11
205.4666788897
 21
156.4879875401
 31
0.0
  0
LINE
  5
1BC
330
1F
100
AcDbEntity
  8
0
  6
Continuous
 62
     7
370
    25
100
AcDbLine
 10
209.3001441679
 20
156.688855193
 30
0.0
 11
209.2767120919
 21
156.754301093
 31
0.0
  0
ARC
  5
1BD
330
1F
100
AcDbEntity
  8
0
  6
Continuous
 62
     7
370
    25
100
AcDbCircle
 10
207.4130306882
 20
156.0182807777
 30
0.0
 40
1.987561440529422
100
AcDbArc
 50
226.8894925859
 51
269.8466654602
  0
ARC
  5
1BE
330
1F
100
AcDbEntity
  8
0
  6
Continuous
 62
     7
370
    25
100
AcDbCircle
 10
207.4356035413
 20
156.0404228696
 30
0.0
 40
2.019152896094567
100
AcDbArc
 50
167.1934706215
 51
226.8512715695
  0
ARC
  5
1BF
330
1F
100
AcDbEntity
  8
0
  6
Continuous
 62
     7
370
    25
100
AcDbCircle
 10
207.4219725692
 20
156.0488161229
 30
0.0
 40
2.004007212270448
100
AcDbArc
 50
107.3718946257
 51
167.3410848644
  0
ARC
  5
1C0
330
1F
100
AcDbEntity
  8
0
  6
Continuous
 62
     7
370
    25
100
AcDbCircle
 10
207.4117044875
 20
156.0684671219
 30
0.0
 40
1.982190688435383
100
AcDbArc
 50
73.3804287887
 51
107.2582253586
  0
LWPOLYLINE
  5
1C1
330
1F
100
AcDbEntity
  8
0
  6
Continuous
 62
     7
370
    25
100
AcDbPolyline
 90
        3
 70
   128
 43
0.0
 10
208.5387767872
 20
154.3822746495
 10
208.6844952425
 20
154.4929008702
 10
208.8340283951
 20
154.6313028554
  0
LINE
  5
1C2
330
1F
100
AcDbEntity
  8
0
  6
Continuous
 62
     7
370
    25
100
AcDbLine
 10
-109.4924001375
 20
154.0307264546
 30
0.0
 11
-110.1709692159
 21
154.0307264546
 31
0.0
  0
LINE
  5
1C3
330
1F
100
AcDbEntity
  8
0
  6
Continuous
 62
     7
370
    25
100
AcDbLine
 10
-109.1531006971
 20
156.0407142857
 30
0.0
 11
-109.4924001375
 21
154.0307264546
 31
0.0
  0
LINE
  5
1C4
330
1F
100
AcDbEntity
  8
0
  6
Continuous
 62
     7
370
    25
100
AcDbLine
 10
-109.4924001375
 20
158.0507021168
 30
0.0
 11
-109.1531006971
 21
156.0407142857
 31
0.0
  0
LINE
  5
1C5
330
1F
100
AcDbEntity
  8
0
  6
Continuous
 62
     7
370
    25
100
AcDbLine
 10
-110.1709692159
 20
158.0507021168
 30
0.0
 11
-109.4924001375
 21
158.0507021168
 31
0.0
  0
LINE
  5
1C6
330
1F
100
AcDbEntity
  8
0
  6
Continuous
 62
     7
370
    25
100
AcDbLine
 10
-110.5102686563
 20
156.0407142857
 30
0.0
 11
-110.1709692159
 21
158.0507021168
 31
0.0
  0
LINE
  5
1C7
330
1F
100
AcDbEntity
  8
0
  6
Continuous
 62
     7
370
    25
100
AcDbLine
 10
-110.1709692159
 20
154.0307264546
 30
0.0
 11
-110.5102686563
 21
156.0407142857
 31
0.0
  0
LWPOLYLINE
  5
1C8
330
1F
100
AcDbEntity
  8
0
  6
Continuous
 62
     7
370
    25
100
AcDbPolyline
 90
       26
 70
   128
 43
0.0
 10
-109.8316697755
 20
150.2557258824
 10
-109.4110397974
 20
150.437520049
 10
-109.0168444791
 20
150.9713392476
 10
-108.6738495508
 20
151.8236856679
 10
-108.4036020914
 20
152.9409151295
 10
-108.2230894247
 20
154.2530517796
 10
-108.1436364332
 20
155.6774835805
 10
-108.1702499071
 20
157.1246843556
 10
-108.3012907186
 20
158.5038166264
 10
-108.5284440198
 20
159.7282152394
 10
-108.8375239053
 20
160.7208709935
 10
-109.2090396562
 20
161.4194374302
 10
-109.6196858564
 20
161.7800455311
 10
-110.0436536947
 20
161.7800455311
 10
-110.4542998949
 20
161.4194374302
 10
-110.8258454481
 20
160.7208709935
 10
-111.1348955312
 20
159.7282152394
 10
-111.3620786348
 20
158.5038166264
 10
-111.493089644
 20
157.1246843556
 10
-111.5197031179
 20
155.6774835805
 10
-111.4402501264
 20
154.2530517796
 10
-111.2597374597
 20
152.9409151295
 10
-110.9894900003
 20
151.8236856679
 10
-110.6464950719
 20
150.9713392476
 10
-110.2522997537
 20
150.437520049
 10
-109.8316697755
 20
150.2557258824
  0
LWPOLYLINE
  5
1C9
330
1F
100
AcDbEntity
  8
0
  6
Continuous
 62
     7
370
    25
100
AcDbPolyline
 90
        3
 70
   128
 43
0.0
 10
-110.3241829553
 20
161.825702689
 10
-110.5361668745
 20
161.7800455311
 10
-110.6180636564
 20
161.7377262333
  0
LINE
  5
1CA
330
1F
100
AcDbEntity
  8
0
  6
Continuous
 62
     7
370
    25
100
AcDbLine
 10
-110.6180636564
 20
150.3437023381
 30
0.0
 11
-110.3241829553
 21
150.2557258824
 31
0.0
  0
LINE
  5
1CB
330
1F
100
AcDbEntity
  8
0
  6
Continuous
 62
     7
370
    25
100
AcDbLine
 10
-110.5102686563
 20
156.0407142857
 30
0.0
 11
-109.1531006971
 21
156.0407142857
 31
0.0
  0
LWPOLYLINE
  5
1CC
330
1F
100
AcDbEntity
  8
0
  6
Continuous
 62
     7
370
    25
100
AcDbPolyline
 90
       26
 70
   128
 43
0.0
 10
-82.0563672462
 20
730.2557091931
 10
-81.635737268
 20
730.437443755
 10
-81.2415419498
 20
730.9712629536
 10
-80.8985470214
 20
731.8236093739
 10
-80.628299562
 20
732.9409580449
 10
-80.4477719942
 20
734.2530350903
 10
-80.3683339038
 20
735.6774668912
 10
-80.3949473777
 20
737.1247272709
 10
-80.5259732881
 20
738.5038595418
 10
-80.7531414905
 20
739.7281985501
 10
-81.0622064748
 20
740.7208543042
 10
-81.4337222257
 20
741.4194803456
 10
-81.8443833271
 20
741.7800884465
 10
-82.2683511653
 20
741.7800884465
 10
-82.6789973655
 20
741.4194803456
 10
-83.0505280176
 20
740.7208543042
 10
-83.3595930019
 20
739.7281985501
 10
-83.5867612043
 20
738.5038595418
 10
-83.7177722135
 20
737.1247272709
 10
-83.7444005886
 20
735.6774668912
 10
-83.6649475971
 20
734.2530350903
 10
-83.4844349304
 20
732.9409580449
 10
-83.214187471
 20
731.8236093739
 10
-82.8711925426
 20
730.9712629536
 10
-82.4769972244
 20
730.437443755
 10
-82.0563672462
 20
730.2557091931
  0
LWPOLYLINE
  5
1CD
330
1F
100
AcDbEntity
  8
0
  6
Continuous
 62
     7
370
    25
100
AcDbPolyline
 90
        3
 70
   128
 43
0.0
 10
-82.5488655248
 20
741.8256859997
 10
-82.760849444
 20
741.7800884465
 10
-82.8427462259
 20
741.737709544
  0
LINE
  5
1CE
330
1F
100
AcDbEntity
  8
0
  6
Continuous
 62
     7
370
    25
100
AcDbLine
 10
-82.8427462259
 20
730.3436856488
 30
0.0
 11
-82.5488655248
 21
730.2557091931
 31
0.0
  0
LINE
  5
1CF
330
1F
100
AcDbEntity
  8
0
  6
Continuous
 62
     7
370
    25
100
AcDbLine
 10
-81.7170678058
 20
734.0307097653
 30
0.0
 11
-82.3956517854
 21
734.0307097653
 31
0.0
  0
LINE
  5
1D0
330
1F
100
AcDbEntity
  8
0
  6
Continuous
 62
     7
370
    25
100
AcDbLine
 10
-81.3777832666
 20
736.0406975964
 30
0.0
 11
-81.7170678058
 21
734.0307097653
 31
0.0
  0
LINE
  5
1D1
330
1F
100
AcDbEntity
  8
0
  6
Continuous
 62
     7
370
    25
100
AcDbLine
 10
-81.7170678058
 20
738.0506854275
 30
0.0
 11
-81.3777832666
 21
736.0406975964
 31
0.0
  0
LINE
  5
1D2
330
1F
100
AcDbEntity
  8
0
  6
Continuous
 62
     7
370
    25
100
AcDbLine
 10
-82.3956517854
 20
738.0506854275
 30
0.0
 11
-81.7170678058
 21
738.0506854275
 31
0.0
  0
LINE
  5
1D3
330
1F
100
AcDbEntity
  8
0
  6
Continuous
 62
     7
370
    25
100
AcDbLine
 10
-82.7349363246
 20
736.0406975964
 30
0.0
 11
-82.3956517854
 21
738.0506854275
 31
0.0
  0
LINE
  5
1D4
330
1F
100
AcDbEntity
  8
0
  6
Continuous
 62
     7
370
    25
100
AcDbLine
 10
-82.3956517854
 20
734.0307097653
 30
0.0
 11
-82.7349363246
 21
736.0406975964
 31
0.0
  0
LINE
  5
1D5
330
1F
100
AcDbEntity
  8
0
  6
Continuous
 62
     7
370
    25
100
AcDbLine
 10
-82.7349363246
 20
736.0406975964
 30
0.0
 11
-81.3777832666
 21
736.0406975964
 31
0.0
  0
LINE
  5
1D6
330
1F
100
AcDbEntity
  8
0
  6
Continuous
 62
     7
370
    25
100
AcDbLine
 10
-81.7170678058
 20
154.0307264546
 30
0.0
 11
-82.3956517854
 21
154.0307264546
 31
0.0
  0
LINE
  5
1D7
330
1F
100
AcDbEntity
  8
0
  6
Continuous
 62
     7
370
    25
100
AcDbLine
 10
-81.3777832666
 20
156.0407142857
 30
0.0
 11
-81.7170678058
 21
154.0307264546
 31
0.0
  0
LINE
  5
1D8
330
1F
100
AcDbEntity
  8
0
  6
Continuous
 62
     7
370
    25
100
AcDbLine
 10
-81.7170678058
 20
158.0507021168
 30
0.0
 11
-81.3777832666
 21
156.0407142857
 31
0.0
  0
LINE
  5
1D9
330
1F
100
AcDbEntity
  8
0
  6
Continuous
 62
     7
370
    25
100
AcDbLine
 10
-82.3956517854
 20
158.0507021168
 30
0.0
 11
-81.7170678058
 21
158.0507021168
 31
0.0
  0
LINE
  5
1DA
330
1F
100
AcDbEntity
  8
0
  6
Continuous
 62
     7
370
    25
100
AcDbLine
 10
-82.7349363246
 20
156.0407142857
 30
0.0
 11
-82.3956517854
 21
158.0507021168
 31
0.0
  0
LINE
  5
1DB
330
1F
100
AcDbEntity
  8
0
  6
Continuous
 62
     7
370
    25
100
AcDbLine
 10
-82.3956517854
 20
154.0307264546
 30
0.0
 11
-82.7349363246
 21
156.0407142857
 31
0.0
  0
LWPOLYLINE
  5
1DC
330
1F
100
AcDbEntity
  8
0
  6
Continuous
 62
     7
370
    25
100
AcDbPolyline
 90
       26
 70
   128
 43
0.0
 10
-82.0563672462
 20
150.2557258824
 10
-81.635737268
 20
150.437520049
 10
-81.2415419498
 20
150.9713392476
 10
-80.8985470214
 20
151.8236856679
 10
-80.628299562
 20
152.9409151295
 10
-80.4477719942
 20
154.2530517796
 10
-80.3683339038
 20
155.6774835805
 10
-80.3949473777
 20
157.1246843556
 10
-80.5259732881
 20
158.5038166264
 10
-80.7531414905
 20
159.7282152394
 10
-81.0622064748
 20
160.7208709935
 10
-81.4337222257
 20
161.4194374302
 10
-81.8443833271
 20
161.7800455311
 10
-82.2683511653
 20
161.7800455311
 10
-82.6789973655
 20
161.4194374302
 10
-83.0505280176
 20
160.7208709935
 10
-83.3595930019
 20
159.7282152394
 10
-83.5867612043
 20
158.5038166264
 10
-83.7177722135
 20
157.1246843556
 10
-83.7444005886
 20
155.6774835805
 10
-83.6649475971
 20
154.2530517796
 10
-83.4844349304
 20
152.9409151295
 10
-83.214187471
 20
151.8236856679
 10
-82.8711925426
 20
150.9713392476
 10
-82.4769972244
 20
150.437520049
 10
-82.0563672462
 20
150.2557258824
  0
LWPOLYLINE
  5
1DD
330
1F
100
AcDbEntity
  8
0
  6
Continuous
 62
     7
370
    25
100
AcDbPolyline
 90
        3
 70
   128
 43
0.0
 10
-82.5488655248
 20
161.825702689
 10
-82.760849444
 20
161.7800455311
 10
-82.8427313247
 20
161.7377262333
  0
LINE
  5
1DE
330
1F
100
AcDbEntity
  8
0
  6
Continuous
 62
     7
370
    25
100
AcDbLine
 10
-82.8427313247
 20
150.3437023381
 30
0.0
 11
-82.5488655248
 21
150.2557258824
 31
0.0
  0
LINE
  5
1DF
330
1F
100
AcDbEntity
  8
0
  6
Continuous
 62
     7
370
    25
100
AcDbLine
 10
-82.7349363246
 20
156.0407142857
 30
0.0
 11
-81.3777832666
 21
156.0407142857
 31
0.0
  0
CIRCLE
  5
1E0
330
1F
100
AcDbEntity
  8
0
  6
Continuous
 62
     7
370
    25
100
AcDbCircle
 10
301.3889631565
 20
-423.99140369
 30
0.0
 40
5.753404847731309
  0
ARC
  5
1E1
330
1F
100
AcDbEntity
  8
0
  6
Continuous
 62
     7
370
    25
100
AcDbCircle
 10
301.422796265
 20
-423.963112354
 30
0.0
 40
5.789021678226596
100
AcDbArc
 50
287.4015788727
 51
89.6155173819
  0
LWPOLYLINE
  5
1E2
330
1F
100
AcDbEntity
  8
0
  6
Continuous
 62
     7
370
    25
100
AcDbPolyline
 90
        3
 70
   128
 43
0.0
 10
301.4616431317
 20
-429.7441978237
 10
301.7364205441
 20
-429.737760522
 10
303.1541021189
 20
-429.4871825954
  0
LINE
  5
1E3
330
1F
100
AcDbEntity
  8
0
  6
Continuous
 62
     7
370
    25
100
AcDbLine
 10
303.0875833354
 20
-425.5380172512
 30
0.0
 11
300.8862794957
 21
-426.2220401546
 31
0.0
  0
LINE
  5
1E4
330
1F
100
AcDbEntity
  8
0
  6
Continuous
 62
     7
370
    25
100
AcDbLine
 10
303.6001832804
 20
-423.2751865169
 30
0.0
 11
303.0875833354
 21
-425.5380172512
 31
0.0
  0
LINE
  5
1E5
330
1F
100
AcDbEntity
  8
0
  6
Continuous
 62
     7
370
    25
100
AcDbLine
 10
301.911494287
 20
-421.6966171047
 30
0.0
 11
303.6001832804
 21
-423.2751865169
 31
0.0
  0
LINE
  5
1E6
330
1F
100
AcDbEntity
  8
0
  6
Continuous
 62
     7
370
    25
100
AcDbLine
 10
299.7101904473
 20
-422.3806400081
 30
0.0
 11
301.911494287
 21
-421.6966171047
 31
0.0
  0
LINE
  5
1E7
330
1F
100
AcDbEntity
  8
0
  6
Continuous
 62
     7
370
    25
100
AcDbLine
 10
299.1975756011
 20
-424.6434707424
 30
0.0
 11
299.7101904473
 21
-422.3806400081
 31
0.0
  0
LINE
  5
1E8
330
1F
100
AcDbEntity
  8
0
  6
Continuous
 62
     7
370
    25
100
AcDbLine
 10
300.8862794957
 20
-426.2220401546
 30
0.0
 11
299.1975756011
 21
-424.6434707424
 31
0.0
  0
LINE
  5
1E9
330
1F
100
AcDbEntity
  8
0
  6
Continuous
 62
     7
370
    25
100
AcDbLine
 10
301.1155189595
 20
-422.0385093471
 30
0.0
 11
301.9875051102
 21
-421.7676658412
 31
0.0
  0
LINE
  5
1EA
330
1F
100
AcDbEntity
  8
0
  6
Continuous
 62
     7
370
    25
100
AcDbLine
 10
300.0148595891
 20
-422.3806400081
 30
0.0
 11
301.1155189595
 21
-422.0385093471
 31
0.0
  0
LINE
  5
1EB
330
1F
100
AcDbEntity
  8
0
  6
Continuous
 62
     7
370
    25
100
AcDbLine
 10
300.0148595891
 20
-422.3806400081
 30
0.0
 11
299.7101904473
 21
-422.3806400081
 31
0.0
  0
LINE
  5
1EC
330
1F
100
AcDbEntity
  8
0
  6
Continuous
 62
     7
370
    25
100
AcDbLine
 10
299.502259644
 20
-424.6434707424
 30
0.0
 11
299.1975756011
 21
-424.6434707424
 31
0.0
  0
LINE
  5
1ED
330
1F
100
AcDbEntity
  8
0
  6
Continuous
 62
     7
370
    25
100
AcDbLine
 10
300.3466041407
 20
-425.4326362392
 30
0.0
 11
299.502259644
 21
-424.6434707424
 31
0.0
  0
LINE
  5
1EE
330
1F
100
AcDbEntity
  8
0
  6
Continuous
 62
     7
370
    25
100
AcDbLine
 10
301.1149378142
 20
-426.150991418
 30
0.0
 11
300.3466041407
 21
-425.4326362392
 31
0.0
  0
LINE
  5
1EF
330
1F
100
AcDbEntity
  8
0
  6
Continuous
 62
     7
370
    25
100
AcDbLine
 10
299.7585596165
 20
-423.5119361659
 30
0.0
 11
300.0148595891
 21
-422.3806400081
 31
0.0
  0
LINE
  5
1F0
330
1F
100
AcDbEntity
  8
0
  6
Continuous
 62
     7
370
    25
100
AcDbLine
 10
299.502259644
 20
-424.6434707424
 30
0.0
 11
299.7585596165
 21
-423.5119361659
 31
0.0
  0
LINE
  5
1F1
330
1F
100
AcDbEntity
  8
0
  6
Continuous
 62
     7
370
    25
100
AcDbLine
 10
303.5920323452
 20
-423.3111877223
 30
0.0
 11
303.5685928187
 21
-423.2456226131
 31
0.0
  0
ARC
  5
1F2
330
1F
100
AcDbEntity
  8
0
  6
Continuous
 62
     7
370
    25
100
AcDbCircle
 10
301.7048767942
 20
-423.982190488
 30
0.0
 40
1.987132979542936
100
AcDbArc
 50
226.8795885242
 51
269.8478454631
  0
ARC
  5
1F3
330
1F
100
AcDbEntity
  8
0
  6
Continuous
 62
     7
370
    25
100
AcDbCircle
 10
301.7272519445
 20
-423.9595666084
 30
0.0
 40
2.018940934030535
100
AcDbArc
 50
167.190189069
 51
226.8549595387
  0
ARC
  5
1F4
330
1F
100
AcDbEntity
  8
0
  6
Continuous
 62
     7
370
    25
100
AcDbCircle
 10
301.7142377609
 20
-423.9514646834
 30
0.0
 40
2.004460606228387
100
AcDbArc
 50
107.3791320461
 51
167.333533916
  0
ARC
  5
1F5
330
1F
100
AcDbEntity
  8
0
  6
Continuous
 62
     7
370
    25
100
AcDbCircle
 10
301.7036010958
 20
-423.9336254511
 30
0.0
 40
1.984264510302841
100
AcDbArc
 50
73.3987802825
 51
107.2398779845
  0
LWPOLYLINE
  5
1F6
330
1F
100
AcDbEntity
  8
0
  6
Continuous
 62
     7
370
    25
100
AcDbPolyline
 90
        3
 70
   128
 43
0.0
 10
302.830657514
 20
-425.6178874752
 10
302.9763759694
 20
-425.5070228359
 10
303.1259091219
 20
-425.36874006
  0
LINE
  5
1F7
330
1F
100
AcDbEntity
  8
0
  6
Continuous
 62
     7
370
    25
100
AcDbLine
 10
114.5038107059
 20
734.4620685795
 30
0.0
 11
112.3025068662
 21
733.7779860715
 31
0.0
  0
LINE
  5
1F8
330
1F
100
AcDbEntity
  8
0
  6
Continuous
 62
     7
370
    25
100
AcDbLine
 10
115.0164199641
 20
736.7248397091
 30
0.0
 11
114.5038107059
 21
734.4620685795
 31
0.0
  0
LINE
  5
1F9
330
1F
100
AcDbEntity
  8
0
  6
Continuous
 62
     7
370
    25
100
AcDbLine
 10
113.3277272454
 20
738.303468726
 30
0.0
 11
115.0164199641
 21
736.7248397091
 31
0.0
  0
LINE
  5
1FA
330
1F
100
AcDbEntity
  8
0
  6
Continuous
 62
     7
370
    25
100
AcDbLine
 10
111.1264252684
 20
737.6193862179
 30
0.0
 11
113.3277272454
 21
738.303468726
 31
0.0
  0
LINE
  5
1FB
330
1F
100
AcDbEntity
  8
0
  6
Continuous
 62
     7
370
    25
100
AcDbLine
 10
110.6138141474
 20
735.3566150883
 30
0.0
 11
111.1264252684
 21
737.6193862179
 31
0.0
  0
LINE
  5
1FC
330
1F
100
AcDbEntity
  8
0
  6
Continuous
 62
     7
370
    25
100
AcDbLine
 10
112.3025068662
 20
733.7779860715
 30
0.0
 11
110.6138141474
 21
735.3566150883
 31
0.0
  0
CIRCLE
  5
1FD
330
1F
100
AcDbEntity
  8
0
  6
Continuous
 62
     7
370
    25
100
AcDbCircle
 10
112.8058624473
 20
736.0087899651
 30
0.0
 40
5.753479331445684
  0
ARC
  5
1FE
330
1F
100
AcDbEntity
  8
0
  6
Continuous
 62
     7
370
    25
100
AcDbCircle
 10
112.8390275692
 20
736.0367958533
 30
0.0
 40
5.789020523775567
100
AcDbArc
 50
287.4015030147
 51
89.6154640609
  0
LWPOLYLINE
  5
1FF
330
1F
100
AcDbEntity
  8
0
  6
Continuous
 62
     7
370
    25
100
AcDbPolyline
 90
        3
 70
   128
 43
0.0
 10
112.8778798154
 20
730.2557091931
 10
113.1526479146
 20
730.2623253087
 10
114.5703257641
 20
730.5127244214
  0
LINE
  5
200
330
1F
100
AcDbEntity
  8
0
  6
Continuous
 62
     7
370
    25
100
AcDbLine
 10
112.5317500553
 20
737.9613976697
 30
0.0
 11
113.4037436566
 21
738.2324199894
 31
0.0
  0
LINE
  5
201
330
1F
100
AcDbEntity
  8
0
  6
Continuous
 62
     7
370
    25
100
AcDbLine
 10
111.4310981354
 20
737.6193862179
 30
0.0
 11
112.5317500553
 21
737.9613976697
 31
0.0
  0
LINE
  5
202
330
1F
100
AcDbEntity
  8
0
  6
Continuous
 62
     7
370
    25
100
AcDbLine
 10
111.4310981354
 20
737.6193862179
 30
0.0
 11
111.1264252684
 21
737.6193862179
 31
0.0
  0
LINE
  5
203
330
1F
100
AcDbEntity
  8
0
  6
Continuous
 62
     7
370
    25
100
AcDbLine
 10
110.9184870145
 20
735.3566150883
 30
0.0
 11
110.6138141474
 21
735.3566150883
 31
0.0
  0
LINE
  5
204
330
1F
100
AcDbEntity
  8
0
  6
Continuous
 62
     7
370
    25
100
AcDbLine
 10
111.7628333739
 20
734.5672707776
 30
0.0
 11
110.9184870145
 21
735.3566150883
 31
0.0
  0
LINE
  5
205
330
1F
100
AcDbEntity
  8
0
  6
Continuous
 62
     7
370
    25
100
AcDbLine
 10
112.5311651847
 20
733.849034808
 30
0.0
 11
111.7628333739
 21
734.5672707776
 31
0.0
  0
LINE
  5
206
330
1F
100
AcDbEntity
  8
0
  6
Continuous
 62
     7
370
    25
100
AcDbLine
 10
111.1747907123
 20
736.4879708508
 30
0.0
 11
111.4310981354
 21
737.6193862179
 31
0.0
  0
LINE
  5
207
330
1F
100
AcDbEntity
  8
0
  6
Continuous
 62
     7
370
    25
100
AcDbLine
 10
110.9184870145
 20
735.3566150883
 30
0.0
 11
111.1747907123
 21
736.4879708508
 31
0.0
  0
LINE
  5
208
330
1F
100
AcDbEntity
  8
0
  6
Continuous
 62
     7
370
    25
100
AcDbLine
 10
115.0082597157
 20
736.6887788991
 30
0.0
 11
114.9848313651
 21
736.7543440083
 31
0.0
  0
ARC
  5
209
330
1F
100
AcDbEntity
  8
0
  6
Continuous
 62
     7
370
    25
100
AcDbCircle
 10
113.1208960841
 20
736.0176286065
 30
0.0
 40
1.986925302296093
100
AcDbArc
 50
226.8822744558
 51
269.8538835903
  0
ARC
  5
20A
330
1F
100
AcDbEntity
  8
0
  6
Continuous
 62
     7
370
    25
100
AcDbCircle
 10
113.1438483584
 20
736.0404509154
 30
0.0
 40
2.019272667575407
100
AcDbArc
 50
167.1955448456
 51
226.8495021581
  0
ARC
  5
20B
330
1F
100
AcDbEntity
  8
0
  6
Continuous
 62
     7
370
    25
100
AcDbCircle
 10
113.130018504
 20
736.0488570877
 30
0.0
 40
2.00393029177374
100
AcDbArc
 50
107.3703855765
 51
167.3422803857
  0
ARC
  5
20C
330
1F
100
AcDbEntity
  8
0
  6
Continuous
 62
     7
370
    25
100
AcDbCircle
 10
113.1198138745
 20
736.0700602084
 30
0.0
 40
1.980650511272215
100
AcDbArc
 50
73.3668874303
 51
107.2717677469
  0
LWPOLYLINE
  5
20D
330
1F
100
AcDbEntity
  8
0
  6
Continuous
 62
     7
370
    25
100
AcDbPolyline
 90
        3
 70
   128
 43
0.0
 10
114.2468923351
 20
734.3821983555
 10
114.3926107904
 20
734.4929437855
 10
114.542143943
 20
734.6312861661
  0
LINE
  5
20E
330
1F
100
AcDbEntity
  8
0
  6
Continuous
 62
     7
370
    25
100
AcDbLine
 10
114.5038107059
 20
-425.5380172512
 30
0.0
 11
112.3025068662
 21
-426.2220401546
 31
0.0
  0
LINE
  5
20F
330
1F
100
AcDbEntity
  8
0
  6
Continuous
 62
     7
370
    25
100
AcDbLine
 10
115.0164199641
 20
-423.2751865169
 30
0.0
 11
114.5038107059
 21
-425.5380172512
 31
0.0
  0
LINE
  5
210
330
1F
100
AcDbEntity
  8
0
  6
Continuous
 62
     7
370
    25
100
AcDbLine
 10
113.3277272454
 20
-421.6966171047
 30
0.0
 11
115.0164199641
 21
-423.2751865169
 31
0.0
  0
LINE
  5
211
330
1F
100
AcDbEntity
  8
0
  6
Continuous
 62
     7
370
    25
100
AcDbLine
 10
111.1264252684
 20
-422.3806400081
 30
0.0
 11
113.3277272454
 21
-421.6966171047
 31
0.0
  0
LINE
  5
212
330
1F
100
AcDbEntity
  8
0
  6
Continuous
 62
     7
370
    25
100
AcDbLine
 10
110.6138141474
 20
-424.6434707424
 30
0.0
 11
111.1264252684
 21
-422.3806400081
 31
0.0
  0
LINE
  5
213
330
1F
100
AcDbEntity
  8
0
  6
Continuous
 62
     7
370
    25
100
AcDbLine
 10
112.3025068662
 20
-426.2220401546
 30
0.0
 11
110.6138141474
 21
-424.6434707424
 31
0.0
  0
CIRCLE
  5
214
330
1F
100
AcDbEntity
  8
0
  6
Continuous
 62
     7
370
    25
100
AcDbCircle
 10
112.805187869
 20
-423.9914013065
 30
0.0
 40
5.75340735981468
  0
ARC
  5
215
330
1F
100
AcDbEntity
  8
0
  6
Continuous
 62
     7
370
    25
100
AcDbCircle
 10
112.8390275692
 20
-423.9631111635
 30
0.0
 40
5.789020523775531
100
AcDbArc
 50
287.4015030147
 51
89.6154640609
  0
LWPOLYLINE
  5
216
330
1F
100
AcDbEntity
  8
0
  6
Continuous
 62
     7
370
    25
100
AcDbPolyline
 90
        3
 70
   128
 43
0.0
 10
112.8778798154
 20
-429.7441978237
 10
113.1526479146
 20
-429.737760522
 10
114.5703257641
 20
-429.4871825954
  0
LINE
  5
217
330
1F
100
AcDbEntity
  8
0
  6
Continuous
 62
     7
370
    25
100
AcDbLine
 10
112.5317500553
 20
-422.0385093471
 30
0.0
 11
113.4037436566
 21
-421.7676658412
 31
0.0
  0
LINE
  5
218
330
1F
100
AcDbEntity
  8
0
  6
Continuous
 62
     7
370
    25
100
AcDbLine
 10
111.4310981354
 20
-422.3806400081
 30
0.0
 11
112.5317500553
 21
-422.0385093471
 31
0.0
  0
LINE
  5
219
330
1F
100
AcDbEntity
  8
0
  6
Continuous
 62
     7
370
    25
100
AcDbLine
 10
111.4310981354
 20
-422.3806400081
 30
0.0
 11
111.1264252684
 21
-422.3806400081
 31
0.0
  0
LINE
  5
21A
330
1F
100
AcDbEntity
  8
0
  6
Continuous
 62
     7
370
    25
100
AcDbLine
 10
110.9184870145
 20
-424.6434707424
 30
0.0
 11
110.6138141474
 21
-424.6434707424
 31
0.0
  0
LINE
  5
21B
330
1F
100
AcDbEntity
  8
0
  6
Continuous
 62
     7
370
    25
100
AcDbLine
 10
111.7628333739
 20
-425.4326362392
 30
0.0
 11
110.9184870145
 21
-424.6434707424
 31
0.0
  0
LINE
  5
21C
330
1F
100
AcDbEntity
  8
0
  6
Continuous
 62
     7
370
    25
100
AcDbLine
 10
112.5311651847
 20
-426.150991418
 30
0.0
 11
111.7628333739
 21
-425.4326362392
 31
0.0
  0
LINE
  5
21D
330
1F
100
AcDbEntity
  8
0
  6
Continuous
 62
     7
370
    25
100
AcDbLine
 10
111.1747907123
 20
-423.5119361659
 30
0.0
 11
111.4310981354
 21
-422.3806400081
 31
0.0
  0
LINE
  5
21E
330
1F
100
AcDbEntity
  8
0
  6
Continuous
 62
     7
370
    25
100
AcDbLine
 10
110.9184870145
 20
-424.6434707424
 30
0.0
 11
111.1747907123
 21
-423.5119361659
 31
0.0
  0
LINE
  5
21F
330
1F
100
AcDbEntity
  8
0
  6
Continuous
 62
     7
370
    25
100
AcDbLine
 10
115.0082597157
 20
-423.3111877223
 30
0.0
 11
114.9848313651
 21
-423.2456226131
 31
0.0
  0
ARC
  5
220
330
1F
100
AcDbEntity
  8
0
  6
Continuous
 62
     7
370
    25
100
AcDbCircle
 10
113.1211125343
 20
-423.9821740838
 30
0.0
 40
1.987149400994399
100
AcDbArc
 50
226.8797748822
 51
269.8476591051
  0
ARC
  5
221
330
1F
100
AcDbEntity
  8
0
  6
Continuous
 62
     7
370
    25
100
AcDbCircle
 10
113.1435214685
 20
-423.9595561821
 30
0.0
 40
2.018976094276126
100
AcDbArc
 50
167.1907193789
 51
226.8543276247
  0
ARC
  5
222
330
1F
100
AcDbEntity
  8
0
  6
Continuous
 62
     7
370
    25
100
AcDbCircle
 10
113.1304762816
 20
-423.9514715215
 30
0.0
 40
2.004469349873114
100
AcDbArc
 50
107.3792762097
 51
167.3333897524
  0
ARC
  5
223
330
1F
100
AcDbEntity
  8
0
  6
Continuous
 62
     7
370
    25
100
AcDbCircle
 10
113.1198353568
 20
-423.9337012433
 30
0.0
 40
1.984337835420169
100
AcDbArc
 50
73.3993384956
 51
107.2393166817
  0
LWPOLYLINE
  5
224
330
1F
100
AcDbEntity
  8
0
  6
Continuous
 62
     7
370
    25
100
AcDbPolyline
 90
        3
 70
   128
 43
0.0
 10
114.2468923351
 20
-425.6178874752
 10
114.3926107904
 20
-425.5070228359
 10
114.542143943
 20
-425.36874006
  0
LINE
  5
225
330
1F
100
AcDbEntity
  8
0
  6
Continuous
 62
     7
370
    25
100
AcDbLine
 10
114.5038107059
 20
154.4620256642
 30
0.0
 11
112.3025068662
 21
153.7780027608
 31
0.0
  0
LINE
  5
226
330
1F
100
AcDbEntity
  8
0
  6
Continuous
 62
     7
370
    25
100
AcDbLine
 10
115.0164199641
 20
156.7248563984
 30
0.0
 11
114.5038107059
 21
154.4620256642
 31
0.0
  0
LINE
  5
227
330
1F
100
AcDbEntity
  8
0
  6
Continuous
 62
     7
370
    25
100
AcDbLine
 10
113.3277272454
 20
158.3034258107
 30
0.0
 11
115.0164199641
 21
156.7248563984
 31
0.0
  0
LINE
  5
228
330
1F
100
AcDbEntity
  8
0
  6
Continuous
 62
     7
370
    25
100
AcDbLine
 10
111.1264252684
 20
157.6194029072
 30
0.0
 11
113.3277272454
 21
158.3034258107
 31
0.0
  0
LINE
  5
229
330
1F
100
AcDbEntity
  8
0
  6
Continuous
 62
     7
370
    25
100
AcDbLine
 10
110.6138141474
 20
155.356572173
 30
0.0
 11
111.1264252684
 21
157.6194029072
 31
0.0
  0
LINE
  5
22A
330
1F
100
AcDbEntity
  8
0
  6
Continuous
 62
     7
370
    25
100
AcDbLine
 10
112.3025068662
 20
153.7780027608
 30
0.0
 11
110.6138141474
 21
155.356572173
 31
0.0
  0
CIRCLE
  5
22B
330
1F
100
AcDbEntity
  8
0
  6
Continuous
 62
     7
370
    25
100
AcDbCircle
 10
112.8056395506
 20
156.0087007623
 30
0.0
 40
5.753444108163779
  0
ARC
  5
22C
330
1F
100
AcDbEntity
  8
0
  6
Continuous
 62
     7
370
    25
100
AcDbCircle
 10
112.8390275692
 20
156.0368125426
 30
0.0
 40
5.789020523775567
100
AcDbArc
 50
287.4015030147
 51
89.6154640609
  0
LWPOLYLINE
  5
22D
330
1F
100
AcDbEntity
  8
0
  6
Continuous
 62
     7
370
    25
100
AcDbPolyline
 90
        3
 70
   128
 43
0.0
 10
112.8778798154
 20
150.2557258824
 10
113.1526479146
 20
150.2622823933
 10
114.5703257641
 20
150.5127411107
  0
LINE
  5
22E
330
1F
100
AcDbEntity
  8
0
  6
Continuous
 62
     7
370
    25
100
AcDbLine
 10
112.5317500553
 20
157.961414359
 30
0.0
 11
113.4037436566
 21
158.2323770741
 31
0.0
  0
LINE
  5
22F
330
1F
100
AcDbEntity
  8
0
  6
Continuous
 62
     7
370
    25
100
AcDbLine
 10
111.4310981354
 20
157.6194029072
 30
0.0
 11
112.5317500553
 21
157.961414359
 31
0.0
  0
LINE
  5
230
330
1F
100
AcDbEntity
  8
0
  6
Continuous
 62
     7
370
    25
100
AcDbLine
 10
111.4310981354
 20
157.6194029072
 30
0.0
 11
111.1264252684
 21
157.6194029072
 31
0.0
  0
LINE
  5
231
330
1F
100
AcDbEntity
  8
0
  6
Continuous
 62
     7
370
    25
100
AcDbLine
 10
110.9184870145
 20
155.356572173
 30
0.0
 11
110.6138141474
 21
155.356572173
 31
0.0
  0
LINE
  5
232
330
1F
100
AcDbEntity
  8
0
  6
Continuous
 62
     7
370
    25
100
AcDbLine
 10
111.7628333739
 20
154.5672874669
 30
0.0
 11
110.9184870145
 21
155.356572173
 31
0.0
  0
LINE
  5
233
330
1F
100
AcDbEntity
  8
0
  6
Continuous
 62
     7
370
    25
100
AcDbLine
 10
112.5311651847
 20
153.8490514973
 30
0.0
 11
111.7628333739
 21
154.5672874669
 31
0.0
  0
LINE
  5
234
330
1F
100
AcDbEntity
  8
0
  6
Continuous
 62
     7
370
    25
100
AcDbLine
 10
111.1747907123
 20
156.4879875401
 30
0.0
 11
111.4310981354
 21
157.6194029072
 31
0.0
  0
LINE
  5
235
330
1F
100
AcDbEntity
  8
0
  6
Continuous
 62
     7
370
    25
100
AcDbLine
 10
110.9184870145
 20
155.356572173
 30
0.0
 11
111.1747907123
 21
156.4879875401
 31
0.0
  0
LINE
  5
236
330
1F
100
AcDbEntity
  8
0
  6
Continuous
 62
     7
370
    25
100
AcDbLine
 10
115.0082597157
 20
156.688855193
 30
0.0
 11
114.9848313651
 21
156.754301093
 31
0.0
  0
ARC
  5
237
330
1F
100
AcDbEntity
  8
0
  6
Continuous
 62
     7
370
    25
100
AcDbCircle
 10
113.1211413023
 20
156.0182636397
 30
0.0
 40
1.987544284409225
100
AcDbArc
 50
226.8892979843
 51
269.8468600618
  0
ARC
  5
238
330
1F
100
AcDbEntity
  8
0
  6
Continuous
 62
     7
370
    25
100
AcDbCircle
 10
113.1437537741
 20
156.0404386468
 30
0.0
 40
2.019186853833856
100
AcDbArc
 50
167.1941487623
 51
226.8508982413
  0
ARC
  5
239
330
1F
100
AcDbEntity
  8
0
  6
Continuous
 62
     7
370
    25
100
AcDbCircle
 10
113.1300925719
 20
156.0488055639
 30
0.0
 40
2.004017507463271
100
AcDbArc
 50
107.3718243947
 51
167.3408415674
  0
ARC
  5
23A
330
1F
100
AcDbEntity
  8
0
  6
Continuous
 62
     7
370
    25
100
AcDbCircle
 10
113.1198229091
 20
156.0684558806
 30
0.0
 40
1.98220117093639
100
AcDbArc
 50
73.3805497267
 51
107.2581054506
  0
LWPOLYLINE
  5
23B
330
1F
100
AcDbEntity
  8
0
  6
Continuous
 62
     7
370
    25
100
AcDbPolyline
 90
        3
 70
   128
 43
0.0
 10
114.2468923351
 20
154.3822746495
 10
114.3926107904
 20
154.4929008702
 10
114.542143943
 20
154.6313028554
  0
CIRCLE
  5
23C
330
1F
100
AcDbEntity
  8
0
  6
Continuous
 62
     7
370
    25
100
AcDbCircle
 10
207.0970745828
 20
-423.9914014477
 30
0.0
 40
5.753407106929914
  0
ARC
  5
23D
330
1F
100
AcDbEntity
  8
0
  6
Continuous
 62
     7
370
    25
100
AcDbCircle
 10
207.1309135098
 20
-423.9631115173
 30
0.0
 40
5.789020855099611
100
AcDbArc
 50
287.4015251872
 51
89.6154972509
  0
LWPOLYLINE
  5
23E
330
1F
100
AcDbEntity
  8
0
  6
Continuous
 62
     7
370
    25
100
AcDbPolyline
 90
        3
 70
   128
 43
0.0
 10
207.1697624049
 20
-429.7441978237
 10
207.4445323667
 20
-429.737760522
 10
208.8622139415
 20
-429.4871825954
  0
LINE
  5
23F
330
1F
100
AcDbEntity
  8
0
  6
Continuous
 62
     7
370
    25
100
AcDbLine
 10
208.795695158
 20
-425.5380172512
 30
0.0
 11
206.5943913183
 21
-426.2220401546
 31
0.0
  0
LINE
  5
240
330
1F
100
AcDbEntity
  8
0
  6
Continuous
 62
     7
370
    25
100
AcDbLine
 10
209.3083025536
 20
-423.2751865169
 30
0.0
 11
208.795695158
 21
-425.5380172512
 31
0.0
  0
LINE
  5
241
330
1F
100
AcDbEntity
  8
0
  6
Continuous
 62
     7
370
    25
100
AcDbLine
 10
207.6196135602
 20
-421.6966171047
 30
0.0
 11
209.3083025536
 21
-423.2751865169
 31
0.0
  0
LINE
  5
242
330
1F
100
AcDbEntity
  8
0
  6
Continuous
 62
     7
370
    25
100
AcDbLine
 10
205.4183097205
 20
-422.3806400081
 30
0.0
 11
207.6196135602
 21
-421.6966171047
 31
0.0
  0
LINE
  5
243
330
1F
100
AcDbEntity
  8
0
  6
Continuous
 62
     7
370
    25
100
AcDbLine
 10
204.9056985995
 20
-424.6434707424
 30
0.0
 11
205.4183097205
 21
-422.3806400081
 31
0.0
  0
LINE
  5
244
330
1F
100
AcDbEntity
  8
0
  6
Continuous
 62
     7
370
    25
100
AcDbLine
 10
206.5943913183
 20
-426.2220401546
 30
0.0
 11
204.9056985995
 21
-424.6434707424
 31
0.0
  0
LINE
  5
245
330
1F
100
AcDbEntity
  8
0
  6
Continuous
 62
     7
370
    25
100
AcDbLine
 10
206.8236307821
 20
-422.0385093471
 30
0.0
 11
207.6956243834
 21
-421.7676658412
 31
0.0
  0
LINE
  5
246
330
1F
100
AcDbEntity
  8
0
  6
Continuous
 62
     7
370
    25
100
AcDbLine
 10
205.7229788622
 20
-422.3806400081
 30
0.0
 11
206.8236307821
 21
-422.0385093471
 31
0.0
  0
LINE
  5
247
330
1F
100
AcDbEntity
  8
0
  6
Continuous
 62
     7
370
    25
100
AcDbLine
 10
205.7229788622
 20
-422.3806400081
 30
0.0
 11
205.4183097205
 21
-422.3806400081
 31
0.0
  0
LINE
  5
248
330
1F
100
AcDbEntity
  8
0
  6
Continuous
 62
     7
370
    25
100
AcDbLine
 10
205.2103714666
 20
-424.6434707424
 30
0.0
 11
204.9056985995
 21
-424.6434707424
 31
0.0
  0
LINE
  5
249
330
1F
100
AcDbEntity
  8
0
  6
Continuous
 62
     7
370
    25
100
AcDbLine
 10
206.0547159633
 20
-425.4326362392
 30
0.0
 11
205.2103714666
 21
-424.6434707424
 31
0.0
  0
LINE
  5
24A
330
1F
100
AcDbEntity
  8
0
  6
Continuous
 62
     7
370
    25
100
AcDbLine
 10
206.8230496368
 20
-426.150991418
 30
0.0
 11
206.0547159633
 21
-425.4326362392
 31
0.0
  0
LINE
  5
24B
330
1F
100
AcDbEntity
  8
0
  6
Continuous
 62
     7
370
    25
100
AcDbLine
 10
205.4666788897
 20
-423.5119361659
 30
0.0
 11
205.7229788622
 21
-422.3806400081
 31
0.0
  0
LINE
  5
24C
330
1F
100
AcDbEntity
  8
0
  6
Continuous
 62
     7
370
    25
100
AcDbLine
 10
205.2103714666
 20
-424.6434707424
 30
0.0
 11
205.4666788897
 21
-423.5119361659
 31
0.0
  0
LINE
  5
24D
330
1F
100
AcDbEntity
  8
0
  6
Continuous
 62
     7
370
    25
100
AcDbLine
 10
209.3001441679
 20
-423.3111877223
 30
0.0
 11
209.2767120919
 21
-423.2456226131
 31
0.0
  0
ARC
  5
24E
330
1F
100
AcDbEntity
  8
0
  6
Continuous
 62
     7
370
    25
100
AcDbCircle
 10
207.41300192
 20
-423.9821569502
 30
0.0
 40
1.987166552615168
100
AcDbArc
 50
226.8799695229
 51
269.8474644644
  0
ARC
  5
24F
330
1F
100
AcDbEntity
  8
0
  6
Continuous
 62
     7
370
    25
100
AcDbCircle
 10
207.4353712481
 20
-423.9595719548
 30
0.0
 40
2.018942149132732
100
AcDbArc
 50
167.1900413125
 51
226.8547008785
  0
ARC
  5
250
330
1F
100
AcDbEntity
  8
0
  6
Continuous
 62
     7
370
    25
100
AcDbCircle
 10
207.42235628
 20
-423.9514609614
 30
0.0
 40
2.004459054352714
100
AcDbArc
 50
107.3793464996
 51
167.3336329905
  0
ARC
  5
251
330
1F
100
AcDbEntity
  8
0
  6
Continuous
 62
     7
370
    25
100
AcDbCircle
 10
207.4117169352
 20
-423.9336900088
 30
0.0
 40
1.984327358110325
100
AcDbArc
 50
73.3992178442
 51
107.2394363032
  0
LWPOLYLINE
  5
252
330
1F
100
AcDbEntity
  8
0
  6
Continuous
 62
     7
370
    25
100
AcDbPolyline
 90
        3
 70
   128
 43
0.0
 10
208.5387767872
 20
-425.6178874752
 10
208.6844952425
 20
-425.5070228359
 10
208.8340283951
 20
-425.36874006
  0
LINE
  5
253
330
1F
100
AcDbEntity
  8
0
  6
Continuous
 62
     7
370
    25
100
AcDbLine
 10
208.795695158
 20
734.4620685795
 30
0.0
 11
206.5943913183
 21
733.7779860715
 31
0.0
  0
LINE
  5
254
330
1F
100
AcDbEntity
  8
0
  6
Continuous
 62
     7
370
    25
100
AcDbLine
 10
209.3083025536
 20
736.7248397091
 30
0.0
 11
208.795695158
 21
734.4620685795
 31
0.0
  0
LINE
  5
255
330
1F
100
AcDbEntity
  8
0
  6
Continuous
 62
     7
370
    25
100
AcDbLine
 10
207.6196135602
 20
738.303468726
 30
0.0
 11
209.3083025536
 21
736.7248397091
 31
0.0
  0
LINE
  5
256
330
1F
100
AcDbEntity
  8
0
  6
Continuous
 62
     7
370
    25
100
AcDbLine
 10
205.4183097205
 20
737.6193862179
 30
0.0
 11
207.6196135602
 21
738.303468726
 31
0.0
  0
LINE
  5
257
330
1F
100
AcDbEntity
  8
0
  6
Continuous
 62
     7
370
    25
100
AcDbLine
 10
204.9056985995
 20
735.3566150883
 30
0.0
 11
205.4183097205
 21
737.6193862179
 31
0.0
  0
LINE
  5
258
330
1F
100
AcDbEntity
  8
0
  6
Continuous
 62
     7
370
    25
100
AcDbLine
 10
206.5943913183
 20
733.7779860715
 30
0.0
 11
204.9056985995
 21
735.3566150883
 31
0.0
  0
CIRCLE
  5
259
330
1F
100
AcDbEntity
  8
0
  6
Continuous
 62
     7
370
    25
100
AcDbCircle
 10
207.0977491601
 20
736.0087898243
 30
0.0
 40
5.753479079167266
  0
ARC
  5
25A
330
1F
100
AcDbEntity
  8
0
  6
Continuous
 62
     7
370
    25
100
AcDbCircle
 10
207.1309135098
 20
736.0367954995
 30
0.0
 40
5.789020855099667
100
AcDbArc
 50
287.4015251872
 51
89.6154972509
  0
LWPOLYLINE
  5
25B
330
1F
100
AcDbEntity
  8
0
  6
Continuous
 62
     7
370
    25
100
AcDbPolyline
 90
        3
 70
   128
 43
0.0
 10
207.1697624049
 20
730.2557091931
 10
207.4445323667
 20
730.2623253087
 10
208.8622139415
 20
730.5127244214
  0
LINE
  5
25C
330
1F
100
AcDbEntity
  8
0
  6
Continuous
 62
     7
370
    25
100
AcDbLine
 10
206.8236307821
 20
737.9613976697
 30
0.0
 11
207.6956243834
 21
738.2324199894
 31
0.0
  0
LINE
  5
25D
330
1F
100
AcDbEntity
  8
0
  6
Continuous
 62
     7
370
    25
100
AcDbLine
 10
205.7229788622
 20
737.6193862179
 30
0.0
 11
206.8236307821
 21
737.9613976697
 31
0.0
  0
LINE
  5
25E
330
1F
100
AcDbEntity
  8
0
  6
Continuous
 62
     7
370
    25
100
AcDbLine
 10
205.7229788622
 20
737.6193862179
 30
0.0
 11
205.4183097205
 21
737.6193862179
 31
0.0
  0
LINE
  5
25F
330
1F
100
AcDbEntity
  8
0
  6
Continuous
 62
     7
370
    25
100
AcDbLine
 10
205.2103714666
 20
735.3566150883
 30
0.0
 11
204.9056985995
 21
735.3566150883
 31
0.0
  0
LINE
  5
260
330
1F
100
AcDbEntity
  8
0
  6
Continuous
 62
     7
370
    25
100
AcDbLine
 10
206.0547159633
 20
734.5672707776
 30
0.0
 11
205.2103714666
 21
735.3566150883
 31
0.0
  0
LINE
  5
261
330
1F
100
AcDbEntity
  8
0
  6
Continuous
 62
     7
370
    25
100
AcDbLine
 10
206.8230496368
 20
733.849034808
 30
0.0
 11
206.0547159633
 21
734.5672707776
 31
0.0
  0
LINE
  5
262
330
1F
100
AcDbEntity
  8
0
  6
Continuous
 62
     7
370
    25
100
AcDbLine
 10
205.4666788897
 20
736.4879708508
 30
0.0
 11
205.7229788622
 21
737.6193862179
 31
0.0
  0
LINE
  5
263
330
1F
100
AcDbEntity
  8
0
  6
Continuous
 62
     7
370
    25
100
AcDbLine
 10
205.2103714666
 20
735.3566150883
 30
0.0
 11
205.4666788897
 21
736.4879708508
 31
0.0
  0
LINE
  5
264
330
1F
100
AcDbEntity
  8
0
  6
Continuous
 62
     7
370
    25
100
AcDbLine
 10
209.3001441679
 20
736.6887788991
 30
0.0
 11
209.2767120919
 21
736.7543440083
 31
0.0
  0
ARC
  5
265
330
1F
100
AcDbEntity
  8
0
  6
Continuous
 62
     7
370
    25
100
AcDbCircle
 10
207.41278547
 20
736.0176457445
 30
0.0
 40
1.986942457588558
100
AcDbArc
 50
226.8824691787
 51
269.8536888674
  0
ARC
  5
266
330
1F
100
AcDbEntity
  8
0
  6
Continuous
 62
     7
370
    25
100
AcDbCircle
 10
207.4356981265
 20
736.0404351383
 30
0.0
 40
2.019238710182306
100
AcDbArc
 50
167.1948667636
 51
226.8498754274
  0
ARC
  5
267
330
1F
100
AcDbEntity
  8
0
  6
Continuous
 62
     7
370
    25
100
AcDbCircle
 10
207.4218985017
 20
736.048867646
 30
0.0
 40
2.003919997287567
100
AcDbArc
 50
107.3704558067
 51
167.3425236834
  0
ARC
  5
268
330
1F
100
AcDbEntity
  8
0
  6
Continuous
 62
     7
370
    25
100
AcDbCircle
 10
207.4116954531
 20
736.0700714248
 30
0.0
 40
1.980640053581337
100
AcDbArc
 50
73.3667665358
 51
107.2718876115
  0
LWPOLYLINE
  5
269
330
1F
100
AcDbEntity
  8
0
  6
Continuous
 62
     7
370
    25
100
AcDbPolyline
 90
        3
 70
   128
 43
0.0
 10
208.5387767872
 20
734.3821983555
 10
208.6844952425
 20
734.4929437855
 10
208.8340283951
 20
734.6312861661
  0
LWPOLYLINE
  5
26A
330
1F
100
AcDbEntity
  8
0
  6
Continuous
 62
     7
370
    25
100
AcDbPolyline
 90
       26
 70
   128
 43
0.0
 10
-82.0563672462
 20
-429.7441978237
 10
-81.635737268
 20
-429.5625228664
 10
-81.2415419498
 20
-429.0287036678
 10
-80.8985470214
 20
-428.1763572475
 10
-80.628299562
 20
-427.0591277858
 10
-80.4477719942
 20
-425.7468719264
 10
-80.3683339038
 20
-424.3225593349
 10
-80.3949473777
 20
-422.8753585597
 10
-80.5259732881
 20
-421.4961070796
 10
-80.7531414905
 20
-420.271827676
 10
-81.0622064748
 20
-419.2790527126
 10
-81.4337222257
 20
-418.5804862758
 10
-81.8443833271
 20
-418.2199973842
 10
-82.2683511653
 20
-418.2199973842
 10
-82.6789973655
 20
-418.5804862758
 10
-83.0505280176
 20
-419.2790527126
 10
-83.3595930019
 20
-420.271827676
 10
-83.5867612043
 20
-421.4961070796
 10
-83.7177722135
 20
-422.8753585597
 10
-83.7444005886
 20
-424.3225593349
 10
-83.6649475971
 20
-425.7468719264
 10
-83.4844349304
 20
-427.0591277858
 10
-83.214187471
 20
-428.1763572475
 10
-82.8711925426
 20
-429.0287036678
 10
-82.4769972244
 20
-429.5625228664
 10
-82.0563672462
 20
-429.7441978237
  0
LWPOLYLINE
  5
26B
330
1F
100
AcDbEntity
  8
0
  6
Continuous
 62
     7
370
    25
100
AcDbPolyline
 90
        3
 70
   128
 43
0.0
 10
-82.5488655248
 20
-418.174221017
 10
-82.760849444
 20
-418.2199973842
 10
-82.8428058305
 20
-418.2624358913
  0
LINE
  5
26C
330
1F
100
AcDbEntity
  8
0
  6
Continuous
 62
     7
370
    25
100
AcDbLine
 10
-82.8428058305
 20
-429.656221368
 30
0.0
 11
-82.5488655248
 21
-429.7441978237
 31
0.0
  0
LINE
  5
26D
330
1F
100
AcDbEntity
  8
0
  6
Continuous
 62
     7
370
    25
100
AcDbLine
 10
-81.7170678058
 20
-425.9693164607
 30
0.0
 11
-82.3956517854
 21
-425.9693164607
 31
0.0
  0
LINE
  5
26E
330
1F
100
AcDbEntity
  8
0
  6
Continuous
 62
     7
370
    25
100
AcDbLine
 10
-81.3777832666
 20
-423.9592094203
 30
0.0
 11
-81.7170678058
 21
-425.9693164607
 31
0.0
  0
LINE
  5
26F
330
1F
100
AcDbEntity
  8
0
  6
Continuous
 62
     7
370
    25
100
AcDbLine
 10
-81.7170678058
 20
-421.9493407985
 30
0.0
 11
-81.3777832666
 21
-423.9592094203
 31
0.0
  0
LINE
  5
270
330
1F
100
AcDbEntity
  8
0
  6
Continuous
 62
     7
370
    25
100
AcDbLine
 10
-82.3956517854
 20
-421.9493407985
 30
0.0
 11
-81.7170678058
 21
-421.9493407985
 31
0.0
  0
LINE
  5
271
330
1F
100
AcDbEntity
  8
0
  6
Continuous
 62
     7
370
    25
100
AcDbLine
 10
-82.7349363246
 20
-423.9592094203
 30
0.0
 11
-82.3956517854
 21
-421.9493407985
 31
0.0
  0
LINE
  5
272
330
1F
100
AcDbEntity
  8
0
  6
Continuous
 62
     7
370
    25
100
AcDbLine
 10
-82.3956517854
 20
-425.9693164607
 30
0.0
 11
-82.7349363246
 21
-423.9592094203
 31
0.0
  0
LINE
  5
273
330
1F
100
AcDbEntity
  8
0
  6
Continuous
 62
     7
370
    25
100
AcDbLine
 10
-82.7349363246
 20
-423.9592094203
 30
0.0
 11
-81.3777832666
 21
-423.9592094203
 31
0.0
  0
LINE
  5
274
330
1F
100
AcDbEntity
  8
0
  6
Continuous
 62
     7
370
    25
100
AcDbLine
 10
-109.4924001375
 20
734.0307097653
 30
0.0
 11
-110.1709692159
 21
734.0307097653
 31
0.0
  0
LINE
  5
275
330
1F
100
AcDbEntity
  8
0
  6
Continuous
 62
     7
370
    25
100
AcDbLine
 10
-109.1531006971
 20
736.0406975964
 30
0.0
 11
-109.4924001375
 21
734.0307097653
 31
0.0
  0
LINE
  5
276
330
1F
100
AcDbEntity
  8
0
  6
Continuous
 62
     7
370
    25
100
AcDbLine
 10
-109.4924001375
 20
738.0506854275
 30
0.0
 11
-109.1531006971
 21
736.0406975964
 31
0.0
  0
LINE
  5
277
330
1F
100
AcDbEntity
  8
0
  6
Continuous
 62
     7
370
    25
100
AcDbLine
 10
-110.1709692159
 20
738.0506854275
 30
0.0
 11
-109.4924001375
 21
738.0506854275
 31
0.0
  0
LINE
  5
278
330
1F
100
AcDbEntity
  8
0
  6
Continuous
 62
     7
370
    25
100
AcDbLine
 10
-110.5102686563
 20
736.0406975964
 30
0.0
 11
-110.1709692159
 21
738.0506854275
 31
0.0
  0
LINE
  5
279
330
1F
100
AcDbEntity
  8
0
  6
Continuous
 62
     7
370
    25
100
AcDbLine
 10
-110.1709692159
 20
734.0307097653
 30
0.0
 11
-110.5102686563
 21
736.0406975964
 31
0.0
  0
LWPOLYLINE
  5
27A
330
1F
100
AcDbEntity
  8
0
  6
Continuous
 62
     7
370
    25
100
AcDbPolyline
 90
       26
 70
   128
 43
0.0
 10
-109.8316697755
 20
730.2557091931
 10
-109.4110397974
 20
730.437443755
 10
-109.0168444791
 20
730.9712629536
 10
-108.6738495508
 20
731.8236093739
 10
-108.4036020914
 20
732.9409580449
 10
-108.2230894247
 20
734.2530350903
 10
-108.1436364332
 20
735.6774668912
 10
-108.1702499071
 20
737.1247272709
 10
-108.3012907186
 20
738.5038595418
 10
-108.5284440198
 20
739.7281985501
 10
-108.8375239053
 20
740.7208543042
 10
-109.2090396562
 20
741.4194803456
 10
-109.6196858564
 20
741.7800884465
 10
-110.0436536947
 20
741.7800884465
 10
-110.4542998949
 20
741.4194803456
 10
-110.8258454481
 20
740.7208543042
 10
-111.1348955312
 20
739.7281985501
 10
-111.3620786348
 20
738.5038595418
 10
-111.493089644
 20
737.1247272709
 10
-111.5197031179
 20
735.6774668912
 10
-111.4402501264
 20
734.2530350903
 10
-111.2597374597
 20
732.9409580449
 10
-110.9894900003
 20
731.8236093739
 10
-110.6464950719
 20
730.9712629536
 10
-110.2522997537
 20
730.437443755
 10
-109.8316697755
 20
730.2557091931
  0
LWPOLYLINE
  5
27B
330
1F
100
AcDbEntity
  8
0
  6
Continuous
 62
     7
370
    25
100
AcDbPolyline
 90
        3
 70
   128
 43
0.0
 10
-110.3241829553
 20
741.8256859997
 10
-110.5361668745
 20
741.7800884465
 10
-110.6180636564
 20
741.737709544
  0
LINE
  5
27C
330
1F
100
AcDbEntity
  8
0
  6
Continuous
 62
     7
370
    25
100
AcDbLine
 10
-110.6180636564
 20
730.3436856488
 30
0.0
 11
-110.3241829553
 21
730.2557091931
 31
0.0
  0
LINE
  5
27D
330
1F
100
AcDbEntity
  8
0
  6
Continuous
 62
     7
370
    25
100
AcDbLine
 10
-110.5102686563
 20
736.0406975964
 30
0.0
 11
-109.1531006971
 21
736.0406975964
 31
0.0
  0
LINE
  5
27E
330
1F
100
AcDbEntity
  8
0
  6
Continuous
 62
     1
370
    25
100
AcDbLine
 10
-75.0882117429
 20
806.0406904439
 30
0.0
 11
-75.0882117429
 21
801.0406952122
 31
0.0
  0
LINE
  5
27F
330
1F
100
AcDbEntity
  8
0
  6
Continuous
 62
     1
370
    25
100
AcDbLine
 10
-75.0882117429
 20
-488.9592666408
 30
0.0
 11
-75.0882117429
 21
-493.9593810817
 31
0.0
  0
LINE
  5
280
330
1F
100
AcDbEntity
  8
0
  6
Continuous
 62
     1
370
    25
100
AcDbLine
 10
-98.0395315567
 20
806.0406904439
 30
0.0
 11
-98.0395315567
 21
801.0406952122
 31
0.0
  0
LINE
  5
281
330
1F
100
AcDbEntity
  8
0
  6
Continuous
 62
     1
370
    25
100
AcDbLine
 10
-98.0395315567
 20
-488.9592666408
 30
0.0
 11
-98.0395315567
 21
-493.9593810817
 31
0.0
  0
LINE
  5
282
330
1F
100
AcDbEntity
  8
0
  6
Continuous
 62
     1
370
    25
100
AcDbLine
 10
67.0876266083
 20
-493.9593810817
 30
0.0
 11
67.0876266083
 21
-443.9591903469
 31
0.0
  0
LINE
  5
283
330
1F
100
AcDbEntity
  8
0
  6
Continuous
 62
     1
370
    25
100
AcDbLine
 10
67.0876266083
 20
-403.9592284938
 30
0.0
 11
67.0876266083
 21
136.0407333592
 31
0.0
  0
LINE
  5
284
330
1F
100
AcDbEntity
  8
0
  6
Continuous
 62
     1
370
    25
100
AcDbLine
 10
67.0876266083
 20
176.0406952122
 30
0.0
 11
67.0876266083
 21
716.0407166699
 31
0.0
  0
LINE
  5
285
330
1F
100
AcDbEntity
  8
0
  6
Continuous
 62
     1
370
    25
100
AcDbLine
 10
67.0876266083
 20
756.0407381276
 30
0.0
 11
67.0876266083
 21
806.0406904439
 31
0.0
  0
ENDSEC
  0
SECTION
  2
OBJECTS
  0
DICTIONARY
  5
C
330
0
100
AcDbDictionary
281
     1
  3
ACAD_DETAILVIEWSTYLE
350
28E
  3
ACAD_GROUP
350
D
  3
ACAD_LAYOUT
350
1A
  3
ACAD_MATERIAL
350
43
  3
ACAD_MLEADERSTYLE
350
6B
  3
ACAD_MLINESTYLE
350
17
  3
ACAD_PLOTSETTINGS
350
19
  3
ACAD_PLOTSTYLENAME
350
E
  3
ACAD_SCALELIST
350
47
  3
ACAD_SECTIONVIEWSTYLE
350
28F
  3
ACAD_TABLESTYLE
350
69
  3
ACAD_VISUALSTYLE
350
2A
  3
ACDB_RECOMPOSE_DATA
350
28B
  3
AcDbVariableDictionary
350
286
  0
SUN
  5
6D
330
29
100
AcDbSun
 90
        1
290
     0
 63
     7
421
 16777215
 40
1.0
291
     1
 91
  2455826
 92
 54000000
292
     0
 70
     2
 71
   256
280
     1
  0
DICTIONARY
  5
28E
102
{ACAD_REACTORS
330
C
102
}
330
C
100
AcDbDictionary
281
     1
  0
DICTIONARY
  5
D
102
{ACAD_REACTORS
330
C
102
}
330
C
100
AcDbDictionary
281
     1
  0
DICTIONARY
  5
1A
102
{ACAD_REACTORS
330
C
102
}
330
C
100
AcDbDictionary
281
     1
  3
Layout1
350
1E
  3
Layout2
350
26
  3
Model
350
22
  0
DICTIONARY
  5
43
102
{ACAD_REACTORS
330
C
102
}
330
C
100
AcDbDictionary
281
     1
  3
ByBlock
350
45
  3
ByLayer
350
44
  3
Global
350
46
  0
DICTIONARY
  5
6B
102
{ACAD_REACTORS
330
C
102
}
330
C
100
AcDbDictionary
281
     1
  3
Standard
350
6C
  0
DICTIONARY
  5
17
102
{ACAD_REACTORS
330
C
102
}
330
C
100
AcDbDictionary
281
     1
  3
Standard
350
18
  0
DICTIONARY
  5
19
102
{ACAD_REACTORS
330
C
102
}
330
C
100
AcDbDictionary
281
     1
  0
ACDBDICTIONARYWDFLT
  5
E
102
{ACAD_REACTORS
330
C
102
}
330
C
100
AcDbDictionary
281
     1
  3
Normal
350
F
100
AcDbDictionaryWithDefault
340
F
  0
DICTIONARY
  5
47
102
{ACAD_REACTORS
330
C
102
}
330
C
100
AcDbDictionary
281
     1
  3
A0
350
48
  3
A1
350
49
  3
A2
350
4A
  3
A3
350
4B
  3
A4
350
4C
  3
A5
350
4D
  3
A6
350
4E
  3
A7
350
4F
  3
A8
350
50
  3
A9
350
51
  3
B0
350
52
  3
B1
350
53
  3
B2
350
54
  3
B3
350
55
  3
B4
350
56
  3
B5
350
57
  3
B6
350
58
  3
B7
350
59
  3
B8
350
5A
  3
B9
350
5B
  3
C0
350
5C
  3
C1
350
5D
  3
C2
350
5E
  3
C3
350
5F
  3
C4
350
60
  3
C5
350
61
  3
C6
350
62
  3
C7
350
63
  3
C8
350
64
  3
C9
350
65
  3
D0
350
66
  3
D1
350
67
  3
D2
350
68
  0
DICTIONARY
  5
28F
102
{ACAD_REACTORS
330
C
102
}
330
C
100
AcDbDictionary
281
     1
  0
DICTIONARY
  5
69
102
{ACAD_REACTORS
330
C
102
}
330
C
100
AcDbDictionary
281
     1
  3
Standard
350
6A
  0
DICTIONARY
  5
2A
102
{ACAD_REACTORS
330
C
102
}
330
C
100
AcDbDictionary
281
     1
  3
2dWireframe
350
2F
  3
Basic
350
32
  3
Brighten
350
36
  3
ColorChange
350
3A
  3
Conceptual
350
34
  3
Dim
350
35
  3
EdgeColorOff
350
3D
  3
Facepattern
350
39
  3
Flat
350
2B
  3
FlatWithEdges
350
2C
  3
Gouraud
350
2D
  3
GouraudWithEdges
350
2E
  3
Hidden
350
31
  3
JitterOff
350
3B
  3
Linepattern
350
38
  3
OverhangOff
350
3C
  3
Realistic
350
33
  3
Shaded
350
42
  3
Shaded with edges
350
41
  3
Shades of Gray
350
3E
  3
Sketchy
350
3F
  3
Thicken
350
37
  3
Wireframe
350
30
  3
X-Ray
350
40
  0
XRECORD
  5
28B
102
{ACAD_REACTORS
330
C
102
}
330
C
100
AcDbXrecord
280
     1
 90
        1
330
6A
  0
DICTIONARY
  5
286
102
{ACAD_REACTORS
330
C
102
}
330
C
100
AcDbDictionary
281
     1
  3
CANNOSCALE
350
287
  3
CMLEADERSTYLE
350
28D
  3
CTABLESTYLE
350
28C
  0
LAYOUT
  5
1E
102
{ACAD_REACTORS
330
1A
102
}
330
1A
100
AcDbPlotSettings
  1

  2
none_device
  4

  6

 40
0.0
 41
0.0
 42
0.0
 43
0.0
 44
0.0
 45
0.0
 46
0.0
 47
0.0
 48
0.0
 49
0.0
140
0.0
141
0.0
142
1.0
143
1.0
 70
   688
 72
     1
 73
     0
 74
     5
  7

 75
    16
 76
     0
 77
     2
 78
   300
147
1.0
148
0.0
149
0.0
100
AcDbLayout
  1
Layout1
 70
     1
 71
     1
 10
0.0
 20
0.0
 11
420.0
 21
297.0
 12
0.0
 22
0.0
 32
0.0
 14
1.0000000000E+20
 24
1.0000000000E+20
 34
1.0000000000E+20
 15
-1.0000000000E+20
 25
-1.0000000000E+20
 35
-1.0000000000E+20
146
0.0
 13
0.0
 23
0.0
 33
0.0
 16
1.0
 26
0.0
 36
0.0
 17
0.0
 27
1.0
 37
0.0
 76
     0
330
1B
  0
LAYOUT
  5
26
102
{ACAD_REACTORS
330
1A
102
}
330
1A
100
AcDbPlotSettings
  1

  2
none_device
  4

  6

 40
0.0
 41
0.0
 42
0.0
 43
0.0
 44
0.0
 45
0.0
 46
0.0
 47
0.0
 48
0.0
 49
0.0
140
0.0
141
0.0
142
1.0
143
1.0
 70
   688
 72
     1
 73
     0
 74
     5
  7

 75
    16
 76
     0
 77
     2
 78
   300
147
1.0
148
0.0
149
0.0
100
AcDbLayout
  1
Layout2
 70
     1
 71
     2
 10
0.0
 20
0.0
 11
0.0
 21
0.0
 12
0.0
 22
0.0
 32
0.0
 14
0.0
 24
0.0
 34
0.0
 15
0.0
 25
0.0
 35
0.0
146
0.0
 13
0.0
 23
0.0
 33
0.0
 16
1.0
 26
0.0
 36
0.0
 17
0.0
 27
1.0
 37
0.0
 76
     0
330
23
  0
LAYOUT
  5
22
102
{ACAD_REACTORS
330
1A
102
}
330
1A
100
AcDbPlotSettings
  1

  2
none_device
  4
Letter_(8.50_x_11.00_Inches)
  6

 40
6.35
 41
6.35
 42
6.35000508
 43
6.35000508
 44
215.9
 45
279.4
 46
0.0
 47
0.0
 48
0.0
 49
0.0
140
0.0
141
0.0
142
1.0
143
1.0
 70
  1712
 72
     1
 73
     0
 74
     0
  7

 75
     0
 76
     0
 77
     2
 78
   300
147
1.0
148
0.0
149
0.0
100
AcDbLayout
  1
Model
 70
     1
 71
     0
 10
0.0
 20
0.0
 11
210.0
 21
297.0
 12
0.0
 22
0.0
 32
0.0
 14
0.0
 24
0.0
 34
0.0
 15
210.0
 25
297.0
 35
0.0
146
0.0
 13
0.0
 23
0.0
 33
0.0
 16
1.0
 26
0.0
 36
0.0
 17
0.0
 27
1.0
 37
0.0
 76
     0
330
1F
331
29
  0
MATERIAL
  5
45
102
{ACAD_REACTORS
330
43
102
}
330
43
100
AcDbMaterial
  1
ByBlock
 72
     1
 94
      127
  0
MATERIAL
  5
44
102
{ACAD_REACTORS
330
43
102
}
330
43
100
AcDbMaterial
  1
ByLayer
 72
     1
 94
      127
  0
MATERIAL
  5
46
102
{ACAD_REACTORS
330
43
102
}
330
43
100
AcDbMaterial
  1
Global
 72
     1
 94
      127
  0
MLEADERSTYLE
  5
6C
102
{ACAD_REACTORS
330
6B
102
}
330
6B
100
AcDbMLeaderStyle
170
     2
171
     1
172
     0
 90
        2
 40
0.0
 41
0.0
173
     1
 91
-1056964608
340
14
 92
       -2
290
     1
 42
2.0
291
     1
 43
8.0
  3
Standard
341
0
 44
4.0
300

342
11
174
     1
178
     6
175
     1
176
     0
 93
-1056964608
 45
4.0
292
     0
297
     0
 46
4.0
343
0
 94
-1056964608
 47
1.0
 49
1.0
140
1.0
293
     1
141
0.0
294
     1
177
     0
142
1.0
295
     0
296
     0
143
3.75
1001
ACAD_MLEADERVER
1070
     2
  0
MLINESTYLE
  5
18
102
{ACAD_REACTORS
330
17
102
}
330
17
100
AcDbMlineStyle
  2
Standard
 70
     0
  3

 62
   256
 51
90.0
 52
90.0
 71
     2
 49
0.5
 62
   256
  6
BYLAYER
 49
-0.5
 62
   256
  6
BYLAYER
  0
ACDBPLACEHOLDER
  5
F
102
{ACAD_REACTORS
330
E
102
}
330
E
  0
SCALE
  5
48
102
{ACAD_REACTORS
330
47
102
}
330
47
100
AcDbScale
 70
     0
300
1:1
140
1.0
141
1.0
290
     1
  0
SCALE
  5
49
102
{ACAD_REACTORS
330
47
102
}
330
47
100
AcDbScale
 70
     0
300
1:2
140
1.0
141
2.0
290
     0
  0
SCALE
  5
4A
102
{ACAD_REACTORS
330
47
102
}
330
47
100
AcDbScale
 70
     0
300
1:4
140
1.0
141
4.0
290
     0
  0
SCALE
  5
4B
102
{ACAD_REACTORS
330
47
102
}
330
47
100
AcDbScale
 70
     0
300
1:5
140
1.0
141
5.0
290
     0
  0
SCALE
  5
4C
102
{ACAD_REACTORS
330
47
102
}
330
47
100
AcDbScale
 70
     0
300
1:8
140
1.0
141
8.0
290
     0
  0
SCALE
  5
4D
102
{ACAD_REACTORS
330
47
102
}
330
47
100
AcDbScale
 70
     0
300
1:10
140
1.0
141
10.0
290
     0
  0
SCALE
  5
4E
102
{ACAD_REACTORS
330
47
102
}
330
47
100
AcDbScale
 70
     0
300
1:16
140
1.0
141
16.0
290
     0
  0
SCALE
  5
4F
102
{ACAD_REACTORS
330
47
102
}
330
47
100
AcDbScale
 70
     0
300
1:20
140
1.0
141
20.0
290
     0
  0
SCALE
  5
50
102
{ACAD_REACTORS
330
47
102
}
330
47
100
AcDbScale
 70
     0
300
1:30
140
1.0
141
30.0
290
     0
  0
SCALE
  5
51
102
{ACAD_REACTORS
330
47
102
}
330
47
100
AcDbScale
 70
     0
300
1:40
140
1.0
141
40.0
290
     0
  0
SCALE
  5
52
102
{ACAD_REACTORS
330
47
102
}
330
47
100
AcDbScale
 70
     0
300
1:50
140
1.0
141
50.0
290
     0
  0
SCALE
  5
53
102
{ACAD_REACTORS
330
47
102
}
330
47
100
AcDbScale
 70
     0
300
1:100
140
1.0
141
100.0
290
     0
  0
SCALE
  5
54
102
{ACAD_REACTORS
330
47
102
}
330
47
100
AcDbScale
 70
     0
300
2:1
140
2.0
141
1.0
290
     0
  0
SCALE
  5
55
102
{ACAD_REACTORS
330
47
102
}
330
47
100
AcDbScale
 70
     0
300
4:1
140
4.0
141
1.0
290
     0
  0
SCALE
  5
56
102
{ACAD_REACTORS
330
47
102
}
330
47
100
AcDbScale
 70
     0
300
8:1
140
8.0
141
1.0
290
     0
  0
SCALE
  5
57
102
{ACAD_REACTORS
330
47
102
}
330
47
100
AcDbScale
 70
     0
300
10:1
140
10.0
141
1.0
290
     0
  0
SCALE
  5
58
102
{ACAD_REACTORS
330
47
102
}
330
47
100
AcDbScale
 70
     0
300
100:1
140
100.0
141
1.0
290
     0
  0
SCALE
  5
59
102
{ACAD_REACTORS
330
47
102
}
330
47
100
AcDbScale
 70
     0
300
1/128" = 1'-0"
140
0.0078125
141
12.0
290
     0
  0
SCALE
  5
5A
102
{ACAD_REACTORS
330
47
102
}
330
47
100
AcDbScale
 70
     0
300
1/64" = 1'-0"
140
0.015625
141
12.0
290
     0
  0
SCALE
  5
5B
102
{ACAD_REACTORS
330
47
102
}
330
47
100
AcDbScale
 70
     0
300
1/32" = 1'-0"
140
0.03125
141
12.0
290
     0
  0
SCALE
  5
5C
102
{ACAD_REACTORS
330
47
102
}
330
47
100
AcDbScale
 70
     0
300
1/16" = 1'-0"
140
0.0625
141
12.0
290
     0
  0
SCALE
  5
5D
102
{ACAD_REACTORS
330
47
102
}
330
47
100
AcDbScale
 70
     0
300
3/32" = 1'-0"
140
0.09375
141
12.0
290
     0
  0
SCALE
  5
5E
102
{ACAD_REACTORS
330
47
102
}
330
47
100
AcDbScale
 70
     0
300
1/8" = 1'-0"
140
0.125
141
12.0
290
     0
  0
SCALE
  5
5F
102
{ACAD_REACTORS
330
47
102
}
330
47
100
AcDbScale
 70
     0
300
3/16" = 1'-0"
140
0.1875
141
12.0
290
     0
  0
SCALE
  5
60
102
{ACAD_REACTORS
330
47
102
}
330
47
100
AcDbScale
 70
     0
300
1/4" = 1'-0"
140
0.25
141
12.0
290
     0
  0
SCALE
  5
61
102
{ACAD_REACTORS
330
47
102
}
330
47
100
AcDbScale
 70
     0
300
3/8" = 1'-0"
140
0.375
141
12.0
290
     0
  0
SCALE
  5
62
102
{ACAD_REACTORS
330
47
102
}
330
47
100
AcDbScale
 70
     0
300
1/2" = 1'-0"
140
0.5
141
12.0
290
     0
  0
SCALE
  5
63
102
{ACAD_REACTORS
330
47
102
}
330
47
100
AcDbScale
 70
     0
300
3/4" = 1'-0"
140
0.75
141
12.0
290
     0
  0
SCALE
  5
64
102
{ACAD_REACTORS
330
47
102
}
330
47
100
AcDbScale
 70
     0
300
1" = 1'-0"
140
1.0
141
12.0
290
     0
  0
SCALE
  5
65
102
{ACAD_REACTORS
330
47
102
}
330
47
100
AcDbScale
 70
     0
300
1-1/2" = 1'-0"
140
1.5
141
12.0
290
     0
  0
SCALE
  5
66
102
{ACAD_REACTORS
330
47
102
}
330
47
100
AcDbScale
 70
     0
300
3" = 1'-0"
140
3.0
141
12.0
290
     0
  0
SCALE
  5
67
102
{ACAD_REACTORS
330
47
102
}
330
47
100
AcDbScale
 70
     0
300
6" = 1'-0"
140
6.0
141
12.0
290
     0
  0
SCALE
  5
68
102
{ACAD_REACTORS
330
47
102
}
330
47
100
AcDbScale
 70
     0
300
1'-0" = 1'-0"
140
12.0
141
12.0
290
     0
  0
TABLESTYLE
  5
6A
102
{ACAD_REACTORS
330
69
102
}
102
{ACAD_XDICTIONARY
360
288
102
}
330
69
100
AcDbTableStyle
  3
Standard
 70
     0
 71
     0
 40
0.06
 41
0.06
280
     0
281
     0
  7
Standard
140
4.5
170
     2
 62
     0
 63
   257
283
     0
 90
        4
 91
        0
  1

274
    -2
284
     1
 64
     0
275
    -2
285
     1
 65
     0
276
    -2
286
     1
 66
     0
277
    -2
287
     1
 67
     0
278
    -2
288
     1
 68
     0
279
    -2
289
     1
 69
     0
  7
Standard
140
6.0
170
     5
 62
     0
 63
   257
283
     0
 90
        4
 91
        0
  1

274
    -2
284
     1
 64
     0
275
    -2
285
     1
 65
     0
276
    -2
286
     1
 66
     0
277
    -2
287
     1
 67
     0
278
    -2
288
     1
 68
     0
279
    -2
289
     1
 69
     0
  7
Standard
140
4.5
170
     5
 62
     0
 63
   257
283
     0
 90
        4
 91
        0
  1

274
    -2
284
     1
 64
     0
275
    -2
285
     1
 65
     0
276
    -2
286
     1
 66
     0
277
    -2
287
     1
 67
     0
278
    -2
288
     1
 68
     0
279
    -2
289
     1
 69
     0
  0
VISUALSTYLE
  5
2F
102
{ACAD_REACTORS
330
2A
102
}
330
2A
100
AcDbVisualStyle
  2
2dWireframe
 70
     4
 71
     0
 72
     2
 73
     0
 90
        0
 40
0.6
 41
30.0
 62
     5
 63
     7
421
 16777215
 74
     1
 91
        4
 64
     7
 65
   257
 75
     1
175
     1
 42
1.0
 92
        0
 66
   257
 43
1.0
 76
     1
 77
     6
 78
     2
 67
     7
 79
     5
170
     0
171
     0
290
     0
174
     0
 93
        1
 44
0.0
173
     0
291
     0
 45
0.0
  0
VISUALSTYLE
  5
32
102
{ACAD_REACTORS
330
2A
102
}
330
2A
100
AcDbVisualStyle
  2
Basic
 70
     7
 71
     1
 72
     0
 73
     1
 90
        0
 40
0.6
 41
30.0
 62
     5
 63
     7
421
 16777215
 74
     0
 91
        4
 64
     7
 65
   257
 75
     1
175
     1
 42
1.0
 92
        8
 66
     7
 43
1.0
 76
     1
 77
     6
 78
     2
 67
     7
 79
     5
170
     0
171
     0
290
     0
174
     0
 93
        1
 44
0.0
173
     0
291
     1
 45
0.0
  0
VISUALSTYLE
  5
36
102
{ACAD_REACTORS
330
2A
102
}
330
2A
100
AcDbVisualStyle
  2
Brighten
 70
    12
 71
     2
 72
     2
 73
     0
 90
        0
 40
0.6
 41
30.0
 62
     5
 63
     7
421
 16777215
 74
     1
 91
        4
 64
     7
 65
   257
 75
     1
175
     1
 42
1.0
 92
        8
 66
     7
 43
1.0
 76
     1
 77
     6
 78
     2
 67
     7
 79
     5
170
     0
171
     0
290
     0
174
     0
 93
        1
 44
50.0
173
     0
291
     1
 45
0.0
  0
VISUALSTYLE
  5
3A
102
{ACAD_REACTORS
330
2A
102
}
330
2A
100
AcDbVisualStyle
  2
ColorChange
 70
    16
 71
     2
 72
     2
 73
     3
 90
        0
 40
0.6
 41
30.0
 62
     5
 63
     8
421
  8421504
 74
     1
 91
        4
 64
     7
 65
   257
 75
     1
175
     1
 42
1.0
 92
        8
 66
     8
424
  8421504
 43
1.0
 76
     1
 77
     6
 78
     2
 67
     7
 79
     5
170
     0
171
     0
290
     0
174
     0
 93
        1
 44
0.0
173
     0
291
     1
 45
0.0
  0
VISUALSTYLE
  5
34
102
{ACAD_REACTORS
330
2A
102
}
330
2A
100
AcDbVisualStyle
  2
Conceptual
 70
     9
 71
     3
 72
     2
 73
     0
 90
        0
 40
0.6
 41
30.0
 62
     5
 63
     7
421
 16777215
 74
     2
 91
        2
 64
     7
 65
   257
 75
     1
175
     1
 42
179.0
 92
        8
 66
     7
 43
1.0
 76
     1
 77
     6
 78
     2
 67
     7
 79
     3
170
     0
171
     0
290
     0
174
     0
 93
        1
 44
0.0
173
     0
291
     0
 45
0.0
  0
VISUALSTYLE
  5
35
102
{ACAD_REACTORS
330
2A
102
}
330
2A
100
AcDbVisualStyle
  2
Dim
 70
    11
 71
     2
 72
     2
 73
     0
 90
        0
 40
0.6
 41
30.0
 62
     5
 63
     7
421
 16777215
 74
     1
 91
        4
 64
     7
 65
   257
 75
     1
175
     1
 42
1.0
 92
        8
 66
     7
 43
1.0
 76
     1
 77
     6
 78
     2
 67
     7
 79
     5
170
     0
171
     0
290
     0
174
     0
 93
        1
 44
-50.0
173
     0
291
     1
 45
0.0
  0
VISUALSTYLE
  5
3D
102
{ACAD_REACTORS
330
2A
102
}
330
2A
100
AcDbVisualStyle
  2
EdgeColorOff
 70
    22
 71
     2
 72
     2
 73
     0
 90
        0
 40
0.6
 41
30.0
 62
     5
 63
     7
421
 16777215
 74
     1
 91
        4
 64
     7
 65
   257
 75
     1
175
     1
 42
1.0
 92
        8
 66
     7
 43
1.0
 76
     1
 77
     6
 78
     2
 67
     7
 79
     5
170
     0
171
     0
290
     0
174
     0
 93
        1
 44
0.0
173
     0
291
     1
 45
0.0
  0
VISUALSTYLE
  5
39
102
{ACAD_REACTORS
330
2A
102
}
330
2A
100
AcDbVisualStyle
  2
Facepattern
 70
    15
 71
     2
 72
     2
 73
     0
 90
        0
 40
0.6
 41
30.0
 62
     5
 63
     7
421
 16777215
 74
     1
 91
        4
 64
     7
 65
   257
 75
     1
175
     1
 42
1.0
 92
        8
 66
     7
 43
1.0
 76
     1
 77
     6
 78
     2
 67
     7
 79
     5
170
     0
171
     0
290
     0
174
     0
 93
        1
 44
0.0
173
     0
291
     1
 45
0.0
  0
VISUALSTYLE
  5
2B
102
{ACAD_REACTORS
330
2A
102
}
330
2A
100
AcDbVisualStyle
  2
Flat
 70
     0
 71
     2
 72
     1
 73
     1
 90
        2
 40
0.6
 41
30.0
 62
     5
 63
     7
421
 16777215
 74
     0
 91
        0
 64
     7
 65
   257
 75
     1
175
     1
 42
1.0
 92
        8
 66
     7
 43
1.0
 76
     1
 77
     6
 78
     2
 67
     7
 79
     5
170
     0
171
     0
290
     0
174
     0
 93
       13
 44
0.0
173
     0
291
     1
 45
0.0
  0
VISUALSTYLE
  5
2C
102
{ACAD_REACTORS
330
2A
102
}
330
2A
100
AcDbVisualStyle
  2
FlatWithEdges
 70
     1
 71
     2
 72
     1
 73
     1
 90
        2
 40
0.6
 41
30.0
 62
     5
 63
     7
421
 16777215
 74
     1
 91
        0
 64
     7
 65
   257
 75
     1
175
     1
 42
1.0
 92
        0
 66
   257
 43
1.0
 76
     1
 77
     6
 78
     2
 67
     7
 79
     5
170
     0
171
     0
290
     0
174
     0
 93
       13
 44
0.0
173
     0
291
     1
 45
0.0
  0
VISUALSTYLE
  5
2D
102
{ACAD_REACTORS
330
2A
102
}
330
2A
100
AcDbVisualStyle
  2
Gouraud
 70
     2
 71
     2
 72
     2
 73
     1
 90
        2
 40
0.6
 41
30.0
 62
     5
 63
     7
421
 16777215
 74
     0
 91
        0
 64
     7
 65
   257
 75
     1
175
     1
 42
1.0
 92
        0
 66
     7
 43
1.0
 76
     1
 77
     6
 78
     2
 67
     7
 79
     5
170
     0
171
     0
290
     0
174
     0
 93
       13
 44
0.0
173
     0
291
     1
 45
0.0
  0
VISUALSTYLE
  5
2E
102
{ACAD_REACTORS
330
2A
102
}
330
2A
100
AcDbVisualStyle
  2
GouraudWithEdges
 70
     3
 71
     2
 72
     2
 73
     1
 90
        2
 40
0.6
 41
30.0
 62
     5
 63
     7
421
 16777215
 74
     1
 91
        0
 64
     7
 65
   257
 75
     1
175
     1
 42
1.0
 92
        0
 66
   257
 43
1.0
 76
     1
 77
     6
 78
     2
 67
     7
 79
     5
170
     0
171
     0
290
     0
174
     0
 93
       13
 44
0.0
173
     0
291
     1
 45
0.0
  0
VISUALSTYLE
  5
31
102
{ACAD_REACTORS
330
2A
102
}
330
2A
100
AcDbVisualStyle
  2
Hidden
 70
     6
 71
     1
 72
     2
 73
     2
 90
        0
 40
0.6
 41
30.0
 62
     5
 63
     7
421
 16777215
 74
     2
 91
        2
 64
     7
 65
   257
 75
     2
175
     1
 42
40.0
 92
        0
 66
   257
 43
1.0
 76
     1
 77
     6
 78
     2
 67
     7
 79
     3
170
     0
171
     0
290
     0
174
     0
 93
        1
 44
0.0
173
     0
291
     0
 45
0.0
  0
VISUALSTYLE
  5
3B
102
{ACAD_REACTORS
330
2A
102
}
330
2A
100
AcDbVisualStyle
  2
JitterOff
 70
    20
 71
     2
 72
     2
 73
     0
 90
        0
 40
0.6
 41
30.0
 62
     5
 63
     7
421
 16777215
 74
     1
 91
        4
 64
     7
 65
   257
 75
     1
175
     1
 42
1.0
 92
       10
 66
     7
 43
1.0
 76
     1
 77
     6
 78
     2
 67
     7
 79
     5
170
     0
171
     0
290
     0
174
     0
 93
        1
 44
0.0
173
     0
291
     1
 45
0.0
  0
VISUALSTYLE
  5
38
102
{ACAD_REACTORS
330
2A
102
}
330
2A
100
AcDbVisualStyle
  2
Linepattern
 70
    14
 71
     2
 72
     2
 73
     0
 90
        0
 40
0.6
 41
30.0
 62
     5
 63
     7
421
 16777215
 74
     1
 91
        4
 64
     7
 65
   257
 75
     7
175
     7
 42
1.0
 92
        8
 66
     7
 43
1.0
 76
     1
 77
     6
 78
     2
 67
     7
 79
     5
170
     0
171
     0
290
     0
174
     0
 93
        1
 44
0.0
173
     0
291
     1
 45
0.0
  0
VISUALSTYLE
  5
3C
102
{ACAD_REACTORS
330
2A
102
}
330
2A
100
AcDbVisualStyle
  2
OverhangOff
 70
    21
 71
     2
 72
     2
 73
     0
 90
        0
 40
0.6
 41
30.0
 62
     5
 63
     7
421
 16777215
 74
     1
 91
        4
 64
     7
 65
   257
 75
     1
175
     1
 42
1.0
 92
        9
 66
     7
 43
1.0
 76
     1
 77
     6
 78
     2
 67
     7
 79
     5
170
     0
171
     0
290
     0
174
     0
 93
        1
 44
0.0
173
     0
291
     1
 45
0.0
  0
VISUALSTYLE
  5
33
102
{ACAD_REACTORS
330
2A
102
}
330
2A
100
AcDbVisualStyle
  2
Realistic
 70
     8
 71
     2
 72
     3
 73
     0
 90
        2
 40
0.6
 41
30.0
 62
     5
 63
     7
421
 16777215
 74
     0
 91
        0
 64
     7
 65
   257
 75
     1
175
     1
 42
1.0
 92
        8
 66
   257
 43
1.0
 76
     1
 77
     6
 78
     2
 67
     7
 79
     3
170
     0
171
     0
290
     0
174
     0
 93
       13
 44
0.0
173
     0
291
     0
 45
0.0
  0
VISUALSTYLE
  5
42
102
{ACAD_REACTORS
330
2A
102
}
330
2A
100
AcDbVisualStyle
  2
Shaded
 70
    27
 71
     2
 72
     2
 73
     1
 90
        2
 40
0.6
 41
30.0
 62
     5
 63
     7
421
 16777215
 74
     0
 91
        4
 64
     7
 65
   257
 75
     1
175
     1
 42
1.0
 92
        8
 66
   257
 43
1.0
 76
     1
 77
     6
 78
     2
 67
     8
425
  7895160
 79
     3
170
     0
171
     0
290
     0
174
     0
 93
        5
 44
0.0
173
     0
291
     0
 45
0.0
  0
VISUALSTYLE
  5
41
102
{ACAD_REACTORS
330
2A
102
}
330
2A
100
AcDbVisualStyle
  2
Shaded with edges
 70
    26
 71
     2
 72
     2
 73
     1
 90
        2
 40
0.6
 41
30.0
 62
     5
 63
     7
421
 16777215
 74
     1
 91
       10
 64
     7
 65
   257
 75
     2
175
     1
 42
1.0
 92
        8
 66
   257
 43
1.0
 76
     1
 77
     6
 78
     2
 67
     7
 79
     3
170
     0
171
     0
290
     0
174
     0
 93
        5
 44
0.0
173
     0
291
     0
 45
0.0
  0
VISUALSTYLE
  5
3E
102
{ACAD_REACTORS
330
2A
102
}
330
2A
100
AcDbVisualStyle
  2
Shades of Gray
 70
    23
 71
     2
 72
     2
 73
     3
 90
        0
 40
0.6
 41
30.0
 62
     5
 63
     7
421
 16777215
 74
     2
 91
        2
 64
     7
 65
     7
 75
     1
175
     1
 42
40.0
 92
        8
 66
     7
 43
1.0
 76
     1
 77
     6
 78
     2
 67
     7
 79
     3
170
     0
171
     0
290
     0
174
     0
 93
        1
 44
0.0
173
     0
291
     0
 45
0.0
  0
VISUALSTYLE
  5
3F
102
{ACAD_REACTORS
330
2A
102
}
330
2A
100
AcDbVisualStyle
  2
Sketchy
 70
    24
 71
     1
 72
     2
 73
     2
 90
        0
 40
0.6
 41
30.0
 62
     5
 63
     7
421
 16777215
 74
     2
 91
        2
 64
     7
 65
     7
 75
     1
175
     1
 42
40.0
 92
       11
 66
     7
 43
1.0
 76
     1
 77
     6
 78
     2
 67
     7
 79
     6
170
     0
171
     0
290
     0
174
     0
 93
        1
 44
0.0
173
     0
291
     0
 45
0.0
  0
VISUALSTYLE
  5
37
102
{ACAD_REACTORS
330
2A
102
}
330
2A
100
AcDbVisualStyle
  2
Thicken
 70
    13
 71
     2
 72
     2
 73
     0
 90
        0
 40
0.6
 41
30.0
 62
     5
 63
     7
421
 16777215
 74
     1
 91
        4
 64
     7
 65
   257
 75
     1
175
     1
 42
1.0
 92
       12
 66
     7
 43
1.0
 76
     1
 77
     6
 78
     2
 67
     7
 79
     5
170
     0
171
     0
290
     0
174
     0
 93
        1
 44
0.0
173
     0
291
     1
 45
0.0
  0
VISUALSTYLE
  5
30
102
{ACAD_REACTORS
330
2A
102
}
330
2A
100
AcDbVisualStyle
  2
Wireframe
 70
     5
 71
     0
 72
     2
 73
     0
 90
        0
 40
0.6
 41
30.0
 62
     5
 63
     7
421
 16777215
 74
     1
 91
        4
 64
     7
 65
   257
 75
     1
175
     1
 42
1.0
 92
        0
 66
   257
 43
1.0
 76
     1
 77
     6
 78
     2
 67
     7
 79
     3
170
     0
171
     0
290
     0
174
     0
 93
        1
 44
0.0
173
     0
291
     0
 45
0.0
  0
VISUALSTYLE
  5
40
102
{ACAD_REACTORS
330
2A
102
}
330
2A
100
AcDbVisualStyle
  2
X-Ray
 70
    25
 71
     2
 72
     2
 73
     1
 90
        1
 40
0.5
 41
30.0
 62
     5
 63
     7
421
 16777215
 74
     1
 91
        0
 64
     7
 65
   257
 75
     1
175
     1
 42
1.0
 92
        8
 66
     7
 43
1.0
 76
     1
 77
     6
 78
     2
 67
     7
 79
     3
170
     0
171
     0
290
     0
174
     0
 93
       13
 44
0.0
173
     0
291
     0
 45
0.0
  0
DICTIONARYVAR
  5
287
102
{ACAD_REACTORS
330
286
102
}
330
286
100
DictionaryVariables
280
     0
  1
1:1
  0
DICTIONARYVAR
  5
28D
102
{ACAD_REACTORS
330
286
102
}
330
286
100
DictionaryVariables
280
     0
  1
Standard
  0
DICTIONARYVAR
  5
28C
102
{ACAD_REACTORS
330
286
102
}
330
286
100
DictionaryVariables
280
     0
  1
Standard
  0
DICTIONARY
  5
288
330
6A
100
AcDbDictionary
280
     1
281
     1
  3
ACAD_ROUNDTRIP_2008_TABLESTYLE_CELLSTYLEMAP
360
289
  0
CELLSTYLEMAP
  5
289
102
{ACAD_REACTORS
330
288
102
}
330
288
100
AcDbCellStyleMap
 90
        3
300
CELLSTYLE
  1
TABLEFORMAT_BEGIN
 90
        5
170
     1
 91
        0
 92
    32768
 62
   257
 93
        1
300
CONTENTFORMAT
  1
CONTENTFORMAT_BEGIN
 90
        0
 91
        0
 92
        4
 93
        0
300

 40
0.0
140
1.0
 94
        5
 62
     0
340
11
144
6.0
309
CONTENTFORMAT_END
171
     1
301
MARGIN
  1
CELLMARGIN_BEGIN
 40
1.5
 40
1.5
 40
1.5
 40
1.5
 40
1.5
 40
1.5
309
CELLMARGIN_END
 94
        6
 95
        1
302
GRIDFORMAT
  1
GRIDFORMAT_BEGIN
 90
        0
 91
        1
 62
     0
 92
       -2
340
14
 93
        0
 40
0.045
309
GRIDFORMAT_END
 95
        2
302
GRIDFORMAT
  1
GRIDFORMAT_BEGIN
 90
        0
 91
        1
 62
     0
 92
       -2
340
14
 93
        0
 40
0.045
309
GRIDFORMAT_END
 95
        4
302
GRIDFORMAT
  1
GRIDFORMAT_BEGIN
 90
        0
 91
        1
 62
     0
 92
       -2
340
14
 93
        0
 40
0.045
309
GRIDFORMAT_END
 95
        8
302
GRIDFORMAT
  1
GRIDFORMAT_BEGIN
 90
        0
 91
        1
 62
     0
 92
       -2
340
14
 93
        0
 40
0.045
309
GRIDFORMAT_END
 95
       16
302
GRIDFORMAT
  1
GRIDFORMAT_BEGIN
 90
        0
 91
        1
 62
     0
 92
       -2
340
14
 93
        0
 40
0.045
309
GRIDFORMAT_END
 95
       32
302
GRIDFORMAT
  1
GRIDFORMAT_BEGIN
 90
        0
 91
        1
 62
     0
 92
       -2
340
14
 93
        0
 40
0.045
309
GRIDFORMAT_END
309
TABLEFORMAT_END
  1
CELLSTYLE_BEGIN
 90
        1
 91
        1
300
_TITLE
309
CELLSTYLE_END
300
CELLSTYLE
  1
TABLEFORMAT_BEGIN
 90
        5
170
     1
 91
        0
 92
        0
 62
   257
 93
        1
300
CONTENTFORMAT
  1
CONTENTFORMAT_BEGIN
 90
        0
 91
        0
 92
        4
 93
        0
300

 40
0.0
140
1.0
 94
        5
 62
     0
340
11
144
4.5
309
CONTENTFORMAT_END
171
     1
301
MARGIN
  1
CELLMARGIN_BEGIN
 40
1.5
 40
1.5
 40
1.5
 40
1.5
 40
1.5
 40
1.5
309
CELLMARGIN_END
 94
        6
 95
        1
302
GRIDFORMAT
  1
GRIDFORMAT_BEGIN
 90
        0
 91
        1
 62
     0
 92
       -2
340
14
 93
        0
 40
0.045
309
GRIDFORMAT_END
 95
        2
302
GRIDFORMAT
  1
GRIDFORMAT_BEGIN
 90
        0
 91
        1
 62
     0
 92
       -2
340
14
 93
        0
 40
0.045
309
GRIDFORMAT_END
 95
        4
302
GRIDFORMAT
  1
GRIDFORMAT_BEGIN
 90
        0
 91
        1
 62
     0
 92
       -2
340
14
 93
        0
 40
0.045
309
GRIDFORMAT_END
 95
        8
302
GRIDFORMAT
  1
GRIDFORMAT_BEGIN
 90
        0
 91
        1
 62
     0
 92
       -2
340
14
 93
        0
 40
0.045
309
GRIDFORMAT_END
 95
       16
302
GRIDFORMAT
  1
GRIDFORMAT_BEGIN
 90
        0
 91
        1
 62
     0
 92
       -2
340
14
 93
        0
 40
0.045
309
GRIDFORMAT_END
 95
       32
302
GRIDFORMAT
  1
GRIDFORMAT_BEGIN
 90
        0
 91
        1
 62
     0
 92
       -2
340
14
 93
        0
 40
0.045
309
GRIDFORMAT_END
309
TABLEFORMAT_END
  1
CELLSTYLE_BEGIN
 90
        2
 91
        1
300
_HEADER
309
CELLSTYLE_END
300
CELLSTYLE
  1
TABLEFORMAT_BEGIN
 90
        5
170
     1
 91
        0
 92
        0
 62
   257
 93
        1
300
CONTENTFORMAT
  1
CONTENTFORMAT_BEGIN
 90
        0
 91
        0
 92
        4
 93
        0
300

 40
0.0
140
1.0
 94
        2
 62
     0
340
11
144
4.5
309
CONTENTFORMAT_END
171
     1
301
MARGIN
  1
CELLMARGIN_BEGIN
 40
1.5
 40
1.5
 40
1.5
 40
1.5
 40
1.5
 40
1.5
309
CELLMARGIN_END
 94
        6
 95
        1
302
GRIDFORMAT
  1
GRIDFORMAT_BEGIN
 90
        0
 91
        1
 62
     0
 92
       -2
340
14
 93
        0
 40
0.045
309
GRIDFORMAT_END
 95
        2
302
GRIDFORMAT
  1
GRIDFORMAT_BEGIN
 90
        0
 91
        1
 62
     0
 92
       -2
340
14
 93
        0
 40
0.045
309
GRIDFORMAT_END
 95
        4
302
GRIDFORMAT
  1
GRIDFORMAT_BEGIN
 90
        0
 91
        1
 62
     0
 92
       -2
340
14
 93
        0
 40
0.045
309
GRIDFORMAT_END
 95
        8
302
GRIDFORMAT
  1
GRIDFORMAT_BEGIN
 90
        0
 91
        1
 62
     0
 92
       -2
340
14
 93
        0
 40
0.045
309
GRIDFORMAT_END
 95
       16
302
GRIDFORMAT
  1
GRIDFORMAT_BEGIN
 90
        0
 91
        1
 62
     0
 92
       -2
340
14
 93
        0
 40
0.045
309
GRIDFORMAT_END
 95
       32
302
GRIDFORMAT
  1
GRIDFORMAT_BEGIN
 90
        0
 91
        1
 62
     0
 92
       -2
340
14
 93
        0
 40
0.045
309
GRIDFORMAT_END
309
TABLEFORMAT_END
  1
CELLSTYLE_BEGIN
 90
        3
 91
        2
300
_DATA
309
CELLSTYLE_END
  0
ENDSEC
  0
EOF
