  0
SECTION
  2
HEADER
  9
$ACADVER
  1
AC1021
  9
$ACADMAINTVER
 70
    25
  9
$DWGCODEPAGE
  3
ANSI_1250
  9
$INSBASE
 10
0.0
 20
0.0
 30
0.0
  9
$EXTMIN
 10
0.0
 20
0.0
 30
0.0
  9
$EXTMAX
 10
210.0
 20
297.0
 30
0.0
  9
$LIMMIN
 10
0.0
 20
0.0
  9
$LIMMAX
 10
210.0
 20
297.0
  9
$ORTHOMODE
 70
     0
  9
$REGENMODE
 70
     1
  9
$FILLMODE
 70
     1
  9
$QTEXTMODE
 70
     0
  9
$MIRRTEXT
 70
     1
  9
$LTSCALE
 40
1.0
  9
$ATTMODE
 70
     1
  9
$TEXTSIZE
 40
3.5
  9
$TRACEWID
 40
1.0
  9
$TEXTSTYLE
  7
Standard
  9
$CLAYER
  8
0
  9
$CELTYPE
  6
ByLayer
  9
$CECOLOR
 62
   256
  9
$CELTSCALE
 40
1.0
  9
$DISPSILH
 70
     0
  9
$DIMSCALE
 40
1.0
  9
$DIMASZ
 40
3.302
  9
$DIMEXO
 40
1.0
  9
$DIMDLI
 40
3.75
  9
$DIMRND
 40
0.0
  9
$DIMDLE
 40
0.0
  9
$DIMEXE
 40
1.0
  9
$DIMTP
 40
0.0
  9
$DIMTM
 40
0.0
  9
$DIMTXT
 40
3.5
  9
$DIMCEN
 40
2.5
  9
$DIMTSZ
 40
0.0
  9
$DIMTOL
 70
     0
  9
$DIMLIM
 70
     0
  9
$DIMTIH
 70
     1
  9
$DIMTOH
 70
     1
  9
$DIMSE1
 70
     0
  9
$DIMSE2
 70
     0
  9
$DIMTAD
 70
     1
  9
$DIMZIN
 70
     0
  9
$DIMBLK
  1

  9
$DIMASO
 70
     1
  9
$DIMSHO
 70
     1
  9
$DIMPOST
  1

  9
$DIMAPOST
  1

  9
$DIMALT
 70
     0
  9
$DIMALTD
 70
     3
  9
$DIMALTF
 40
0.0393700787
  9
$DIMLFAC
 40
1.0
  9
$DIMTOFL
 70
     1
  9
$DIMTVP
 40
0.0
  9
$DIMTIX
 70
     0
  9
$DIMSOXD
 70
     0
  9
$DIMSAH
 70
     0
  9
$DIMBLK1
  1

  9
$DIMBLK2
  1

  9
$DIMSTYLE
  2
ISO-25
  9
$DIMCLRD
 70
     0
  9
$DIMCLRE
 70
     0
  9
$DIMCLRT
 70
     0
  9
$DIMTFAC
 40
1.0
  9
$DIMGAP
 40
1.524
  9
$DIMJUST
 70
     0
  9
$DIMSD1
 70
     0
  9
$DIMSD2
 70
     0
  9
$DIMTOLJ
 70
     0
  9
$DIMTZIN
 70
     0
  9
$DIMALTZ
 70
     0
  9
$DIMALTTZ
 70
     0
  9
$DIMUPT
 70
     0
  9
$DIMDEC
 70
     2
  9
$DIMTDEC
 70
     2
  9
$DIMALTU
 70
     2
  9
$DIMALTTD
 70
     3
  9
$DIMTXSTY
  7
Standard
  9
$DIMAUNIT
 70
     0
  9
$DIMADEC
 70
     2
  9
$DIMALTRND
 40
0.0
  9
$DIMAZIN
 70
     0
  9
$DIMDSEP
 70
    44
  9
$DIMATFIT
 70
     3
  9
$DIMFRAC
 70
     0
  9
$DIMLDRBLK
  1

  9
$DIMLUNIT
 70
     2
  9
$DIMLWD
 70
    -2
  9
$DIMLWE
 70
    -2
  9
$DIMTMOVE
 70
     0
  9
$DIMFXL
 40
1.0
  9
$DIMFXLON
 70
     0
  9
$DIMJOGANG
 40
0.7853981634
  9
$DIMTFILL
 70
     0
  9
$DIMTFILLCLR
 70
     0
  9
$DIMARCSYM
 70
     0
  9
$DIMLTYPE
  6

  9
$DIMLTEX1
  6

  9
$DIMLTEX2
  6

  9
$LUNITS
 70
     2
  9
$LUPREC
 70
     2
  9
$SKETCHINC
 40
1.0
  9
$FILLETRAD
 40
10.0
  9
$AUNITS
 70
     0
  9
$AUPREC
 70
     2
  9
$MENU
  1
.
  9
$ELEVATION
 40
0.0
  9
$PELEVATION
 40
0.0
  9
$THICKNESS
 40
0.0
  9
$LIMCHECK
 70
     0
  9
$CHAMFERA
 40
0.0
  9
$CHAMFERB
 40
0.0
  9
$CHAMFERC
 40
0.0
  9
$CHAMFERD
 40
0.0
  9
$SKPOLY
 70
     0
  9
$TDCREATE
 40
2458577.33058103
  9
$TDUCREATE
 40
2458577.247247697
  9
$TDUPDATE
 40
2458577.330581482
  9
$TDUUPDATE
 40
2458577.247248148
  9
$TDINDWG
 40
0.0000000116
  9
$TDUSRTIMER
 40
0.0000000116
  9
$USRTIMER
 70
     1
  9
$ANGBASE
 50
0.0
  9
$ANGDIR
 70
     0
  9
$PDMODE
 70
     0
  9
$PDSIZE
 40
-1.0
  9
$PLINEWID
 40
0.0
  9
$SPLFRAME
 70
     0
  9
$SPLINETYPE
 70
     6
  9
$SPLINESEGS
 70
     8
  9
$HANDSEED
  5
2E3
  9
$SURFTAB1
 70
     6
  9
$SURFTAB2
 70
     6
  9
$SURFTYPE
 70
     6
  9
$SURFU
 70
     6
  9
$SURFV
 70
     6
  9
$UCSBASE
  2

  9
$UCSNAME
  2

  9
$UCSORG
 10
0.0
 20
0.0
 30
0.0
  9
$UCSXDIR
 10
1.0
 20
0.0
 30
0.0
  9
$UCSYDIR
 10
0.0
 20
1.0
 30
0.0
  9
$UCSORTHOREF
  2

  9
$UCSORTHOVIEW
 70
     0
  9
$UCSORGTOP
 10
0.0
 20
0.0
 30
0.0
  9
$UCSORGBOTTOM
 10
0.0
 20
0.0
 30
0.0
  9
$UCSORGLEFT
 10
0.0
 20
0.0
 30
0.0
  9
$UCSORGRIGHT
 10
0.0
 20
0.0
 30
0.0
  9
$UCSORGFRONT
 10
0.0
 20
0.0
 30
0.0
  9
$UCSORGBACK
 10
0.0
 20
0.0
 30
0.0
  9
$PUCSBASE
  2

  9
$PUCSNAME
  2

  9
$PUCSORG
 10
0.0
 20
0.0
 30
0.0
  9
$PUCSXDIR
 10
1.0
 20
0.0
 30
0.0
  9
$PUCSYDIR
 10
0.0
 20
1.0
 30
0.0
  9
$PUCSORTHOREF
  2

  9
$PUCSORTHOVIEW
 70
     0
  9
$PUCSORGTOP
 10
0.0
 20
0.0
 30
0.0
  9
$PUCSORGBOTTOM
 10
0.0
 20
0.0
 30
0.0
  9
$PUCSORGLEFT
 10
0.0
 20
0.0
 30
0.0
  9
$PUCSORGRIGHT
 10
0.0
 20
0.0
 30
0.0
  9
$PUCSORGFRONT
 10
0.0
 20
0.0
 30
0.0
  9
$PUCSORGBACK
 10
0.0
 20
0.0
 30
0.0
  9
$USERI1
 70
     0
  9
$USERI2
 70
     0
  9
$USERI3
 70
     0
  9
$USERI4
 70
     0
  9
$USERI5
 70
     0
  9
$USERR1
 40
0.0
  9
$USERR2
 40
0.0
  9
$USERR3
 40
0.0
  9
$USERR4
 40
0.0
  9
$USERR5
 40
0.0
  9
$WORLDVIEW
 70
     1
  9
$SHADEDGE
 70
     3
  9
$SHADEDIF
 70
    70
  9
$TILEMODE
 70
     1
  9
$MAXACTVP
 70
    64
  9
$PINSBASE
 10
0.0
 20
0.0
 30
0.0
  9
$PLIMCHECK
 70
     0
  9
$PEXTMIN
 10
1.0000000000E+20
 20
1.0000000000E+20
 30
1.0000000000E+20
  9
$PEXTMAX
 10
-1.0000000000E+20
 20
-1.0000000000E+20
 30
-1.0000000000E+20
  9
$PLIMMIN
 10
0.0
 20
0.0
  9
$PLIMMAX
 10
420.0
 20
297.0
  9
$UNITMODE
 70
     0
  9
$VISRETAIN
 70
     1
  9
$PLINEGEN
 70
     0
  9
$PSLTSCALE
 70
     1
  9
$TREEDEPTH
 70
  3020
  9
$CMLSTYLE
  2
Standard
  9
$CMLJUST
 70
     0
  9
$CMLSCALE
 40
20.0
  9
$PROXYGRAPHICS
 70
     1
  9
$MEASUREMENT
 70
     1
  9
$CELWEIGHT
370
    -1
  9
$ENDCAPS
280
     0
  9
$JOINSTYLE
280
     0
  9
$LWDISPLAY
290
     1
  9
$INSUNITS
 70
     4
  9
$HYPERLINKBASE
  1

  9
$STYLESHEET
  1

  9
$XEDIT
290
     1
  9
$CEPSNTYPE
380
     0
  9
$PSTYLEMODE
290
     1
  9
$FINGERPRINTGUID
  2
{D33F4D70-9E40-48C8-859A-3209961CF4B4}
  9
$VERSIONGUID
  2
{FAEB1C32-E019-11D5-929B-00C0DF256EC4}
  9
$EXTNAMES
290
     1
  9
$PSVPSCALE
 40
0.0
  9
$OLESTARTUP
290
     0
  9
$SORTENTS
280
   127
  9
$INDEXCTL
280
     0
  9
$HIDETEXT
280
     1
  9
$XCLIPFRAME
290
     0
  9
$HALOGAP
280
     0
  9
$OBSCOLOR
 70
   257
  9
$OBSLTYPE
280
     0
  9
$INTERSECTIONDISPLAY
280
     0
  9
$INTERSECTIONCOLOR
 70
   257
  9
$DIMASSOC
280
     2
  9
$PROJECTNAME
  1

  9
$CAMERADISPLAY
290
     0
  9
$LENSLENGTH
 40
50.0
  9
$CAMERAHEIGHT
 40
0.0
  9
$STEPSPERSEC
 40
2.0
  9
$STEPSIZE
 40
6.0
  9
$3DDWFPREC
 40
2.0
  9
$PSOLWIDTH
 40
5.0
  9
$PSOLHEIGHT
 40
80.0
  9
$LOFTANG1
 40
1.5707963268
  9
$LOFTANG2
 40
1.5707963268
  9
$LOFTMAG1
 40
0.0
  9
$LOFTMAG2
 40
0.0
  9
$LOFTPARAM
 70
     7
  9
$LOFTNORMALS
280
     1
  9
$LATITUDE
 40
37.795
  9
$LONGITUDE
 40
-122.394
  9
$NORTHDIRECTION
 40
0.0
  9
$TIMEZONE
 70
 -8000
  9
$LIGHTGLYPHDISPLAY
280
     1
  9
$TILEMODELIGHTSYNCH
280
     1
  9
$CMATERIAL
347
44
  9
$SOLIDHIST
280
     0
  9
$SHOWHIST
280
     1
  9
$DWFFRAME
280
     2
  9
$DGNFRAME
280
     2
  9
$REALWORLDSCALE
290
     1
  9
$INTERFERECOLOR
 62
   256
  9
$CSHADOW
280
     0
  9
$SHADOWPLANELOCATION
 40
0.0
  0
ENDSEC
  0
SECTION
  2
CLASSES
  0
CLASS
  1
ACDBDICTIONARYWDFLT
  2
AcDbDictionaryWithDefault
  3
ObjectDBX Classes
 90
        0
 91
        4
280
     0
281
     0
  0
CLASS
  1
VISUALSTYLE
  2
AcDbVisualStyle
  3
ObjectDBX Classes
 90
     4095
 91
        4
280
     0
281
     0
  0
CLASS
  1
MATERIAL
  2
AcDbMaterial
  3
ObjectDBX Classes
 90
     1153
 91
        4
280
     0
281
     0
  0
CLASS
  1
SCALE
  2
AcDbScale
  3
ObjectDBX Classes
 90
     1153
 91
        4
280
     0
281
     0
  0
CLASS
  1
TABLESTYLE
  2
AcDbTableStyle
  3
ObjectDBX Classes
 90
     4095
 91
        4
280
     0
281
     0
  0
CLASS
  1
MLEADERSTYLE
  2
AcDbMLeaderStyle
  3
ACDB_MLEADERSTYLE_CLASS
 90
     4095
 91
        4
280
     0
281
     0
  0
CLASS
  1
SUN
  2
AcDbSun
  3
SCENEOE
 90
     1153
 91
        4
280
     0
281
     0
  0
CLASS
  1
DICTIONARYVAR
  2
AcDbDictionaryVar
  3
ObjectDBX Classes
 90
        0
 91
        4
280
     0
281
     0
  0
CLASS
  1
CELLSTYLEMAP
  2
AcDbCellStyleMap
  3
ObjectDBX Classes
 90
     1152
 91
        4
280
     0
281
     0
  0
ENDSEC
  0
SECTION
  2
TABLES
  0
TABLE
  2
VPORT
  5
8
330
0
100
AcDbSymbolTable
 70
     1
  0
VPORT
  5
29
330
8
100
AcDbSymbolTableRecord
100
AcDbViewportTableRecord
  2
*Active
 70
     0
 10
0.0
 20
0.0
 11
1.0
 21
1.0
 12
105.0
 22
148.5
 13
0.0
 23
0.0
 14
10.0
 24
10.0
 15
10.0
 25
10.0
 16
0.0
 26
0.0
 36
1.0
 17
0.0
 27
0.0
 37
0.0
 40
297.0
 41
0.7070707071
 42
50.0
 43
0.0
 44
0.0
 50
0.0
 51
0.0
 71
     0
 72
  2000
 73
     1
 74
     3
 75
     0
 76
     0
 77
     0
 78
     0
281
     0
 65
     1
110
0.0
120
0.0
130
0.0
111
1.0
121
0.0
131
0.0
112
0.0
122
1.0
132
0.0
 79
     0
146
0.0
 60
     3
 61
     5
292
     1
282
     1
141
0.0
142
0.0
 63
   250
361
6D
  0
ENDTAB
  0
TABLE
  2
LTYPE
  5
5
330
0
100
AcDbSymbolTable
 70
     6
  0
LTYPE
  5
14
330
5
100
AcDbSymbolTableRecord
100
AcDbLinetypeTableRecord
  2
ByBlock
 70
     0
  3

 72
    65
 73
     0
 40
0.0
  0
LTYPE
  5
15
330
5
100
AcDbSymbolTableRecord
100
AcDbLinetypeTableRecord
  2
ByLayer
 70
     0
  3

 72
    65
 73
     0
 40
0.0
  0
LTYPE
  5
16
330
5
100
AcDbSymbolTableRecord
100
AcDbLinetypeTableRecord
  2
Continuous
 70
     0
  3
Solid line
 72
    65
 73
     0
 40
0.0
  0
LTYPE
  5
6E
330
5
100
AcDbSymbolTableRecord
100
AcDbLinetypeTableRecord
  2
HIDDEN
 70
     0
  3
Hidden __ __ __ __ __ __ __ __ __ __ __ __ __ __
 72
    65
 73
     2
 40
1.905
 49
1.27
 74
     0
 49
-0.635
 74
     0
  0
LTYPE
  5
6F
330
5
100
AcDbSymbolTableRecord
100
AcDbLinetypeTableRecord
  2
PHANTOM
 70
     0
  3
Phantom ______  __  __  ______  __  __  ______
 72
    65
 73
     6
 40
12.7
 49
6.35
 74
     0
 49
-1.27
 74
     0
 49
1.27
 74
     0
 49
-1.27
 74
     0
 49
1.27
 74
     0
 49
-1.27
 74
     0
  0
LTYPE
  5
70
330
5
100
AcDbSymbolTableRecord
100
AcDbLinetypeTableRecord
  2
CENTER
 70
     0
  3
Center ____ _ ____ _ ____ _ ____ _ ____ _ ____
 72
    65
 73
     4
 40
10.16
 49
6.35
 74
     0
 49
-1.27
 74
     0
 49
1.27
 74
     0
 49
-1.27
 74
     0
  0
LTYPE
  5
71
330
5
100
AcDbSymbolTableRecord
100
AcDbLinetypeTableRecord
  2
CENTERX2
 70
     0
  3
Center (2x) ________  __  ________  __  _____
 72
    65
 73
     4
 40
20.32
 49
12.7
 74
     0
 49
-2.54
 74
     0
 49
2.54
 74
     0
 49
-2.54
 74
     0
  0
LTYPE
  5
72
330
5
100
AcDbSymbolTableRecord
100
AcDbLinetypeTableRecord
  2
DOT2
 70
     0
  3
Dot (.5x) ........................................
 72
    65
 73
     2
 40
0.635
 49
0.0
 74
     0
 49
-0.635
 74
     0
  0
ENDTAB
  0
TABLE
  2
LAYER
  5
2
330
0
100
AcDbSymbolTable
 70
     1
  0
LAYER
  5
10
330
2
100
AcDbSymbolTableRecord
100
AcDbLayerTableRecord
  2
0
 70
     0
 62
     7
  6
Continuous
370
    -3
390
F
347
46
  0
ENDTAB
  0
TABLE
  2
STYLE
  5
3
330
0
100
AcDbSymbolTable
 70
     1
  0
STYLE
  5
11
330
3
100
AcDbSymbolTableRecord
100
AcDbTextStyleTableRecord
  2
Standard
 70
     0
 40
0.0
 41
1.0
 50
0.0
 71
     0
 42
3.5
  3
txt
  4

  0
ENDTAB
  0
TABLE
  2
VIEW
  5
6
330
0
100
AcDbSymbolTable
 70
     0
  0
ENDTAB
  0
TABLE
  2
UCS
  5
7
330
0
100
AcDbSymbolTable
 70
     0
  0
ENDTAB
  0
TABLE
  2
APPID
  5
9
330
0
100
AcDbSymbolTable
 70
     2
  0
APPID
  5
12
330
9
100
AcDbSymbolTableRecord
100
AcDbRegAppTableRecord
  2
ACAD
 70
     0
  0
APPID
  5
2DD
330
9
100
AcDbSymbolTableRecord
100
AcDbRegAppTableRecord
  2
ACAD_MLEADERVER
 70
     0
  0
ENDTAB
  0
TABLE
  2
DIMSTYLE
  5
A
330
0
100
AcDbSymbolTable
 70
     1
100
AcDbDimStyleTable
  0
DIMSTYLE
105
27
330
A
100
AcDbSymbolTableRecord
100
AcDbDimStyleTableRecord
  2
ISO-25
 70
     0
 41
2.5
 42
0.625
 43
3.75
 44
1.25
 73
     0
 74
     0
 77
     1
 78
     8
140
2.5
141
2.5
143
0.0393700787
147
0.625
171
     3
172
     1
178
     0
271
     2
272
     2
274
     3
278
    44
283
     0
284
     8
340
11
  0
ENDTAB
  0
TABLE
  2
BLOCK_RECORD
  5
1
330
0
100
AcDbSymbolTable
 70
     1
  0
BLOCK_RECORD
  5
1F
330
1
100
AcDbSymbolTableRecord
100
AcDbBlockTableRecord
  2
*Model_Space
340
22
 70
     0
280
     1
281
     0
  0
BLOCK_RECORD
  5
1B
330
1
100
AcDbSymbolTableRecord
100
AcDbBlockTableRecord
  2
*Paper_Space
340
1E
 70
     0
280
     1
281
     0
  0
BLOCK_RECORD
  5
23
330
1
100
AcDbSymbolTableRecord
100
AcDbBlockTableRecord
  2
*Paper_Space0
340
26
 70
     0
280
     1
281
     0
  0
ENDTAB
  0
ENDSEC
  0
SECTION
  2
BLOCKS
  0
BLOCK
  5
20
330
1F
100
AcDbEntity
  8
0
100
AcDbBlockBegin
  2
*Model_Space
 70
     0
 10
0.0
 20
0.0
 30
0.0
  3
*Model_Space
  1

  0
ENDBLK
  5
21
330
1F
100
AcDbEntity
  8
0
100
AcDbBlockEnd
  0
BLOCK
  5
1C
330
1B
100
AcDbEntity
 67
     1
  8
0
100
AcDbBlockBegin
  2
*Paper_Space
 70
     0
 10
0.0
 20
0.0
 30
0.0
  3
*Paper_Space
  1

  0
ENDBLK
  5
1D
330
1B
100
AcDbEntity
 67
     1
  8
0
100
AcDbBlockEnd
  0
BLOCK
  5
24
330
23
100
AcDbEntity
  8
0
100
AcDbBlockBegin
  2
*Paper_Space0
 70
     0
 10
0.0
 20
0.0
 30
0.0
  3
*Paper_Space0
  1

  0
ENDBLK
  5
25
330
23
100
AcDbEntity
  8
0
100
AcDbBlockEnd
  0
ENDSEC
  0
SECTION
  2
ENTITIES
  0
ARC
  5
73
330
1F
100
AcDbEntity
  8
0
  6
Continuous
 62
     7
370
    25
100
AcDbCircle
 10
-167.190230932
 20
160.3028571429
 30
0.0
 40
4.750000000000016
100
AcDbArc
 50
153.0485177484
 51
206.9514822516
  0
ARC
  5
74
330
1F
100
AcDbEntity
  8
0
  6
Continuous
 62
     7
370
    25
100
AcDbCircle
 10
-167.190230932
 20
830.3028571429
 30
0.0
 40
4.749999999999989
100
AcDbArc
 50
153.0485177484
 51
206.9514822516
  0
ARC
  5
75
330
1F
100
AcDbEntity
  8
0
  6
Continuous
 62
     7
370
    25
100
AcDbCircle
 10
-167.190230932
 20
-509.6971428571
 30
0.0
 40
4.750000000000016
100
AcDbArc
 50
153.0485177484
 51
206.9514822516
  0
LINE
  5
76
330
1F
100
AcDbEntity
  8
0
  6
Continuous
 62
     7
370
    25
100
AcDbLine
 10
57.3806132581
 20
824.5178854288
 30
0.0
 11
57.4433694985
 21
824.5178854288
 31
0.0
  0
LINE
  5
77
330
1F
100
AcDbEntity
  8
0
  6
Continuous
 62
     7
370
    25
100
AcDbLine
 10
57.4433694985
 20
836.0878622355
 30
0.0
 11
57.3806132581
 21
836.0878622355
 31
0.0
  0
LINE
  5
78
330
1F
100
AcDbEntity
  8
0
  6
Continuous
 62
     7
370
    25
100
AcDbLine
 10
-78.4230862353
 20
166.0878455462
 30
0.0
 11
-78.9155845139
 21
166.0878455462
 31
0.0
  0
LINE
  5
79
330
1F
100
AcDbEntity
  8
0
  6
Continuous
 62
     7
370
    25
100
AcDbLine
 10
-78.9155845139
 20
154.5178687395
 30
0.0
 11
-78.4230862353
 21
154.5178687395
 31
0.0
  0
LINE
  5
7A
330
1F
100
AcDbEntity
  8
0
  6
Continuous
 62
     7
370
    25
100
AcDbLine
 10
-79.4326846097
 20
165.8108031573
 30
0.0
 11
-79.7383968327
 21
165.4751097979
 31
0.0
  0
LINE
  5
7B
330
1F
100
AcDbEntity
  8
0
  6
Continuous
 62
     7
370
    25
100
AcDbLine
 10
-79.7383968327
 20
155.1306044878
 30
0.0
 11
-79.4326846097
 21
154.7949111285
 31
0.0
  0
LINE
  5
7C
330
1F
100
AcDbEntity
  8
0
  6
Continuous
 62
     7
370
    25
100
AcDbLine
 10
255.8898370173
 20
154.5178687395
 30
0.0
 11
255.9526007082
 21
154.5178687395
 31
0.0
  0
LINE
  5
7D
330
1F
100
AcDbEntity
  8
0
  6
Continuous
 62
     7
370
    25
100
AcDbLine
 10
255.9526007082
 20
166.0878455462
 30
0.0
 11
255.8898370173
 21
166.0878455462
 31
0.0
  0
LINE
  5
7E
330
1F
100
AcDbEntity
  8
0
  6
Continuous
 62
     7
370
    25
100
AcDbLine
 10
-78.4230862353
 20
-503.9122307478
 30
0.0
 11
-78.9155845139
 21
-503.9122307478
 31
0.0
  0
LINE
  5
7F
330
1F
100
AcDbEntity
  8
0
  6
Continuous
 62
     7
370
    25
100
AcDbLine
 10
-78.9155845139
 20
-515.4822075544
 30
0.0
 11
-78.4230862353
 21
-515.4822075544
 31
0.0
  0
LINE
  5
80
330
1F
100
AcDbEntity
  8
0
  6
Continuous
 62
     7
370
    25
100
AcDbLine
 10
-79.4326846097
 20
-504.1890347181
 30
0.0
 11
-79.7383968327
 21
-504.5249664961
 31
0.0
  0
LINE
  5
81
330
1F
100
AcDbEntity
  8
0
  6
Continuous
 62
     7
370
    25
100
AcDbLine
 10
-79.7383968327
 20
-514.8694718061
 30
0.0
 11
-79.4326846097
 21
-515.2051651655
 31
0.0
  0
LINE
  5
82
330
1F
100
AcDbEntity
  8
0
  6
Continuous
 62
     7
370
    25
100
AcDbLine
 10
-107.6602671836
 20
836.0878622355
 30
0.0
 11
-108.152750561
 21
836.0878622355
 31
0.0
  0
LINE
  5
83
330
1F
100
AcDbEntity
  8
0
  6
Continuous
 62
     7
370
    25
100
AcDbLine
 10
-108.152750561
 20
824.5178854288
 30
0.0
 11
-107.6602671836
 21
824.5178854288
 31
0.0
  0
LINE
  5
84
330
1F
100
AcDbEntity
  8
0
  6
Continuous
 62
     7
370
    25
100
AcDbLine
 10
-108.6698506568
 20
835.8108794512
 30
0.0
 11
-108.9755628798
 21
835.4751264872
 31
0.0
  0
LINE
  5
85
330
1F
100
AcDbEntity
  8
0
  6
Continuous
 62
     7
370
    25
100
AcDbLine
 10
-108.9755628798
 20
825.1306211771
 30
0.0
 11
-108.6698506568
 21
824.7948682131
 31
0.0
  0
LINE
  5
86
330
1F
100
AcDbEntity
  8
0
  6
Continuous
 62
     7
370
    25
100
AcDbLine
 10
355.1444526222
 20
824.5178854288
 30
0.0
 11
355.2072163131
 21
824.5178854288
 31
0.0
  0
LINE
  5
87
330
1F
100
AcDbEntity
  8
0
  6
Continuous
 62
     7
370
    25
100
AcDbLine
 10
355.2072163131
 20
836.0878622355
 30
0.0
 11
355.1444526222
 21
836.0878622355
 31
0.0
  0
LINE
  5
88
330
1F
100
AcDbEntity
  8
0
  6
Continuous
 62
     7
370
    25
100
AcDbLine
 10
156.6352251377
 20
-515.4822075544
 30
0.0
 11
156.6979878973
 21
-515.4822075544
 31
0.0
  0
LINE
  5
89
330
1F
100
AcDbEntity
  8
0
  6
Continuous
 62
     7
370
    25
100
AcDbLine
 10
156.6979878973
 20
-503.9122307478
 30
0.0
 11
156.6352251377
 21
-503.9122307478
 31
0.0
  0
LINE
  5
8A
330
1F
100
AcDbEntity
  8
0
  6
Continuous
 62
     7
370
    25
100
AcDbLine
 10
-78.4230862353
 20
836.0878622355
 30
0.0
 11
-78.9155845139
 21
836.0878622355
 31
0.0
  0
LINE
  5
8B
330
1F
100
AcDbEntity
  8
0
  6
Continuous
 62
     7
370
    25
100
AcDbLine
 10
-78.9155845139
 20
824.5178854288
 30
0.0
 11
-78.4230862353
 21
824.5178854288
 31
0.0
  0
LINE
  5
8C
330
1F
100
AcDbEntity
  8
0
  6
Continuous
 62
     7
370
    25
100
AcDbLine
 10
-79.4326846097
 20
835.8108794512
 30
0.0
 11
-79.7383968327
 21
835.4751264872
 31
0.0
  0
LINE
  5
8D
330
1F
100
AcDbEntity
  8
0
  6
Continuous
 62
     7
370
    25
100
AcDbLine
 10
-79.7383968327
 20
825.1306211771
 30
0.0
 11
-79.4326846097
 21
824.7948682131
 31
0.0
  0
LINE
  5
8E
330
1F
100
AcDbEntity
  8
0
  6
Continuous
 62
     7
370
    25
100
AcDbLine
 10
355.1444526222
 20
-515.4822075544
 30
0.0
 11
355.2072163131
 21
-515.4822075544
 31
0.0
  0
LINE
  5
8F
330
1F
100
AcDbEntity
  8
0
  6
Continuous
 62
     7
370
    25
100
AcDbLine
 10
355.2072163131
 20
-503.9122307478
 30
0.0
 11
355.1444526222
 21
-503.9122307478
 31
0.0
  0
LINE
  5
90
330
1F
100
AcDbEntity
  8
0
  6
Continuous
 62
     7
370
    25
100
AcDbLine
 10
57.3806132581
 20
-515.4822075544
 30
0.0
 11
57.4433694985
 21
-515.4822075544
 31
0.0
  0
LINE
  5
91
330
1F
100
AcDbEntity
  8
0
  6
Continuous
 62
     7
370
    25
100
AcDbLine
 10
57.4433694985
 20
-503.9122307478
 30
0.0
 11
57.3806132581
 21
-503.9122307478
 31
0.0
  0
LINE
  5
92
330
1F
100
AcDbEntity
  8
0
  6
Continuous
 62
     7
370
    25
100
AcDbLine
 10
-107.6602671836
 20
-503.9122307478
 30
0.0
 11
-108.152750561
 21
-503.9122307478
 31
0.0
  0
LINE
  5
93
330
1F
100
AcDbEntity
  8
0
  6
Continuous
 62
     7
370
    25
100
AcDbLine
 10
-108.152750561
 20
-515.4822075544
 30
0.0
 11
-107.6602671836
 21
-515.4822075544
 31
0.0
  0
LINE
  5
94
330
1F
100
AcDbEntity
  8
0
  6
Continuous
 62
     7
370
    25
100
AcDbLine
 10
-108.6698506568
 20
-504.1890347181
 30
0.0
 11
-108.9755628798
 21
-504.5249664961
 31
0.0
  0
LINE
  5
95
330
1F
100
AcDbEntity
  8
0
  6
Continuous
 62
     7
370
    25
100
AcDbLine
 10
-108.9755628798
 20
-514.8694718061
 30
0.0
 11
-108.6698506568
 21
-515.2051651655
 31
0.0
  0
LINE
  5
96
330
1F
100
AcDbEntity
  8
0
  6
Continuous
 62
     7
370
    25
100
AcDbLine
 10
355.1444526222
 20
154.5178687395
 30
0.0
 11
355.2072163131
 21
154.5178687395
 31
0.0
  0
LINE
  5
97
330
1F
100
AcDbEntity
  8
0
  6
Continuous
 62
     7
370
    25
100
AcDbLine
 10
355.2072163131
 20
166.0878455462
 30
0.0
 11
355.1444526222
 21
166.0878455462
 31
0.0
  0
LINE
  5
98
330
1F
100
AcDbEntity
  8
0
  6
Continuous
 62
     7
370
    25
100
AcDbLine
 10
57.3806132581
 20
154.5178687395
 30
0.0
 11
57.4433694985
 21
154.5178687395
 31
0.0
  0
LINE
  5
99
330
1F
100
AcDbEntity
  8
0
  6
Continuous
 62
     7
370
    25
100
AcDbLine
 10
57.4433694985
 20
166.0878455462
 30
0.0
 11
57.3806132581
 21
166.0878455462
 31
0.0
  0
LINE
  5
9A
330
1F
100
AcDbEntity
  8
0
  6
Continuous
 62
     7
370
    25
100
AcDbLine
 10
156.6352251377
 20
824.5178854288
 30
0.0
 11
156.6979878973
 21
824.5178854288
 31
0.0
  0
LINE
  5
9B
330
1F
100
AcDbEntity
  8
0
  6
Continuous
 62
     7
370
    25
100
AcDbLine
 10
156.6979878973
 20
836.0878622355
 30
0.0
 11
156.6352251377
 21
836.0878622355
 31
0.0
  0
LINE
  5
9C
330
1F
100
AcDbEntity
  8
0
  6
Continuous
 62
     7
370
    25
100
AcDbLine
 10
156.6352251377
 20
154.5178687395
 30
0.0
 11
156.6979878973
 21
154.5178687395
 31
0.0
  0
LINE
  5
9D
330
1F
100
AcDbEntity
  8
0
  6
Continuous
 62
     7
370
    25
100
AcDbLine
 10
156.6979878973
 20
166.0878455462
 30
0.0
 11
156.6352251377
 21
166.0878455462
 31
0.0
  0
LINE
  5
9E
330
1F
100
AcDbEntity
  8
0
  6
Continuous
 62
     7
370
    25
100
AcDbLine
 10
-49.1859201882
 20
166.0878455462
 30
0.0
 11
-49.6784184668
 21
166.0878455462
 31
0.0
  0
LINE
  5
9F
330
1F
100
AcDbEntity
  8
0
  6
Continuous
 62
     7
370
    25
100
AcDbLine
 10
-49.6784184668
 20
154.5178687395
 30
0.0
 11
-49.1859201882
 21
154.5178687395
 31
0.0
  0
LINE
  5
A0
330
1F
100
AcDbEntity
  8
0
  6
Continuous
 62
     7
370
    25
100
AcDbLine
 10
-50.1955185626
 20
165.8108031573
 30
0.0
 11
-50.5012307856
 21
165.4751097979
 31
0.0
  0
LINE
  5
A1
330
1F
100
AcDbEntity
  8
0
  6
Continuous
 62
     7
370
    25
100
AcDbLine
 10
-50.5012307856
 20
155.1306044878
 30
0.0
 11
-50.1955185626
 21
154.7949111285
 31
0.0
  0
LINE
  5
A2
330
1F
100
AcDbEntity
  8
0
  6
Continuous
 62
     7
370
    25
100
AcDbLine
 10
-107.6602671836
 20
166.0878455462
 30
0.0
 11
-108.152750561
 21
166.0878455462
 31
0.0
  0
LINE
  5
A3
330
1F
100
AcDbEntity
  8
0
  6
Continuous
 62
     7
370
    25
100
AcDbLine
 10
-108.152750561
 20
154.5178687395
 30
0.0
 11
-107.6602671836
 21
154.5178687395
 31
0.0
  0
LINE
  5
A4
330
1F
100
AcDbEntity
  8
0
  6
Continuous
 62
     7
370
    25
100
AcDbLine
 10
-108.6698506568
 20
165.8108031573
 30
0.0
 11
-108.9755628798
 21
165.4751097979
 31
0.0
  0
LINE
  5
A5
330
1F
100
AcDbEntity
  8
0
  6
Continuous
 62
     7
370
    25
100
AcDbLine
 10
-108.9755628798
 20
155.1306044878
 30
0.0
 11
-108.6698506568
 21
154.7949111285
 31
0.0
  0
LINE
  5
A6
330
1F
100
AcDbEntity
  8
0
  6
Continuous
 62
     7
370
    25
100
AcDbLine
 10
255.8898370173
 20
824.5178854288
 30
0.0
 11
255.9526007082
 21
824.5178854288
 31
0.0
  0
LINE
  5
A7
330
1F
100
AcDbEntity
  8
0
  6
Continuous
 62
     7
370
    25
100
AcDbLine
 10
255.9526007082
 20
836.0878622355
 30
0.0
 11
255.8898370173
 21
836.0878622355
 31
0.0
  0
LINE
  5
A8
330
1F
100
AcDbEntity
  8
0
  6
Continuous
 62
     7
370
    25
100
AcDbLine
 10
-49.1859201882
 20
-503.9122307478
 30
0.0
 11
-49.6784184668
 21
-503.9122307478
 31
0.0
  0
LINE
  5
A9
330
1F
100
AcDbEntity
  8
0
  6
Continuous
 62
     7
370
    25
100
AcDbLine
 10
-49.6784184668
 20
-515.4822075544
 30
0.0
 11
-49.1859201882
 21
-515.4822075544
 31
0.0
  0
LINE
  5
AA
330
1F
100
AcDbEntity
  8
0
  6
Continuous
 62
     7
370
    25
100
AcDbLine
 10
-50.1955185626
 20
-504.1890347181
 30
0.0
 11
-50.5012307856
 21
-504.5249664961
 31
0.0
  0
LINE
  5
AB
330
1F
100
AcDbEntity
  8
0
  6
Continuous
 62
     7
370
    25
100
AcDbLine
 10
-50.5012307856
 20
-514.8694718061
 30
0.0
 11
-50.1955185626
 21
-515.2051651655
 31
0.0
  0
LINE
  5
AC
330
1F
100
AcDbEntity
  8
0
  6
Continuous
 62
     7
370
    25
100
AcDbLine
 10
255.8898370173
 20
-515.4822075544
 30
0.0
 11
255.9526007082
 21
-515.4822075544
 31
0.0
  0
LINE
  5
AD
330
1F
100
AcDbEntity
  8
0
  6
Continuous
 62
     7
370
    25
100
AcDbLine
 10
255.9526007082
 20
-503.9122307478
 30
0.0
 11
255.8898370173
 21
-503.9122307478
 31
0.0
  0
LINE
  5
AE
330
1F
100
AcDbEntity
  8
0
  6
Continuous
 62
     7
370
    25
100
AcDbLine
 10
-49.1859201882
 20
836.0878622355
 30
0.0
 11
-49.6784184668
 21
836.0878622355
 31
0.0
  0
LINE
  5
AF
330
1F
100
AcDbEntity
  8
0
  6
Continuous
 62
     7
370
    25
100
AcDbLine
 10
-49.6784184668
 20
824.5178854288
 30
0.0
 11
-49.1859201882
 21
824.5178854288
 31
0.0
  0
LINE
  5
B0
330
1F
100
AcDbEntity
  8
0
  6
Continuous
 62
     7
370
    25
100
AcDbLine
 10
-50.1955185626
 20
835.8108794512
 30
0.0
 11
-50.5012307856
 21
835.4751264872
 31
0.0
  0
LINE
  5
B1
330
1F
100
AcDbEntity
  8
0
  6
Continuous
 62
     7
370
    25
100
AcDbLine
 10
-50.5012307856
 20
825.1306211771
 30
0.0
 11
-50.1955185626
 21
824.7948682131
 31
0.0
  0
LINE
  5
B2
330
1F
100
AcDbEntity
  8
0
  6
Continuous
 62
     7
370
    25
100
AcDbLine
 10
355.6892092731
 20
-529.5472347913
 30
0.0
 11
242.5802315976
 21
-529.5472347913
 31
0.0
  0
LINE
  5
B3
330
1F
100
AcDbEntity
  8
0
  6
Continuous
 62
     7
370
    25
100
AcDbLine
 10
242.5802315976
 20
-589.8471081434
 30
0.0
 11
386.9646306541
 21
-589.8471081434
 31
0.0
  0
LINE
  5
B4
330
1F
100
AcDbEntity
  8
0
  6
Continuous
 62
     7
370
    25
100
AcDbLine
 10
26.1464755442
 20
-589.8471081434
 30
0.0
 11
242.5802315976
 21
-589.8471081434
 31
0.0
  0
LINE
  5
B5
330
1F
100
AcDbEntity
  8
0
  6
Continuous
 62
     7
370
    25
100
AcDbLine
 10
242.5802315976
 20
-529.5472347913
 30
0.0
 11
26.1464755442
 21
-529.5472347913
 31
0.0
  0
LINE
  5
B6
330
1F
100
AcDbEntity
  8
0
  6
Continuous
 62
     7
370
    25
100
AcDbLine
 10
26.1464755442
 20
-529.5472347913
 30
0.0
 11
-44.4906388018
 21
-529.5472347913
 31
0.0
  0
LINE
  5
B7
330
1F
100
AcDbEntity
  8
0
  6
Continuous
 62
     7
370
    25
100
AcDbLine
 10
-167.1939824317
 20
-529.5472347913
 30
0.0
 11
-184.8255429957
 21
-529.5472347913
 31
0.0
  0
LINE
  5
B8
330
1F
100
AcDbEntity
  8
0
  6
Continuous
 62
     7
370
    25
100
AcDbLine
 10
-184.8255429957
 20
-589.8471081434
 30
0.0
 11
26.1464755442
 21
-589.8471081434
 31
0.0
  0
LINE
  5
B9
330
1F
100
AcDbEntity
  8
0
  6
Continuous
 62
     7
370
    25
100
AcDbLine
 10
386.9646306541
 20
910.4528820338
 30
0.0
 11
242.5802315976
 21
910.4528820338
 31
0.0
  0
LINE
  5
BA
330
1F
100
AcDbEntity
  8
0
  6
Continuous
 62
     7
370
    25
100
AcDbLine
 10
242.5802315976
 20
850.1528298678
 30
0.0
 11
355.6892092731
 21
850.1528298678
 31
0.0
  0
LINE
  5
BB
330
1F
100
AcDbEntity
  8
0
  6
Continuous
 62
     7
370
    25
100
AcDbLine
 10
26.1464755442
 20
850.1528298678
 30
0.0
 11
242.5802315976
 21
850.1528298678
 31
0.0
  0
LINE
  5
BC
330
1F
100
AcDbEntity
  8
0
  6
Continuous
 62
     7
370
    25
100
AcDbLine
 10
242.5802315976
 20
910.4528820338
 30
0.0
 11
26.1464755442
 21
910.4528820338
 31
0.0
  0
LINE
  5
BD
330
1F
100
AcDbEntity
  8
0
  6
Continuous
 62
     7
370
    25
100
AcDbLine
 10
26.1464755442
 20
910.4528820338
 30
0.0
 11
-184.8255429957
 21
910.4528820338
 31
0.0
  0
LINE
  5
BE
330
1F
100
AcDbEntity
  8
0
  6
Continuous
 62
     7
370
    25
100
AcDbLine
 10
-184.8255429957
 20
850.1528298678
 30
0.0
 11
-167.1939824317
 21
850.1528298678
 31
0.0
  0
LINE
  5
BF
330
1F
100
AcDbEntity
  8
0
  6
Continuous
 62
     7
370
    25
100
AcDbLine
 10
-44.4906388018
 20
850.1528298678
 30
0.0
 11
26.1464755442
 21
850.1528298678
 31
0.0
  0
LINE
  5
C0
330
1F
100
AcDbEntity
  8
0
  6
Continuous
 62
     7
370
    25
100
AcDbLine
 10
386.9646306541
 20
-589.8471081434
 30
0.0
 11
459.2872227933
 21
-589.8471081434
 31
0.0
  0
LINE
  5
C1
330
1F
100
AcDbEntity
  8
0
  6
Continuous
 62
     7
370
    25
100
AcDbLine
 10
459.2872227933
 20
-529.5472347913
 30
0.0
 11
401.6370739248
 21
-529.5472347913
 31
0.0
  0
LINE
  5
C2
330
1F
100
AcDbEntity
  8
0
  6
Continuous
 62
     7
370
    25
100
AcDbLine
 10
401.6370739248
 20
850.1528298678
 30
0.0
 11
459.2872227933
 21
850.1528298678
 31
0.0
  0
LINE
  5
C3
330
1F
100
AcDbEntity
  8
0
  6
Continuous
 62
     7
370
    25
100
AcDbLine
 10
459.2872227933
 20
910.4528820338
 30
0.0
 11
386.9646306541
 21
910.4528820338
 31
0.0
  0
LINE
  5
C4
330
1F
100
AcDbEntity
  8
0
  6
Continuous
 62
     7
370
    25
100
AcDbLine
 10
-232.9155836795
 20
850.1528298678
 30
0.0
 11
-184.8255429957
 21
850.1528298678
 31
0.0
  0
LINE
  5
C5
330
1F
100
AcDbEntity
  8
0
  6
Continuous
 62
     7
370
    25
100
AcDbLine
 10
-184.8255429957
 20
910.4528820338
 30
0.0
 11
-232.9155836795
 21
910.4528820338
 31
0.0
  0
LINE
  5
C6
330
1F
100
AcDbEntity
  8
0
  6
Continuous
 62
     7
370
    25
100
AcDbLine
 10
-232.9155836795
 20
-589.8471081434
 30
0.0
 11
-184.8255429957
 21
-589.8471081434
 31
0.0
  0
LINE
  5
C7
330
1F
100
AcDbEntity
  8
0
  6
Continuous
 62
     7
370
    25
100
AcDbLine
 10
-184.8255429957
 20
-529.5472347913
 30
0.0
 11
-232.9155836795
 21
-529.5472347913
 31
0.0
  0
LINE
  5
C8
330
1F
100
AcDbEntity
  8
0
  6
Continuous
 62
     7
370
    25
100
AcDbLine
 10
-171.4243326876
 20
844.6418440165
 30
0.0
 11
-171.4243326876
 21
-524.0361893354
 31
0.0
  0
LINE
  5
C9
330
1F
100
AcDbEntity
  8
0
  6
Continuous
 62
     7
370
    25
100
AcDbLine
 10
57.0331852343
 20
828.0084526362
 30
0.0
 11
55.2346970346
 21
829.4588124575
 31
0.0
  0
LINE
  5
CA
330
1F
100
AcDbEntity
  8
0
  6
Continuous
 62
     7
370
    25
100
AcDbLine
 10
59.1790940072
 20
828.8525140108
 30
0.0
 11
57.0331852343
 21
828.0084526362
 31
0.0
  0
LINE
  5
CB
330
1F
100
AcDbEntity
  8
0
  6
Continuous
 62
     7
370
    25
100
AcDbLine
 10
59.5265220311
 20
831.1469352068
 30
0.0
 11
59.1790940072
 21
828.8525140108
 31
0.0
  0
LINE
  5
CC
330
1F
100
AcDbEntity
  8
0
  6
Continuous
 62
     7
370
    25
100
AcDbLine
 10
57.7280338313
 20
832.5972354235
 30
0.0
 11
59.5265220311
 21
831.1469352068
 31
0.0
  0
LINE
  5
CD
330
1F
100
AcDbEntity
  8
0
  6
Continuous
 62
     7
370
    25
100
AcDbLine
 10
55.5821250584
 20
831.7531740488
 30
0.0
 11
57.7280338313
 21
832.5972354235
 31
0.0
  0
LINE
  5
CE
330
1F
100
AcDbEntity
  8
0
  6
Continuous
 62
     7
370
    25
100
AcDbLine
 10
55.2346970346
 20
829.4588124575
 30
0.0
 11
55.5821250584
 21
831.7531740488
 31
0.0
  0
CIRCLE
  5
CF
330
1F
100
AcDbEntity
  8
0
  6
Continuous
 62
     7
370
    25
100
AcDbCircle
 10
57.4135310943
 20
830.2752968293
 30
0.0
 40
5.76724792016055
  0
ARC
  5
D0
330
1F
100
AcDbEntity
  8
0
  6
Continuous
 62
     7
370
    25
100
AcDbCircle
 10
57.4135345357
 20
830.3028738322
 30
0.0
 40
5.785065336844184
100
AcDbArc
 50
270.295489321
 51
89.704510679
  0
LINE
  5
D1
330
1F
100
AcDbEntity
  8
0
  6
Continuous
 62
     7
370
    25
100
AcDbLine
 10
56.9597523119
 20
832.1752345385
 30
0.0
 11
57.8279237654
 21
832.5167095484
 31
0.0
  0
LINE
  5
D2
330
1F
100
AcDbEntity
  8
0
  6
Continuous
 62
     7
370
    25
100
AcDbLine
 10
55.8867942002
 20
831.7531740488
 30
0.0
 11
56.9597523119
 21
832.1752345385
 31
0.0
  0
LINE
  5
D3
330
1F
100
AcDbEntity
  8
0
  6
Continuous
 62
     7
370
    25
100
AcDbLine
 10
55.8867942002
 20
831.7531740488
 30
0.0
 11
55.5821250584
 21
831.7531740488
 31
0.0
  0
LINE
  5
D4
330
1F
100
AcDbEntity
  8
0
  6
Continuous
 62
     7
370
    25
100
AcDbLine
 10
55.5393736269
 20
829.4588124575
 30
0.0
 11
55.2346970346
 21
829.4588124575
 31
0.0
  0
LINE
  5
D5
330
1F
100
AcDbEntity
  8
0
  6
Continuous
 62
     7
370
    25
100
AcDbLine
 10
56.4386140015
 20
828.7336027445
 30
0.0
 11
55.5393736269
 21
829.4588124575
 31
0.0
  0
LINE
  5
D6
330
1F
100
AcDbEntity
  8
0
  6
Continuous
 62
     7
370
    25
100
AcDbLine
 10
57.2379718926
 20
828.0889785113
 30
0.0
 11
56.4386140015
 21
828.7336027445
 31
0.0
  0
LINE
  5
D7
330
1F
100
AcDbEntity
  8
0
  6
Continuous
 62
     7
370
    25
100
AcDbLine
 10
55.7130839136
 20
830.6060230555
 30
0.0
 11
55.8867942002
 21
831.7531740488
 31
0.0
  0
LINE
  5
D8
330
1F
100
AcDbEntity
  8
0
  6
Continuous
 62
     7
370
    25
100
AcDbLine
 10
55.5393736269
 20
829.4588124575
 30
0.0
 11
55.7130839136
 21
830.6060230555
 31
0.0
  0
ARC
  5
D9
330
1F
100
AcDbEntity
  8
0
  6
Continuous
 62
     7
370
    25
100
AcDbCircle
 10
57.7075477599
 20
830.3020676179
 30
0.0
 40
2.017492240940594
100
AcDbArc
 50
171.3348219254
 51
231.0261327084
  0
ARC
  5
DA
330
1F
100
AcDbEntity
  8
0
  6
Continuous
 62
     7
370
    25
100
AcDbCircle
 10
57.6981082069
 20
830.3088268683
 30
0.0
 40
2.007148977718786
100
AcDbArc
 50
111.5838847424
 51
171.4849714152
  0
ARC
  5
DB
330
1F
100
AcDbEntity
  8
0
  6
Continuous
 62
     7
370
    25
100
AcDbCircle
 10
57.685170794
 20
830.3320729795
 30
0.0
 40
1.98077674325763
100
AcDbArc
 50
76.4587096442
 51
111.4832555807
  0
LINE
  5
DC
330
1F
100
AcDbEntity
  8
0
  6
Continuous
 62
     7
370
    25
100
AcDbLine
 10
59.518706372
 20
831.0953175844
 30
0.0
 11
59.4769980218
 21
831.1868703188
 31
0.0
  0
LWPOLYLINE
  5
DD
330
1F
100
AcDbEntity
  8
0
  6
Continuous
 62
     7
370
    25
100
AcDbPolyline
 90
        3
 70
   128
 43
0.0
 10
58.9812363889
 20
828.7746703448
 10
59.0667690542
 20
828.8527524294
 10
59.2007677462
 20
828.9956843676
  0
ARC
  5
DE
330
1F
100
AcDbEntity
  8
0
  6
Continuous
 62
     7
370
    25
100
AcDbCircle
 10
57.6860607762
 20
830.2786962074
 30
0.0
 40
1.985808969917498
100
AcDbArc
 50
231.0839784241
 51
272.128148303
  0
LINE
  5
DF
330
1F
100
AcDbEntity
  8
0
  6
Continuous
 62
     7
370
    25
100
AcDbLine
 10
-78.7186060641
 20
158.2135951342
 30
0.0
 11
-79.0998671744
 21
160.1335799517
 31
0.0
  0
LINE
  5
E0
330
1F
100
AcDbEntity
  8
0
  6
Continuous
 62
     7
370
    25
100
AcDbLine
 10
-78.0418400262
 20
158.3828723254
 30
0.0
 11
-78.7186060641
 21
158.2135951342
 31
0.0
  0
LINE
  5
E1
330
1F
100
AcDbEntity
  8
0
  6
Continuous
 62
     7
370
    25
100
AcDbLine
 10
-77.7463201974
 20
160.472134334
 30
0.0
 11
-78.0418400262
 21
158.3828723254
 31
0.0
  0
LINE
  5
E2
330
1F
100
AcDbEntity
  8
0
  6
Continuous
 62
     7
370
    25
100
AcDbLine
 10
-78.1275664065
 20
162.3921191515
 30
0.0
 11
-77.7463201974
 21
160.472134334
 31
0.0
  0
LINE
  5
E3
330
1F
100
AcDbEntity
  8
0
  6
Continuous
 62
     7
370
    25
100
AcDbLine
 10
-78.8043473456
 20
162.2228419604
 30
0.0
 11
-78.1275664065
 21
162.3921191515
 31
0.0
  0
LINE
  5
E4
330
1F
100
AcDbEntity
  8
0
  6
Continuous
 62
     7
370
    25
100
AcDbLine
 10
-79.0998671744
 20
160.1335799517
 30
0.0
 11
-78.8043473456
 21
162.2228419604
 31
0.0
  0
LWPOLYLINE
  5
E5
330
1F
100
AcDbEntity
  8
0
  6
Continuous
 62
     7
370
    25
100
AcDbPolyline
 90
       26
 70
   128
 43
0.0
 10
-79.8222754691
 20
157.0526158633
 10
-79.541984627
 20
155.9645926775
 10
-79.1914050076
 20
155.149201137
 10
-78.7925456259
 20
154.6575820269
 10
-78.3704702351
 20
154.5206105532
 10
-77.9516880009
 20
154.7471082033
 10
-77.5625441764
 20
155.322531444
 10
-77.2274617646
 20
156.210998279
 10
-76.9675110076
 20
157.3565995516
 10
-76.7990235779
 20
158.6872136416
 10
-76.732564399
 20
160.1193940462
 10
-76.7723504994
 20
161.563137752
 10
-76.9158337805
 20
162.9276072802
 10
-77.1540437434
 20
164.1272103609
 10
-77.4719898198
 20
165.0866067232
 10
-77.8496895526
 20
165.745238048
 10
-78.2634202931
 20
166.0619771303
 10
-78.6871795151
 20
166.0169160189
 10
-79.0943537448
 20
165.6127965273
 10
-79.459342787
 20
164.8750102343
 10
-79.7592286561
 20
163.8499295534
 10
-79.9751464818
 20
162.6019275011
 10
-80.0935511086
 20
161.2095629992
 10
-80.1070068572
 20
159.7600972475
 10
-80.0146345589
 20
158.344844562
 10
-79.8222754691
 20
157.0526158633
  0
ARC
  5
E6
330
1F
100
AcDbEntity
  8
0
  6
Continuous
 62
     7
370
    25
100
AcDbCircle
 10
-78.5010128311
 20
155.8514492976
 30
0.0
 40
1.396533846712859
100
AcDbArc
 50
196.0549560328
 51
252.7310394576
  0
ARC
  5
E7
330
1F
100
AcDbEntity
  8
0
  6
Continuous
 62
     7
370
    25
100
AcDbCircle
 10
-78.5938644609
 20
164.8451697948
 30
0.0
 40
1.28364590736819
100
AcDbArc
 50
104.5147898935
 51
166.6992146161
  0
LINE
  5
E8
330
1F
100
AcDbEntity
  8
0
  6
Continuous
 62
     7
370
    25
100
AcDbLine
 10
-78.7522230837
 20
158.3828723254
 30
0.0
 11
-78.0418400262
 21
158.3828723254
 31
0.0
  0
LINE
  5
E9
330
1F
100
AcDbEntity
  8
0
  6
Continuous
 62
     7
370
    25
100
AcDbLine
 10
-79.0519748423
 20
160.472134334
 30
0.0
 11
-77.7463201974
 21
160.472134334
 31
0.0
  0
LINE
  5
EA
330
1F
100
AcDbEntity
  8
0
  6
Continuous
 62
     7
370
    25
100
AcDbLine
 10
255.542416444
 20
158.0084359469
 30
0.0
 11
253.7439282443
 21
159.4587361635
 31
0.0
  0
LINE
  5
EB
330
1F
100
AcDbEntity
  8
0
  6
Continuous
 62
     7
370
    25
100
AcDbLine
 10
257.688325217
 20
158.8525569262
 30
0.0
 11
255.542416444
 21
158.0084359469
 31
0.0
  0
LINE
  5
EC
330
1F
100
AcDbEntity
  8
0
  6
Continuous
 62
     7
370
    25
100
AcDbLine
 10
258.0357532408
 20
161.1469781222
 30
0.0
 11
257.688325217
 21
158.8525569262
 31
0.0
  0
LINE
  5
ED
330
1F
100
AcDbEntity
  8
0
  6
Continuous
 62
     7
370
    25
100
AcDbLine
 10
256.2372650411
 20
162.5972783388
 30
0.0
 11
258.0357532408
 21
161.1469781222
 31
0.0
  0
LINE
  5
EE
330
1F
100
AcDbEntity
  8
0
  6
Continuous
 62
     7
370
    25
100
AcDbLine
 10
254.0913562682
 20
161.7531573595
 30
0.0
 11
256.2372650411
 21
162.5972783388
 31
0.0
  0
LINE
  5
EF
330
1F
100
AcDbEntity
  8
0
  6
Continuous
 62
     7
370
    25
100
AcDbLine
 10
253.7439282443
 20
159.4587361635
 30
0.0
 11
254.0913562682
 21
161.7531573595
 31
0.0
  0
CIRCLE
  5
F0
330
1F
100
AcDbEntity
  8
0
  6
Continuous
 62
     7
370
    25
100
AcDbCircle
 10
255.9226021897
 20
160.275416138
 30
0.0
 40
5.76720685447211
  0
ARC
  5
F1
330
1F
100
AcDbEntity
  8
0
  6
Continuous
 62
     7
370
    25
100
AcDbCircle
 10
255.9227026033
 20
160.3028571429
 30
0.0
 40
5.785065662827663
100
AcDbArc
 50
270.2961146774
 51
89.7038853226
  0
LINE
  5
F2
330
1F
100
AcDbEntity
  8
0
  6
Continuous
 62
     7
370
    25
100
AcDbLine
 10
255.4689835217
 20
162.1752774538
 30
0.0
 11
256.3371549752
 21
162.5166928591
 31
0.0
  0
LINE
  5
F3
330
1F
100
AcDbEntity
  8
0
  6
Continuous
 62
     7
370
    25
100
AcDbLine
 10
254.3960254099
 20
161.7531573595
 30
0.0
 11
255.4689835217
 21
162.1752774538
 31
0.0
  0
LINE
  5
F4
330
1F
100
AcDbEntity
  8
0
  6
Continuous
 62
     7
370
    25
100
AcDbLine
 10
254.3960254099
 20
161.7531573595
 30
0.0
 11
254.0913562682
 21
161.7531573595
 31
0.0
  0
LINE
  5
F5
330
1F
100
AcDbEntity
  8
0
  6
Continuous
 62
     7
370
    25
100
AcDbLine
 10
254.0486048367
 20
159.4587361635
 30
0.0
 11
253.7439282443
 21
159.4587361635
 31
0.0
  0
LINE
  5
F6
330
1F
100
AcDbEntity
  8
0
  6
Continuous
 62
     7
370
    25
100
AcDbLine
 10
254.9478452113
 20
158.7335860552
 30
0.0
 11
254.0486048367
 21
159.4587361635
 31
0.0
  0
LINE
  5
F7
330
1F
100
AcDbEntity
  8
0
  6
Continuous
 62
     7
370
    25
100
AcDbLine
 10
255.7472031023
 20
158.0890214266
 30
0.0
 11
254.9478452113
 21
158.7335860552
 31
0.0
  0
LINE
  5
F8
330
1F
100
AcDbEntity
  8
0
  6
Continuous
 62
     7
370
    25
100
AcDbLine
 10
254.2223151233
 20
160.6060063662
 30
0.0
 11
254.3960254099
 21
161.7531573595
 31
0.0
  0
LINE
  5
F9
330
1F
100
AcDbEntity
  8
0
  6
Continuous
 62
     7
370
    25
100
AcDbLine
 10
254.0486048367
 20
159.4587361635
 30
0.0
 11
254.2223151233
 21
160.6060063662
 31
0.0
  0
ARC
  5
FA
330
1F
100
AcDbEntity
  8
0
  6
Continuous
 62
     7
370
    25
100
AcDbCircle
 10
256.2168893805
 20
160.3020937109
 30
0.0
 40
2.017594946854744
100
AcDbArc
 50
171.3364953795
 51
231.0244592543
  0
ARC
  5
FB
330
1F
100
AcDbEntity
  8
0
  6
Continuous
 62
     7
370
    25
100
AcDbCircle
 10
256.2075736202
 20
160.3086950136
 30
0.0
 40
2.007397653641692
100
AcDbArc
 50
111.5882656952
 51
171.4827103569
  0
ARC
  5
FC
330
1F
100
AcDbEntity
  8
0
  6
Continuous
 62
     7
370
    25
100
AcDbCircle
 10
256.1943522546
 20
160.3314416837
 30
0.0
 40
1.981385915433411
100
AcDbArc
 50
76.4614724199
 51
111.4747768594
  0
LINE
  5
FD
330
1F
100
AcDbEntity
  8
0
  6
Continuous
 62
     7
370
    25
100
AcDbLine
 10
258.0279375818
 20
161.0953604998
 30
0.0
 11
257.9862292316
 21
161.1867940249
 31
0.0
  0
LWPOLYLINE
  5
FE
330
1F
100
AcDbEntity
  8
0
  6
Continuous
 62
     7
370
    25
100
AcDbPolyline
 90
        3
 70
   128
 43
0.0
 10
257.4904675987
 20
158.7747132601
 10
257.5760002639
 20
158.8527953448
 10
257.709998956
 20
158.9956080736
  0
ARC
  5
FF
330
1F
100
AcDbEntity
  8
0
  6
Continuous
 62
     7
370
    25
100
AcDbCircle
 10
256.1946294466
 20
160.276956132
 30
0.0
 40
1.984051945760859
100
AcDbArc
 50
231.0676016903
 51
272.1491800736
  0
LWPOLYLINE
  5
100
330
1F
100
AcDbEntity
  8
0
  6
Continuous
 62
     7
370
    25
100
AcDbPolyline
 90
       26
 70
   128
 43
0.0
 10
-79.8222754691
 20
-512.9473412214
 10
-79.541984627
 20
-514.0354836164
 10
-79.1914050076
 20
-514.8508751569
 10
-78.7925456259
 20
-515.3424942671
 10
-78.3704702351
 20
-515.4793465315
 10
-77.9516880009
 20
-515.2528488813
 10
-77.5625441764
 20
-514.6773064314
 10
-77.2274617646
 20
-513.7889588056
 10
-76.9675110076
 20
-512.643357533
 10
-76.7990235779
 20
-511.3127434431
 10
-76.732564399
 20
-509.8805630384
 10
-76.7723504994
 20
-508.436938542
 10
-76.9158337805
 20
-507.0722305952
 10
-77.1540437434
 20
-505.8727467237
 10
-77.4719898198
 20
-504.9133503614
 10
-77.8496895526
 20
-504.2548382459
 10
-78.2634202931
 20
-503.9379799543
 10
-78.6871795151
 20
-503.9830410658
 10
-79.0943537448
 20
-504.3871605573
 10
-79.459342787
 20
-505.1250660597
 10
-79.7592286561
 20
-506.1500275312
 10
-79.9751464818
 20
-507.3981487928
 10
-80.0935511086
 20
-508.7905132948
 10
-80.1070068572
 20
-510.2398598371
 10
-80.0146345589
 20
-511.6551125227
 10
-79.8222754691
 20
-512.9473412214
  0
ARC
  5
101
330
1F
100
AcDbEntity
  8
0
  6
Continuous
 62
     7
370
    25
100
AcDbCircle
 10
-78.5010779668
 20
-514.1487266038
 30
0.0
 40
1.396419393790783
100
AcDbArc
 50
196.0571444111
 51
252.7323782914
  0
ARC
  5
102
330
1F
100
AcDbEntity
  8
0
  6
Continuous
 62
     7
370
    25
100
AcDbCircle
 10
-78.5944869339
 20
-505.1542556088
 30
0.0
 40
1.282859856436061
100
AcDbArc
 50
104.4951619157
 51
166.7153153818
  0
LINE
  5
103
330
1F
100
AcDbEntity
  8
0
  6
Continuous
 62
     7
370
    25
100
AcDbLine
 10
-78.7186060641
 20
-511.7864811598
 30
0.0
 11
-79.0998671744
 21
-509.8664963423
 31
0.0
  0
LINE
  5
104
330
1F
100
AcDbEntity
  8
0
  6
Continuous
 62
     7
370
    25
100
AcDbLine
 10
-78.0418400262
 20
-511.6172039686
 30
0.0
 11
-78.7186060641
 21
-511.7864811598
 31
0.0
  0
LINE
  5
105
330
1F
100
AcDbEntity
  8
0
  6
Continuous
 62
     7
370
    25
100
AcDbLine
 10
-77.7463201974
 20
-509.5279419599
 30
0.0
 11
-78.0418400262
 21
-511.6172039686
 31
0.0
  0
LINE
  5
106
330
1F
100
AcDbEntity
  8
0
  6
Continuous
 62
     7
370
    25
100
AcDbLine
 10
-78.1275664065
 20
-507.6079571424
 30
0.0
 11
-77.7463201974
 21
-509.5279419599
 31
0.0
  0
LINE
  5
107
330
1F
100
AcDbEntity
  8
0
  6
Continuous
 62
     7
370
    25
100
AcDbLine
 10
-78.8043473456
 20
-507.7772343336
 30
0.0
 11
-78.1275664065
 21
-507.6079571424
 31
0.0
  0
LINE
  5
108
330
1F
100
AcDbEntity
  8
0
  6
Continuous
 62
     7
370
    25
100
AcDbLine
 10
-79.0998671744
 20
-509.8664963423
 30
0.0
 11
-78.8043473456
 21
-507.7772343336
 31
0.0
  0
LINE
  5
109
330
1F
100
AcDbEntity
  8
0
  6
Continuous
 62
     7
370
    25
100
AcDbLine
 10
-78.7522230837
 20
-511.6172039686
 30
0.0
 11
-78.0418400262
 21
-511.6172039686
 31
0.0
  0
LINE
  5
10A
330
1F
100
AcDbEntity
  8
0
  6
Continuous
 62
     7
370
    25
100
AcDbLine
 10
-79.0519748423
 20
-509.5279419599
 30
0.0
 11
-77.7463201974
 21
-509.5279419599
 31
0.0
  0
LWPOLYLINE
  5
10B
330
1F
100
AcDbEntity
  8
0
  6
Continuous
 62
     7
370
    25
100
AcDbPolyline
 90
       26
 70
   128
 43
0.0
 10
-109.0594564173
 20
827.0526325526
 10
-108.7791655753
 20
825.9646093668
 10
-108.4285710547
 20
825.1491582217
 10
-108.0296967719
 20
824.6575391115
 10
-107.6076362822
 20
824.5206868471
 10
-107.188854048
 20
824.747065288
 10
-106.7997251246
 20
825.3226077379
 10
-106.4646278117
 20
826.2110149683
 10
-106.2046770547
 20
827.3565566363
 10
-106.036189625
 20
828.6872303309
 10
-105.9697453473
 20
830.1194107355
 10
-106.0095165465
 20
831.5631544413
 10
-106.1530147288
 20
832.9276835741
 10
-106.3912097905
 20
834.1272866549
 10
-106.7091558669
 20
835.0865638079
 10
-107.0868705008
 20
835.7452547373
 10
-107.5005863402
 20
836.0619938196
 10
-107.9243455622
 20
836.0168731036
 10
-108.331534693
 20
835.612753612
 10
-108.6965237353
 20
834.8749673189
 10
-108.9963947032
 20
833.8498866381
 10
-109.2123125289
 20
832.6019441904
 10
-109.3307171557
 20
831.2095200838
 10
-109.3441580031
 20
829.7601735415
 10
-109.251800606
 20
828.3448612513
 10
-109.0594564173
 20
827.0526325526
  0
ARC
  5
10C
330
1F
100
AcDbEntity
  8
0
  6
Continuous
 62
     7
370
    25
100
AcDbCircle
 10
-107.738528933
 20
825.8511264483
 30
0.0
 40
1.396105716999217
100
AcDbArc
 50
196.0480579239
 51
252.7406214221
  0
ARC
  5
10D
330
1F
100
AcDbEntity
  8
0
  6
Continuous
 62
     7
370
    25
100
AcDbCircle
 10
-107.8307861734
 20
834.8449669254
 30
0.0
 40
1.283919708861611
100
AcDbArc
 50
104.5228898175
 51
166.6920350103
  0
LINE
  5
10E
330
1F
100
AcDbEntity
  8
0
  6
Continuous
 62
     7
370
    25
100
AcDbLine
 10
-107.9557870124
 20
828.2135522188
 30
0.0
 11
-108.3370183203
 21
830.1335370364
 31
0.0
  0
LINE
  5
10F
330
1F
100
AcDbEntity
  8
0
  6
Continuous
 62
     7
370
    25
100
AcDbLine
 10
-107.2790060733
 20
828.38282941
 30
0.0
 11
-107.9557870124
 21
828.2135522188
 31
0.0
  0
LINE
  5
110
330
1F
100
AcDbEntity
  8
0
  6
Continuous
 62
     7
370
    25
100
AcDbLine
 10
-106.9834862445
 20
830.4721510233
 30
0.0
 11
-107.2790060733
 21
828.38282941
 31
0.0
  0
LINE
  5
111
330
1F
100
AcDbEntity
  8
0
  6
Continuous
 62
     7
370
    25
100
AcDbLine
 10
-107.3647473548
 20
832.3921358408
 30
0.0
 11
-106.9834862445
 21
830.4721510233
 31
0.0
  0
LINE
  5
112
330
1F
100
AcDbEntity
  8
0
  6
Continuous
 62
     7
370
    25
100
AcDbLine
 10
-108.0414984915
 20
832.2228586497
 30
0.0
 11
-107.3647473548
 21
832.3921358408
 31
0.0
  0
LINE
  5
113
330
1F
100
AcDbEntity
  8
0
  6
Continuous
 62
     7
370
    25
100
AcDbLine
 10
-108.3370183203
 20
830.1335370364
 30
0.0
 11
-108.0414984915
 21
832.2228586497
 31
0.0
  0
LINE
  5
114
330
1F
100
AcDbEntity
  8
0
  6
Continuous
 62
     7
370
    25
100
AcDbLine
 10
-107.989404032
 20
828.38282941
 30
0.0
 11
-107.2790060733
 21
828.38282941
 31
0.0
  0
LINE
  5
115
330
1F
100
AcDbEntity
  8
0
  6
Continuous
 62
     7
370
    25
100
AcDbLine
 10
-108.2891259883
 20
830.4721510233
 30
0.0
 11
-106.9834862445
 21
830.4721510233
 31
0.0
  0
LINE
  5
116
330
1F
100
AcDbEntity
  8
0
  6
Continuous
 62
     7
370
    25
100
AcDbLine
 10
354.7970320489
 20
828.0084526362
 30
0.0
 11
352.9985512998
 21
829.4588124575
 31
0.0
  0
LINE
  5
117
330
1F
100
AcDbEntity
  8
0
  6
Continuous
 62
     7
370
    25
100
AcDbLine
 10
356.9429482725
 20
828.8525140108
 30
0.0
 11
354.7970320489
 21
828.0084526362
 31
0.0
  0
LINE
  5
118
330
1F
100
AcDbEntity
  8
0
  6
Continuous
 62
     7
370
    25
100
AcDbLine
 10
357.2903688457
 20
831.1469352068
 30
0.0
 11
356.9429482725
 21
828.8525140108
 31
0.0
  0
LINE
  5
119
330
1F
100
AcDbEntity
  8
0
  6
Continuous
 62
     7
370
    25
100
AcDbLine
 10
355.4918880966
 20
832.5972354235
 30
0.0
 11
357.2903688457
 21
831.1469352068
 31
0.0
  0
LINE
  5
11A
330
1F
100
AcDbEntity
  8
0
  6
Continuous
 62
     7
370
    25
100
AcDbLine
 10
353.345971873
 20
831.7531740488
 30
0.0
 11
355.4918880966
 21
832.5972354235
 31
0.0
  0
LINE
  5
11B
330
1F
100
AcDbEntity
  8
0
  6
Continuous
 62
     7
370
    25
100
AcDbLine
 10
352.9985512998
 20
829.4588124575
 30
0.0
 11
353.345971873
 21
831.7531740488
 31
0.0
  0
CIRCLE
  5
11C
330
1F
100
AcDbEntity
  8
0
  6
Continuous
 62
     7
370
    25
100
AcDbCircle
 10
355.1773703409
 20
830.2752967163
 30
0.0
 40
5.767247758507793
  0
ARC
  5
11D
330
1F
100
AcDbEntity
  8
0
  6
Continuous
 62
     7
370
    25
100
AcDbCircle
 10
355.1773813503
 20
830.3028738322
 30
0.0
 40
5.785065336844184
100
AcDbArc
 50
270.295489321
 51
89.704510679
  0
LINE
  5
11E
330
1F
100
AcDbEntity
  8
0
  6
Continuous
 62
     7
370
    25
100
AcDbLine
 10
354.7235991266
 20
832.1752345385
 30
0.0
 11
355.59177058
 21
832.5167095484
 31
0.0
  0
LINE
  5
11F
330
1F
100
AcDbEntity
  8
0
  6
Continuous
 62
     7
370
    25
100
AcDbLine
 10
353.6506410148
 20
831.7531740488
 30
0.0
 11
354.7235991266
 21
832.1752345385
 31
0.0
  0
LINE
  5
120
330
1F
100
AcDbEntity
  8
0
  6
Continuous
 62
     7
370
    25
100
AcDbLine
 10
353.6506410148
 20
831.7531740488
 30
0.0
 11
353.345971873
 21
831.7531740488
 31
0.0
  0
LINE
  5
121
330
1F
100
AcDbEntity
  8
0
  6
Continuous
 62
     7
370
    25
100
AcDbLine
 10
353.3032204416
 20
829.4588124575
 30
0.0
 11
352.9985512998
 21
829.4588124575
 31
0.0
  0
LINE
  5
122
330
1F
100
AcDbEntity
  8
0
  6
Continuous
 62
     7
370
    25
100
AcDbLine
 10
354.2024608161
 20
828.7336027445
 30
0.0
 11
353.3032204416
 21
829.4588124575
 31
0.0
  0
LINE
  5
123
330
1F
100
AcDbEntity
  8
0
  6
Continuous
 62
     7
370
    25
100
AcDbLine
 10
355.0018187072
 20
828.0889785113
 30
0.0
 11
354.2024608161
 21
828.7336027445
 31
0.0
  0
LINE
  5
124
330
1F
100
AcDbEntity
  8
0
  6
Continuous
 62
     7
370
    25
100
AcDbLine
 10
353.4769232776
 20
830.6060230555
 30
0.0
 11
353.6506410148
 21
831.7531740488
 31
0.0
  0
LINE
  5
125
330
1F
100
AcDbEntity
  8
0
  6
Continuous
 62
     7
370
    25
100
AcDbLine
 10
353.3032204416
 20
829.4588124575
 30
0.0
 11
353.4769232776
 21
830.6060230555
 31
0.0
  0
ARC
  5
126
330
1F
100
AcDbEntity
  8
0
  6
Continuous
 62
     7
370
    25
100
AcDbCircle
 10
355.4713840797
 20
830.3020714876
 30
0.0
 40
2.017488648509566
100
AcDbArc
 50
171.334917542
 51
231.0264335406
  0
ARC
  5
127
330
1F
100
AcDbEntity
  8
0
  6
Continuous
 62
     7
370
    25
100
AcDbCircle
 10
355.4619589882
 20
830.3088142921
 30
0.0
 40
2.007162131263966
100
AcDbArc
 50
111.5838579717
 51
171.4846646336
  0
ARC
  5
128
330
1F
100
AcDbEntity
  8
0
  6
Continuous
 62
     7
370
    25
100
AcDbCircle
 10
355.4490111429
 20
830.3321242631
 30
0.0
 40
1.980726654709474
100
AcDbArc
 50
76.4583899936
 51
111.4836248301
  0
LINE
  5
129
330
1F
100
AcDbEntity
  8
0
  6
Continuous
 62
     7
370
    25
100
AcDbLine
 10
357.2825457361
 20
831.0953175844
 30
0.0
 11
357.240852287
 21
831.1868703188
 31
0.0
  0
LWPOLYLINE
  5
12A
330
1F
100
AcDbEntity
  8
0
  6
Continuous
 62
     7
370
    25
100
AcDbPolyline
 90
        3
 70
   128
 43
0.0
 10
356.745075753
 20
828.7746703448
 10
356.8306084182
 20
828.8527524294
 10
356.9646145608
 20
828.9956843676
  0
ARC
  5
12B
330
1F
100
AcDbEntity
  8
0
  6
Continuous
 62
     7
370
    25
100
AcDbCircle
 10
355.4499053885
 20
830.2786908351
 30
0.0
 40
1.985803406407554
100
AcDbArc
 50
231.0839304936
 51
272.128002738
  0
LINE
  5
12C
330
1F
100
AcDbEntity
  8
0
  6
Continuous
 62
     7
370
    25
100
AcDbLine
 10
156.2877999078
 20
-511.9915211378
 30
0.0
 11
154.4893135708
 21
-510.5412209211
 31
0.0
  0
LINE
  5
12D
330
1F
100
AcDbEntity
  8
0
  6
Continuous
 62
     7
370
    25
100
AcDbLine
 10
158.4337114748
 20
-511.1475193678
 30
0.0
 11
156.2877999078
 21
-511.9915211378
 31
0.0
  0
LINE
  5
12E
330
1F
100
AcDbEntity
  8
0
  6
Continuous
 62
     7
370
    25
100
AcDbLine
 10
158.7811367046
 20
-508.8529789625
 30
0.0
 11
158.4337114748
 21
-511.1475193678
 31
0.0
  0
LINE
  5
12F
330
1F
100
AcDbEntity
  8
0
  6
Continuous
 62
     7
370
    25
100
AcDbLine
 10
156.9826503675
 20
-507.4026787458
 30
0.0
 11
158.7811367046
 21
-508.8529789625
 31
0.0
  0
LINE
  5
130
330
1F
100
AcDbEntity
  8
0
  6
Continuous
 62
     7
370
    25
100
AcDbLine
 10
154.8367388006
 20
-508.2469189344
 30
0.0
 11
156.9826503675
 21
-507.4026787458
 31
0.0
  0
LINE
  5
131
330
1F
100
AcDbEntity
  8
0
  6
Continuous
 62
     7
370
    25
100
AcDbLine
 10
154.4893135708
 20
-510.5412209211
 30
0.0
 11
154.8367388006
 21
-508.2469189344
 31
0.0
  0
CIRCLE
  5
132
330
1F
100
AcDbEntity
  8
0
  6
Continuous
 62
     7
370
    25
100
AcDbCircle
 10
156.668274345
 20
-509.7247977928
 30
0.0
 40
5.767280981120996
  0
ARC
  5
133
330
1F
100
AcDbEntity
  8
0
  6
Continuous
 62
     7
370
    25
100
AcDbCircle
 10
156.6682158966
 20
-509.6972191511
 30
0.0
 40
5.785065012476322
100
AcDbArc
 50
270.2948657472
 51
89.7051342528
  0
LINE
  5
134
330
1F
100
AcDbEntity
  8
0
  6
Continuous
 62
     7
370
    25
100
AcDbLine
 10
156.2143679168
 20
-507.8246796308
 30
0.0
 11
157.0825365763
 21
-507.4832642256
 31
0.0
  0
LINE
  5
135
330
1F
100
AcDbEntity
  8
0
  6
Continuous
 62
     7
370
    25
100
AcDbLine
 10
155.141412599
 20
-508.2469189344
 30
0.0
 11
156.2143679168
 21
-507.8246796308
 31
0.0
  0
LINE
  5
136
330
1F
100
AcDbEntity
  8
0
  6
Continuous
 62
     7
370
    25
100
AcDbLine
 10
155.141412599
 20
-508.2469189344
 30
0.0
 11
154.8367388006
 21
-508.2469189344
 31
0.0
  0
LINE
  5
137
330
1F
100
AcDbEntity
  8
0
  6
Continuous
 62
     7
370
    25
100
AcDbLine
 10
154.7939873692
 20
-510.5412209211
 30
0.0
 11
154.4893135708
 21
-510.5412209211
 31
0.0
  0
LINE
  5
138
330
1F
100
AcDbEntity
  8
0
  6
Continuous
 62
     7
370
    25
100
AcDbLine
 10
155.6932296064
 20
-511.2664902387
 30
0.0
 11
154.7939873692
 21
-510.5412209211
 31
0.0
  0
LINE
  5
139
330
1F
100
AcDbEntity
  8
0
  6
Continuous
 62
     7
370
    25
100
AcDbLine
 10
156.4925874975
 20
-511.910935658
 30
0.0
 11
155.6932296064
 21
-511.2664902387
 31
0.0
  0
LINE
  5
13A
330
1F
100
AcDbEntity
  8
0
  6
Continuous
 62
     7
370
    25
100
AcDbLine
 10
154.9676995184
 20
-509.3939507185
 30
0.0
 11
155.141412599
 21
-508.2469189344
 31
0.0
  0
LINE
  5
13B
330
1F
100
AcDbEntity
  8
0
  6
Continuous
 62
     7
370
    25
100
AcDbLine
 10
154.7939873692
 20
-510.5412209211
 30
0.0
 11
154.9676995184
 21
-509.3939507185
 31
0.0
  0
ARC
  5
13C
330
1F
100
AcDbEntity
  8
0
  6
Continuous
 62
     7
370
    25
100
AcDbCircle
 10
156.9623311166
 20
-509.6979410144
 30
0.0
 40
2.017663329777248
100
AcDbArc
 50
171.3345610414
 51
231.0239358537
  0
ARC
  5
13D
330
1F
100
AcDbEntity
  8
0
  6
Continuous
 62
     7
370
    25
100
AcDbCircle
 10
156.9534811505
 20
-509.6916776628
 30
0.0
 40
2.007976599389433
100
AcDbArc
 50
111.5977826079
 51
171.4731934442
  0
ARC
  5
13E
330
1F
100
AcDbEntity
  8
0
  6
Continuous
 62
     7
370
    25
100
AcDbCircle
 10
156.939799555
 20
-509.6694379451
 30
0.0
 40
1.982267464252107
100
AcDbArc
 50
76.4695609728
 51
111.4667068927
  0
LINE
  5
13F
330
1F
100
AcDbEntity
  8
0
  6
Continuous
 62
     7
370
    25
100
AcDbLine
 10
158.7733219769
 20
-508.9047157942
 30
0.0
 11
158.7316164207
 21
-508.8131630598
 31
0.0
  0
LWPOLYLINE
  5
140
330
1F
100
AcDbEntity
  8
0
  6
Continuous
 62
     7
370
    25
100
AcDbPolyline
 90
        3
 70
   128
 43
0.0
 10
158.2358510625
 20
-511.2252438246
 10
158.3213855904
 20
-511.1472809492
 10
158.4553852137
 20
-511.0042298017
  0
ARC
  5
141
330
1F
100
AcDbEntity
  8
0
  6
Continuous
 62
     7
370
    25
100
AcDbCircle
 10
156.9403994776
 20
-509.7214213809
 30
0.0
 40
1.98561589010704
100
AcDbArc
 50
231.0897493124
 51
272.1362703656
  0
LWPOLYLINE
  5
142
330
1F
100
AcDbEntity
  8
0
  6
Continuous
 62
     7
370
    25
100
AcDbPolyline
 90
       26
 70
   128
 43
0.0
 10
-79.8222754691
 20
827.0526325526
 10
-79.541984627
 20
825.9646093668
 10
-79.1914050076
 20
825.1491582217
 10
-78.7925456259
 20
824.6575391115
 10
-78.3704702351
 20
824.5206868471
 10
-77.9516880009
 20
824.747065288
 10
-77.5625441764
 20
825.3226077379
 10
-77.2274617646
 20
826.2110149683
 10
-76.9675110076
 20
827.3565566363
 10
-76.7990235779
 20
828.6872303309
 10
-76.732564399
 20
830.1194107355
 10
-76.7723504994
 20
831.5631544413
 10
-76.9158337805
 20
832.9276835741
 10
-77.1540437434
 20
834.1272866549
 10
-77.4719898198
 20
835.0865638079
 10
-77.8496895526
 20
835.7452547373
 10
-78.2634202931
 20
836.0619938196
 10
-78.6871795151
 20
836.0168731036
 10
-79.0943537448
 20
835.612753612
 10
-79.459342787
 20
834.8749673189
 10
-79.7592286561
 20
833.8498866381
 10
-79.9751464818
 20
832.6019441904
 10
-80.0935511086
 20
831.2095200838
 10
-80.1070068572
 20
829.7601735415
 10
-80.0146345589
 20
828.3448612513
 10
-79.8222754691
 20
827.0526325526
  0
ARC
  5
143
330
1F
100
AcDbEntity
  8
0
  6
Continuous
 62
     7
370
    25
100
AcDbCircle
 10
-78.5012946914
 20
825.8511932161
 30
0.0
 40
1.396189712299869
100
AcDbArc
 50
196.0499174845
 51
252.7387618616
  0
ARC
  5
144
330
1F
100
AcDbEntity
  8
0
  6
Continuous
 62
     7
370
    25
100
AcDbCircle
 10
-78.5936044153
 20
834.844951544
 30
0.0
 40
1.283938538625585
100
AcDbArc
 50
104.5233963961
 51
166.6915284318
  0
LINE
  5
145
330
1F
100
AcDbEntity
  8
0
  6
Continuous
 62
     7
370
    25
100
AcDbLine
 10
-78.7186060641
 20
828.2135522188
 30
0.0
 11
-79.0998671744
 21
830.1335370364
 31
0.0
  0
LINE
  5
146
330
1F
100
AcDbEntity
  8
0
  6
Continuous
 62
     7
370
    25
100
AcDbLine
 10
-78.0418400262
 20
828.38282941
 30
0.0
 11
-78.7186060641
 21
828.2135522188
 31
0.0
  0
LINE
  5
147
330
1F
100
AcDbEntity
  8
0
  6
Continuous
 62
     7
370
    25
100
AcDbLine
 10
-77.7463201974
 20
830.4721510233
 30
0.0
 11
-78.0418400262
 21
828.38282941
 31
0.0
  0
LINE
  5
148
330
1F
100
AcDbEntity
  8
0
  6
Continuous
 62
     7
370
    25
100
AcDbLine
 10
-78.1275664065
 20
832.3921358408
 30
0.0
 11
-77.7463201974
 21
830.4721510233
 31
0.0
  0
LINE
  5
149
330
1F
100
AcDbEntity
  8
0
  6
Continuous
 62
     7
370
    25
100
AcDbLine
 10
-78.8043473456
 20
832.2228586497
 30
0.0
 11
-78.1275664065
 21
832.3921358408
 31
0.0
  0
LINE
  5
14A
330
1F
100
AcDbEntity
  8
0
  6
Continuous
 62
     7
370
    25
100
AcDbLine
 10
-79.0998671744
 20
830.1335370364
 30
0.0
 11
-78.8043473456
 21
832.2228586497
 31
0.0
  0
LINE
  5
14B
330
1F
100
AcDbEntity
  8
0
  6
Continuous
 62
     7
370
    25
100
AcDbLine
 10
-78.7522230837
 20
828.38282941
 30
0.0
 11
-78.0418400262
 21
828.38282941
 31
0.0
  0
LINE
  5
14C
330
1F
100
AcDbEntity
  8
0
  6
Continuous
 62
     7
370
    25
100
AcDbLine
 10
-79.0519748423
 20
830.4721510233
 30
0.0
 11
-77.7463201974
 21
830.4721510233
 31
0.0
  0
LINE
  5
14D
330
1F
100
AcDbEntity
  8
0
  6
Continuous
 62
     7
370
    25
100
AcDbLine
 10
354.7970320489
 20
-511.9915211378
 30
0.0
 11
352.9985512998
 21
-510.5412209211
 31
0.0
  0
LINE
  5
14E
330
1F
100
AcDbEntity
  8
0
  6
Continuous
 62
     7
370
    25
100
AcDbLine
 10
356.9429482725
 20
-511.1475193678
 30
0.0
 11
354.7970320489
 21
-511.9915211378
 31
0.0
  0
LINE
  5
14F
330
1F
100
AcDbEntity
  8
0
  6
Continuous
 62
     7
370
    25
100
AcDbLine
 10
357.2903688457
 20
-508.8529789625
 30
0.0
 11
356.9429482725
 21
-511.1475193678
 31
0.0
  0
LINE
  5
150
330
1F
100
AcDbEntity
  8
0
  6
Continuous
 62
     7
370
    25
100
AcDbLine
 10
355.4918880966
 20
-507.4026787458
 30
0.0
 11
357.2903688457
 21
-508.8529789625
 31
0.0
  0
LINE
  5
151
330
1F
100
AcDbEntity
  8
0
  6
Continuous
 62
     7
370
    25
100
AcDbLine
 10
353.345971873
 20
-508.2469189344
 30
0.0
 11
355.4918880966
 21
-507.4026787458
 31
0.0
  0
LINE
  5
152
330
1F
100
AcDbEntity
  8
0
  6
Continuous
 62
     7
370
    25
100
AcDbLine
 10
352.9985512998
 20
-510.5412209211
 30
0.0
 11
353.345971873
 21
-508.2469189344
 31
0.0
  0
CIRCLE
  5
153
330
1F
100
AcDbEntity
  8
0
  6
Continuous
 62
     7
370
    25
100
AcDbCircle
 10
355.1775069966
 20
-509.7248025378
 30
0.0
 40
5.767282286510066
  0
ARC
  5
154
330
1F
100
AcDbEntity
  8
0
  6
Continuous
 62
     7
370
    25
100
AcDbCircle
 10
355.177449004
 20
-509.6972191511
 30
0.0
 40
5.785064988333542
100
AcDbArc
 50
270.2948192818
 51
89.7051807182
  0
LINE
  5
155
330
1F
100
AcDbEntity
  8
0
  6
Continuous
 62
     7
370
    25
100
AcDbLine
 10
354.7235991266
 20
-507.8246796308
 30
0.0
 11
355.59177058
 21
-507.4832642256
 31
0.0
  0
LINE
  5
156
330
1F
100
AcDbEntity
  8
0
  6
Continuous
 62
     7
370
    25
100
AcDbLine
 10
353.6506410148
 20
-508.2469189344
 30
0.0
 11
354.7235991266
 21
-507.8246796308
 31
0.0
  0
LINE
  5
157
330
1F
100
AcDbEntity
  8
0
  6
Continuous
 62
     7
370
    25
100
AcDbLine
 10
353.6506410148
 20
-508.2469189344
 30
0.0
 11
353.345971873
 21
-508.2469189344
 31
0.0
  0
LINE
  5
158
330
1F
100
AcDbEntity
  8
0
  6
Continuous
 62
     7
370
    25
100
AcDbLine
 10
353.3032204416
 20
-510.5412209211
 30
0.0
 11
352.9985512998
 21
-510.5412209211
 31
0.0
  0
LINE
  5
159
330
1F
100
AcDbEntity
  8
0
  6
Continuous
 62
     7
370
    25
100
AcDbLine
 10
354.2024608161
 20
-511.2664902387
 30
0.0
 11
353.3032204416
 21
-510.5412209211
 31
0.0
  0
LINE
  5
15A
330
1F
100
AcDbEntity
  8
0
  6
Continuous
 62
     7
370
    25
100
AcDbLine
 10
355.0018187072
 20
-511.910935658
 30
0.0
 11
354.2024608161
 21
-511.2664902387
 31
0.0
  0
LINE
  5
15B
330
1F
100
AcDbEntity
  8
0
  6
Continuous
 62
     7
370
    25
100
AcDbLine
 10
353.4769232776
 20
-509.3939507185
 30
0.0
 11
353.6506410148
 21
-508.2469189344
 31
0.0
  0
LINE
  5
15C
330
1F
100
AcDbEntity
  8
0
  6
Continuous
 62
     7
370
    25
100
AcDbLine
 10
353.3032204416
 20
-510.5412209211
 30
0.0
 11
353.4769232776
 21
-509.3939507185
 31
0.0
  0
ARC
  5
15D
330
1F
100
AcDbEntity
  8
0
  6
Continuous
 62
     7
370
    25
100
AcDbCircle
 10
355.4715652925
 20
-509.6979319287
 30
0.0
 40
2.017672258765546
100
AcDbArc
 50
171.3348606688
 51
231.0240326565
  0
ARC
  5
15E
330
1F
100
AcDbEntity
  8
0
  6
Continuous
 62
     7
370
    25
100
AcDbCircle
 10
355.4627144346
 20
-509.6916887388
 30
0.0
 40
2.007987661265326
100
AcDbArc
 50
111.5977213089
 51
171.4729211938
  0
ARC
  5
15F
330
1F
100
AcDbEntity
  8
0
  6
Continuous
 62
     7
370
    25
100
AcDbCircle
 10
355.4490273902
 20
-509.6694154775
 30
0.0
 40
1.982245320265217
100
AcDbArc
 50
76.4694450632
 51
111.4668537794
  0
LINE
  5
160
330
1F
100
AcDbEntity
  8
0
  6
Continuous
 62
     7
370
    25
100
AcDbLine
 10
357.2825457361
 20
-508.9047157942
 30
0.0
 11
357.240852287
 21
-508.8131630598
 31
0.0
  0
LWPOLYLINE
  5
161
330
1F
100
AcDbEntity
  8
0
  6
Continuous
 62
     7
370
    25
100
AcDbPolyline
 90
        3
 70
   128
 43
0.0
 10
356.745075753
 20
-511.2252438246
 10
356.8306084182
 20
-511.1472809492
 10
356.9646145608
 20
-511.0042298017
  0
ARC
  5
162
330
1F
100
AcDbEntity
  8
0
  6
Continuous
 62
     7
370
    25
100
AcDbCircle
 10
355.4496293463
 20
-509.7214246304
 30
0.0
 40
1.98561251927392
100
AcDbArc
 50
231.0897205281
 51
272.1361782543
  0
LINE
  5
163
330
1F
100
AcDbEntity
  8
0
  6
Continuous
 62
     7
370
    25
100
AcDbLine
 10
57.0331852343
 20
-511.9915211378
 30
0.0
 11
55.2346970346
 21
-510.5412209211
 31
0.0
  0
LINE
  5
164
330
1F
100
AcDbEntity
  8
0
  6
Continuous
 62
     7
370
    25
100
AcDbLine
 10
59.1790940072
 20
-511.1475193678
 30
0.0
 11
57.0331852343
 21
-511.9915211378
 31
0.0
  0
LINE
  5
165
330
1F
100
AcDbEntity
  8
0
  6
Continuous
 62
     7
370
    25
100
AcDbLine
 10
59.5265220311
 20
-508.8529789625
 30
0.0
 11
59.1790940072
 21
-511.1475193678
 31
0.0
  0
LINE
  5
166
330
1F
100
AcDbEntity
  8
0
  6
Continuous
 62
     7
370
    25
100
AcDbLine
 10
57.7280338313
 20
-507.4026787458
 30
0.0
 11
59.5265220311
 21
-508.8529789625
 31
0.0
  0
LINE
  5
167
330
1F
100
AcDbEntity
  8
0
  6
Continuous
 62
     7
370
    25
100
AcDbLine
 10
55.5821250584
 20
-508.2469189344
 30
0.0
 11
57.7280338313
 21
-507.4026787458
 31
0.0
  0
LINE
  5
168
330
1F
100
AcDbEntity
  8
0
  6
Continuous
 62
     7
370
    25
100
AcDbLine
 10
55.2346970346
 20
-510.5412209211
 30
0.0
 11
55.5821250584
 21
-508.2469189344
 31
0.0
  0
CIRCLE
  5
169
330
1F
100
AcDbEntity
  8
0
  6
Continuous
 62
     7
370
    25
100
AcDbCircle
 10
57.4136677502
 20
-509.7248024246
 30
0.0
 40
5.767282448478804
  0
ARC
  5
16A
330
1F
100
AcDbEntity
  8
0
  6
Continuous
 62
     7
370
    25
100
AcDbCircle
 10
57.4136021894
 20
-509.6972191511
 30
0.0
 40
5.785064988333542
100
AcDbArc
 50
270.2948192818
 51
89.7051807182
  0
LINE
  5
16B
330
1F
100
AcDbEntity
  8
0
  6
Continuous
 62
     7
370
    25
100
AcDbLine
 10
56.9597523119
 20
-507.8246796308
 30
0.0
 11
57.8279237654
 21
-507.4832642256
 31
0.0
  0
LINE
  5
16C
330
1F
100
AcDbEntity
  8
0
  6
Continuous
 62
     7
370
    25
100
AcDbLine
 10
55.8867942002
 20
-508.2469189344
 30
0.0
 11
56.9597523119
 21
-507.8246796308
 31
0.0
  0
LINE
  5
16D
330
1F
100
AcDbEntity
  8
0
  6
Continuous
 62
     7
370
    25
100
AcDbLine
 10
55.8867942002
 20
-508.2469189344
 30
0.0
 11
55.5821250584
 21
-508.2469189344
 31
0.0
  0
LINE
  5
16E
330
1F
100
AcDbEntity
  8
0
  6
Continuous
 62
     7
370
    25
100
AcDbLine
 10
55.5393736269
 20
-510.5412209211
 30
0.0
 11
55.2346970346
 21
-510.5412209211
 31
0.0
  0
LINE
  5
16F
330
1F
100
AcDbEntity
  8
0
  6
Continuous
 62
     7
370
    25
100
AcDbLine
 10
56.4386140015
 20
-511.2664902387
 30
0.0
 11
55.5393736269
 21
-510.5412209211
 31
0.0
  0
LINE
  5
170
330
1F
100
AcDbEntity
  8
0
  6
Continuous
 62
     7
370
    25
100
AcDbLine
 10
57.2379718926
 20
-511.910935658
 30
0.0
 11
56.4386140015
 21
-511.2664902387
 31
0.0
  0
LINE
  5
171
330
1F
100
AcDbEntity
  8
0
  6
Continuous
 62
     7
370
    25
100
AcDbLine
 10
55.7130839136
 20
-509.3939507185
 30
0.0
 11
55.8867942002
 21
-508.2469189344
 31
0.0
  0
LINE
  5
172
330
1F
100
AcDbEntity
  8
0
  6
Continuous
 62
     7
370
    25
100
AcDbLine
 10
55.5393736269
 20
-510.5412209211
 30
0.0
 11
55.7130839136
 21
-509.3939507185
 31
0.0
  0
ARC
  5
173
330
1F
100
AcDbEntity
  8
0
  6
Continuous
 62
     7
370
    25
100
AcDbCircle
 10
57.7077289716
 20
-509.6979357993
 30
0.0
 40
2.017675850320633
100
AcDbArc
 50
171.3347650321
 51
231.023731863
  0
ARC
  5
174
330
1F
100
AcDbEntity
  8
0
  6
Continuous
 62
     7
370
    25
100
AcDbCircle
 10
57.6988636445
 20
-509.6916761525
 30
0.0
 40
2.007974495346172
100
AcDbArc
 50
111.5977480324
 51
171.4732280196
  0
ARC
  5
175
330
1F
100
AcDbEntity
  8
0
  6
Continuous
 62
     7
370
    25
100
AcDbCircle
 10
57.6851870416
 20
-509.669466805
 30
0.0
 40
1.982295453533789
100
AcDbArc
 50
76.4697644969
 51
111.4664847824
  0
LINE
  5
176
330
1F
100
AcDbEntity
  8
0
  6
Continuous
 62
     7
370
    25
100
AcDbLine
 10
59.518706372
 20
-508.9047157942
 30
0.0
 11
59.4769980218
 21
-508.8131630598
 31
0.0
  0
LWPOLYLINE
  5
177
330
1F
100
AcDbEntity
  8
0
  6
Continuous
 62
     7
370
    25
100
AcDbPolyline
 90
        3
 70
   128
 43
0.0
 10
58.9812363889
 20
-511.2252438246
 10
59.0667690542
 20
-511.1472809492
 10
59.2007677462
 20
-511.0042298017
  0
ARC
  5
178
330
1F
100
AcDbEntity
  8
0
  6
Continuous
 62
     7
370
    25
100
AcDbCircle
 10
57.685784738
 20
-509.7214192487
 30
0.0
 40
1.985618092677044
100
AcDbArc
 50
231.0897685279
 51
272.136323687
  0
LINE
  5
179
330
1F
100
AcDbEntity
  8
0
  6
Continuous
 62
     7
370
    25
100
AcDbLine
 10
-107.9557870124
 20
-511.7864811598
 30
0.0
 11
-108.3370183203
 21
-509.8664963423
 31
0.0
  0
LINE
  5
17A
330
1F
100
AcDbEntity
  8
0
  6
Continuous
 62
     7
370
    25
100
AcDbLine
 10
-107.2790060733
 20
-511.6172039686
 30
0.0
 11
-107.9557870124
 21
-511.7864811598
 31
0.0
  0
LINE
  5
17B
330
1F
100
AcDbEntity
  8
0
  6
Continuous
 62
     7
370
    25
100
AcDbLine
 10
-106.9834862445
 20
-509.5279419599
 30
0.0
 11
-107.2790060733
 21
-511.6172039686
 31
0.0
  0
LINE
  5
17C
330
1F
100
AcDbEntity
  8
0
  6
Continuous
 62
     7
370
    25
100
AcDbLine
 10
-107.3647473548
 20
-507.6079571424
 30
0.0
 11
-106.9834862445
 21
-509.5279419599
 31
0.0
  0
LINE
  5
17D
330
1F
100
AcDbEntity
  8
0
  6
Continuous
 62
     7
370
    25
100
AcDbLine
 10
-108.0414984915
 20
-507.7772343336
 30
0.0
 11
-107.3647473548
 21
-507.6079571424
 31
0.0
  0
LINE
  5
17E
330
1F
100
AcDbEntity
  8
0
  6
Continuous
 62
     7
370
    25
100
AcDbLine
 10
-108.3370183203
 20
-509.8664963423
 30
0.0
 11
-108.0414984915
 21
-507.7772343336
 31
0.0
  0
LWPOLYLINE
  5
17F
330
1F
100
AcDbEntity
  8
0
  6
Continuous
 62
     7
370
    25
100
AcDbPolyline
 90
       26
 70
   128
 43
0.0
 10
-109.0594564173
 20
-512.9473412214
 10
-108.7791655753
 20
-514.0354836164
 10
-108.4285710547
 20
-514.8508751569
 10
-108.0296967719
 20
-515.3424942671
 10
-107.6076362822
 20
-515.4793465315
 10
-107.188854048
 20
-515.2528488813
 10
-106.7997251246
 20
-514.6773064314
 10
-106.4646278117
 20
-513.7889588056
 10
-106.2046770547
 20
-512.643357533
 10
-106.036189625
 20
-511.3127434431
 10
-105.9697453473
 20
-509.8805630384
 10
-106.0095165465
 20
-508.436938542
 10
-106.1530147288
 20
-507.0722305952
 10
-106.3912097905
 20
-505.8727467237
 10
-106.7091558669
 20
-504.9133503614
 10
-107.0868705008
 20
-504.2548382459
 10
-107.5005863402
 20
-503.9379799543
 10
-107.9243455622
 20
-503.9830410658
 10
-108.331534693
 20
-504.3871605573
 10
-108.6965237353
 20
-505.1250660597
 10
-108.9963947032
 20
-506.1500275312
 10
-109.2123125289
 20
-507.3981487928
 10
-109.3307171557
 20
-508.7905132948
 10
-109.3441580031
 20
-510.2398598371
 10
-109.251800606
 20
-511.6551125227
 10
-109.0594564173
 20
-512.9473412214
  0
ARC
  5
180
330
1F
100
AcDbEntity
  8
0
  6
Continuous
 62
     7
370
    25
100
AcDbCircle
 10
-107.7384625269
 20
-514.1489743516
 30
0.0
 40
1.396117956477321
100
AcDbArc
 50
196.0399438235
 51
252.7379236956
  0
ARC
  5
181
330
1F
100
AcDbEntity
  8
0
  6
Continuous
 62
     7
370
    25
100
AcDbCircle
 10
-107.8315820464
 20
-505.1543839874
 30
0.0
 40
1.283001903906462
100
AcDbArc
 50
104.4967938701
 51
166.7109223784
  0
LINE
  5
182
330
1F
100
AcDbEntity
  8
0
  6
Continuous
 62
     7
370
    25
100
AcDbLine
 10
-107.989404032
 20
-511.6172039686
 30
0.0
 11
-107.2790060733
 21
-511.6172039686
 31
0.0
  0
LINE
  5
183
330
1F
100
AcDbEntity
  8
0
  6
Continuous
 62
     7
370
    25
100
AcDbLine
 10
-108.2891259883
 20
-509.5279419599
 30
0.0
 11
-106.9834862445
 21
-509.5279419599
 31
0.0
  0
LINE
  5
184
330
1F
100
AcDbEntity
  8
0
  6
Continuous
 62
     7
370
    25
100
AcDbLine
 10
354.7970320489
 20
158.0084359469
 30
0.0
 11
352.9985512998
 21
159.4587361635
 31
0.0
  0
LINE
  5
185
330
1F
100
AcDbEntity
  8
0
  6
Continuous
 62
     7
370
    25
100
AcDbLine
 10
356.9429482725
 20
158.8525569262
 30
0.0
 11
354.7970320489
 21
158.0084359469
 31
0.0
  0
LINE
  5
186
330
1F
100
AcDbEntity
  8
0
  6
Continuous
 62
     7
370
    25
100
AcDbLine
 10
357.2903688457
 20
161.1469781222
 30
0.0
 11
356.9429482725
 21
158.8525569262
 31
0.0
  0
LINE
  5
187
330
1F
100
AcDbEntity
  8
0
  6
Continuous
 62
     7
370
    25
100
AcDbLine
 10
355.4918880966
 20
162.5972783388
 30
0.0
 11
357.2903688457
 21
161.1469781222
 31
0.0
  0
LINE
  5
188
330
1F
100
AcDbEntity
  8
0
  6
Continuous
 62
     7
370
    25
100
AcDbLine
 10
353.345971873
 20
161.7531573595
 30
0.0
 11
355.4918880966
 21
162.5972783388
 31
0.0
  0
LINE
  5
189
330
1F
100
AcDbEntity
  8
0
  6
Continuous
 62
     7
370
    25
100
AcDbLine
 10
352.9985512998
 20
159.4587361635
 30
0.0
 11
353.345971873
 21
161.7531573595
 31
0.0
  0
CIRCLE
  5
18A
330
1F
100
AcDbEntity
  8
0
  6
Continuous
 62
     7
370
    25
100
AcDbCircle
 10
355.1772312079
 20
160.275403133
 30
0.0
 40
5.767209830945095
  0
ARC
  5
18B
330
1F
100
AcDbEntity
  8
0
  6
Continuous
 62
     7
370
    25
100
AcDbCircle
 10
355.1773182082
 20
160.3028571429
 30
0.0
 40
5.785065662827663
100
AcDbArc
 50
270.2961146774
 51
89.7038853226
  0
LINE
  5
18C
330
1F
100
AcDbEntity
  8
0
  6
Continuous
 62
     7
370
    25
100
AcDbLine
 10
354.7235991266
 20
162.1752774538
 30
0.0
 11
355.59177058
 21
162.5166928591
 31
0.0
  0
LINE
  5
18D
330
1F
100
AcDbEntity
  8
0
  6
Continuous
 62
     7
370
    25
100
AcDbLine
 10
353.6506410148
 20
161.7531573595
 30
0.0
 11
354.7235991266
 21
162.1752774538
 31
0.0
  0
LINE
  5
18E
330
1F
100
AcDbEntity
  8
0
  6
Continuous
 62
     7
370
    25
100
AcDbLine
 10
353.6506410148
 20
161.7531573595
 30
0.0
 11
353.345971873
 21
161.7531573595
 31
0.0
  0
LINE
  5
18F
330
1F
100
AcDbEntity
  8
0
  6
Continuous
 62
     7
370
    25
100
AcDbLine
 10
353.3032204416
 20
159.4587361635
 30
0.0
 11
352.9985512998
 21
159.4587361635
 31
0.0
  0
LINE
  5
190
330
1F
100
AcDbEntity
  8
0
  6
Continuous
 62
     7
370
    25
100
AcDbLine
 10
354.2024608161
 20
158.7335860552
 30
0.0
 11
353.3032204416
 21
159.4587361635
 31
0.0
  0
LINE
  5
191
330
1F
100
AcDbEntity
  8
0
  6
Continuous
 62
     7
370
    25
100
AcDbLine
 10
355.0018187072
 20
158.0890214266
 30
0.0
 11
354.2024608161
 21
158.7335860552
 31
0.0
  0
LINE
  5
192
330
1F
100
AcDbEntity
  8
0
  6
Continuous
 62
     7
370
    25
100
AcDbLine
 10
353.4769232776
 20
160.6060063662
 30
0.0
 11
353.6506410148
 21
161.7531573595
 31
0.0
  0
LINE
  5
193
330
1F
100
AcDbEntity
  8
0
  6
Continuous
 62
     7
370
    25
100
AcDbLine
 10
353.3032204416
 20
159.4587361635
 30
0.0
 11
353.4769232776
 21
160.6060063662
 31
0.0
  0
ARC
  5
194
330
1F
100
AcDbEntity
  8
0
  6
Continuous
 62
     7
370
    25
100
AcDbCircle
 10
355.4714944927
 20
160.3020975818
 30
0.0
 40
2.01759135633336
100
AcDbArc
 50
171.3365910372
 51
231.0247600454
  0
ARC
  5
195
330
1F
100
AcDbEntity
  8
0
  6
Continuous
 62
     7
370
    25
100
AcDbCircle
 10
355.4621931943
 20
160.3086824347
 30
0.0
 40
2.007410810530466
100
AcDbArc
 50
111.5882389389
 51
171.4824035638
  0
ARC
  5
196
330
1F
100
AcDbEntity
  8
0
  6
Continuous
 62
     7
370
    25
100
AcDbCircle
 10
355.448962717
 20
160.331473924
 30
0.0
 40
1.981354030681226
100
AcDbArc
 50
76.461319057
 51
111.4749797856
  0
LINE
  5
197
330
1F
100
AcDbEntity
  8
0
  6
Continuous
 62
     7
370
    25
100
AcDbLine
 10
357.2825457361
 20
161.0953604998
 30
0.0
 11
357.240852287
 21
161.1867940249
 31
0.0
  0
LWPOLYLINE
  5
198
330
1F
100
AcDbEntity
  8
0
  6
Continuous
 62
     7
370
    25
100
AcDbPolyline
 90
        3
 70
   128
 43
0.0
 10
356.745075753
 20
158.7747132601
 10
356.8306084182
 20
158.8527953448
 10
356.9646145608
 20
158.9956080736
  0
ARC
  5
199
330
1F
100
AcDbEntity
  8
0
  6
Continuous
 62
     7
370
    25
100
AcDbCircle
 10
355.4492428112
 20
160.2769506561
 30
0.0
 40
1.984046278331777
100
AcDbArc
 50
231.067552644
 51
272.1490356454
  0
LINE
  5
19A
330
1F
100
AcDbEntity
  8
0
  6
Continuous
 62
     7
370
    25
100
AcDbLine
 10
57.0331852343
 20
158.0084359469
 30
0.0
 11
55.2346970346
 21
159.4587361635
 31
0.0
  0
LINE
  5
19B
330
1F
100
AcDbEntity
  8
0
  6
Continuous
 62
     7
370
    25
100
AcDbLine
 10
59.1790940072
 20
158.8525569262
 30
0.0
 11
57.0331852343
 21
158.0084359469
 31
0.0
  0
LINE
  5
19C
330
1F
100
AcDbEntity
  8
0
  6
Continuous
 62
     7
370
    25
100
AcDbLine
 10
59.5265220311
 20
161.1469781222
 30
0.0
 11
59.1790940072
 21
158.8525569262
 31
0.0
  0
LINE
  5
19D
330
1F
100
AcDbEntity
  8
0
  6
Continuous
 62
     7
370
    25
100
AcDbLine
 10
57.7280338313
 20
162.5972783388
 30
0.0
 11
59.5265220311
 21
161.1469781222
 31
0.0
  0
LINE
  5
19E
330
1F
100
AcDbEntity
  8
0
  6
Continuous
 62
     7
370
    25
100
AcDbLine
 10
55.5821250584
 20
161.7531573595
 30
0.0
 11
57.7280338313
 21
162.5972783388
 31
0.0
  0
LINE
  5
19F
330
1F
100
AcDbEntity
  8
0
  6
Continuous
 62
     7
370
    25
100
AcDbLine
 10
55.2346970346
 20
159.4587361635
 30
0.0
 11
55.5821250584
 21
161.7531573595
 31
0.0
  0
CIRCLE
  5
1A0
330
1F
100
AcDbEntity
  8
0
  6
Continuous
 62
     7
370
    25
100
AcDbCircle
 10
57.413391961
 20
160.2754032458
 30
0.0
 40
5.767209992292939
  0
ARC
  5
1A1
330
1F
100
AcDbEntity
  8
0
  6
Continuous
 62
     7
370
    25
100
AcDbCircle
 10
57.4134713936
 20
160.3028571429
 30
0.0
 40
5.785065662827663
100
AcDbArc
 50
270.2961146774
 51
89.7038853226
  0
LINE
  5
1A2
330
1F
100
AcDbEntity
  8
0
  6
Continuous
 62
     7
370
    25
100
AcDbLine
 10
56.9597523119
 20
162.1752774538
 30
0.0
 11
57.8279237654
 21
162.5166928591
 31
0.0
  0
LINE
  5
1A3
330
1F
100
AcDbEntity
  8
0
  6
Continuous
 62
     7
370
    25
100
AcDbLine
 10
55.8867942002
 20
161.7531573595
 30
0.0
 11
56.9597523119
 21
162.1752774538
 31
0.0
  0
LINE
  5
1A4
330
1F
100
AcDbEntity
  8
0
  6
Continuous
 62
     7
370
    25
100
AcDbLine
 10
55.8867942002
 20
161.7531573595
 30
0.0
 11
55.5821250584
 21
161.7531573595
 31
0.0
  0
LINE
  5
1A5
330
1F
100
AcDbEntity
  8
0
  6
Continuous
 62
     7
370
    25
100
AcDbLine
 10
55.5393736269
 20
159.4587361635
 30
0.0
 11
55.2346970346
 21
159.4587361635
 31
0.0
  0
LINE
  5
1A6
330
1F
100
AcDbEntity
  8
0
  6
Continuous
 62
     7
370
    25
100
AcDbLine
 10
56.4386140015
 20
158.7335860552
 30
0.0
 11
55.5393736269
 21
159.4587361635
 31
0.0
  0
LINE
  5
1A7
330
1F
100
AcDbEntity
  8
0
  6
Continuous
 62
     7
370
    25
100
AcDbLine
 10
57.2379718926
 20
158.0890214266
 30
0.0
 11
56.4386140015
 21
158.7335860552
 31
0.0
  0
LINE
  5
1A8
330
1F
100
AcDbEntity
  8
0
  6
Continuous
 62
     7
370
    25
100
AcDbLine
 10
55.7130839136
 20
160.6060063662
 30
0.0
 11
55.8867942002
 21
161.7531573595
 31
0.0
  0
LINE
  5
1A9
330
1F
100
AcDbEntity
  8
0
  6
Continuous
 62
     7
370
    25
100
AcDbLine
 10
55.5393736269
 20
159.4587361635
 30
0.0
 11
55.7130839136
 21
160.6060063662
 31
0.0
  0
ARC
  5
1AA
330
1F
100
AcDbEntity
  8
0
  6
Continuous
 62
     7
370
    25
100
AcDbCircle
 10
57.7076581708
 20
160.3020937109
 30
0.0
 40
2.017594946854756
100
AcDbArc
 50
171.3364953795
 51
231.0244592543
  0
ARC
  5
1AB
330
1F
100
AcDbEntity
  8
0
  6
Continuous
 62
     7
370
    25
100
AcDbCircle
 10
57.6983424104
 20
160.3086950136
 30
0.0
 40
2.007397653641716
100
AcDbArc
 50
111.5882656952
 51
171.4827103569
  0
ARC
  5
1AC
330
1F
100
AcDbEntity
  8
0
  6
Continuous
 62
     7
370
    25
100
AcDbCircle
 10
57.6851223661
 20
160.3314226361
 30
0.0
 40
1.98140412442635
100
AcDbArc
 50
76.4616385061
 51
111.4746107733
  0
LINE
  5
1AD
330
1F
100
AcDbEntity
  8
0
  6
Continuous
 62
     7
370
    25
100
AcDbLine
 10
59.518706372
 20
161.0953604998
 30
0.0
 11
59.4769980218
 21
161.1867940249
 31
0.0
  0
LWPOLYLINE
  5
1AE
330
1F
100
AcDbEntity
  8
0
  6
Continuous
 62
     7
370
    25
100
AcDbPolyline
 90
        3
 70
   128
 43
0.0
 10
58.9812363889
 20
158.7747132601
 10
59.0667690542
 20
158.8527953448
 10
59.2007677462
 20
158.9956080736
  0
ARC
  5
1AF
330
1F
100
AcDbEntity
  8
0
  6
Continuous
 62
     7
370
    25
100
AcDbCircle
 10
57.6853982369
 20
160.276956132
 30
0.0
 40
1.984051945760863
100
AcDbArc
 50
231.0676016903
 51
272.1491800736
  0
LINE
  5
1B0
330
1F
100
AcDbEntity
  8
0
  6
Continuous
 62
     7
370
    25
100
AcDbLine
 10
156.2877999078
 20
828.0084526362
 30
0.0
 11
154.4893135708
 21
829.4588124575
 31
0.0
  0
LINE
  5
1B1
330
1F
100
AcDbEntity
  8
0
  6
Continuous
 62
     7
370
    25
100
AcDbLine
 10
158.4337114748
 20
828.8525140108
 30
0.0
 11
156.2877999078
 21
828.0084526362
 31
0.0
  0
LINE
  5
1B2
330
1F
100
AcDbEntity
  8
0
  6
Continuous
 62
     7
370
    25
100
AcDbLine
 10
158.7811367046
 20
831.1469352068
 30
0.0
 11
158.4337114748
 21
828.8525140108
 31
0.0
  0
LINE
  5
1B3
330
1F
100
AcDbEntity
  8
0
  6
Continuous
 62
     7
370
    25
100
AcDbLine
 10
156.9826503675
 20
832.5972354235
 30
0.0
 11
158.7811367046
 21
831.1469352068
 31
0.0
  0
LINE
  5
1B4
330
1F
100
AcDbEntity
  8
0
  6
Continuous
 62
     7
370
    25
100
AcDbLine
 10
154.8367388006
 20
831.7531740488
 30
0.0
 11
156.9826503675
 21
832.5972354235
 31
0.0
  0
LINE
  5
1B5
330
1F
100
AcDbEntity
  8
0
  6
Continuous
 62
     7
370
    25
100
AcDbLine
 10
154.4893135708
 20
829.4588124575
 30
0.0
 11
154.8367388006
 21
831.7531740488
 31
0.0
  0
CIRCLE
  5
1B6
330
1F
100
AcDbEntity
  8
0
  6
Continuous
 62
     7
370
    25
100
AcDbCircle
 10
156.6681376894
 20
830.2753014613
 30
0.0
 40
5.767246453396358
  0
ARC
  5
1B7
330
1F
100
AcDbEntity
  8
0
  6
Continuous
 62
     7
370
    25
100
AcDbCircle
 10
156.6681482429
 20
830.3028738322
 30
0.0
 40
5.785065361041975
100
AcDbArc
 50
270.2955357868
 51
89.7044642132
  0
LINE
  5
1B8
330
1F
100
AcDbEntity
  8
0
  6
Continuous
 62
     7
370
    25
100
AcDbLine
 10
156.2143679168
 20
832.1752345385
 30
0.0
 11
157.0825365763
 21
832.5167095484
 31
0.0
  0
LINE
  5
1B9
330
1F
100
AcDbEntity
  8
0
  6
Continuous
 62
     7
370
    25
100
AcDbLine
 10
155.141412599
 20
831.7531740488
 30
0.0
 11
156.2143679168
 21
832.1752345385
 31
0.0
  0
LINE
  5
1BA
330
1F
100
AcDbEntity
  8
0
  6
Continuous
 62
     7
370
    25
100
AcDbLine
 10
155.141412599
 20
831.7531740488
 30
0.0
 11
154.8367388006
 21
831.7531740488
 31
0.0
  0
LINE
  5
1BB
330
1F
100
AcDbEntity
  8
0
  6
Continuous
 62
     7
370
    25
100
AcDbLine
 10
154.7939873692
 20
829.4588124575
 30
0.0
 11
154.4893135708
 21
829.4588124575
 31
0.0
  0
LINE
  5
1BC
330
1F
100
AcDbEntity
  8
0
  6
Continuous
 62
     7
370
    25
100
AcDbLine
 10
155.6932296064
 20
828.7336027445
 30
0.0
 11
154.7939873692
 21
829.4588124575
 31
0.0
  0
LINE
  5
1BD
330
1F
100
AcDbEntity
  8
0
  6
Continuous
 62
     7
370
    25
100
AcDbLine
 10
156.4925874975
 20
828.0889785113
 30
0.0
 11
155.6932296064
 21
828.7336027445
 31
0.0
  0
LINE
  5
1BE
330
1F
100
AcDbEntity
  8
0
  6
Continuous
 62
     7
370
    25
100
AcDbLine
 10
154.9676995184
 20
830.6060230555
 30
0.0
 11
155.141412599
 21
831.7531740488
 31
0.0
  0
LINE
  5
1BF
330
1F
100
AcDbEntity
  8
0
  6
Continuous
 62
     7
370
    25
100
AcDbLine
 10
154.7939873692
 20
829.4588124575
 30
0.0
 11
154.9676995184
 21
830.6060230555
 31
0.0
  0
ARC
  5
1C0
330
1F
100
AcDbEntity
  8
0
  6
Continuous
 62
     7
370
    25
100
AcDbCircle
 10
156.9621499054
 20
830.3020624027
 30
0.0
 40
2.017479720938483
100
AcDbArc
 50
171.3346179153
 51
231.0263367185
  0
ARC
  5
1C1
330
1F
100
AcDbEntity
  8
0
  6
Continuous
 62
     7
370
    25
100
AcDbCircle
 10
156.952725708
 20
830.3088253619
 30
0.0
 40
2.007151076146931
100
AcDbArc
 50
111.5839192575
 51
171.4849369
  0
ARC
  5
1C2
330
1F
100
AcDbEntity
  8
0
  6
Continuous
 62
     7
370
    25
100
AcDbCircle
 10
156.9397833077
 20
830.3321018122
 30
0.0
 40
1.980748781628842
100
AcDbArc
 50
76.4585060029
 51
111.4834778215
  0
LINE
  5
1C3
330
1F
100
AcDbEntity
  8
0
  6
Continuous
 62
     7
370
    25
100
AcDbLine
 10
158.7733219769
 20
831.0953175844
 30
0.0
 11
158.7316164207
 21
831.1868703188
 31
0.0
  0
LWPOLYLINE
  5
1C4
330
1F
100
AcDbEntity
  8
0
  6
Continuous
 62
     7
370
    25
100
AcDbPolyline
 90
        3
 70
   128
 43
0.0
 10
158.2358510625
 20
828.7746703448
 10
158.3213855904
 20
828.8527524294
 10
158.4553852137
 20
828.9956843676
  0
ARC
  5
1C5
330
1F
100
AcDbEntity
  8
0
  6
Continuous
 62
     7
370
    25
100
AcDbCircle
 10
156.9406755204
 20
830.278694088
 30
0.0
 40
1.985806780179791
100
AcDbArc
 50
231.0839593333
 51
272.1280948332
  0
CIRCLE
  5
1C6
330
1F
100
AcDbEntity
  8
0
  6
Continuous
 62
     7
370
    25
100
AcDbCircle
 10
156.6679985566
 20
160.2754078781
 30
0.0
 40
5.767208526259408
  0
ARC
  5
1C7
330
1F
100
AcDbEntity
  8
0
  6
Continuous
 62
     7
370
    25
100
AcDbCircle
 10
156.6680851007
 20
160.3028571429
 30
0.0
 40
5.785065687077143
100
AcDbArc
 50
270.2961611441
 51
89.7038388559
  0
LINE
  5
1C8
330
1F
100
AcDbEntity
  8
0
  6
Continuous
 62
     7
370
    25
100
AcDbLine
 10
156.2877999078
 20
158.0084359469
 30
0.0
 11
154.4893135708
 21
159.4587361635
 31
0.0
  0
LINE
  5
1C9
330
1F
100
AcDbEntity
  8
0
  6
Continuous
 62
     7
370
    25
100
AcDbLine
 10
158.4337114748
 20
158.8525569262
 30
0.0
 11
156.2877999078
 21
158.0084359469
 31
0.0
  0
LINE
  5
1CA
330
1F
100
AcDbEntity
  8
0
  6
Continuous
 62
     7
370
    25
100
AcDbLine
 10
158.7811367046
 20
161.1469781222
 30
0.0
 11
158.4337114748
 21
158.8525569262
 31
0.0
  0
LINE
  5
1CB
330
1F
100
AcDbEntity
  8
0
  6
Continuous
 62
     7
370
    25
100
AcDbLine
 10
156.9826503675
 20
162.5972783388
 30
0.0
 11
158.7811367046
 21
161.1469781222
 31
0.0
  0
LINE
  5
1CC
330
1F
100
AcDbEntity
  8
0
  6
Continuous
 62
     7
370
    25
100
AcDbLine
 10
154.8367388006
 20
161.7531573595
 30
0.0
 11
156.9826503675
 21
162.5972783388
 31
0.0
  0
LINE
  5
1CD
330
1F
100
AcDbEntity
  8
0
  6
Continuous
 62
     7
370
    25
100
AcDbLine
 10
154.4893135708
 20
159.4587361635
 30
0.0
 11
154.8367388006
 21
161.7531573595
 31
0.0
  0
LINE
  5
1CE
330
1F
100
AcDbEntity
  8
0
  6
Continuous
 62
     7
370
    25
100
AcDbLine
 10
156.2143679168
 20
162.1752774538
 30
0.0
 11
157.0825365763
 21
162.5166928591
 31
0.0
  0
LINE
  5
1CF
330
1F
100
AcDbEntity
  8
0
  6
Continuous
 62
     7
370
    25
100
AcDbLine
 10
155.141412599
 20
161.7531573595
 30
0.0
 11
156.2143679168
 21
162.1752774538
 31
0.0
  0
LINE
  5
1D0
330
1F
100
AcDbEntity
  8
0
  6
Continuous
 62
     7
370
    25
100
AcDbLine
 10
155.141412599
 20
161.7531573595
 30
0.0
 11
154.8367388006
 21
161.7531573595
 31
0.0
  0
LINE
  5
1D1
330
1F
100
AcDbEntity
  8
0
  6
Continuous
 62
     7
370
    25
100
AcDbLine
 10
154.7939873692
 20
159.4587361635
 30
0.0
 11
154.4893135708
 21
159.4587361635
 31
0.0
  0
LINE
  5
1D2
330
1F
100
AcDbEntity
  8
0
  6
Continuous
 62
     7
370
    25
100
AcDbLine
 10
155.6932296064
 20
158.7335860552
 30
0.0
 11
154.7939873692
 21
159.4587361635
 31
0.0
  0
LINE
  5
1D3
330
1F
100
AcDbEntity
  8
0
  6
Continuous
 62
     7
370
    25
100
AcDbLine
 10
156.4925874975
 20
158.0890214266
 30
0.0
 11
155.6932296064
 21
158.7335860552
 31
0.0
  0
LINE
  5
1D4
330
1F
100
AcDbEntity
  8
0
  6
Continuous
 62
     7
370
    25
100
AcDbLine
 10
154.9676995184
 20
160.6060063662
 30
0.0
 11
155.141412599
 21
161.7531573595
 31
0.0
  0
LINE
  5
1D5
330
1F
100
AcDbEntity
  8
0
  6
Continuous
 62
     7
370
    25
100
AcDbLine
 10
154.7939873692
 20
159.4587361635
 30
0.0
 11
154.9676995184
 21
160.6060063662
 31
0.0
  0
ARC
  5
1D6
330
1F
100
AcDbEntity
  8
0
  6
Continuous
 62
     7
370
    25
100
AcDbCircle
 10
156.9622603148
 20
160.3020884951
 30
0.0
 40
2.017582425274552
100
AcDbArc
 50
171.3362913679
 51
231.0246632659
  0
ARC
  5
1D7
330
1F
100
AcDbEntity
  8
0
  6
Continuous
 62
     7
370
    25
100
AcDbCircle
 10
156.9529599136
 20
160.3086935056
 30
0.0
 40
2.007399754314596
100
AcDbArc
 50
111.5883002383
 51
171.4826758137
  0
ARC
  5
1D8
330
1F
100
AcDbEntity
  8
0
  6
Continuous
 62
     7
370
    25
100
AcDbCircle
 10
156.9397348809
 20
160.331451473
 30
0.0
 40
1.981376158164794
100
AcDbArc
 50
76.4614349719
 51
111.4748328937
  0
LINE
  5
1D9
330
1F
100
AcDbEntity
  8
0
  6
Continuous
 62
     7
370
    25
100
AcDbLine
 10
158.7733219769
 20
161.0953604998
 30
0.0
 11
158.7316164207
 21
161.1867940249
 31
0.0
  0
LWPOLYLINE
  5
1DA
330
1F
100
AcDbEntity
  8
0
  6
Continuous
 62
     7
370
    25
100
AcDbPolyline
 90
        3
 70
   128
 43
0.0
 10
158.2358510625
 20
158.7747132601
 10
158.3213855904
 20
158.8527953448
 10
158.4553852137
 20
158.9956080736
  0
ARC
  5
1DB
330
1F
100
AcDbEntity
  8
0
  6
Continuous
 62
     7
370
    25
100
AcDbCircle
 10
156.9400129647
 20
160.2769539675
 30
0.0
 40
1.98404971093133
100
AcDbArc
 50
231.0675821127
 51
272.1491270985
  0
LWPOLYLINE
  5
1DC
330
1F
100
AcDbEntity
  8
0
  6
Continuous
 62
     7
370
    25
100
AcDbPolyline
 90
       26
 70
   128
 43
0.0
 10
-50.5850945208
 20
157.0526158633
 10
-50.3048185799
 20
155.9645926775
 10
-49.9542389605
 20
155.149201137
 10
-49.5553646777
 20
154.6575820269
 10
-49.1332892869
 20
154.5206105532
 10
-48.7145219538
 20
154.7471082033
 10
-48.3253781293
 20
155.322531444
 10
-47.9902957175
 20
156.210998279
 10
-47.7303449605
 20
157.3565995516
 10
-47.5618426297
 20
158.6872136416
 10
-47.4953983519
 20
160.1193940462
 10
-47.5351695511
 20
161.563137752
 10
-47.6786677334
 20
162.9276072802
 10
-47.9168776963
 20
164.1272103609
 10
-48.2348088715
 20
165.0866067232
 10
-48.6125086043
 20
165.745238048
 10
-49.026254246
 20
166.0619771303
 10
-49.450013468
 20
166.0169160189
 10
-49.8571876977
 20
165.6127965273
 10
-50.2221767399
 20
164.8750102343
 10
-50.522062609
 20
163.8499295534
 10
-50.7379804347
 20
162.6019275011
 10
-50.8563850615
 20
161.2095629992
 10
-50.8698259089
 20
159.7600972475
 10
-50.7774685118
 20
158.344844562
 10
-50.5850945208
 20
157.0526158633
  0
ARC
  5
1DD
330
1F
100
AcDbEntity
  8
0
  6
Continuous
 62
     7
370
    25
100
AcDbCircle
 10
-49.2637596152
 20
155.8515346388
 30
0.0
 40
1.396641218841993
100
AcDbArc
 50
196.0573315378
 51
252.7286639526
  0
ARC
  5
1DE
330
1F
100
AcDbEntity
  8
0
  6
Continuous
 62
     7
370
    25
100
AcDbCircle
 10
-49.3566984138
 20
164.8451697948
 30
0.0
 40
1.283645907368191
100
AcDbArc
 50
104.5147898935
 51
166.6992146161
  0
LINE
  5
1DF
330
1F
100
AcDbEntity
  8
0
  6
Continuous
 62
     7
370
    25
100
AcDbLine
 10
-49.481440017
 20
158.2135951342
 30
0.0
 11
-49.8626862261
 21
160.1335799517
 31
0.0
  0
LINE
  5
1E0
330
1F
100
AcDbEntity
  8
0
  6
Continuous
 62
     7
370
    25
100
AcDbLine
 10
-48.8046739791
 20
158.3828723254
 30
0.0
 11
-49.481440017
 21
158.2135951342
 31
0.0
  0
LINE
  5
1E1
330
1F
100
AcDbEntity
  8
0
  6
Continuous
 62
     7
370
    25
100
AcDbLine
 10
-48.5091541503
 20
160.472134334
 30
0.0
 11
-48.8046739791
 21
158.3828723254
 31
0.0
  0
LINE
  5
1E2
330
1F
100
AcDbEntity
  8
0
  6
Continuous
 62
     7
370
    25
100
AcDbLine
 10
-48.8904003594
 20
162.3921191515
 30
0.0
 11
-48.5091541503
 21
160.472134334
 31
0.0
  0
LINE
  5
1E3
330
1F
100
AcDbEntity
  8
0
  6
Continuous
 62
     7
370
    25
100
AcDbLine
 10
-49.5671663973
 20
162.2228419604
 30
0.0
 11
-48.8904003594
 21
162.3921191515
 31
0.0
  0
LINE
  5
1E4
330
1F
100
AcDbEntity
  8
0
  6
Continuous
 62
     7
370
    25
100
AcDbLine
 10
-49.8626862261
 20
160.1335799517
 30
0.0
 11
-49.5671663973
 21
162.2228419604
 31
0.0
  0
LINE
  5
1E5
330
1F
100
AcDbEntity
  8
0
  6
Continuous
 62
     7
370
    25
100
AcDbLine
 10
-49.5150570367
 20
158.3828723254
 30
0.0
 11
-48.8046739791
 21
158.3828723254
 31
0.0
  0
LINE
  5
1E6
330
1F
100
AcDbEntity
  8
0
  6
Continuous
 62
     7
370
    25
100
AcDbLine
 10
-49.8147938941
 20
160.472134334
 30
0.0
 11
-48.5091541503
 21
160.472134334
 31
0.0
  0
LINE
  5
1E7
330
1F
100
AcDbEntity
  8
0
  6
Continuous
 62
     7
370
    25
100
AcDbLine
 10
-107.9557870124
 20
158.2135951342
 30
0.0
 11
-108.3370183203
 21
160.1335799517
 31
0.0
  0
LINE
  5
1E8
330
1F
100
AcDbEntity
  8
0
  6
Continuous
 62
     7
370
    25
100
AcDbLine
 10
-107.2790060733
 20
158.3828723254
 30
0.0
 11
-107.9557870124
 21
158.2135951342
 31
0.0
  0
LINE
  5
1E9
330
1F
100
AcDbEntity
  8
0
  6
Continuous
 62
     7
370
    25
100
AcDbLine
 10
-106.9834862445
 20
160.472134334
 30
0.0
 11
-107.2790060733
 21
158.3828723254
 31
0.0
  0
LINE
  5
1EA
330
1F
100
AcDbEntity
  8
0
  6
Continuous
 62
     7
370
    25
100
AcDbLine
 10
-107.3647473548
 20
162.3921191515
 30
0.0
 11
-106.9834862445
 21
160.472134334
 31
0.0
  0
LINE
  5
1EB
330
1F
100
AcDbEntity
  8
0
  6
Continuous
 62
     7
370
    25
100
AcDbLine
 10
-108.0414984915
 20
162.2228419604
 30
0.0
 11
-107.3647473548
 21
162.3921191515
 31
0.0
  0
LINE
  5
1EC
330
1F
100
AcDbEntity
  8
0
  6
Continuous
 62
     7
370
    25
100
AcDbLine
 10
-108.3370183203
 20
160.1335799517
 30
0.0
 11
-108.0414984915
 21
162.2228419604
 31
0.0
  0
LWPOLYLINE
  5
1ED
330
1F
100
AcDbEntity
  8
0
  6
Continuous
 62
     7
370
    25
100
AcDbPolyline
 90
       26
 70
   128
 43
0.0
 10
-109.0594564173
 20
157.0526158633
 10
-108.7791655753
 20
155.9645926775
 10
-108.4285710547
 20
155.149201137
 10
-108.0296967719
 20
154.6575820269
 10
-107.6076362822
 20
154.5206105532
 10
-107.188854048
 20
154.7471082033
 10
-106.7997251246
 20
155.322531444
 10
-106.4646278117
 20
156.210998279
 10
-106.2046770547
 20
157.3565995516
 10
-106.036189625
 20
158.6872136416
 10
-105.9697453473
 20
160.1193940462
 10
-106.0095165465
 20
161.563137752
 10
-106.1530147288
 20
162.9276072802
 10
-106.3912097905
 20
164.1272103609
 10
-106.7091558669
 20
165.0866067232
 10
-107.0868705008
 20
165.745238048
 10
-107.5005863402
 20
166.0619771303
 10
-107.9243455622
 20
166.0169160189
 10
-108.331534693
 20
165.6127965273
 10
-108.6965237353
 20
164.8750102343
 10
-108.9963947032
 20
163.8499295534
 10
-109.2123125289
 20
162.6019275011
 10
-109.3307171557
 20
161.2095629992
 10
-109.3441580031
 20
159.7600972475
 10
-109.251800606
 20
158.344844562
 10
-109.0594564173
 20
157.0526158633
  0
ARC
  5
1EE
330
1F
100
AcDbEntity
  8
0
  6
Continuous
 62
     7
370
    25
100
AcDbCircle
 10
-107.7382560831
 20
155.8513589835
 30
0.0
 40
1.396424685717967
100
AcDbArc
 50
196.0574787034
 51
252.7329643633
  0
ARC
  5
1EF
330
1F
100
AcDbEntity
  8
0
  6
Continuous
 62
     7
370
    25
100
AcDbCircle
 10
-107.8310623079
 20
164.8452227108
 30
0.0
 40
1.28358671046624
100
AcDbArc
 50
104.5140077344
 51
166.695549199
  0
LINE
  5
1F0
330
1F
100
AcDbEntity
  8
0
  6
Continuous
 62
     7
370
    25
100
AcDbLine
 10
-107.989404032
 20
158.3828723254
 30
0.0
 11
-107.2790060733
 21
158.3828723254
 31
0.0
  0
LINE
  5
1F1
330
1F
100
AcDbEntity
  8
0
  6
Continuous
 62
     7
370
    25
100
AcDbLine
 10
-108.2891259883
 20
160.472134334
 30
0.0
 11
-106.9834862445
 21
160.472134334
 31
0.0
  0
CIRCLE
  5
1F2
330
1F
100
AcDbEntity
  8
0
  6
Continuous
 62
     7
370
    25
100
AcDbCircle
 10
255.9227413219
 20
830.2753097208
 30
0.0
 40
5.76724478048475
  0
ARC
  5
1F3
330
1F
100
AcDbEntity
  8
0
  6
Continuous
 62
     7
370
    25
100
AcDbCircle
 10
255.9227657454
 20
830.3028738322
 30
0.0
 40
5.785065336844184
100
AcDbArc
 50
270.295489321
 51
89.704510679
  0
LINE
  5
1F4
330
1F
100
AcDbEntity
  8
0
  6
Continuous
 62
     7
370
    25
100
AcDbLine
 10
255.542416444
 20
828.0084526362
 30
0.0
 11
253.7439282443
 21
829.4588124575
 31
0.0
  0
LINE
  5
1F5
330
1F
100
AcDbEntity
  8
0
  6
Continuous
 62
     7
370
    25
100
AcDbLine
 10
257.688325217
 20
828.8525140108
 30
0.0
 11
255.542416444
 21
828.0084526362
 31
0.0
  0
LINE
  5
1F6
330
1F
100
AcDbEntity
  8
0
  6
Continuous
 62
     7
370
    25
100
AcDbLine
 10
258.0357532408
 20
831.1469352068
 30
0.0
 11
257.688325217
 21
828.8525140108
 31
0.0
  0
LINE
  5
1F7
330
1F
100
AcDbEntity
  8
0
  6
Continuous
 62
     7
370
    25
100
AcDbLine
 10
256.2372650411
 20
832.5972354235
 30
0.0
 11
258.0357532408
 21
831.1469352068
 31
0.0
  0
LINE
  5
1F8
330
1F
100
AcDbEntity
  8
0
  6
Continuous
 62
     7
370
    25
100
AcDbLine
 10
254.0913562682
 20
831.7531740488
 30
0.0
 11
256.2372650411
 21
832.5972354235
 31
0.0
  0
LINE
  5
1F9
330
1F
100
AcDbEntity
  8
0
  6
Continuous
 62
     7
370
    25
100
AcDbLine
 10
253.7439282443
 20
829.4588124575
 30
0.0
 11
254.0913562682
 21
831.7531740488
 31
0.0
  0
LINE
  5
1FA
330
1F
100
AcDbEntity
  8
0
  6
Continuous
 62
     7
370
    25
100
AcDbLine
 10
255.4689835217
 20
832.1752345385
 30
0.0
 11
256.3371549752
 21
832.5167095484
 31
0.0
  0
LINE
  5
1FB
330
1F
100
AcDbEntity
  8
0
  6
Continuous
 62
     7
370
    25
100
AcDbLine
 10
254.3960254099
 20
831.7531740488
 30
0.0
 11
255.4689835217
 21
832.1752345385
 31
0.0
  0
LINE
  5
1FC
330
1F
100
AcDbEntity
  8
0
  6
Continuous
 62
     7
370
    25
100
AcDbLine
 10
254.3960254099
 20
831.7531740488
 30
0.0
 11
254.0913562682
 21
831.7531740488
 31
0.0
  0
LINE
  5
1FD
330
1F
100
AcDbEntity
  8
0
  6
Continuous
 62
     7
370
    25
100
AcDbLine
 10
254.0486048367
 20
829.4588124575
 30
0.0
 11
253.7439282443
 21
829.4588124575
 31
0.0
  0
LINE
  5
1FE
330
1F
100
AcDbEntity
  8
0
  6
Continuous
 62
     7
370
    25
100
AcDbLine
 10
254.9478452113
 20
828.7336027445
 30
0.0
 11
254.0486048367
 21
829.4588124575
 31
0.0
  0
LINE
  5
1FF
330
1F
100
AcDbEntity
  8
0
  6
Continuous
 62
     7
370
    25
100
AcDbLine
 10
255.7472031023
 20
828.0889785113
 30
0.0
 11
254.9478452113
 21
828.7336027445
 31
0.0
  0
LINE
  5
200
330
1F
100
AcDbEntity
  8
0
  6
Continuous
 62
     7
370
    25
100
AcDbLine
 10
254.2223151233
 20
830.6060230555
 30
0.0
 11
254.3960254099
 21
831.7531740488
 31
0.0
  0
LINE
  5
201
330
1F
100
AcDbEntity
  8
0
  6
Continuous
 62
     7
370
    25
100
AcDbLine
 10
254.0486048367
 20
829.4588124575
 30
0.0
 11
254.2223151233
 21
830.6060230555
 31
0.0
  0
ARC
  5
202
330
1F
100
AcDbEntity
  8
0
  6
Continuous
 62
     7
370
    25
100
AcDbCircle
 10
256.2167789696
 20
830.3020676179
 30
0.0
 40
2.017492240940594
100
AcDbArc
 50
171.3348219254
 51
231.0261327084
  0
ARC
  5
203
330
1F
100
AcDbEntity
  8
0
  6
Continuous
 62
     7
370
    25
100
AcDbCircle
 10
256.2073394166
 20
830.3088268683
 30
0.0
 40
2.007148977718751
100
AcDbArc
 50
111.5838847424
 51
171.4849714152
  0
ARC
  5
204
330
1F
100
AcDbEntity
  8
0
  6
Continuous
 62
     7
370
    25
100
AcDbCircle
 10
256.1944006809
 20
830.3320920358
 30
0.0
 40
1.980758526412791
100
AcDbArc
 50
76.4585433753
 51
111.4834218496
  0
LINE
  5
205
330
1F
100
AcDbEntity
  8
0
  6
Continuous
 62
     7
370
    25
100
AcDbLine
 10
258.0279375818
 20
831.0953175844
 30
0.0
 11
257.9862292316
 21
831.1868703188
 31
0.0
  0
LWPOLYLINE
  5
206
330
1F
100
AcDbEntity
  8
0
  6
Continuous
 62
     7
370
    25
100
AcDbPolyline
 90
        3
 70
   128
 43
0.0
 10
257.4904675987
 20
828.7746703448
 10
257.5760002639
 20
828.8527524294
 10
257.709998956
 20
828.9956843676
  0
ARC
  5
207
330
1F
100
AcDbEntity
  8
0
  6
Continuous
 62
     7
370
    25
100
AcDbCircle
 10
256.195291986
 20
830.2786962074
 30
0.0
 40
1.985808969917499
100
AcDbArc
 50
231.0839784241
 51
272.128148303
  0
LWPOLYLINE
  5
208
330
1F
100
AcDbEntity
  8
0
  6
Continuous
 62
     7
370
    25
100
AcDbPolyline
 90
       26
 70
   128
 43
0.0
 10
-50.5850945208
 20
-512.9473412214
 10
-50.3048185799
 20
-514.0354836164
 10
-49.9542389605
 20
-514.8508751569
 10
-49.5553646777
 20
-515.3424942671
 10
-49.1332892869
 20
-515.4793465315
 10
-48.7145219538
 20
-515.2528488813
 10
-48.3253781293
 20
-514.6773064314
 10
-47.9902957175
 20
-513.7889588056
 10
-47.7303449605
 20
-512.643357533
 10
-47.5618426297
 20
-511.3127434431
 10
-47.4953983519
 20
-509.8805630384
 10
-47.5351695511
 20
-508.436938542
 10
-47.6786677334
 20
-507.0722305952
 10
-47.9168776963
 20
-505.8727467237
 10
-48.2348088715
 20
-504.9133503614
 10
-48.6125086043
 20
-504.2548382459
 10
-49.026254246
 20
-503.9379799543
 10
-49.450013468
 20
-503.9830410658
 10
-49.8571876977
 20
-504.3871605573
 10
-50.2221767399
 20
-505.1250660597
 10
-50.522062609
 20
-506.1500275312
 10
-50.7379804347
 20
-507.3981487928
 10
-50.8563850615
 20
-508.7905132948
 10
-50.8698259089
 20
-510.2398598371
 10
-50.7774685118
 20
-511.6551125227
 10
-50.5850945208
 20
-512.9473412214
  0
ARC
  5
209
330
1F
100
AcDbEntity
  8
0
  6
Continuous
 62
     7
370
    25
100
AcDbCircle
 10
-49.2640111874
 20
-514.1489165659
 30
0.0
 40
1.396208527810635
100
AcDbArc
 50
196.0617043013
 51
252.733954352
  0
ARC
  5
20A
330
1F
100
AcDbEntity
  8
0
  6
Continuous
 62
     7
370
    25
100
AcDbCircle
 10
-49.35726974
 20
-505.1542970969
 30
0.0
 40
1.282912826499145
100
AcDbArc
 50
104.4969096842
 51
166.6920875719
  0
LINE
  5
20B
330
1F
100
AcDbEntity
  8
0
  6
Continuous
 62
     7
370
    25
100
AcDbLine
 10
-49.481440017
 20
-511.7864811598
 30
0.0
 11
-49.8626862261
 21
-509.8664963423
 31
0.0
  0
LINE
  5
20C
330
1F
100
AcDbEntity
  8
0
  6
Continuous
 62
     7
370
    25
100
AcDbLine
 10
-48.8046739791
 20
-511.6172039686
 30
0.0
 11
-49.481440017
 21
-511.7864811598
 31
0.0
  0
LINE
  5
20D
330
1F
100
AcDbEntity
  8
0
  6
Continuous
 62
     7
370
    25
100
AcDbLine
 10
-48.5091541503
 20
-509.5279419599
 30
0.0
 11
-48.8046739791
 21
-511.6172039686
 31
0.0
  0
LINE
  5
20E
330
1F
100
AcDbEntity
  8
0
  6
Continuous
 62
     7
370
    25
100
AcDbLine
 10
-48.8904003594
 20
-507.6079571424
 30
0.0
 11
-48.5091541503
 21
-509.5279419599
 31
0.0
  0
LINE
  5
20F
330
1F
100
AcDbEntity
  8
0
  6
Continuous
 62
     7
370
    25
100
AcDbLine
 10
-49.5671663973
 20
-507.7772343336
 30
0.0
 11
-48.8904003594
 21
-507.6079571424
 31
0.0
  0
LINE
  5
210
330
1F
100
AcDbEntity
  8
0
  6
Continuous
 62
     7
370
    25
100
AcDbLine
 10
-49.8626862261
 20
-509.8664963423
 30
0.0
 11
-49.5671663973
 21
-507.7772343336
 31
0.0
  0
LINE
  5
211
330
1F
100
AcDbEntity
  8
0
  6
Continuous
 62
     7
370
    25
100
AcDbLine
 10
-49.5150570367
 20
-511.6172039686
 30
0.0
 11
-48.8046739791
 21
-511.6172039686
 31
0.0
  0
LINE
  5
212
330
1F
100
AcDbEntity
  8
0
  6
Continuous
 62
     7
370
    25
100
AcDbLine
 10
-49.8147938941
 20
-509.5279419599
 30
0.0
 11
-48.5091541503
 21
-509.5279419599
 31
0.0
  0
CIRCLE
  5
213
330
1F
100
AcDbEntity
  8
0
  6
Continuous
 62
     7
370
    25
100
AcDbCircle
 10
255.9228779771
 20
-509.7247895336
 30
0.0
 40
5.767279307318349
  0
ARC
  5
214
330
1F
100
AcDbEntity
  8
0
  6
Continuous
 62
     7
370
    25
100
AcDbCircle
 10
255.9228333991
 20
-509.6972191511
 30
0.0
 40
5.785064988333542
100
AcDbArc
 50
270.2948192818
 51
89.7051807182
  0
LINE
  5
215
330
1F
100
AcDbEntity
  8
0
  6
Continuous
 62
     7
370
    25
100
AcDbLine
 10
255.542416444
 20
-511.9915211378
 30
0.0
 11
253.7439282443
 21
-510.5412209211
 31
0.0
  0
LINE
  5
216
330
1F
100
AcDbEntity
  8
0
  6
Continuous
 62
     7
370
    25
100
AcDbLine
 10
257.688325217
 20
-511.1475193678
 30
0.0
 11
255.542416444
 21
-511.9915211378
 31
0.0
  0
LINE
  5
217
330
1F
100
AcDbEntity
  8
0
  6
Continuous
 62
     7
370
    25
100
AcDbLine
 10
258.0357532408
 20
-508.8529789625
 30
0.0
 11
257.688325217
 21
-511.1475193678
 31
0.0
  0
LINE
  5
218
330
1F
100
AcDbEntity
  8
0
  6
Continuous
 62
     7
370
    25
100
AcDbLine
 10
256.2372650411
 20
-507.4026787458
 30
0.0
 11
258.0357532408
 21
-508.8529789625
 31
0.0
  0
LINE
  5
219
330
1F
100
AcDbEntity
  8
0
  6
Continuous
 62
     7
370
    25
100
AcDbLine
 10
254.0913562682
 20
-508.2469189344
 30
0.0
 11
256.2372650411
 21
-507.4026787458
 31
0.0
  0
LINE
  5
21A
330
1F
100
AcDbEntity
  8
0
  6
Continuous
 62
     7
370
    25
100
AcDbLine
 10
253.7439282443
 20
-510.5412209211
 30
0.0
 11
254.0913562682
 21
-508.2469189344
 31
0.0
  0
LINE
  5
21B
330
1F
100
AcDbEntity
  8
0
  6
Continuous
 62
     7
370
    25
100
AcDbLine
 10
255.4689835217
 20
-507.8246796308
 30
0.0
 11
256.3371549752
 21
-507.4832642256
 31
0.0
  0
LINE
  5
21C
330
1F
100
AcDbEntity
  8
0
  6
Continuous
 62
     7
370
    25
100
AcDbLine
 10
254.3960254099
 20
-508.2469189344
 30
0.0
 11
255.4689835217
 21
-507.8246796308
 31
0.0
  0
LINE
  5
21D
330
1F
100
AcDbEntity
  8
0
  6
Continuous
 62
     7
370
    25
100
AcDbLine
 10
254.3960254099
 20
-508.2469189344
 30
0.0
 11
254.0913562682
 21
-508.2469189344
 31
0.0
  0
LINE
  5
21E
330
1F
100
AcDbEntity
  8
0
  6
Continuous
 62
     7
370
    25
100
AcDbLine
 10
254.0486048367
 20
-510.5412209211
 30
0.0
 11
253.7439282443
 21
-510.5412209211
 31
0.0
  0
LINE
  5
21F
330
1F
100
AcDbEntity
  8
0
  6
Continuous
 62
     7
370
    25
100
AcDbLine
 10
254.9478452113
 20
-511.2664902387
 30
0.0
 11
254.0486048367
 21
-510.5412209211
 31
0.0
  0
LINE
  5
220
330
1F
100
AcDbEntity
  8
0
  6
Continuous
 62
     7
370
    25
100
AcDbLine
 10
255.7472031023
 20
-511.910935658
 30
0.0
 11
254.9478452113
 21
-511.2664902387
 31
0.0
  0
LINE
  5
221
330
1F
100
AcDbEntity
  8
0
  6
Continuous
 62
     7
370
    25
100
AcDbLine
 10
254.2223151233
 20
-509.3939507185
 30
0.0
 11
254.3960254099
 21
-508.2469189344
 31
0.0
  0
LINE
  5
222
330
1F
100
AcDbEntity
  8
0
  6
Continuous
 62
     7
370
    25
100
AcDbLine
 10
254.0486048367
 20
-510.5412209211
 30
0.0
 11
254.2223151233
 21
-509.3939507185
 31
0.0
  0
ARC
  5
223
330
1F
100
AcDbEntity
  8
0
  6
Continuous
 62
     7
370
    25
100
AcDbCircle
 10
256.2169601814
 20
-509.6979357993
 30
0.0
 40
2.017675850320654
100
AcDbArc
 50
171.3347650321
 51
231.023731863
  0
ARC
  5
224
330
1F
100
AcDbEntity
  8
0
  6
Continuous
 62
     7
370
    25
100
AcDbCircle
 10
256.2080948543
 20
-509.6916761525
 30
0.0
 40
2.00797449534618
100
AcDbArc
 50
111.5977480324
 51
171.4732280196
  0
ARC
  5
225
330
1F
100
AcDbEntity
  8
0
  6
Continuous
 62
     7
370
    25
100
AcDbCircle
 10
256.1944169301
 20
-509.6694477574
 30
0.0
 40
1.982277243726429
100
AcDbArc
 50
76.4695985601
 51
111.4666507193
  0
LINE
  5
226
330
1F
100
AcDbEntity
  8
0
  6
Continuous
 62
     7
370
    25
100
AcDbLine
 10
258.0279375818
 20
-508.9047157942
 30
0.0
 11
257.9862292316
 21
-508.8131630598
 31
0.0
  0
LWPOLYLINE
  5
227
330
1F
100
AcDbEntity
  8
0
  6
Continuous
 62
     7
370
    25
100
AcDbPolyline
 90
        3
 70
   128
 43
0.0
 10
257.4904675987
 20
-511.2252438246
 10
257.5760002639
 20
-511.1472809492
 10
257.709998956
 20
-511.0042298017
  0
ARC
  5
228
330
1F
100
AcDbEntity
  8
0
  6
Continuous
 62
     7
370
    25
100
AcDbCircle
 10
256.1950159477
 20
-509.7214192487
 30
0.0
 40
1.985618092677056
100
AcDbArc
 50
231.0897685279
 51
272.136323687
  0
LWPOLYLINE
  5
229
330
1F
100
AcDbEntity
  8
0
  6
Continuous
 62
     7
370
    25
100
AcDbPolyline
 90
       26
 70
   128
 43
0.0
 10
-50.5850945208
 20
827.0526325526
 10
-50.3048185799
 20
825.9646093668
 10
-49.9542389605
 20
825.1491582217
 10
-49.5553646777
 20
824.6575391115
 10
-49.1332892869
 20
824.5206868471
 10
-48.7145219538
 20
824.747065288
 10
-48.3253781293
 20
825.3226077379
 10
-47.9902957175
 20
826.2110149683
 10
-47.7303449605
 20
827.3565566363
 10
-47.5618426297
 20
828.6872303309
 10
-47.4953983519
 20
830.1194107355
 10
-47.5351695511
 20
831.5631544413
 10
-47.6786677334
 20
832.9276835741
 10
-47.9168776963
 20
834.1272866549
 10
-48.2348088715
 20
835.0865638079
 10
-48.6125086043
 20
835.7452547373
 10
-49.026254246
 20
836.0619938196
 10
-49.450013468
 20
836.0168731036
 10
-49.8571876977
 20
835.612753612
 10
-50.2221767399
 20
834.8749673189
 10
-50.522062609
 20
833.8498866381
 10
-50.7379804347
 20
832.6019441904
 10
-50.8563850615
 20
831.2095200838
 10
-50.8698259089
 20
829.7601735415
 10
-50.7774685118
 20
828.3448612513
 10
-50.5850945208
 20
827.0526325526
  0
ARC
  5
22A
330
1F
100
AcDbEntity
  8
0
  6
Continuous
 62
     7
370
    25
100
AcDbCircle
 10
-49.2640415163
 20
825.8512785212
 30
0.0
 40
1.396297030002781
100
AcDbArc
 50
196.0522930036
 51
252.7363863424
  0
ARC
  5
22B
330
1F
100
AcDbEntity
  8
0
  6
Continuous
 62
     7
370
    25
100
AcDbCircle
 10
-49.3564383682
 20
834.844951544
 30
0.0
 40
1.283938538625585
100
AcDbArc
 50
104.5233963961
 51
166.6915284318
  0
LINE
  5
22C
330
1F
100
AcDbEntity
  8
0
  6
Continuous
 62
     7
370
    25
100
AcDbLine
 10
-49.481440017
 20
828.2135522188
 30
0.0
 11
-49.8626862261
 21
830.1335370364
 31
0.0
  0
LINE
  5
22D
330
1F
100
AcDbEntity
  8
0
  6
Continuous
 62
     7
370
    25
100
AcDbLine
 10
-48.8046739791
 20
828.38282941
 30
0.0
 11
-49.481440017
 21
828.2135522188
 31
0.0
  0
LINE
  5
22E
330
1F
100
AcDbEntity
  8
0
  6
Continuous
 62
     7
370
    25
100
AcDbLine
 10
-48.5091541503
 20
830.4721510233
 30
0.0
 11
-48.8046739791
 21
828.38282941
 31
0.0
  0
LINE
  5
22F
330
1F
100
AcDbEntity
  8
0
  6
Continuous
 62
     7
370
    25
100
AcDbLine
 10
-48.8904003594
 20
832.3921358408
 30
0.0
 11
-48.5091541503
 21
830.4721510233
 31
0.0
  0
LINE
  5
230
330
1F
100
AcDbEntity
  8
0
  6
Continuous
 62
     7
370
    25
100
AcDbLine
 10
-49.5671663973
 20
832.2228586497
 30
0.0
 11
-48.8904003594
 21
832.3921358408
 31
0.0
  0
LINE
  5
231
330
1F
100
AcDbEntity
  8
0
  6
Continuous
 62
     7
370
    25
100
AcDbLine
 10
-49.8626862261
 20
830.1335370364
 30
0.0
 11
-49.5671663973
 21
832.2228586497
 31
0.0
  0
LINE
  5
232
330
1F
100
AcDbEntity
  8
0
  6
Continuous
 62
     7
370
    25
100
AcDbLine
 10
-49.5150570367
 20
828.38282941
 30
0.0
 11
-48.8046739791
 21
828.38282941
 31
0.0
  0
LINE
  5
233
330
1F
100
AcDbEntity
  8
0
  6
Continuous
 62
     7
370
    25
100
AcDbLine
 10
-49.8147938941
 20
830.4721510233
 30
0.0
 11
-48.5091541503
 21
830.4721510233
 31
0.0
  0
LWPOLYLINE
  5
234
330
1F
100
AcDbEntity
  8
0
  6
Continuous
 62
     7
370
    25
100
AcDbPolyline
 90
       31
 70
   128
 43
0.0
 10
242.5802315976
 20
-589.8471081434
 10
242.8729425576
 20
-589.8030007063
 10
243.4549297597
 20
-589.4499027906
 10
244.026664963
 20
-588.7482369123
 10
244.5814426448
 20
-587.7058708845
 10
245.1127584483
 20
-586.3349640547
 10
245.6143836882
 20
-584.6519673048
 10
246.0804324057
 20
-582.6764309583
 10
246.5054433253
 20
-580.4312431989
 10
246.8844394591
 20
-577.9431069074
 10
247.2129728105
 20
-575.2411091505
 10
247.4871839788
 20
-572.3567211805
 10
247.7038692143
 20
-569.3240368543
 10
247.860487869
 20
-566.1785805402
 10
247.9551996496
 20
-562.9568302808
 10
247.9868944194
 20
-559.6971714674
 10
247.9551996496
 20
-556.4372742353
 10
247.860487869
 20
-553.2157623945
 10
247.7038692143
 20
-550.0703060804
 10
247.4871839788
 20
-547.0373833357
 10
247.2129728105
 20
-544.1532337843
 10
246.8844394591
 20
-541.4512360273
 10
246.5054433253
 20
-538.9630997358
 10
246.0804324057
 20
-536.7179119764
 10
245.6143836882
 20
-534.74237563
 10
245.1127584483
 20
-533.0591404615
 10
244.5814426448
 20
-531.6884720503
 10
244.026664963
 20
-530.6461060224
 10
243.4549297597
 20
-529.9444401441
 10
242.8729425576
 20
-529.5913422285
 10
242.5802315976
 20
-529.5472347913
  0
ARC
  5
235
330
1F
100
AcDbEntity
  8
0
  6
Continuous
 62
     7
370
    25
100
AcDbCircle
 10
386.7130928559
 20
-560.0039846272
 30
0.0
 40
29.84418356177231
100
AcDbArc
 50
270.4829157021
 51
0.5890396963
  0
ARC
  5
236
330
1F
100
AcDbEntity
  8
0
  6
Continuous
 62
     7
370
    25
100
AcDbCircle
 10
386.624277421
 20
-559.4484723191
 30
0.0
 40
29.93245505695758
100
AcDbArc
 50
359.5239423065
 51
83.6926885949
  0
LWPOLYLINE
  5
237
330
1F
100
AcDbEntity
  8
0
  6
Continuous
 62
     7
370
    25
100
AcDbPolyline
 90
       31
 70
   128
 43
0.0
 10
26.1464755442
 20
-589.8471081434
 10
26.4391865041
 20
-589.8030007063
 10
27.0211737063
 20
-589.4499027906
 10
27.5929089095
 20
-588.7482369123
 10
28.1476865914
 20
-587.7058708845
 10
28.6790023949
 20
-586.3349640547
 10
29.1806276347
 20
-584.6519673048
 10
29.6466763522
 20
-582.6764309583
 10
30.0716872718
 20
-580.4312431989
 10
30.4506834056
 20
-577.9431069074
 10
30.779216757
 20
-575.2411091505
 10
31.0534279253
 20
-572.3567211805
 10
31.2701131608
 20
-569.3240368543
 10
31.4267318156
 20
-566.1785805402
 10
31.5214435961
 20
-562.9568302808
 10
31.553138366
 20
-559.6971714674
 10
31.5214435961
 20
-556.4372742353
 10
31.4267318156
 20
-553.2157623945
 10
31.2701131608
 20
-550.0703060804
 10
31.0534279253
 20
-547.0373833357
 10
30.779216757
 20
-544.1532337843
 10
30.4506834056
 20
-541.4512360273
 10
30.0716872718
 20
-538.9630997358
 10
29.6466763522
 20
-536.7179119764
 10
29.1806276347
 20
-534.74237563
 10
28.6790023949
 20
-533.0591404615
 10
28.1476865914
 20
-531.6884720503
 10
27.5929089095
 20
-530.6461060224
 10
27.0211737063
 20
-529.9444401441
 10
26.4391865041
 20
-529.5913422285
 10
26.1464755442
 20
-529.5472347913
  0
LWPOLYLINE
  5
238
330
1F
100
AcDbEntity
  8
0
  6
Continuous
 62
     7
370
    25
100
AcDbPolyline
 90
       16
 70
   128
 43
0.0
 10
247.9868944194
 20
-559.6971714674
 10
247.9551996496
 20
-562.9568302808
 10
247.860487869
 20
-566.1785805402
 10
247.7038692143
 20
-569.3240368543
 10
247.4871839788
 20
-572.3567211805
 10
247.2129728105
 20
-575.2411091505
 10
246.8844394591
 20
-577.9431069074
 10
246.5054433253
 20
-580.4312431989
 10
246.0804324057
 20
-582.6764309583
 10
245.6143836882
 20
-584.6519673048
 10
245.1127584483
 20
-586.3349640547
 10
244.5814426448
 20
-587.7058708845
 10
244.026664963
 20
-588.7482369123
 10
243.4549297597
 20
-589.4499027906
 10
242.8729425576
 20
-589.8030007063
 10
242.5802315976
 20
-589.8471081434
  0
LWPOLYLINE
  5
239
330
1F
100
AcDbEntity
  8
0
  6
Continuous
 62
     7
370
    25
100
AcDbPolyline
 90
       16
 70
   128
 43
0.0
 10
242.5802315976
 20
-529.5472347913
 10
242.8729425576
 20
-529.5913422285
 10
243.4549297597
 20
-529.9444401441
 10
244.026664963
 20
-530.6461060224
 10
244.5814426448
 20
-531.6884720503
 10
245.1127584483
 20
-533.0591404615
 10
245.6143836882
 20
-534.74237563
 10
246.0804324057
 20
-536.7179119764
 10
246.5054433253
 20
-538.9630997358
 10
246.8844394591
 20
-541.4512360273
 10
247.2129728105
 20
-544.1532337843
 10
247.4871839788
 20
-547.0373833357
 10
247.7038692143
 20
-550.0703060804
 10
247.860487869
 20
-553.2157623945
 10
247.9551996496
 20
-556.4372742353
 10
247.9868944194
 20
-559.6971714674
  0
ARC
  5
23A
330
1F
100
AcDbEntity
  8
0
  6
Continuous
 62
     7
370
    25
100
AcDbCircle
 10
-184.6576797266
 20
-559.6971714674
 30
0.0
 40
30.1504039715137
100
AcDbArc
 50
90.3189976013
 51
269.6810023987
  0
LWPOLYLINE
  5
23B
330
1F
100
AcDbEntity
  8
0
  6
Continuous
 62
     7
370
    25
100
AcDbPolyline
 90
       16
 70
   128
 43
0.0
 10
31.553138366
 20
-559.6971714674
 10
31.5214435961
 20
-562.9568302808
 10
31.4267318156
 20
-566.1785805402
 10
31.2701131608
 20
-569.3240368543
 10
31.0534279253
 20
-572.3567211805
 10
30.779216757
 20
-575.2411091505
 10
30.4506834056
 20
-577.9431069074
 10
30.0716872718
 20
-580.4312431989
 10
29.6466763522
 20
-582.6764309583
 10
29.1806276347
 20
-584.6519673048
 10
28.6790023949
 20
-586.3349640547
 10
28.1476865914
 20
-587.7058708845
 10
27.5929089095
 20
-588.7482369123
 10
27.0211737063
 20
-589.4499027906
 10
26.4391865041
 20
-589.8030007063
 10
26.1464755442
 20
-589.8471081434
  0
LWPOLYLINE
  5
23C
330
1F
100
AcDbEntity
  8
0
  6
Continuous
 62
     7
370
    25
100
AcDbPolyline
 90
       16
 70
   128
 43
0.0
 10
26.1464755442
 20
-529.5472347913
 10
26.4391865041
 20
-529.5913422285
 10
27.0211737063
 20
-529.9444401441
 10
27.5929089095
 20
-530.6461060224
 10
28.1476865914
 20
-531.6884720503
 10
28.6790023949
 20
-533.0591404615
 10
29.1806276347
 20
-534.74237563
 10
29.6466763522
 20
-536.7179119764
 10
30.0716872718
 20
-538.9630997358
 10
30.4506834056
 20
-541.4512360273
 10
30.779216757
 20
-544.1532337843
 10
31.0534279253
 20
-547.0373833357
 10
31.2701131608
 20
-550.0703060804
 10
31.4267318156
 20
-553.2157623945
 10
31.5214435961
 20
-556.4372742353
 10
31.553138366
 20
-559.6971714674
  0
LWPOLYLINE
  5
23D
330
1F
100
AcDbEntity
  8
0
  6
Continuous
 62
     7
370
    25
100
AcDbPolyline
 90
       31
 70
   128
 43
0.0
 10
242.5802315976
 20
850.1528298678
 10
242.8729425576
 20
850.1970565142
 10
243.4549297597
 20
850.5500352206
 10
244.026664963
 20
851.2518203081
 10
244.5814426448
 20
852.294186336
 10
245.1127584483
 20
853.6649739565
 10
245.6143836882
 20
855.348030311
 10
246.0804324057
 20
857.3236858668
 10
246.5054433253
 20
859.5686948122
 10
246.8844394591
 20
862.0568311037
 10
247.2129728105
 20
864.7588884653
 10
247.4871839788
 20
867.6432168307
 10
247.7038692143
 20
870.6759011568
 10
247.860487869
 20
873.8214766802
 10
247.9551996496
 20
877.0430481257
 10
247.9868944194
 20
880.3028857531
 10
247.9551996496
 20
883.5626637759
 10
247.860487869
 20
886.7842352213
 10
247.7038692143
 20
889.9298107447
 10
247.4871839788
 20
892.9624950709
 10
247.2129728105
 20
895.8468234362
 10
246.8844394591
 20
898.5488807978
 10
246.5054433253
 20
901.0370170893
 10
246.0804324057
 20
903.2820260348
 10
245.6143836882
 20
905.2576815905
 10
245.1127584483
 20
906.940737945
 10
244.5814426448
 20
908.3115255656
 10
244.026664963
 20
909.3538915934
 10
243.4549297597
 20
910.055676681
 10
242.8729425576
 20
910.4086553873
 10
242.5802315976
 20
910.4528820338
  0
ARC
  5
23E
330
1F
100
AcDbEntity
  8
0
  6
Continuous
 62
     7
370
    25
100
AcDbCircle
 10
386.6242556163
 20
880.0541468592
 30
0.0
 40
29.93247719120717
100
AcDbArc
 50
276.3073487142
 51
0.476133424
  0
ARC
  5
23F
330
1F
100
AcDbEntity
  8
0
  6
Continuous
 62
     7
370
    25
100
AcDbCircle
 10
386.6723549477
 20
880.5697752115
 30
0.0
 40
29.88453610879461
100
AcDbArc
 50
359.4883024857
 51
89.4396288654
  0
LWPOLYLINE
  5
240
330
1F
100
AcDbEntity
  8
0
  6
Continuous
 62
     7
370
    25
100
AcDbPolyline
 90
       31
 70
   128
 43
0.0
 10
26.1464755442
 20
850.1528298678
 10
26.4391865041
 20
850.1970565142
 10
27.0211737063
 20
850.5500352206
 10
27.5929089095
 20
851.2518203081
 10
28.1476865914
 20
852.294186336
 10
28.6790023949
 20
853.6649739565
 10
29.1806276347
 20
855.348030311
 10
29.6466763522
 20
857.3236858668
 10
30.0716872718
 20
859.5686948122
 10
30.4506834056
 20
862.0568311037
 10
30.779216757
 20
864.7588884653
 10
31.0534279253
 20
867.6432168307
 10
31.2701131608
 20
870.6759011568
 10
31.4267318156
 20
873.8214766802
 10
31.5214435961
 20
877.0430481257
 10
31.553138366
 20
880.3028857531
 10
31.5214435961
 20
883.5626637759
 10
31.4267318156
 20
886.7842352213
 10
31.2701131608
 20
889.9298107447
 10
31.0534279253
 20
892.9624950709
 10
30.779216757
 20
895.8468234362
 10
30.4506834056
 20
898.5488807978
 10
30.0716872718
 20
901.0370170893
 10
29.6466763522
 20
903.2820260348
 10
29.1806276347
 20
905.2576815905
 10
28.6790023949
 20
906.940737945
 10
28.1476865914
 20
908.3115255656
 10
27.5929089095
 20
909.3538915934
 10
27.0211737063
 20
910.055676681
 10
26.4391865041
 20
910.4086553873
 10
26.1464755442
 20
910.4528820338
  0
LWPOLYLINE
  5
241
330
1F
100
AcDbEntity
  8
0
  6
Continuous
 62
     7
370
    25
100
AcDbPolyline
 90
       16
 70
   128
 43
0.0
 10
247.9868944194
 20
880.3028857531
 10
247.9551996496
 20
877.0430481257
 10
247.860487869
 20
873.8214766802
 10
247.7038692143
 20
870.6759011568
 10
247.4871839788
 20
867.6432168307
 10
247.2129728105
 20
864.7588884653
 10
246.8844394591
 20
862.0568311037
 10
246.5054433253
 20
859.5686948122
 10
246.0804324057
 20
857.3236858668
 10
245.6143836882
 20
855.348030311
 10
245.1127584483
 20
853.6649739565
 10
244.5814426448
 20
852.294186336
 10
244.026664963
 20
851.2518203081
 10
243.4549297597
 20
850.5500352206
 10
242.8729425576
 20
850.1970565142
 10
242.5802315976
 20
850.1528298678
  0
LWPOLYLINE
  5
242
330
1F
100
AcDbEntity
  8
0
  6
Continuous
 62
     7
370
    25
100
AcDbPolyline
 90
       16
 70
   128
 43
0.0
 10
242.5802315976
 20
910.4528820338
 10
242.8729425576
 20
910.4086553873
 10
243.4549297597
 20
910.055676681
 10
244.026664963
 20
909.3538915934
 10
244.5814426448
 20
908.3115255656
 10
245.1127584483
 20
906.940737945
 10
245.6143836882
 20
905.2576815905
 10
246.0804324057
 20
903.2820260348
 10
246.5054433253
 20
901.0370170893
 10
246.8844394591
 20
898.5488807978
 10
247.2129728105
 20
895.8468234362
 10
247.4871839788
 20
892.9624950709
 10
247.7038692143
 20
889.9298107447
 10
247.860487869
 20
886.7842352213
 10
247.9551996496
 20
883.5626637759
 10
247.9868944194
 20
880.3028857531
  0
ARC
  5
243
330
1F
100
AcDbEntity
  8
0
  6
Continuous
 62
     7
370
    25
100
AcDbCircle
 10
-184.6574862784
 20
880.3028559508
 30
0.0
 40
30.15049445474077
100
AcDbArc
 50
90.3193642643
 51
269.6806357357
  0
LWPOLYLINE
  5
244
330
1F
100
AcDbEntity
  8
0
  6
Continuous
 62
     7
370
    25
100
AcDbPolyline
 90
       16
 70
   128
 43
0.0
 10
31.553138366
 20
880.3028857531
 10
31.5214435961
 20
877.0430481257
 10
31.4267318156
 20
873.8214766802
 10
31.2701131608
 20
870.6759011568
 10
31.0534279253
 20
867.6432168307
 10
30.779216757
 20
864.7588884653
 10
30.4506834056
 20
862.0568311037
 10
30.0716872718
 20
859.5686948122
 10
29.6466763522
 20
857.3236858668
 10
29.1806276347
 20
855.348030311
 10
28.6790023949
 20
853.6649739565
 10
28.1476865914
 20
852.294186336
 10
27.5929089095
 20
851.2518203081
 10
27.0211737063
 20
850.5500352206
 10
26.4391865041
 20
850.1970565142
 10
26.1464755442
 20
850.1528298678
  0
LWPOLYLINE
  5
245
330
1F
100
AcDbEntity
  8
0
  6
Continuous
 62
     7
370
    25
100
AcDbPolyline
 90
       16
 70
   128
 43
0.0
 10
26.1464755442
 20
910.4528820338
 10
26.4391865041
 20
910.4086553873
 10
27.0211737063
 20
910.055676681
 10
27.5929089095
 20
909.3538915934
 10
28.1476865914
 20
908.3115255656
 10
28.6790023949
 20
906.940737945
 10
29.1806276347
 20
905.2576815905
 10
29.6466763522
 20
903.2820260348
 10
30.0716872718
 20
901.0370170893
 10
30.4506834056
 20
898.5488807978
 10
30.779216757
 20
895.8468234362
 10
31.0534279253
 20
892.9624950709
 10
31.2701131608
 20
889.9298107447
 10
31.4267318156
 20
886.7842352213
 10
31.5214435961
 20
883.5626637759
 10
31.553138366
 20
880.3028857531
  0
LWPOLYLINE
  5
246
330
1F
100
AcDbEntity
  8
0
  6
Continuous
 62
     7
370
    25
100
AcDbPolyline
 90
       30
 70
   128
 43
0.0
 10
386.9646306541
 20
-589.8471081434
 10
388.566654494
 20
-589.8030007063
 10
391.7519267108
 20
-589.4499027906
 10
394.8810662534
 20
-588.7482369123
 10
397.9174162652
 20
-587.7058708845
 10
400.8253182676
 20
-586.3349640547
 10
403.5707380082
 20
-584.6519673048
 10
406.1214889791
 20
-582.6764309583
 10
408.4475900438
 20
-580.4312431989
 10
410.5218614843
 20
-577.9431069074
 10
412.3199250009
 20
-575.2411091505
 10
413.820740154
 20
-572.3567211805
 10
415.0066937711
 20
-569.3240368543
 10
415.8638681676
 20
-566.1785805402
 10
416.3822199609
 20
-562.9568302808
 10
416.5556992795
 20
-559.6971714674
 10
416.3822199609
 20
-556.4372742353
 10
415.8638681676
 20
-553.2157623945
 10
415.0066937711
 20
-550.0703060804
 10
413.820740154
 20
-547.0373833357
 10
412.3199250009
 20
-544.1532337843
 10
410.5218614843
 20
-541.4512360273
 10
408.4475900438
 20
-538.9630997358
 10
406.1214889791
 20
-536.7179119764
 10
403.5707380082
 20
-534.74237563
 10
400.8253182676
 20
-533.0591404615
 10
397.9174162652
 20
-531.6884720503
 10
394.8810662534
 20
-530.6461060224
 10
391.7519267108
 20
-529.9444401441
 10
389.9126912858
 20
-529.6972000776
  0
ELLIPSE
  5
247
330
1F
100
AcDbEntity
  8
0
  6
Continuous
 62
     7
370
    25
100
AcDbEllipse
 10
459.2872288202
 20
-559.6971428571
 30
0.0
 11
-30.71950761458135
 21
0.0
 31
0.0
210
0.0
220
0.0
230
1.0
 40
0.9814610435
 41
1.570796326794897
 42
4.712388980384704
  0
LWPOLYLINE
  5
248
330
1F
100
AcDbEntity
  8
0
  6
Continuous
 62
     7
370
    25
100
AcDbPolyline
 90
       30
 70
   128
 43
0.0
 10
389.9126912858
 20
850.3028547587
 10
391.7519267108
 20
850.5500352206
 10
394.8810662534
 20
851.2518203081
 10
397.9174162652
 20
852.294186336
 10
400.8253182676
 20
853.6649739565
 10
403.5707380082
 20
855.348030311
 10
406.1214889791
 20
857.3236858668
 10
408.4475900438
 20
859.5686948122
 10
410.5218614843
 20
862.0568311037
 10
412.3199250009
 20
864.7588884653
 10
413.820740154
 20
867.6432168307
 10
415.0066937711
 20
870.6759011568
 10
415.8638681676
 20
873.8214766802
 10
416.3822199609
 20
877.0430481257
 10
416.5556992795
 20
880.3028857531
 10
416.3822199609
 20
883.5626637759
 10
415.8638681676
 20
886.7842352213
 10
415.0066937711
 20
889.9298107447
 10
413.820740154
 20
892.9624950709
 10
412.3199250009
 20
895.8468234362
 10
410.5218614843
 20
898.5488807978
 10
408.4475900438
 20
901.0370170893
 10
406.1214889791
 20
903.2820260348
 10
403.5707380082
 20
905.2576815905
 10
400.8253182676
 20
906.940737945
 10
397.9174162652
 20
908.3115255656
 10
394.8810662534
 20
909.3538915934
 10
391.7519267108
 20
910.055676681
 10
388.566654494
 20
910.4086553873
 10
386.9646306541
 20
910.4528820338
  0
ELLIPSE
  5
249
330
1F
100
AcDbEntity
  8
0
  6
Continuous
 62
     7
370
    25
100
AcDbEllipse
 10
459.2872288202
 20
880.3028571429
 30
0.0
 11
-30.71950761458135
 21
0.0
 31
0.0
210
0.0
220
0.0
230
1.0
 40
0.9814610435
 41
1.570796326794897
 42
4.712388980384704
  0
ARC
  5
24A
330
1F
100
AcDbEntity
  8
0
  6
Continuous
 62
     7
370
    25
100
AcDbCircle
 10
-184.7274798753
 20
880.1821334806
 30
0.0
 40
30.02946372888132
100
AcDbArc
 50
179.7696058015
 51
269.8128966616
  0
ARC
  5
24B
330
1F
100
AcDbEntity
  8
0
  6
Continuous
 62
     7
370
    25
100
AcDbCircle
 10
-184.711765291
 20
880.4079781369
 30
0.0
 40
30.04511932969324
100
AcDbArc
 50
90.2169736053
 51
180.2004106646
  0
ELLIPSE
  5
24C
330
1F
100
AcDbEntity
  8
0
  6
Continuous
 62
     7
370
    25
100
AcDbEllipse
 10
-232.915572151
 20
880.3028571429
 30
0.0
 11
-30.37044999807105
 21
0.0
 31
0.0
210
0.0
220
0.0
230
1.0
 40
0.9927412996
 41
4.712388980384706
 42
6.283185307179586
  0
ELLIPSE
  5
24D
330
1F
100
AcDbEntity
  8
0
  6
Continuous
 62
     7
370
    25
100
AcDbEllipse
 10
-232.915572151
 20
880.3028571429
 30
0.0
 11
-30.37044999807105
 21
0.0
 31
0.0
210
0.0
220
0.0
230
1.0
 40
0.9927412996
 41
0.0
 42
1.570796326794895
  0
ARC
  5
24E
330
1F
100
AcDbEntity
  8
0
  6
Continuous
 62
     7
370
    25
100
AcDbCircle
 10
-184.727757122
 20
-559.8180802427
 30
0.0
 40
30.02918711415043
100
AcDbArc
 50
179.7693050689
 51
269.8134239285
  0
ARC
  5
24F
330
1F
100
AcDbEntity
  8
0
  6
Continuous
 62
     7
370
    25
100
AcDbCircle
 10
-184.7118889973
 20
-559.5920156718
 30
0.0
 40
30.04499584602806
100
AcDbArc
 50
90.2167385876
 51
180.200532415
  0
ELLIPSE
  5
250
330
1F
100
AcDbEntity
  8
0
  6
Continuous
 62
     7
370
    25
100
AcDbEllipse
 10
-232.915572151
 20
-559.6971428571
 30
0.0
 11
-30.370449998071
 21
0.0
 31
0.0
210
0.0
220
0.0
230
1.0
 40
0.9927412996
 41
4.712388980384702
 42
6.283185307179586
  0
ELLIPSE
  5
251
330
1F
100
AcDbEntity
  8
0
  6
Continuous
 62
     7
370
    25
100
AcDbEllipse
 10
-232.915572151
 20
-559.6971428571
 30
0.0
 11
-30.370449998071
 21
0.0
 31
0.0
210
0.0
220
0.0
230
1.0
 40
0.9927412996
 41
0.0
 42
1.570796326794899
  0
LINE
  5
252
330
1F
100
AcDbEntity
  8
0
  6
Continuous
 62
     7
370
    25
100
AcDbLine
 10
310.4798759725
 20
140.3028762163
 30
0.0
 11
302.3824508693
 21
140.3028762163
 31
0.0
  0
LINE
  5
253
330
1F
100
AcDbEntity
  8
0
  6
Continuous
 62
     7
370
    25
100
AcDbLine
 10
211.2252603676
 20
140.3028762163
 30
0.0
 11
203.127842715
 21
140.3028762163
 31
0.0
  0
LINE
  5
254
330
1F
100
AcDbEntity
  8
0
  6
Continuous
 62
     7
370
    25
100
AcDbLine
 10
111.970648488
 20
140.3028762163
 30
0.0
 11
103.8732271101
 21
140.3028762163
 31
0.0
  0
LINE
  5
255
330
1F
100
AcDbEntity
  8
0
  6
Continuous
 62
     7
370
    25
100
AcDbLine
 10
12.7160366084
 20
140.3028762163
 30
0.0
 11
-14.1886804793
 21
140.3028762163
 31
0.0
  0
ELLIPSE
  5
256
330
1F
100
AcDbEntity
  8
0
  6
Continuous
 62
     7
370
    25
100
AcDbEllipse
 10
-14.1886767229
 20
148.3028571429
 30
0.0
 11
0.0
 21
8.0
 31
0.0
210
0.0
220
0.0
230
1.0
 40
0.7109757664
 41
3.141592653589784
 42
4.712388980384699
  0
LINE
  5
257
330
1F
100
AcDbEntity
  8
0
  6
Continuous
 62
     7
370
    25
100
AcDbLine
 10
310.4798759725
 20
180.3028380694
 30
0.0
 11
302.3824508693
 21
180.3028380694
 31
0.0
  0
LINE
  5
258
330
1F
100
AcDbEntity
  8
0
  6
Continuous
 62
     7
370
    25
100
AcDbLine
 10
211.2252603676
 20
180.3028380694
 30
0.0
 11
203.127842715
 21
180.3028380694
 31
0.0
  0
LINE
  5
259
330
1F
100
AcDbEntity
  8
0
  6
Continuous
 62
     7
370
    25
100
AcDbLine
 10
111.970648488
 20
180.3028380694
 30
0.0
 11
103.8732271101
 21
180.3028380694
 31
0.0
  0
LINE
  5
25A
330
1F
100
AcDbEntity
  8
0
  6
Continuous
 62
     7
370
    25
100
AcDbLine
 10
12.7160366084
 20
180.3028380694
 30
0.0
 11
-14.1886804793
 21
180.3028380694
 31
0.0
  0
ELLIPSE
  5
25B
330
1F
100
AcDbEntity
  8
0
  6
Continuous
 62
     7
370
    25
100
AcDbEllipse
 10
-14.1886767229
 20
172.3028571429
 30
0.0
 11
0.0
 21
8.000000000000028
 31
0.0
210
0.0
220
0.0
230
1.0
 40
0.7109757664
 41
4.712388980384699
 42
6.283185307179586
  0
LINE
  5
25C
330
1F
100
AcDbEntity
  8
0
  6
Continuous
 62
     7
370
    25
100
AcDbLine
 10
-8.5008774493
 20
148.3028924288
 30
0.0
 11
-8.5008774493
 21
172.3028218569
 31
0.0
  0
ELLIPSE
  5
25D
330
1F
100
AcDbEntity
  8
0
  6
Continuous
 62
     7
370
    25
100
AcDbEllipse
 10
-14.1886767229
 20
148.3028571429
 30
0.0
 11
0.0
 21
8.0
 31
0.0
210
0.0
220
0.0
230
1.0
 40
0.7109757664
 41
3.141592653589793
 42
4.712388980384699
  0
LINE
  5
25E
330
1F
100
AcDbEntity
  8
0
  6
Continuous
 62
     7
370
    25
100
AcDbLine
 10
-14.1886804793
 20
140.3028762163
 30
0.0
 11
-36.0291932318
 21
140.3028762163
 31
0.0
  0
LINE
  5
25F
330
1F
100
AcDbEntity
  8
0
  6
Continuous
 62
     7
370
    25
100
AcDbLine
 10
-14.1886804793
 20
180.3028380694
 30
0.0
 11
-36.0291932318
 21
180.3028380694
 31
0.0
  0
ELLIPSE
  5
260
330
1F
100
AcDbEntity
  8
0
  6
Continuous
 62
     7
370
    25
100
AcDbEllipse
 10
-14.1886767229
 20
172.3028571429
 30
0.0
 11
0.0
 21
8.000000000000057
 31
0.0
210
0.0
220
0.0
230
1.0
 40
0.7109757664
 41
4.712388980384675
 42
6.283185307179586
  0
ELLIPSE
  5
261
330
1F
100
AcDbEntity
  8
0
  6
Continuous
 62
     7
370
    25
100
AcDbEllipse
 10
-14.1886767229
 20
-521.6971428571
 30
0.0
 11
3.055333763768431E-13
 21
8.0
 31
0.0
210
0.0
220
0.0
230
1.0
 40
0.7109757664
 41
3.335545681392408
 42
4.712388980384727
  0
LINE
  5
262
330
1F
100
AcDbEntity
  8
0
  6
Continuous
 62
     7
370
    25
100
AcDbLine
 10
-8.5008774493
 20
-521.6970646558
 30
0.0
 11
-8.5008774493
 21
-497.6971352277
 31
0.0
  0
ELLIPSE
  5
263
330
1F
100
AcDbEntity
  8
0
  6
Continuous
 62
     7
370
    25
100
AcDbEllipse
 10
-14.1886767229
 20
-497.6971428571
 30
0.0
 11
3.055333763768431E-13
 21
8.0
 31
0.0
210
0.0
220
0.0
230
1.0
 40
0.7109757664
 41
4.712388980384727
 42
6.283185307179586
  0
LINE
  5
264
330
1F
100
AcDbEntity
  8
0
  6
Continuous
 62
     7
370
    25
100
AcDbLine
 10
-14.1886804793
 20
-489.6972382246
 30
0.0
 11
12.7160366084
 21
-489.6972382246
 31
0.0
  0
LINE
  5
265
330
1F
100
AcDbEntity
  8
0
  6
Continuous
 62
     7
370
    25
100
AcDbLine
 10
103.8732271101
 20
-489.6972382246
 30
0.0
 11
111.970648488
 21
-489.6972382246
 31
0.0
  0
LINE
  5
266
330
1F
100
AcDbEntity
  8
0
  6
Continuous
 62
     7
370
    25
100
AcDbLine
 10
203.127842715
 20
-489.6972382246
 30
0.0
 11
211.2252603676
 21
-489.6972382246
 31
0.0
  0
LINE
  5
267
330
1F
100
AcDbEntity
  8
0
  6
Continuous
 62
     7
370
    25
100
AcDbLine
 10
302.3824508693
 20
-489.6972382246
 30
0.0
 11
310.4798759725
 21
-489.6972382246
 31
0.0
  0
ELLIPSE
  5
268
330
1F
100
AcDbEntity
  8
0
  6
Continuous
 62
     7
370
    25
100
AcDbEllipse
 10
-14.1886767229
 20
842.3028571429
 30
0.0
 11
-8.171241461241152E-14
 21
8.0
 31
0.0
210
0.0
220
0.0
230
1.0
 40
0.7109757664
 41
4.712388980384692
 42
6.089232279382072
  0
LINE
  5
269
330
1F
100
AcDbEntity
  8
0
  6
Continuous
 62
     7
370
    25
100
AcDbLine
 10
-8.5008774493
 20
818.3028495135
 30
0.0
 11
-8.5008774493
 21
842.3028385462
 31
0.0
  0
LINE
  5
26A
330
1F
100
AcDbEntity
  8
0
  6
Continuous
 62
     7
370
    25
100
AcDbLine
 10
310.4798759725
 20
810.302833301
 30
0.0
 11
302.3824508693
 21
810.302833301
 31
0.0
  0
LINE
  5
26B
330
1F
100
AcDbEntity
  8
0
  6
Continuous
 62
     7
370
    25
100
AcDbLine
 10
211.2252603676
 20
810.302833301
 30
0.0
 11
203.127842715
 21
810.302833301
 31
0.0
  0
LINE
  5
26C
330
1F
100
AcDbEntity
  8
0
  6
Continuous
 62
     7
370
    25
100
AcDbLine
 10
111.970648488
 20
810.302833301
 30
0.0
 11
103.8732271101
 21
810.302833301
 31
0.0
  0
LINE
  5
26D
330
1F
100
AcDbEntity
  8
0
  6
Continuous
 62
     7
370
    25
100
AcDbLine
 10
12.7160366084
 20
810.302833301
 30
0.0
 11
-14.1886804793
 21
810.302833301
 31
0.0
  0
ELLIPSE
  5
26E
330
1F
100
AcDbEntity
  8
0
  6
Continuous
 62
     7
370
    25
100
AcDbEllipse
 10
-14.1886767229
 20
818.3028571429
 30
0.0
 11
-8.348877145181177E-14
 21
8.0
 31
0.0
210
0.0
220
0.0
230
1.0
 40
0.7109757664
 41
3.141592653589852
 42
4.712388980384692
  0
ELLIPSE
  5
26F
330
1F
100
AcDbEntity
  8
0
  6
Continuous
 62
     7
370
    25
100
AcDbEllipse
 10
-163.4243364783
 20
842.3028571429
 30
0.0
 11
6.430854884937901
 21
-6.430854884937503
 31
0.0
210
0.0
220
0.0
230
1.0
 40
0.739961075
 41
2.504547476611844
 42
3.778637830567703
  0
LINE
  5
270
330
1F
100
AcDbEntity
  8
0
  6
Continuous
 62
     7
370
    25
100
AcDbLine
 10
-142.8119872306
 20
850.3028547587
 30
0.0
 11
-165.7633219454
 21
850.3028547587
 31
0.0
  0
ELLIPSE
  5
271
330
1F
100
AcDbEntity
  8
0
  6
Continuous
 62
     7
370
    25
100
AcDbEllipse
 10
-140.4730223352
 20
842.3028571429
 30
0.0
 11
6.430854884937872
 21
-6.430854884937503
 31
0.0
210
0.0
220
0.0
230
1.0
 40
0.739961075
 41
1.481775389940341
 42
2.504547476611842
  0
LINE
  5
272
330
1F
100
AcDbEntity
  8
0
  6
Continuous
 62
     7
370
    25
100
AcDbLine
 10
-135.1615522597
 20
850.3028547587
 30
0.0
 11
-142.8119872306
 21
850.3028547587
 31
0.0
  0
ELLIPSE
  5
273
330
1F
100
AcDbEntity
  8
0
  6
Continuous
 62
     7
370
    25
100
AcDbEllipse
 10
-14.1886767229
 20
842.3028571429
 30
0.0
 11
-1.936228954946273E-13
 21
8.0
 31
0.0
210
0.0
220
0.0
230
1.0
 40
0.7109757664
 41
4.712388980384654
 42
6.089232279378745
  0
ELLIPSE
  5
274
330
1F
100
AcDbEntity
  8
0
  6
Continuous
 62
     7
370
    25
100
AcDbEllipse
 10
-14.1886767229
 20
818.3028571429
 30
0.0
 11
-1.936228954946273E-13
 21
8.0
 31
0.0
210
0.0
220
0.0
230
1.0
 40
0.7109757664
 41
3.141592653589764
 42
4.712388980384654
  0
LINE
  5
275
330
1F
100
AcDbEntity
  8
0
  6
Continuous
 62
     7
370
    25
100
AcDbLine
 10
-14.1886804793
 20
810.302833301
 30
0.0
 11
-36.0291932318
 21
810.302833301
 31
0.0
  0
ELLIPSE
  5
276
330
1F
100
AcDbEntity
  8
0
  6
Continuous
 62
     7
370
    25
100
AcDbEllipse
 10
-140.4730223352
 20
-521.6971428571
 30
0.0
 11
6.43085488493793
 21
6.430854884937504
 31
0.0
210
0.0
220
0.0
230
1.0
 40
0.739961075
 41
3.778637830567761
 42
4.801409917239476
  0
LINE
  5
277
330
1F
100
AcDbEntity
  8
0
  6
Continuous
 62
     7
370
    25
100
AcDbLine
 10
-165.7633219454
 20
-529.6972000776
 30
0.0
 11
-142.8119872306
 21
-529.6972000776
 31
0.0
  0
ELLIPSE
  5
278
330
1F
100
AcDbEntity
  8
0
  6
Continuous
 62
     7
370
    25
100
AcDbEllipse
 10
-163.4243364783
 20
-521.6971428571
 30
0.0
 11
6.430854884937958
 21
6.430854884937389
 31
0.0
210
0.0
220
0.0
230
1.0
 40
0.739961075
 41
2.50454747661191
 42
3.778637830567766
  0
ELLIPSE
  5
279
330
1F
100
AcDbEntity
  8
0
  6
Continuous
 62
     7
370
    25
100
AcDbEllipse
 10
-14.1886767229
 20
-521.6971428571
 30
0.0
 11
3.055333763768431E-13
 21
8.0
 31
0.0
210
0.0
220
0.0
230
1.0
 40
0.7109757664
 41
3.335545681392403
 42
4.712388980384727
  0
LINE
  5
27A
330
1F
100
AcDbEntity
  8
0
  6
Continuous
 62
     7
370
    25
100
AcDbLine
 10
-142.8119872306
 20
-529.6972000776
 30
0.0
 11
-135.1615522597
 21
-529.6972000776
 31
0.0
  0
LINE
  5
27B
330
1F
100
AcDbEntity
  8
0
  6
Continuous
 62
     7
370
    25
100
AcDbLine
 10
-36.0291932318
 20
-489.6972382246
 30
0.0
 11
-14.1886804793
 21
-489.6972382246
 31
0.0
  0
ELLIPSE
  5
27C
330
1F
100
AcDbEntity
  8
0
  6
Continuous
 62
     7
370
    25
100
AcDbEllipse
 10
-14.1886767229
 20
-497.6971428571
 30
0.0
 11
3.055333763768431E-13
 21
8.0
 31
0.0
210
0.0
220
0.0
230
1.0
 40
0.7109757664
 41
4.712388980384727
 42
6.283185307179586
  0
LINE
  5
27D
330
1F
100
AcDbEntity
  8
0
  6
Continuous
 62
     7
370
    25
100
AcDbLine
 10
-142.8119872306
 20
850.3028547587
 30
0.0
 11
-142.8119872306
 21
-529.6972000776
 31
0.0
  0
ELLIPSE
  5
27E
330
1F
100
AcDbEntity
  8
0
  6
Continuous
 62
     7
370
    25
100
AcDbEllipse
 10
-140.4730223352
 20
-521.6971428571
 30
0.0
 11
6.430854884937928
 21
6.430854884937389
 31
0.0
210
0.0
220
0.0
230
1.0
 40
0.739961075
 41
3.778637830567796
 42
4.801409917239484
  0
ELLIPSE
  5
27F
330
1F
100
AcDbEntity
  8
0
  6
Continuous
 62
     7
370
    25
100
AcDbEllipse
 10
-140.4730223352
 20
842.3028571429
 30
0.0
 11
6.430854884937759
 21
-6.43085488493773
 31
0.0
210
0.0
220
0.0
230
1.0
 40
0.739961075
 41
1.48177538994014
 42
2.504547476611857
  0
LINE
  5
280
330
1F
100
AcDbEntity
  8
0
  6
Continuous
 62
     7
370
    25
100
AcDbLine
 10
-165.7633219454
 20
850.3028547587
 30
0.0
 11
-165.7633219454
 21
-529.6972000776
 31
0.0
  0
ELLIPSE
  5
281
330
1F
100
AcDbEntity
  8
0
  6
Continuous
 62
     7
370
    25
100
AcDbEllipse
 10
-163.4243364783
 20
-521.6971428571
 30
0.0
 11
6.430854884937928
 21
6.430854884937389
 31
0.0
210
0.0
220
0.0
230
1.0
 40
0.739961075
 41
2.504547476611908
 42
3.778637830567771
  0
ELLIPSE
  5
282
330
1F
100
AcDbEntity
  8
0
  6
Continuous
 62
     7
370
    25
100
AcDbEllipse
 10
-163.4243364783
 20
842.3028571429
 30
0.0
 11
6.430854884937788
 21
-6.43085488493773
 31
0.0
210
0.0
220
0.0
230
1.0
 40
0.739961075
 41
2.504547476611855
 42
3.778637830567736
  0
LINE
  5
283
330
1F
100
AcDbEntity
  8
0
  6
Continuous
 62
     7
370
    25
100
AcDbLine
 10
-94.5035402272
 20
850.3028547587
 30
0.0
 11
-120.8169792388
 21
850.3028547587
 31
0.0
  0
LINE
  5
284
330
1F
100
AcDbEntity
  8
0
  6
Continuous
 62
     7
370
    25
100
AcDbLine
 10
-94.5035402272
 20
-529.6972000776
 30
0.0
 11
-94.5035402272
 21
850.3028547587
 31
0.0
  0
LINE
  5
285
330
1F
100
AcDbEntity
  8
0
  6
Continuous
 62
     7
370
    25
100
AcDbLine
 10
-120.8169792388
 20
-529.6972000776
 30
0.0
 11
-94.5035402272
 21
-529.6972000776
 31
0.0
  0
LINE
  5
286
330
1F
100
AcDbEntity
  8
0
  6
Continuous
 62
     7
370
    25
100
AcDbLine
 10
-120.8169792388
 20
850.3028547587
 30
0.0
 11
-120.8169792388
 21
-529.6972000776
 31
0.0
  0
LWPOLYLINE
  5
287
330
1F
100
AcDbEntity
  8
0
  6
Continuous
 62
     7
370
    25
100
AcDbPolyline
 90
       28
 70
   128
 43
0.0
 10
-109.6644733641
 20
830.3028738322
 10
-109.6104417536
 20
828.7219798388
 10
-109.4512973521
 20
827.2263204874
 10
-109.1955636237
 20
825.8965408625
 10
-108.8570986483
 20
824.804285747
 10
-108.4540818427
 20
824.0085041346
 10
-108.0082987044
 20
823.5519921603
 10
-107.543740103
 20
823.4594261469
 10
-107.0854399893
 20
823.7358128847
 10
-106.6581640933
 20
824.3662512125
 10
-106.2848900054
 20
825.3167068781
 10
-105.9857640956
 20
826.5359794916
 10
-105.7769243214
 20
827.9583251299
 10
-105.6696061585
 20
829.5070326151
 10
-105.6696061585
 20
831.0986554446
 10
-105.7769243214
 20
832.6474225344
 10
-105.9857640956
 20
834.0697681727
 10
-106.2848900054
 20
835.2889811816
 10
-106.6581640933
 20
836.2394368471
 10
-107.0854399893
 20
836.8698751749
 10
-107.543740103
 20
837.1462619128
 10
-108.0082987044
 20
837.0536958994
 10
-108.4540818427
 20
836.5972435297
 10
-108.8570986483
 20
835.8014023127
 10
-109.1955636237
 20
834.7091471972
 10
-109.4512973521
 20
833.3793675722
 10
-109.6104417536
 20
831.8837082209
 10
-109.6644733641
 20
830.3028738322
  0
LWPOLYLINE
  5
288
330
1F
100
AcDbEntity
  8
0
  6
Continuous
 62
     7
370
    25
100
AcDbPolyline
 90
       28
 70
   128
 43
0.0
 10
-109.6644733641
 20
160.3028571429
 10
-109.6104417536
 20
158.7220227541
 10
-109.4512973521
 20
157.2263037981
 10
-109.1955636237
 20
155.8965241732
 10
-108.8570986483
 20
154.8043286623
 10
-108.4540818427
 20
154.0084874453
 10
-108.0082987044
 20
153.5520350756
 10
-107.543740103
 20
153.4594094576
 10
-107.0854399893
 20
153.7358558001
 10
-106.6581640933
 20
154.3662345232
 10
-106.2848900054
 20
155.3166901888
 10
-105.9857640956
 20
156.5359628023
 10
-105.7769243214
 20
157.9583680453
 10
-105.6696061585
 20
159.5070159258
 10
-105.6696061585
 20
161.0986983599
 10
-105.7769243214
 20
162.6473462405
 10
-105.9857640956
 20
164.0697514834
 10
-106.2848900054
 20
165.2890240969
 10
-106.6581640933
 20
166.2394797625
 10
-107.0854399893
 20
166.8698584856
 10
-107.543740103
 20
167.1463048281
 10
-108.0082987044
 20
167.0536792101
 10
-108.4540818427
 20
166.5972268404
 10
-108.8570986483
 20
165.8013856234
 10
-109.1955636237
 20
164.7091901125
 10
-109.4512973521
 20
163.3794104876
 10
-109.6104417536
 20
161.8836915316
 10
-109.6644733641
 20
160.3028571429
  0
LWPOLYLINE
  5
289
330
1F
100
AcDbEntity
  8
0
  6
Continuous
 62
     7
370
    25
100
AcDbPolyline
 90
       28
 70
   128
 43
0.0
 10
-109.6644733641
 20
-509.6972191511
 10
-109.6104417536
 20
-511.2779343305
 10
-109.4512973521
 20
-512.7737724958
 10
-109.1955636237
 20
-514.1034329115
 10
-108.8570986483
 20
-515.1956284223
 10
-108.4540818427
 20
-515.9914696394
 10
-108.0082987044
 20
-516.4480412183
 10
-107.543740103
 20
-516.540547627
 10
-107.0854399893
 20
-516.2642204939
 10
-106.6581640933
 20
-515.6338417707
 10
-106.2848900054
 20
-514.6832668958
 10
-105.9857640956
 20
-513.4639942823
 10
-105.7769243214
 20
-512.0415890394
 10
-105.6696061585
 20
-510.4930603681
 10
-105.6696061585
 20
-508.901377934
 10
-105.7769243214
 20
-507.3526108442
 10
-105.9857640956
 20
-505.9302056013
 10
-106.2848900054
 20
-504.7109329878
 10
-106.6581640933
 20
-503.7605965315
 10
-107.0854399893
 20
-503.1302178083
 10
-107.543740103
 20
-502.8536522566
 10
-108.0082987044
 20
-502.9463970838
 10
-108.4540818427
 20
-503.4027302442
 10
-108.8570986483
 20
-504.1985714613
 10
-109.1955636237
 20
-505.2907669721
 10
-109.4512973521
 20
-506.6206658064
 10
-109.6104417536
 20
-508.1162655531
 10
-109.6644733641
 20
-509.6972191511
  0
LINE
  5
28A
330
1F
100
AcDbEntity
  8
0
  6
Continuous
 62
     7
370
    25
100
AcDbLine
 10
-120.8169792388
 20
850.3028547587
 30
0.0
 11
-135.1615522597
 21
850.3028547587
 31
0.0
  0
LINE
  5
28B
330
1F
100
AcDbEntity
  8
0
  6
Continuous
 62
     7
370
    25
100
AcDbLine
 10
-120.8169792388
 20
-529.6972000776
 30
0.0
 11
-135.1615522597
 21
-529.6972000776
 31
0.0
  0
LINE
  5
28C
330
1F
100
AcDbEntity
  8
0
  6
Continuous
 62
     7
370
    25
100
AcDbLine
 10
-135.1615522597
 20
850.3028547587
 30
0.0
 11
-135.1615522597
 21
-529.6972000776
 31
0.0
  0
LINE
  5
28D
330
1F
100
AcDbEntity
  8
0
  6
Continuous
 62
     7
370
    25
100
AcDbLine
 10
-91.5798131917
 20
850.3028547587
 30
0.0
 11
-91.5798131917
 21
-529.6972000776
 31
0.0
  0
LINE
  5
28E
330
1F
100
AcDbEntity
  8
0
  6
Continuous
 62
     7
370
    25
100
AcDbLine
 10
-91.5798131917
 20
-529.6972000776
 30
0.0
 11
-94.5035402272
 21
-529.6972000776
 31
0.0
  0
LINE
  5
28F
330
1F
100
AcDbEntity
  8
0
  6
Continuous
 62
     7
370
    25
100
AcDbLine
 10
-91.5798131917
 20
850.3028547587
 30
0.0
 11
-94.5035402272
 21
850.3028547587
 31
0.0
  0
LINE
  5
290
330
1F
100
AcDbEntity
  8
0
  6
Continuous
 62
     7
370
    25
100
AcDbLine
 10
-65.2663592789
 20
-529.6972000776
 30
0.0
 11
-65.2663592789
 21
850.3028547587
 31
0.0
  0
LINE
  5
291
330
1F
100
AcDbEntity
  8
0
  6
Continuous
 62
     7
370
    25
100
AcDbLine
 10
-91.5798131917
 20
-529.6972000776
 30
0.0
 11
-65.2663592789
 21
-529.6972000776
 31
0.0
  0
LWPOLYLINE
  5
292
330
1F
100
AcDbEntity
  8
0
  6
Continuous
 62
     7
370
    25
100
AcDbPolyline
 90
       28
 70
   128
 43
0.0
 10
-80.4272924159
 20
830.3028738322
 10
-80.3732757065
 20
828.7219798388
 10
-80.2141164038
 20
827.2263204874
 10
-79.9583975766
 20
825.8965408625
 10
-79.6199177001
 20
824.804285747
 10
-79.2169157956
 20
824.0085041346
 10
-78.7711177561
 20
823.5519921603
 10
-78.3065591548
 20
823.4594261469
 10
-77.8482739422
 20
823.7358128847
 10
-77.420983145
 20
824.3662512125
 10
-77.0477239583
 20
825.3167068781
 10
-76.7485980485
 20
826.5359794916
 10
-76.5397433732
 20
827.9583251299
 10
-76.4324401114
 20
829.5070326151
 10
-76.4324401114
 20
831.0986554446
 10
-76.5397433732
 20
832.6474225344
 10
-76.7485980485
 20
834.0697681727
 10
-77.0477239583
 20
835.2889811816
 10
-77.420983145
 20
836.2394368471
 10
-77.8482739422
 20
836.8698751749
 10
-78.3065591548
 20
837.1462619128
 10
-78.7711177561
 20
837.0536958994
 10
-79.2169157956
 20
836.5972435297
 10
-79.6199177001
 20
835.8014023127
 10
-79.9583975766
 20
834.7091471972
 10
-80.2141164038
 20
833.3793675722
 10
-80.3732757065
 20
831.8837082209
 10
-80.4272924159
 20
830.3028738322
  0
LWPOLYLINE
  5
293
330
1F
100
AcDbEntity
  8
0
  6
Continuous
 62
     7
370
    25
100
AcDbPolyline
 90
       28
 70
   128
 43
0.0
 10
-80.4272924159
 20
160.3028571429
 10
-80.3732757065
 20
158.7220227541
 10
-80.2141164038
 20
157.2263037981
 10
-79.9583975766
 20
155.8965241732
 10
-79.6199177001
 20
154.8043286623
 10
-79.2169157956
 20
154.0084874453
 10
-78.7711177561
 20
153.5520350756
 10
-78.3065591548
 20
153.4594094576
 10
-77.8482739422
 20
153.7358558001
 10
-77.420983145
 20
154.3662345232
 10
-77.0477239583
 20
155.3166901888
 10
-76.7485980485
 20
156.5359628023
 10
-76.5397433732
 20
157.9583680453
 10
-76.4324401114
 20
159.5070159258
 10
-76.4324401114
 20
161.0986983599
 10
-76.5397433732
 20
162.6473462405
 10
-76.7485980485
 20
164.0697514834
 10
-77.0477239583
 20
165.2890240969
 10
-77.420983145
 20
166.2394797625
 10
-77.8482739422
 20
166.8698584856
 10
-78.3065591548
 20
167.1463048281
 10
-78.7711177561
 20
167.0536792101
 10
-79.2169157956
 20
166.5972268404
 10
-79.6199177001
 20
165.8013856234
 10
-79.9583975766
 20
164.7091901125
 10
-80.2141164038
 20
163.3794104876
 10
-80.3732757065
 20
161.8836915316
 10
-80.4272924159
 20
160.3028571429
  0
LWPOLYLINE
  5
294
330
1F
100
AcDbEntity
  8
0
  6
Continuous
 62
     7
370
    25
100
AcDbPolyline
 90
       28
 70
   128
 43
0.0
 10
-80.4272924159
 20
-509.6972191511
 10
-80.3732757065
 20
-511.2779343305
 10
-80.2141164038
 20
-512.7737724958
 10
-79.9583975766
 20
-514.1034329115
 10
-79.6199177001
 20
-515.1956284223
 10
-79.2169157956
 20
-515.9914696394
 10
-78.7711177561
 20
-516.4480412183
 10
-78.3065591548
 20
-516.540547627
 10
-77.8482739422
 20
-516.2642204939
 10
-77.420983145
 20
-515.6338417707
 10
-77.0477239583
 20
-514.6832668958
 10
-76.7485980485
 20
-513.4639942823
 10
-76.5397433732
 20
-512.0415890394
 10
-76.4324401114
 20
-510.4930603681
 10
-76.4324401114
 20
-508.901377934
 10
-76.5397433732
 20
-507.3526108442
 10
-76.7485980485
 20
-505.9302056013
 10
-77.0477239583
 20
-504.7109329878
 10
-77.420983145
 20
-503.7605965315
 10
-77.8482739422
 20
-503.1302178083
 10
-78.3065591548
 20
-502.8536522566
 10
-78.7711177561
 20
-502.9463970838
 10
-79.2169157956
 20
-503.4027302442
 10
-79.6199177001
 20
-504.1985714613
 10
-79.9583975766
 20
-505.2907669721
 10
-80.2141164038
 20
-506.6206658064
 10
-80.3732757065
 20
-508.1162655531
 10
-80.4272924159
 20
-509.6972191511
  0
LINE
  5
295
330
1F
100
AcDbEntity
  8
0
  6
Continuous
 62
     7
370
    25
100
AcDbLine
 10
-65.2663592789
 20
850.3028547587
 30
0.0
 11
-91.5798131917
 21
850.3028547587
 31
0.0
  0
LINE
  5
296
330
1F
100
AcDbEntity
  8
0
  6
Continuous
 62
     7
370
    25
100
AcDbLine
 10
-36.0291932318
 20
-529.5472347913
 30
0.0
 11
-36.0291932318
 21
850.1528298678
 31
0.0
  0
LINE
  5
297
330
1F
100
AcDbEntity
  8
0
  6
Continuous
 62
     7
370
    25
100
AcDbLine
 10
-62.3426471446
 20
-529.6972000776
 30
0.0
 11
-45.3717593644
 21
-529.6972000776
 31
0.0
  0
LINE
  5
298
330
1F
100
AcDbEntity
  8
0
  6
Continuous
 62
     7
370
    25
100
AcDbLine
 10
-62.3426471446
 20
850.3028547587
 30
0.0
 11
-62.3426471446
 21
-529.6972000776
 31
0.0
  0
LWPOLYLINE
  5
299
330
1F
100
AcDbEntity
  8
0
  6
Continuous
 62
     7
370
    25
100
AcDbPolyline
 90
       28
 70
   128
 43
0.0
 10
-51.1901263688
 20
830.3028738322
 10
-51.1361096594
 20
828.7219798388
 10
-50.9769503567
 20
827.2263204874
 10
-50.7212315295
 20
825.8965408625
 10
-50.382751653
 20
824.804285747
 10
-49.9797497485
 20
824.0085041346
 10
-49.533951709
 20
823.5519921603
 10
-49.0693782065
 20
823.4594261469
 10
-48.6111078952
 20
823.7358128847
 10
-48.1838170979
 20
824.3662512125
 10
-47.81054301
 20
825.3167068781
 10
-47.5114320014
 20
826.5359794916
 10
-47.3025773261
 20
827.9583251299
 10
-47.1952591632
 20
829.5070326151
 10
-47.1952591632
 20
831.0986554446
 10
-47.3025773261
 20
832.6474225344
 10
-47.5114320014
 20
834.0697681727
 10
-47.81054301
 20
835.2889811816
 10
-48.1838170979
 20
836.2394368471
 10
-48.6111078952
 20
836.8698751749
 10
-49.0693782065
 20
837.1462619128
 10
-49.533951709
 20
837.0536958994
 10
-49.9797497485
 20
836.5972435297
 10
-50.382751653
 20
835.8014023127
 10
-50.7212315295
 20
834.7091471972
 10
-50.9769503567
 20
833.3793675722
 10
-51.1361096594
 20
831.8837082209
 10
-51.1901263688
 20
830.3028738322
  0
LWPOLYLINE
  5
29A
330
1F
100
AcDbEntity
  8
0
  6
Continuous
 62
     7
370
    25
100
AcDbPolyline
 90
       28
 70
   128
 43
0.0
 10
-51.1901263688
 20
160.3028571429
 10
-51.1361096594
 20
158.7220227541
 10
-50.9769503567
 20
157.2263037981
 10
-50.7212315295
 20
155.8965241732
 10
-50.382751653
 20
154.8043286623
 10
-49.9797497485
 20
154.0084874453
 10
-49.533951709
 20
153.5520350756
 10
-49.0693782065
 20
153.4594094576
 10
-48.6111078952
 20
153.7358558001
 10
-48.1838170979
 20
154.3662345232
 10
-47.81054301
 20
155.3166901888
 10
-47.5114320014
 20
156.5359628023
 10
-47.3025773261
 20
157.9583680453
 10
-47.1952591632
 20
159.5070159258
 10
-47.1952591632
 20
161.0986983599
 10
-47.3025773261
 20
162.6473462405
 10
-47.5114320014
 20
164.0697514834
 10
-47.81054301
 20
165.2890240969
 10
-48.1838170979
 20
166.2394797625
 10
-48.6111078952
 20
166.8698584856
 10
-49.0693782065
 20
167.1463048281
 10
-49.533951709
 20
167.0536792101
 10
-49.9797497485
 20
166.5972268404
 10
-50.382751653
 20
165.8013856234
 10
-50.7212315295
 20
164.7091901125
 10
-50.9769503567
 20
163.3794104876
 10
-51.1361096594
 20
161.8836915316
 10
-51.1901263688
 20
160.3028571429
  0
LWPOLYLINE
  5
29B
330
1F
100
AcDbEntity
  8
0
  6
Continuous
 62
     7
370
    25
100
AcDbPolyline
 90
       28
 70
   128
 43
0.0
 10
-51.1901263688
 20
-509.6972191511
 10
-51.1361096594
 20
-511.2779343305
 10
-50.9769503567
 20
-512.7737724958
 10
-50.7212315295
 20
-514.1034329115
 10
-50.382751653
 20
-515.1956284223
 10
-49.9797497485
 20
-515.9914696394
 10
-49.533951709
 20
-516.4480412183
 10
-49.0693782065
 20
-516.540547627
 10
-48.6111078952
 20
-516.2642204939
 10
-48.1838170979
 20
-515.6338417707
 10
-47.81054301
 20
-514.6832668958
 10
-47.5114320014
 20
-513.4639942823
 10
-47.3025773261
 20
-512.0415890394
 10
-47.1952591632
 20
-510.4930603681
 10
-47.1952591632
 20
-508.901377934
 10
-47.3025773261
 20
-507.3526108442
 10
-47.5114320014
 20
-505.9302056013
 10
-47.81054301
 20
-504.7109329878
 10
-48.1838170979
 20
-503.7605965315
 10
-48.6111078952
 20
-503.1302178083
 10
-49.0693782065
 20
-502.8536522566
 10
-49.533951709
 20
-502.9463970838
 10
-49.9797497485
 20
-503.4027302442
 10
-50.382751653
 20
-504.1985714613
 10
-50.7212315295
 20
-505.2907669721
 10
-50.9769503567
 20
-506.6206658064
 10
-51.1361096594
 20
-508.1162655531
 10
-51.1901263688
 20
-509.6972191511
  0
LINE
  5
29C
330
1F
100
AcDbEntity
  8
0
  6
Continuous
 62
     7
370
    25
100
AcDbLine
 10
-45.3717593644
 20
850.3028547587
 30
0.0
 11
-62.3426471446
 21
850.3028547587
 31
0.0
  0
LINE
  5
29D
330
1F
100
AcDbEntity
  8
0
  6
Continuous
 62
     7
370
    25
100
AcDbLine
 10
-62.3426471446
 20
-529.6972000776
 30
0.0
 11
-65.2663592789
 21
-529.6972000776
 31
0.0
  0
LINE
  5
29E
330
1F
100
AcDbEntity
  8
0
  6
Continuous
 62
     7
370
    25
100
AcDbLine
 10
-62.3426471446
 20
850.3028547587
 30
0.0
 11
-65.2663592789
 21
850.3028547587
 31
0.0
  0
LINE
  5
29F
330
1F
100
AcDbEntity
  8
0
  6
Continuous
 62
     7
370
    25
100
AcDbLine
 10
359.0935136583
 20
-529.6972000776
 30
0.0
 11
399.8090292718
 21
-529.6972000776
 31
0.0
  0
LINE
  5
2A0
330
1F
100
AcDbEntity
  8
0
  6
Continuous
 62
     7
370
    25
100
AcDbLine
 10
310.4798759725
 20
850.1528298678
 30
0.0
 11
310.4798759725
 21
-529.5472347913
 31
0.0
  0
LINE
  5
2A1
330
1F
100
AcDbEntity
  8
0
  6
Continuous
 62
     7
370
    25
100
AcDbLine
 10
399.8090292718
 20
850.3028547587
 30
0.0
 11
359.0935136583
 21
850.3028547587
 31
0.0
  0
LINE
  5
2A2
330
1F
100
AcDbEntity
  8
0
  6
Continuous
 62
     7
370
    25
100
AcDbLine
 10
399.8090292718
 20
-529.6972000776
 30
0.0
 11
399.8090292718
 21
850.3028547587
 31
0.0
  0
CIRCLE
  5
2A3
330
1F
100
AcDbEntity
  8
0
  6
Continuous
 62
     7
370
    25
100
AcDbCircle
 10
355.1800534284
 20
830.3104323538
 30
0.0
 40
6.839504986202845
  0
CIRCLE
  5
2A4
330
1F
100
AcDbEntity
  8
0
  6
Continuous
 62
     7
370
    25
100
AcDbCircle
 10
355.1800545849
 20
160.3104155303
 30
0.0
 40
6.839506142620008
  0
CIRCLE
  5
2A5
330
1F
100
AcDbEntity
  8
0
  6
Continuous
 62
     7
370
    25
100
AcDbCircle
 10
355.1799968693
 20
-509.6895354333
 30
0.0
 40
6.839448566637151
  0
LINE
  5
2A6
330
1F
100
AcDbEntity
  8
0
  6
Continuous
 62
     7
370
    25
100
AcDbLine
 10
399.8090292718
 20
-529.6972000776
 30
0.0
 11
401.6370739248
 21
-529.6972000776
 31
0.0
  0
LINE
  5
2A7
330
1F
100
AcDbEntity
  8
0
  6
Continuous
 62
     7
370
    25
100
AcDbLine
 10
401.6370739248
 20
-529.6972000776
 30
0.0
 11
401.6370739248
 21
850.3028547587
 31
0.0
  0
LINE
  5
2A8
330
1F
100
AcDbEntity
  8
0
  6
Continuous
 62
     7
370
    25
100
AcDbLine
 10
399.8090292718
 20
850.3028547587
 30
0.0
 11
401.6370739248
 21
850.3028547587
 31
0.0
  0
LINE
  5
2A9
330
1F
100
AcDbEntity
  8
0
  6
Continuous
 62
     7
370
    25
100
AcDbLine
 10
300.5544211175
 20
-529.5472347913
 30
0.0
 11
300.5544211175
 21
850.1528298678
 31
0.0
  0
LINE
  5
2AA
330
1F
100
AcDbEntity
  8
0
  6
Continuous
 62
     7
370
    25
100
AcDbLine
 10
302.3824508693
 20
-529.5472347913
 30
0.0
 11
302.3824508693
 21
850.1528298678
 31
0.0
  0
LINE
  5
2AB
330
1F
100
AcDbEntity
  8
0
  6
Continuous
 62
     7
370
    25
100
AcDbLine
 10
211.2252603676
 20
850.1528298678
 30
0.0
 11
211.2252603676
 21
-529.5472347913
 31
0.0
  0
CIRCLE
  5
2AC
330
1F
100
AcDbEntity
  8
0
  6
Continuous
 62
     7
370
    25
100
AcDbCircle
 10
255.925431665
 20
830.3104644389
 30
0.0
 40
6.839498863236661
  0
CIRCLE
  5
2AD
330
1F
100
AcDbEntity
  8
0
  6
Continuous
 62
     7
370
    25
100
AcDbCircle
 10
255.9254328215
 20
160.3104476154
 30
0.0
 40
6.839500019606477
  0
CIRCLE
  5
2AE
330
1F
100
AcDbEntity
  8
0
  6
Continuous
 62
     7
370
    25
100
AcDbCircle
 10
255.9253751068
 20
-509.689503351
 30
0.0
 40
6.839442445150784
  0
LINE
  5
2AF
330
1F
100
AcDbEntity
  8
0
  6
Continuous
 62
     7
370
    25
100
AcDbLine
 10
201.2998017874
 20
-529.5472347913
 30
0.0
 11
201.2998017874
 21
850.1528298678
 31
0.0
  0
LINE
  5
2B0
330
1F
100
AcDbEntity
  8
0
  6
Continuous
 62
     7
370
    25
100
AcDbLine
 10
203.127842715
 20
-529.5472347913
 30
0.0
 11
203.127842715
 21
850.1528298678
 31
0.0
  0
LINE
  5
2B1
330
1F
100
AcDbEntity
  8
0
  6
Continuous
 62
     7
370
    25
100
AcDbLine
 10
111.970648488
 20
850.1528298678
 30
0.0
 11
111.970648488
 21
-529.5472347913
 31
0.0
  0
CIRCLE
  5
2B2
330
1F
100
AcDbEntity
  8
0
  6
Continuous
 62
     7
370
    25
100
AcDbCircle
 10
156.6708193057
 20
830.310448377
 30
0.0
 40
6.839502090998332
  0
CIRCLE
  5
2B3
330
1F
100
AcDbEntity
  8
0
  6
Continuous
 62
     7
370
    25
100
AcDbCircle
 10
156.6708204622
 20
160.3104315536
 30
0.0
 40
6.839503247391794
  0
CIRCLE
  5
2B4
330
1F
100
AcDbEntity
  8
0
  6
Continuous
 62
     7
370
    25
100
AcDbCircle
 10
156.670762747
 20
-509.6895194114
 30
0.0
 40
6.839445672195695
  0
LINE
  5
2B5
330
1F
100
AcDbEntity
  8
0
  6
Continuous
 62
     7
370
    25
100
AcDbLine
 10
12.7160366084
 20
850.1528298678
 30
0.0
 11
12.7160366084
 21
-529.5472347913
 31
0.0
  0
LINE
  5
2B6
330
1F
100
AcDbEntity
  8
0
  6
Continuous
 62
     7
370
    25
100
AcDbLine
 10
102.0451861825
 20
-529.5472347913
 30
0.0
 11
102.0451861825
 21
850.1528298678
 31
0.0
  0
CIRCLE
  5
2B7
330
1F
100
AcDbEntity
  8
0
  6
Continuous
 62
     7
370
    25
100
AcDbCircle
 10
57.41620672
 20
830.3104323414
 30
0.0
 40
6.839505092464575
  0
CIRCLE
  5
2B8
330
1F
100
AcDbEntity
  8
0
  6
Continuous
 62
     7
370
    25
100
AcDbCircle
 10
57.4162078766
 20
160.310415518
 30
0.0
 40
6.839506248881662
  0
CIRCLE
  5
2B9
330
1F
100
AcDbEntity
  8
0
  6
Continuous
 62
     7
370
    25
100
AcDbCircle
 10
57.4161501609
 20
-509.6895354456
 30
0.0
 40
6.83944867289977
  0
LINE
  5
2BA
330
1F
100
AcDbEntity
  8
0
  6
Continuous
 62
     7
370
    25
100
AcDbLine
 10
103.8732271101
 20
-529.5472347913
 30
0.0
 11
103.8732271101
 21
850.1528298678
 31
0.0
  0
LINE
  5
2BB
330
1F
100
AcDbEntity
  8
0
  6
Continuous
 62
     1
370
    25
100
AcDbLine
 10
310.4798759725
 20
148.3028924288
 30
0.0
 11
302.3824508693
 21
148.3028924288
 31
0.0
  0
LINE
  5
2BC
330
1F
100
AcDbEntity
  8
0
  6
Continuous
 62
     1
370
    25
100
AcDbLine
 10
211.2252603676
 20
148.3028924288
 30
0.0
 11
203.127842715
 21
148.3028924288
 31
0.0
  0
LINE
  5
2BD
330
1F
100
AcDbEntity
  8
0
  6
Continuous
 62
     1
370
    25
100
AcDbLine
 10
111.970648488
 20
148.3028924288
 30
0.0
 11
103.8732271101
 21
148.3028924288
 31
0.0
  0
LINE
  5
2BE
330
1F
100
AcDbEntity
  8
0
  6
Continuous
 62
     1
370
    25
100
AcDbLine
 10
12.7160366084
 20
148.3028924288
 30
0.0
 11
-8.5008774493
 21
148.3028924288
 31
0.0
  0
LINE
  5
2BF
330
1F
100
AcDbEntity
  8
0
  6
Continuous
 62
     1
370
    25
100
AcDbLine
 10
310.4798759725
 20
172.3028218569
 30
0.0
 11
302.3824508693
 21
172.3028218569
 31
0.0
  0
LINE
  5
2C0
330
1F
100
AcDbEntity
  8
0
  6
Continuous
 62
     1
370
    25
100
AcDbLine
 10
211.2252603676
 20
172.3028218569
 30
0.0
 11
203.127842715
 21
172.3028218569
 31
0.0
  0
LINE
  5
2C1
330
1F
100
AcDbEntity
  8
0
  6
Continuous
 62
     1
370
    25
100
AcDbLine
 10
111.970648488
 20
172.3028218569
 30
0.0
 11
103.8732271101
 21
172.3028218569
 31
0.0
  0
LINE
  5
2C2
330
1F
100
AcDbEntity
  8
0
  6
Continuous
 62
     1
370
    25
100
AcDbLine
 10
12.7160366084
 20
172.3028218569
 30
0.0
 11
-8.5008774493
 21
172.3028218569
 31
0.0
  0
LINE
  5
2C3
330
1F
100
AcDbEntity
  8
0
  6
Continuous
 62
     1
370
    25
100
AcDbLine
 10
-8.5008774493
 20
172.3028218569
 30
0.0
 11
-36.0291932318
 21
172.3028218569
 31
0.0
  0
LINE
  5
2C4
330
1F
100
AcDbEntity
  8
0
  6
Continuous
 62
     1
370
    25
100
AcDbLine
 10
-8.5008774493
 20
148.3028924288
 30
0.0
 11
-36.0291932318
 21
148.3028924288
 31
0.0
  0
LINE
  5
2C5
330
1F
100
AcDbEntity
  8
0
  6
Continuous
 62
     1
370
    25
100
AcDbLine
 10
-8.5008774493
 20
-521.6970646558
 30
0.0
 11
12.7160366084
 21
-521.6970646558
 31
0.0
  0
LINE
  5
2C6
330
1F
100
AcDbEntity
  8
0
  6
Continuous
 62
     1
370
    25
100
AcDbLine
 10
103.8732271101
 20
-521.6970646558
 30
0.0
 11
111.970648488
 21
-521.6970646558
 31
0.0
  0
LINE
  5
2C7
330
1F
100
AcDbEntity
  8
0
  6
Continuous
 62
     1
370
    25
100
AcDbLine
 10
203.127842715
 20
-521.6970646558
 30
0.0
 11
211.2252603676
 21
-521.6970646558
 31
0.0
  0
LINE
  5
2C8
330
1F
100
AcDbEntity
  8
0
  6
Continuous
 62
     1
370
    25
100
AcDbLine
 10
302.3824508693
 20
-521.6970646558
 30
0.0
 11
310.4798759725
 21
-521.6970646558
 31
0.0
  0
LINE
  5
2C9
330
1F
100
AcDbEntity
  8
0
  6
Continuous
 62
     1
370
    25
100
AcDbLine
 10
-8.5008774493
 20
-497.6971352277
 30
0.0
 11
12.7160366084
 21
-497.6971352277
 31
0.0
  0
LINE
  5
2CA
330
1F
100
AcDbEntity
  8
0
  6
Continuous
 62
     1
370
    25
100
AcDbLine
 10
103.8732271101
 20
-497.6971352277
 30
0.0
 11
111.970648488
 21
-497.6971352277
 31
0.0
  0
LINE
  5
2CB
330
1F
100
AcDbEntity
  8
0
  6
Continuous
 62
     1
370
    25
100
AcDbLine
 10
203.127842715
 20
-497.6971352277
 30
0.0
 11
211.2252603676
 21
-497.6971352277
 31
0.0
  0
LINE
  5
2CC
330
1F
100
AcDbEntity
  8
0
  6
Continuous
 62
     1
370
    25
100
AcDbLine
 10
302.3824508693
 20
-497.6971352277
 30
0.0
 11
310.4798759725
 21
-497.6971352277
 31
0.0
  0
LINE
  5
2CD
330
1F
100
AcDbEntity
  8
0
  6
Continuous
 62
     1
370
    25
100
AcDbLine
 10
310.4798759725
 20
842.3028385462
 30
0.0
 11
302.3824508693
 21
842.3028385462
 31
0.0
  0
LINE
  5
2CE
330
1F
100
AcDbEntity
  8
0
  6
Continuous
 62
     1
370
    25
100
AcDbLine
 10
211.2252603676
 20
842.3028385462
 30
0.0
 11
203.127842715
 21
842.3028385462
 31
0.0
  0
LINE
  5
2CF
330
1F
100
AcDbEntity
  8
0
  6
Continuous
 62
     1
370
    25
100
AcDbLine
 10
111.970648488
 20
842.3028385462
 30
0.0
 11
103.8732271101
 21
842.3028385462
 31
0.0
  0
LINE
  5
2D0
330
1F
100
AcDbEntity
  8
0
  6
Continuous
 62
     1
370
    25
100
AcDbLine
 10
12.7160366084
 20
842.3028385462
 30
0.0
 11
-8.5008774493
 21
842.3028385462
 31
0.0
  0
LINE
  5
2D1
330
1F
100
AcDbEntity
  8
0
  6
Continuous
 62
     1
370
    25
100
AcDbLine
 10
310.4798759725
 20
818.3028495135
 30
0.0
 11
302.3824508693
 21
818.3028495135
 31
0.0
  0
LINE
  5
2D2
330
1F
100
AcDbEntity
  8
0
  6
Continuous
 62
     1
370
    25
100
AcDbLine
 10
211.2252603676
 20
818.3028495135
 30
0.0
 11
203.127842715
 21
818.3028495135
 31
0.0
  0
LINE
  5
2D3
330
1F
100
AcDbEntity
  8
0
  6
Continuous
 62
     1
370
    25
100
AcDbLine
 10
111.970648488
 20
818.3028495135
 30
0.0
 11
103.8732271101
 21
818.3028495135
 31
0.0
  0
LINE
  5
2D4
330
1F
100
AcDbEntity
  8
0
  6
Continuous
 62
     1
370
    25
100
AcDbLine
 10
12.7160366084
 20
818.3028495135
 30
0.0
 11
-8.5008774493
 21
818.3028495135
 31
0.0
  0
LINE
  5
2D5
330
1F
100
AcDbEntity
  8
0
  6
Continuous
 62
     1
370
    25
100
AcDbLine
 10
-8.5008774493
 20
842.3028385462
 30
0.0
 11
-36.0291932318
 21
842.3028385462
 31
0.0
  0
LINE
  5
2D6
330
1F
100
AcDbEntity
  8
0
  6
Continuous
 62
     1
370
    25
100
AcDbLine
 10
-8.5008774493
 20
818.3028495135
 30
0.0
 11
-36.0291932318
 21
818.3028495135
 31
0.0
  0
LINE
  5
2D7
330
1F
100
AcDbEntity
  8
0
  6
Continuous
 62
     1
370
    25
100
AcDbLine
 10
-36.0291932318
 20
-521.6970646558
 30
0.0
 11
-8.5008774493
 21
-521.6970646558
 31
0.0
  0
LINE
  5
2D8
330
1F
100
AcDbEntity
  8
0
  6
Continuous
 62
     1
370
    25
100
AcDbLine
 10
-36.0291932318
 20
-497.6971352277
 30
0.0
 11
-8.5008774493
 21
-497.6971352277
 31
0.0
  0
ENDSEC
  0
SECTION
  2
OBJECTS
  0
DICTIONARY
  5
C
330
0
100
AcDbDictionary
281
     1
  3
ACAD_DETAILVIEWSTYLE
350
2E1
  3
ACAD_GROUP
350
D
  3
ACAD_LAYOUT
350
1A
  3
ACAD_MATERIAL
350
43
  3
ACAD_MLEADERSTYLE
350
6B
  3
ACAD_MLINESTYLE
350
17
  3
ACAD_PLOTSETTINGS
350
19
  3
ACAD_PLOTSTYLENAME
350
E
  3
ACAD_SCALELIST
350
47
  3
ACAD_SECTIONVIEWSTYLE
350
2E2
  3
ACAD_TABLESTYLE
350
69
  3
ACAD_VISUALSTYLE
350
2A
  3
ACDB_RECOMPOSE_DATA
350
2DE
  3
AcDbVariableDictionary
350
2D9
  0
SUN
  5
6D
330
29
100
AcDbSun
 90
        1
290
     0
 63
     7
421
 16777215
 40
1.0
291
     1
 91
  2455826
 92
 54000000
292
     0
 70
     2
 71
   256
280
     1
  0
DICTIONARY
  5
2E1
102
{ACAD_REACTORS
330
C
102
}
330
C
100
AcDbDictionary
281
     1
  0
DICTIONARY
  5
D
102
{ACAD_REACTORS
330
C
102
}
330
C
100
AcDbDictionary
281
     1
  0
DICTIONARY
  5
1A
102
{ACAD_REACTORS
330
C
102
}
330
C
100
AcDbDictionary
281
     1
  3
Layout1
350
1E
  3
Layout2
350
26
  3
Model
350
22
  0
DICTIONARY
  5
43
102
{ACAD_REACTORS
330
C
102
}
330
C
100
AcDbDictionary
281
     1
  3
ByBlock
350
45
  3
ByLayer
350
44
  3
Global
350
46
  0
DICTIONARY
  5
6B
102
{ACAD_REACTORS
330
C
102
}
330
C
100
AcDbDictionary
281
     1
  3
Standard
350
6C
  0
DICTIONARY
  5
17
102
{ACAD_REACTORS
330
C
102
}
330
C
100
AcDbDictionary
281
     1
  3
Standard
350
18
  0
DICTIONARY
  5
19
102
{ACAD_REACTORS
330
C
102
}
330
C
100
AcDbDictionary
281
     1
  0
ACDBDICTIONARYWDFLT
  5
E
102
{ACAD_REACTORS
330
C
102
}
330
C
100
AcDbDictionary
281
     1
  3
Normal
350
F
100
AcDbDictionaryWithDefault
340
F
  0
DICTIONARY
  5
47
102
{ACAD_REACTORS
330
C
102
}
330
C
100
AcDbDictionary
281
     1
  3
A0
350
48
  3
A1
350
49
  3
A2
350
4A
  3
A3
350
4B
  3
A4
350
4C
  3
A5
350
4D
  3
A6
350
4E
  3
A7
350
4F
  3
A8
350
50
  3
A9
350
51
  3
B0
350
52
  3
B1
350
53
  3
B2
350
54
  3
B3
350
55
  3
B4
350
56
  3
B5
350
57
  3
B6
350
58
  3
B7
350
59
  3
B8
350
5A
  3
B9
350
5B
  3
C0
350
5C
  3
C1
350
5D
  3
C2
350
5E
  3
C3
350
5F
  3
C4
350
60
  3
C5
350
61
  3
C6
350
62
  3
C7
350
63
  3
C8
350
64
  3
C9
350
65
  3
D0
350
66
  3
D1
350
67
  3
D2
350
68
  0
DICTIONARY
  5
2E2
102
{ACAD_REACTORS
330
C
102
}
330
C
100
AcDbDictionary
281
     1
  0
DICTIONARY
  5
69
102
{ACAD_REACTORS
330
C
102
}
330
C
100
AcDbDictionary
281
     1
  3
Standard
350
6A
  0
DICTIONARY
  5
2A
102
{ACAD_REACTORS
330
C
102
}
330
C
100
AcDbDictionary
281
     1
  3
2dWireframe
350
2F
  3
Basic
350
32
  3
Brighten
350
36
  3
ColorChange
350
3A
  3
Conceptual
350
34
  3
Dim
350
35
  3
EdgeColorOff
350
3D
  3
Facepattern
350
39
  3
Flat
350
2B
  3
FlatWithEdges
350
2C
  3
Gouraud
350
2D
  3
GouraudWithEdges
350
2E
  3
Hidden
350
31
  3
JitterOff
350
3B
  3
Linepattern
350
38
  3
OverhangOff
350
3C
  3
Realistic
350
33
  3
Shaded
350
42
  3
Shaded with edges
350
41
  3
Shades of Gray
350
3E
  3
Sketchy
350
3F
  3
Thicken
350
37
  3
Wireframe
350
30
  3
X-Ray
350
40
  0
XRECORD
  5
2DE
102
{ACAD_REACTORS
330
C
102
}
330
C
100
AcDbXrecord
280
     1
 90
        1
330
6A
  0
DICTIONARY
  5
2D9
102
{ACAD_REACTORS
330
C
102
}
330
C
100
AcDbDictionary
281
     1
  3
CANNOSCALE
350
2DA
  3
CMLEADERSTYLE
350
2E0
  3
CTABLESTYLE
350
2DF
  0
LAYOUT
  5
1E
102
{ACAD_REACTORS
330
1A
102
}
330
1A
100
AcDbPlotSettings
  1

  2
none_device
  4

  6

 40
0.0
 41
0.0
 42
0.0
 43
0.0
 44
0.0
 45
0.0
 46
0.0
 47
0.0
 48
0.0
 49
0.0
140
0.0
141
0.0
142
1.0
143
1.0
 70
   688
 72
     1
 73
     0
 74
     5
  7

 75
    16
 76
     0
 77
     2
 78
   300
147
1.0
148
0.0
149
0.0
100
AcDbLayout
  1
Layout1
 70
     1
 71
     1
 10
0.0
 20
0.0
 11
420.0
 21
297.0
 12
0.0
 22
0.0
 32
0.0
 14
1.0000000000E+20
 24
1.0000000000E+20
 34
1.0000000000E+20
 15
-1.0000000000E+20
 25
-1.0000000000E+20
 35
-1.0000000000E+20
146
0.0
 13
0.0
 23
0.0
 33
0.0
 16
1.0
 26
0.0
 36
0.0
 17
0.0
 27
1.0
 37
0.0
 76
     0
330
1B
  0
LAYOUT
  5
26
102
{ACAD_REACTORS
330
1A
102
}
330
1A
100
AcDbPlotSettings
  1

  2
none_device
  4

  6

 40
0.0
 41
0.0
 42
0.0
 43
0.0
 44
0.0
 45
0.0
 46
0.0
 47
0.0
 48
0.0
 49
0.0
140
0.0
141
0.0
142
1.0
143
1.0
 70
   688
 72
     1
 73
     0
 74
     5
  7

 75
    16
 76
     0
 77
     2
 78
   300
147
1.0
148
0.0
149
0.0
100
AcDbLayout
  1
Layout2
 70
     1
 71
     2
 10
0.0
 20
0.0
 11
0.0
 21
0.0
 12
0.0
 22
0.0
 32
0.0
 14
0.0
 24
0.0
 34
0.0
 15
0.0
 25
0.0
 35
0.0
146
0.0
 13
0.0
 23
0.0
 33
0.0
 16
1.0
 26
0.0
 36
0.0
 17
0.0
 27
1.0
 37
0.0
 76
     0
330
23
  0
LAYOUT
  5
22
102
{ACAD_REACTORS
330
1A
102
}
330
1A
100
AcDbPlotSettings
  1

  2
none_device
  4
Letter_(8.50_x_11.00_Inches)
  6

 40
6.35
 41
6.35
 42
6.35000508
 43
6.35000508
 44
215.9
 45
279.4
 46
0.0
 47
0.0
 48
0.0
 49
0.0
140
0.0
141
0.0
142
1.0
143
1.0
 70
  1712
 72
     1
 73
     0
 74
     0
  7

 75
     0
 76
     0
 77
     2
 78
   300
147
1.0
148
0.0
149
0.0
100
AcDbLayout
  1
Model
 70
     1
 71
     0
 10
0.0
 20
0.0
 11
210.0
 21
297.0
 12
0.0
 22
0.0
 32
0.0
 14
0.0
 24
0.0
 34
0.0
 15
210.0
 25
297.0
 35
0.0
146
0.0
 13
0.0
 23
0.0
 33
0.0
 16
1.0
 26
0.0
 36
0.0
 17
0.0
 27
1.0
 37
0.0
 76
     0
330
1F
331
29
  0
MATERIAL
  5
45
102
{ACAD_REACTORS
330
43
102
}
330
43
100
AcDbMaterial
  1
ByBlock
 72
     1
 94
      127
  0
MATERIAL
  5
44
102
{ACAD_REACTORS
330
43
102
}
330
43
100
AcDbMaterial
  1
ByLayer
 72
     1
 94
      127
  0
MATERIAL
  5
46
102
{ACAD_REACTORS
330
43
102
}
330
43
100
AcDbMaterial
  1
Global
 72
     1
 94
      127
  0
MLEADERSTYLE
  5
6C
102
{ACAD_REACTORS
330
6B
102
}
330
6B
100
AcDbMLeaderStyle
170
     2
171
     1
172
     0
 90
        2
 40
0.0
 41
0.0
173
     1
 91
-1056964608
340
14
 92
       -2
290
     1
 42
2.0
291
     1
 43
8.0
  3
Standard
341
0
 44
4.0
300

342
11
174
     1
178
     6
175
     1
176
     0
 93
-1056964608
 45
4.0
292
     0
297
     0
 46
4.0
343
0
 94
-1056964608
 47
1.0
 49
1.0
140
1.0
293
     1
141
0.0
294
     1
177
     0
142
1.0
295
     0
296
     0
143
3.75
1001
ACAD_MLEADERVER
1070
     2
  0
MLINESTYLE
  5
18
102
{ACAD_REACTORS
330
17
102
}
330
17
100
AcDbMlineStyle
  2
Standard
 70
     0
  3

 62
   256
 51
90.0
 52
90.0
 71
     2
 49
0.5
 62
   256
  6
BYLAYER
 49
-0.5
 62
   256
  6
BYLAYER
  0
ACDBPLACEHOLDER
  5
F
102
{ACAD_REACTORS
330
E
102
}
330
E
  0
SCALE
  5
48
102
{ACAD_REACTORS
330
47
102
}
330
47
100
AcDbScale
 70
     0
300
1:1
140
1.0
141
1.0
290
     1
  0
SCALE
  5
49
102
{ACAD_REACTORS
330
47
102
}
330
47
100
AcDbScale
 70
     0
300
1:2
140
1.0
141
2.0
290
     0
  0
SCALE
  5
4A
102
{ACAD_REACTORS
330
47
102
}
330
47
100
AcDbScale
 70
     0
300
1:4
140
1.0
141
4.0
290
     0
  0
SCALE
  5
4B
102
{ACAD_REACTORS
330
47
102
}
330
47
100
AcDbScale
 70
     0
300
1:5
140
1.0
141
5.0
290
     0
  0
SCALE
  5
4C
102
{ACAD_REACTORS
330
47
102
}
330
47
100
AcDbScale
 70
     0
300
1:8
140
1.0
141
8.0
290
     0
  0
SCALE
  5
4D
102
{ACAD_REACTORS
330
47
102
}
330
47
100
AcDbScale
 70
     0
300
1:10
140
1.0
141
10.0
290
     0
  0
SCALE
  5
4E
102
{ACAD_REACTORS
330
47
102
}
330
47
100
AcDbScale
 70
     0
300
1:16
140
1.0
141
16.0
290
     0
  0
SCALE
  5
4F
102
{ACAD_REACTORS
330
47
102
}
330
47
100
AcDbScale
 70
     0
300
1:20
140
1.0
141
20.0
290
     0
  0
SCALE
  5
50
102
{ACAD_REACTORS
330
47
102
}
330
47
100
AcDbScale
 70
     0
300
1:30
140
1.0
141
30.0
290
     0
  0
SCALE
  5
51
102
{ACAD_REACTORS
330
47
102
}
330
47
100
AcDbScale
 70
     0
300
1:40
140
1.0
141
40.0
290
     0
  0
SCALE
  5
52
102
{ACAD_REACTORS
330
47
102
}
330
47
100
AcDbScale
 70
     0
300
1:50
140
1.0
141
50.0
290
     0
  0
SCALE
  5
53
102
{ACAD_REACTORS
330
47
102
}
330
47
100
AcDbScale
 70
     0
300
1:100
140
1.0
141
100.0
290
     0
  0
SCALE
  5
54
102
{ACAD_REACTORS
330
47
102
}
330
47
100
AcDbScale
 70
     0
300
2:1
140
2.0
141
1.0
290
     0
  0
SCALE
  5
55
102
{ACAD_REACTORS
330
47
102
}
330
47
100
AcDbScale
 70
     0
300
4:1
140
4.0
141
1.0
290
     0
  0
SCALE
  5
56
102
{ACAD_REACTORS
330
47
102
}
330
47
100
AcDbScale
 70
     0
300
8:1
140
8.0
141
1.0
290
     0
  0
SCALE
  5
57
102
{ACAD_REACTORS
330
47
102
}
330
47
100
AcDbScale
 70
     0
300
10:1
140
10.0
141
1.0
290
     0
  0
SCALE
  5
58
102
{ACAD_REACTORS
330
47
102
}
330
47
100
AcDbScale
 70
     0
300
100:1
140
100.0
141
1.0
290
     0
  0
SCALE
  5
59
102
{ACAD_REACTORS
330
47
102
}
330
47
100
AcDbScale
 70
     0
300
1/128" = 1'-0"
140
0.0078125
141
12.0
290
     0
  0
SCALE
  5
5A
102
{ACAD_REACTORS
330
47
102
}
330
47
100
AcDbScale
 70
     0
300
1/64" = 1'-0"
140
0.015625
141
12.0
290
     0
  0
SCALE
  5
5B
102
{ACAD_REACTORS
330
47
102
}
330
47
100
AcDbScale
 70
     0
300
1/32" = 1'-0"
140
0.03125
141
12.0
290
     0
  0
SCALE
  5
5C
102
{ACAD_REACTORS
330
47
102
}
330
47
100
AcDbScale
 70
     0
300
1/16" = 1'-0"
140
0.0625
141
12.0
290
     0
  0
SCALE
  5
5D
102
{ACAD_REACTORS
330
47
102
}
330
47
100
AcDbScale
 70
     0
300
3/32" = 1'-0"
140
0.09375
141
12.0
290
     0
  0
SCALE
  5
5E
102
{ACAD_REACTORS
330
47
102
}
330
47
100
AcDbScale
 70
     0
300
1/8" = 1'-0"
140
0.125
141
12.0
290
     0
  0
SCALE
  5
5F
102
{ACAD_REACTORS
330
47
102
}
330
47
100
AcDbScale
 70
     0
300
3/16" = 1'-0"
140
0.1875
141
12.0
290
     0
  0
SCALE
  5
60
102
{ACAD_REACTORS
330
47
102
}
330
47
100
AcDbScale
 70
     0
300
1/4" = 1'-0"
140
0.25
141
12.0
290
     0
  0
SCALE
  5
61
102
{ACAD_REACTORS
330
47
102
}
330
47
100
AcDbScale
 70
     0
300
3/8" = 1'-0"
140
0.375
141
12.0
290
     0
  0
SCALE
  5
62
102
{ACAD_REACTORS
330
47
102
}
330
47
100
AcDbScale
 70
     0
300
1/2" = 1'-0"
140
0.5
141
12.0
290
     0
  0
SCALE
  5
63
102
{ACAD_REACTORS
330
47
102
}
330
47
100
AcDbScale
 70
     0
300
3/4" = 1'-0"
140
0.75
141
12.0
290
     0
  0
SCALE
  5
64
102
{ACAD_REACTORS
330
47
102
}
330
47
100
AcDbScale
 70
     0
300
1" = 1'-0"
140
1.0
141
12.0
290
     0
  0
SCALE
  5
65
102
{ACAD_REACTORS
330
47
102
}
330
47
100
AcDbScale
 70
     0
300
1-1/2" = 1'-0"
140
1.5
141
12.0
290
     0
  0
SCALE
  5
66
102
{ACAD_REACTORS
330
47
102
}
330
47
100
AcDbScale
 70
     0
300
3" = 1'-0"
140
3.0
141
12.0
290
     0
  0
SCALE
  5
67
102
{ACAD_REACTORS
330
47
102
}
330
47
100
AcDbScale
 70
     0
300
6" = 1'-0"
140
6.0
141
12.0
290
     0
  0
SCALE
  5
68
102
{ACAD_REACTORS
330
47
102
}
330
47
100
AcDbScale
 70
     0
300
1'-0" = 1'-0"
140
12.0
141
12.0
290
     0
  0
TABLESTYLE
  5
6A
102
{ACAD_REACTORS
330
69
102
}
102
{ACAD_XDICTIONARY
360
2DB
102
}
330
69
100
AcDbTableStyle
  3
Standard
 70
     0
 71
     0
 40
0.06
 41
0.06
280
     0
281
     0
  7
Standard
140
4.5
170
     2
 62
     0
 63
   257
283
     0
 90
        4
 91
        0
  1

274
    -2
284
     1
 64
     0
275
    -2
285
     1
 65
     0
276
    -2
286
     1
 66
     0
277
    -2
287
     1
 67
     0
278
    -2
288
     1
 68
     0
279
    -2
289
     1
 69
     0
  7
Standard
140
6.0
170
     5
 62
     0
 63
   257
283
     0
 90
        4
 91
        0
  1

274
    -2
284
     1
 64
     0
275
    -2
285
     1
 65
     0
276
    -2
286
     1
 66
     0
277
    -2
287
     1
 67
     0
278
    -2
288
     1
 68
     0
279
    -2
289
     1
 69
     0
  7
Standard
140
4.5
170
     5
 62
     0
 63
   257
283
     0
 90
        4
 91
        0
  1

274
    -2
284
     1
 64
     0
275
    -2
285
     1
 65
     0
276
    -2
286
     1
 66
     0
277
    -2
287
     1
 67
     0
278
    -2
288
     1
 68
     0
279
    -2
289
     1
 69
     0
  0
VISUALSTYLE
  5
2F
102
{ACAD_REACTORS
330
2A
102
}
330
2A
100
AcDbVisualStyle
  2
2dWireframe
 70
     4
 71
     0
 72
     2
 73
     0
 90
        0
 40
0.6
 41
30.0
 62
     5
 63
     7
421
 16777215
 74
     1
 91
        4
 64
     7
 65
   257
 75
     1
175
     1
 42
1.0
 92
        0
 66
   257
 43
1.0
 76
     1
 77
     6
 78
     2
 67
     7
 79
     5
170
     0
171
     0
290
     0
174
     0
 93
        1
 44
0.0
173
     0
291
     0
 45
0.0
  0
VISUALSTYLE
  5
32
102
{ACAD_REACTORS
330
2A
102
}
330
2A
100
AcDbVisualStyle
  2
Basic
 70
     7
 71
     1
 72
     0
 73
     1
 90
        0
 40
0.6
 41
30.0
 62
     5
 63
     7
421
 16777215
 74
     0
 91
        4
 64
     7
 65
   257
 75
     1
175
     1
 42
1.0
 92
        8
 66
     7
 43
1.0
 76
     1
 77
     6
 78
     2
 67
     7
 79
     5
170
     0
171
     0
290
     0
174
     0
 93
        1
 44
0.0
173
     0
291
     1
 45
0.0
  0
VISUALSTYLE
  5
36
102
{ACAD_REACTORS
330
2A
102
}
330
2A
100
AcDbVisualStyle
  2
Brighten
 70
    12
 71
     2
 72
     2
 73
     0
 90
        0
 40
0.6
 41
30.0
 62
     5
 63
     7
421
 16777215
 74
     1
 91
        4
 64
     7
 65
   257
 75
     1
175
     1
 42
1.0
 92
        8
 66
     7
 43
1.0
 76
     1
 77
     6
 78
     2
 67
     7
 79
     5
170
     0
171
     0
290
     0
174
     0
 93
        1
 44
50.0
173
     0
291
     1
 45
0.0
  0
VISUALSTYLE
  5
3A
102
{ACAD_REACTORS
330
2A
102
}
330
2A
100
AcDbVisualStyle
  2
ColorChange
 70
    16
 71
     2
 72
     2
 73
     3
 90
        0
 40
0.6
 41
30.0
 62
     5
 63
     8
421
  8421504
 74
     1
 91
        4
 64
     7
 65
   257
 75
     1
175
     1
 42
1.0
 92
        8
 66
     8
424
  8421504
 43
1.0
 76
     1
 77
     6
 78
     2
 67
     7
 79
     5
170
     0
171
     0
290
     0
174
     0
 93
        1
 44
0.0
173
     0
291
     1
 45
0.0
  0
VISUALSTYLE
  5
34
102
{ACAD_REACTORS
330
2A
102
}
330
2A
100
AcDbVisualStyle
  2
Conceptual
 70
     9
 71
     3
 72
     2
 73
     0
 90
        0
 40
0.6
 41
30.0
 62
     5
 63
     7
421
 16777215
 74
     2
 91
        2
 64
     7
 65
   257
 75
     1
175
     1
 42
179.0
 92
        8
 66
     7
 43
1.0
 76
     1
 77
     6
 78
     2
 67
     7
 79
     3
170
     0
171
     0
290
     0
174
     0
 93
        1
 44
0.0
173
     0
291
     0
 45
0.0
  0
VISUALSTYLE
  5
35
102
{ACAD_REACTORS
330
2A
102
}
330
2A
100
AcDbVisualStyle
  2
Dim
 70
    11
 71
     2
 72
     2
 73
     0
 90
        0
 40
0.6
 41
30.0
 62
     5
 63
     7
421
 16777215
 74
     1
 91
        4
 64
     7
 65
   257
 75
     1
175
     1
 42
1.0
 92
        8
 66
     7
 43
1.0
 76
     1
 77
     6
 78
     2
 67
     7
 79
     5
170
     0
171
     0
290
     0
174
     0
 93
        1
 44
-50.0
173
     0
291
     1
 45
0.0
  0
VISUALSTYLE
  5
3D
102
{ACAD_REACTORS
330
2A
102
}
330
2A
100
AcDbVisualStyle
  2
EdgeColorOff
 70
    22
 71
     2
 72
     2
 73
     0
 90
        0
 40
0.6
 41
30.0
 62
     5
 63
     7
421
 16777215
 74
     1
 91
        4
 64
     7
 65
   257
 75
     1
175
     1
 42
1.0
 92
        8
 66
     7
 43
1.0
 76
     1
 77
     6
 78
     2
 67
     7
 79
     5
170
     0
171
     0
290
     0
174
     0
 93
        1
 44
0.0
173
     0
291
     1
 45
0.0
  0
VISUALSTYLE
  5
39
102
{ACAD_REACTORS
330
2A
102
}
330
2A
100
AcDbVisualStyle
  2
Facepattern
 70
    15
 71
     2
 72
     2
 73
     0
 90
        0
 40
0.6
 41
30.0
 62
     5
 63
     7
421
 16777215
 74
     1
 91
        4
 64
     7
 65
   257
 75
     1
175
     1
 42
1.0
 92
        8
 66
     7
 43
1.0
 76
     1
 77
     6
 78
     2
 67
     7
 79
     5
170
     0
171
     0
290
     0
174
     0
 93
        1
 44
0.0
173
     0
291
     1
 45
0.0
  0
VISUALSTYLE
  5
2B
102
{ACAD_REACTORS
330
2A
102
}
330
2A
100
AcDbVisualStyle
  2
Flat
 70
     0
 71
     2
 72
     1
 73
     1
 90
        2
 40
0.6
 41
30.0
 62
     5
 63
     7
421
 16777215
 74
     0
 91
        0
 64
     7
 65
   257
 75
     1
175
     1
 42
1.0
 92
        8
 66
     7
 43
1.0
 76
     1
 77
     6
 78
     2
 67
     7
 79
     5
170
     0
171
     0
290
     0
174
     0
 93
       13
 44
0.0
173
     0
291
     1
 45
0.0
  0
VISUALSTYLE
  5
2C
102
{ACAD_REACTORS
330
2A
102
}
330
2A
100
AcDbVisualStyle
  2
FlatWithEdges
 70
     1
 71
     2
 72
     1
 73
     1
 90
        2
 40
0.6
 41
30.0
 62
     5
 63
     7
421
 16777215
 74
     1
 91
        0
 64
     7
 65
   257
 75
     1
175
     1
 42
1.0
 92
        0
 66
   257
 43
1.0
 76
     1
 77
     6
 78
     2
 67
     7
 79
     5
170
     0
171
     0
290
     0
174
     0
 93
       13
 44
0.0
173
     0
291
     1
 45
0.0
  0
VISUALSTYLE
  5
2D
102
{ACAD_REACTORS
330
2A
102
}
330
2A
100
AcDbVisualStyle
  2
Gouraud
 70
     2
 71
     2
 72
     2
 73
     1
 90
        2
 40
0.6
 41
30.0
 62
     5
 63
     7
421
 16777215
 74
     0
 91
        0
 64
     7
 65
   257
 75
     1
175
     1
 42
1.0
 92
        0
 66
     7
 43
1.0
 76
     1
 77
     6
 78
     2
 67
     7
 79
     5
170
     0
171
     0
290
     0
174
     0
 93
       13
 44
0.0
173
     0
291
     1
 45
0.0
  0
VISUALSTYLE
  5
2E
102
{ACAD_REACTORS
330
2A
102
}
330
2A
100
AcDbVisualStyle
  2
GouraudWithEdges
 70
     3
 71
     2
 72
     2
 73
     1
 90
        2
 40
0.6
 41
30.0
 62
     5
 63
     7
421
 16777215
 74
     1
 91
        0
 64
     7
 65
   257
 75
     1
175
     1
 42
1.0
 92
        0
 66
   257
 43
1.0
 76
     1
 77
     6
 78
     2
 67
     7
 79
     5
170
     0
171
     0
290
     0
174
     0
 93
       13
 44
0.0
173
     0
291
     1
 45
0.0
  0
VISUALSTYLE
  5
31
102
{ACAD_REACTORS
330
2A
102
}
330
2A
100
AcDbVisualStyle
  2
Hidden
 70
     6
 71
     1
 72
     2
 73
     2
 90
        0
 40
0.6
 41
30.0
 62
     5
 63
     7
421
 16777215
 74
     2
 91
        2
 64
     7
 65
   257
 75
     2
175
     1
 42
40.0
 92
        0
 66
   257
 43
1.0
 76
     1
 77
     6
 78
     2
 67
     7
 79
     3
170
     0
171
     0
290
     0
174
     0
 93
        1
 44
0.0
173
     0
291
     0
 45
0.0
  0
VISUALSTYLE
  5
3B
102
{ACAD_REACTORS
330
2A
102
}
330
2A
100
AcDbVisualStyle
  2
JitterOff
 70
    20
 71
     2
 72
     2
 73
     0
 90
        0
 40
0.6
 41
30.0
 62
     5
 63
     7
421
 16777215
 74
     1
 91
        4
 64
     7
 65
   257
 75
     1
175
     1
 42
1.0
 92
       10
 66
     7
 43
1.0
 76
     1
 77
     6
 78
     2
 67
     7
 79
     5
170
     0
171
     0
290
     0
174
     0
 93
        1
 44
0.0
173
     0
291
     1
 45
0.0
  0
VISUALSTYLE
  5
38
102
{ACAD_REACTORS
330
2A
102
}
330
2A
100
AcDbVisualStyle
  2
Linepattern
 70
    14
 71
     2
 72
     2
 73
     0
 90
        0
 40
0.6
 41
30.0
 62
     5
 63
     7
421
 16777215
 74
     1
 91
        4
 64
     7
 65
   257
 75
     7
175
     7
 42
1.0
 92
        8
 66
     7
 43
1.0
 76
     1
 77
     6
 78
     2
 67
     7
 79
     5
170
     0
171
     0
290
     0
174
     0
 93
        1
 44
0.0
173
     0
291
     1
 45
0.0
  0
VISUALSTYLE
  5
3C
102
{ACAD_REACTORS
330
2A
102
}
330
2A
100
AcDbVisualStyle
  2
OverhangOff
 70
    21
 71
     2
 72
     2
 73
     0
 90
        0
 40
0.6
 41
30.0
 62
     5
 63
     7
421
 16777215
 74
     1
 91
        4
 64
     7
 65
   257
 75
     1
175
     1
 42
1.0
 92
        9
 66
     7
 43
1.0
 76
     1
 77
     6
 78
     2
 67
     7
 79
     5
170
     0
171
     0
290
     0
174
     0
 93
        1
 44
0.0
173
     0
291
     1
 45
0.0
  0
VISUALSTYLE
  5
33
102
{ACAD_REACTORS
330
2A
102
}
330
2A
100
AcDbVisualStyle
  2
Realistic
 70
     8
 71
     2
 72
     3
 73
     0
 90
        2
 40
0.6
 41
30.0
 62
     5
 63
     7
421
 16777215
 74
     0
 91
        0
 64
     7
 65
   257
 75
     1
175
     1
 42
1.0
 92
        8
 66
   257
 43
1.0
 76
     1
 77
     6
 78
     2
 67
     7
 79
     3
170
     0
171
     0
290
     0
174
     0
 93
       13
 44
0.0
173
     0
291
     0
 45
0.0
  0
VISUALSTYLE
  5
42
102
{ACAD_REACTORS
330
2A
102
}
330
2A
100
AcDbVisualStyle
  2
Shaded
 70
    27
 71
     2
 72
     2
 73
     1
 90
        2
 40
0.6
 41
30.0
 62
     5
 63
     7
421
 16777215
 74
     0
 91
        4
 64
     7
 65
   257
 75
     1
175
     1
 42
1.0
 92
        8
 66
   257
 43
1.0
 76
     1
 77
     6
 78
     2
 67
     8
425
  7895160
 79
     3
170
     0
171
     0
290
     0
174
     0
 93
        5
 44
0.0
173
     0
291
     0
 45
0.0
  0
VISUALSTYLE
  5
41
102
{ACAD_REACTORS
330
2A
102
}
330
2A
100
AcDbVisualStyle
  2
Shaded with edges
 70
    26
 71
     2
 72
     2
 73
     1
 90
        2
 40
0.6
 41
30.0
 62
     5
 63
     7
421
 16777215
 74
     1
 91
       10
 64
     7
 65
   257
 75
     2
175
     1
 42
1.0
 92
        8
 66
   257
 43
1.0
 76
     1
 77
     6
 78
     2
 67
     7
 79
     3
170
     0
171
     0
290
     0
174
     0
 93
        5
 44
0.0
173
     0
291
     0
 45
0.0
  0
VISUALSTYLE
  5
3E
102
{ACAD_REACTORS
330
2A
102
}
330
2A
100
AcDbVisualStyle
  2
Shades of Gray
 70
    23
 71
     2
 72
     2
 73
     3
 90
        0
 40
0.6
 41
30.0
 62
     5
 63
     7
421
 16777215
 74
     2
 91
        2
 64
     7
 65
     7
 75
     1
175
     1
 42
40.0
 92
        8
 66
     7
 43
1.0
 76
     1
 77
     6
 78
     2
 67
     7
 79
     3
170
     0
171
     0
290
     0
174
     0
 93
        1
 44
0.0
173
     0
291
     0
 45
0.0
  0
VISUALSTYLE
  5
3F
102
{ACAD_REACTORS
330
2A
102
}
330
2A
100
AcDbVisualStyle
  2
Sketchy
 70
    24
 71
     1
 72
     2
 73
     2
 90
        0
 40
0.6
 41
30.0
 62
     5
 63
     7
421
 16777215
 74
     2
 91
        2
 64
     7
 65
     7
 75
     1
175
     1
 42
40.0
 92
       11
 66
     7
 43
1.0
 76
     1
 77
     6
 78
     2
 67
     7
 79
     6
170
     0
171
     0
290
     0
174
     0
 93
        1
 44
0.0
173
     0
291
     0
 45
0.0
  0
VISUALSTYLE
  5
37
102
{ACAD_REACTORS
330
2A
102
}
330
2A
100
AcDbVisualStyle
  2
Thicken
 70
    13
 71
     2
 72
     2
 73
     0
 90
        0
 40
0.6
 41
30.0
 62
     5
 63
     7
421
 16777215
 74
     1
 91
        4
 64
     7
 65
   257
 75
     1
175
     1
 42
1.0
 92
       12
 66
     7
 43
1.0
 76
     1
 77
     6
 78
     2
 67
     7
 79
     5
170
     0
171
     0
290
     0
174
     0
 93
        1
 44
0.0
173
     0
291
     1
 45
0.0
  0
VISUALSTYLE
  5
30
102
{ACAD_REACTORS
330
2A
102
}
330
2A
100
AcDbVisualStyle
  2
Wireframe
 70
     5
 71
     0
 72
     2
 73
     0
 90
        0
 40
0.6
 41
30.0
 62
     5
 63
     7
421
 16777215
 74
     1
 91
        4
 64
     7
 65
   257
 75
     1
175
     1
 42
1.0
 92
        0
 66
   257
 43
1.0
 76
     1
 77
     6
 78
     2
 67
     7
 79
     3
170
     0
171
     0
290
     0
174
     0
 93
        1
 44
0.0
173
     0
291
     0
 45
0.0
  0
VISUALSTYLE
  5
40
102
{ACAD_REACTORS
330
2A
102
}
330
2A
100
AcDbVisualStyle
  2
X-Ray
 70
    25
 71
     2
 72
     2
 73
     1
 90
        1
 40
0.5
 41
30.0
 62
     5
 63
     7
421
 16777215
 74
     1
 91
        0
 64
     7
 65
   257
 75
     1
175
     1
 42
1.0
 92
        8
 66
     7
 43
1.0
 76
     1
 77
     6
 78
     2
 67
     7
 79
     3
170
     0
171
     0
290
     0
174
     0
 93
       13
 44
0.0
173
     0
291
     0
 45
0.0
  0
DICTIONARYVAR
  5
2DA
102
{ACAD_REACTORS
330
2D9
102
}
330
2D9
100
DictionaryVariables
280
     0
  1
1:1
  0
DICTIONARYVAR
  5
2E0
102
{ACAD_REACTORS
330
2D9
102
}
330
2D9
100
DictionaryVariables
280
     0
  1
Standard
  0
DICTIONARYVAR
  5
2DF
102
{ACAD_REACTORS
330
2D9
102
}
330
2D9
100
DictionaryVariables
280
     0
  1
Standard
  0
DICTIONARY
  5
2DB
330
6A
100
AcDbDictionary
280
     1
281
     1
  3
ACAD_ROUNDTRIP_2008_TABLESTYLE_CELLSTYLEMAP
360
2DC
  0
CELLSTYLEMAP
  5
2DC
102
{ACAD_REACTORS
330
2DB
102
}
330
2DB
100
AcDbCellStyleMap
 90
        3
300
CELLSTYLE
  1
TABLEFORMAT_BEGIN
 90
        5
170
     1
 91
        0
 92
    32768
 62
   257
 93
        1
300
CONTENTFORMAT
  1
CONTENTFORMAT_BEGIN
 90
        0
 91
        0
 92
        4
 93
        0
300

 40
0.0
140
1.0
 94
        5
 62
     0
340
11
144
6.0
309
CONTENTFORMAT_END
171
     1
301
MARGIN
  1
CELLMARGIN_BEGIN
 40
1.5
 40
1.5
 40
1.5
 40
1.5
 40
1.5
 40
1.5
309
CELLMARGIN_END
 94
        6
 95
        1
302
GRIDFORMAT
  1
GRIDFORMAT_BEGIN
 90
        0
 91
        1
 62
     0
 92
       -2
340
14
 93
        0
 40
0.045
309
GRIDFORMAT_END
 95
        2
302
GRIDFORMAT
  1
GRIDFORMAT_BEGIN
 90
        0
 91
        1
 62
     0
 92
       -2
340
14
 93
        0
 40
0.045
309
GRIDFORMAT_END
 95
        4
302
GRIDFORMAT
  1
GRIDFORMAT_BEGIN
 90
        0
 91
        1
 62
     0
 92
       -2
340
14
 93
        0
 40
0.045
309
GRIDFORMAT_END
 95
        8
302
GRIDFORMAT
  1
GRIDFORMAT_BEGIN
 90
        0
 91
        1
 62
     0
 92
       -2
340
14
 93
        0
 40
0.045
309
GRIDFORMAT_END
 95
       16
302
GRIDFORMAT
  1
GRIDFORMAT_BEGIN
 90
        0
 91
        1
 62
     0
 92
       -2
340
14
 93
        0
 40
0.045
309
GRIDFORMAT_END
 95
       32
302
GRIDFORMAT
  1
GRIDFORMAT_BEGIN
 90
        0
 91
        1
 62
     0
 92
       -2
340
14
 93
        0
 40
0.045
309
GRIDFORMAT_END
309
TABLEFORMAT_END
  1
CELLSTYLE_BEGIN
 90
        1
 91
        1
300
_TITLE
309
CELLSTYLE_END
300
CELLSTYLE
  1
TABLEFORMAT_BEGIN
 90
        5
170
     1
 91
        0
 92
        0
 62
   257
 93
        1
300
CONTENTFORMAT
  1
CONTENTFORMAT_BEGIN
 90
        0
 91
        0
 92
        4
 93
        0
300

 40
0.0
140
1.0
 94
        5
 62
     0
340
11
144
4.5
309
CONTENTFORMAT_END
171
     1
301
MARGIN
  1
CELLMARGIN_BEGIN
 40
1.5
 40
1.5
 40
1.5
 40
1.5
 40
1.5
 40
1.5
309
CELLMARGIN_END
 94
        6
 95
        1
302
GRIDFORMAT
  1
GRIDFORMAT_BEGIN
 90
        0
 91
        1
 62
     0
 92
       -2
340
14
 93
        0
 40
0.045
309
GRIDFORMAT_END
 95
        2
302
GRIDFORMAT
  1
GRIDFORMAT_BEGIN
 90
        0
 91
        1
 62
     0
 92
       -2
340
14
 93
        0
 40
0.045
309
GRIDFORMAT_END
 95
        4
302
GRIDFORMAT
  1
GRIDFORMAT_BEGIN
 90
        0
 91
        1
 62
     0
 92
       -2
340
14
 93
        0
 40
0.045
309
GRIDFORMAT_END
 95
        8
302
GRIDFORMAT
  1
GRIDFORMAT_BEGIN
 90
        0
 91
        1
 62
     0
 92
       -2
340
14
 93
        0
 40
0.045
309
GRIDFORMAT_END
 95
       16
302
GRIDFORMAT
  1
GRIDFORMAT_BEGIN
 90
        0
 91
        1
 62
     0
 92
       -2
340
14
 93
        0
 40
0.045
309
GRIDFORMAT_END
 95
       32
302
GRIDFORMAT
  1
GRIDFORMAT_BEGIN
 90
        0
 91
        1
 62
     0
 92
       -2
340
14
 93
        0
 40
0.045
309
GRIDFORMAT_END
309
TABLEFORMAT_END
  1
CELLSTYLE_BEGIN
 90
        2
 91
        1
300
_HEADER
309
CELLSTYLE_END
300
CELLSTYLE
  1
TABLEFORMAT_BEGIN
 90
        5
170
     1
 91
        0
 92
        0
 62
   257
 93
        1
300
CONTENTFORMAT
  1
CONTENTFORMAT_BEGIN
 90
        0
 91
        0
 92
        4
 93
        0
300

 40
0.0
140
1.0
 94
        2
 62
     0
340
11
144
4.5
309
CONTENTFORMAT_END
171
     1
301
MARGIN
  1
CELLMARGIN_BEGIN
 40
1.5
 40
1.5
 40
1.5
 40
1.5
 40
1.5
 40
1.5
309
CELLMARGIN_END
 94
        6
 95
        1
302
GRIDFORMAT
  1
GRIDFORMAT_BEGIN
 90
        0
 91
        1
 62
     0
 92
       -2
340
14
 93
        0
 40
0.045
309
GRIDFORMAT_END
 95
        2
302
GRIDFORMAT
  1
GRIDFORMAT_BEGIN
 90
        0
 91
        1
 62
     0
 92
       -2
340
14
 93
        0
 40
0.045
309
GRIDFORMAT_END
 95
        4
302
GRIDFORMAT
  1
GRIDFORMAT_BEGIN
 90
        0
 91
        1
 62
     0
 92
       -2
340
14
 93
        0
 40
0.045
309
GRIDFORMAT_END
 95
        8
302
GRIDFORMAT
  1
GRIDFORMAT_BEGIN
 90
        0
 91
        1
 62
     0
 92
       -2
340
14
 93
        0
 40
0.045
309
GRIDFORMAT_END
 95
       16
302
GRIDFORMAT
  1
GRIDFORMAT_BEGIN
 90
        0
 91
        1
 62
     0
 92
       -2
340
14
 93
        0
 40
0.045
309
GRIDFORMAT_END
 95
       32
302
GRIDFORMAT
  1
GRIDFORMAT_BEGIN
 90
        0
 91
        1
 62
     0
 92
       -2
340
14
 93
        0
 40
0.045
309
GRIDFORMAT_END
309
TABLEFORMAT_END
  1
CELLSTYLE_BEGIN
 90
        3
 91
        2
300
_DATA
309
CELLSTYLE_END
  0
ENDSEC
  0
EOF
