  0
SECTION
  2
HEADER
  9
$ACADVER
  1
AC1021
  9
$ACADMAINTVER
 70
    25
  9
$DWGCODEPAGE
  3
ANSI_1250
  9
$INSBASE
 10
0.0
 20
0.0
 30
0.0
  9
$EXTMIN
 10
0.0
 20
0.0
 30
0.0
  9
$EXTMAX
 10
210.0
 20
600.0
 30
0.0
  9
$LIMMIN
 10
0.0
 20
0.0
  9
$LIMMAX
 10
210.0
 20
600.0
  9
$ORTHOMODE
 70
     0
  9
$REGENMODE
 70
     1
  9
$FILLMODE
 70
     1
  9
$QTEXTMODE
 70
     0
  9
$MIRRTEXT
 70
     1
  9
$LTSCALE
 40
1.0
  9
$ATTMODE
 70
     1
  9
$TEXTSIZE
 40
3.5
  9
$TRACEWID
 40
1.0
  9
$TEXTSTYLE
  7
Standard
  9
$CLAYER
  8
0
  9
$CELTYPE
  6
ByLayer
  9
$CECOLOR
 62
   256
  9
$CELTSCALE
 40
1.0
  9
$DISPSILH
 70
     0
  9
$DIMSCALE
 40
1.0
  9
$DIMASZ
 40
3.302
  9
$DIMEXO
 40
1.0
  9
$DIMDLI
 40
3.75
  9
$DIMRND
 40
0.0
  9
$DIMDLE
 40
0.0
  9
$DIMEXE
 40
1.0
  9
$DIMTP
 40
0.0
  9
$DIMTM
 40
0.0
  9
$DIMTXT
 40
3.5
  9
$DIMCEN
 40
2.5
  9
$DIMTSZ
 40
0.0
  9
$DIMTOL
 70
     0
  9
$DIMLIM
 70
     0
  9
$DIMTIH
 70
     1
  9
$DIMTOH
 70
     1
  9
$DIMSE1
 70
     0
  9
$DIMSE2
 70
     0
  9
$DIMTAD
 70
     1
  9
$DIMZIN
 70
     0
  9
$DIMBLK
  1

  9
$DIMASO
 70
     1
  9
$DIMSHO
 70
     1
  9
$DIMPOST
  1

  9
$DIMAPOST
  1

  9
$DIMALT
 70
     0
  9
$DIMALTD
 70
     3
  9
$DIMALTF
 40
0.0393700787
  9
$DIMLFAC
 40
50.0
  9
$DIMTOFL
 70
     1
  9
$DIMTVP
 40
0.0
  9
$DIMTIX
 70
     0
  9
$DIMSOXD
 70
     0
  9
$DIMSAH
 70
     0
  9
$DIMBLK1
  1

  9
$DIMBLK2
  1

  9
$DIMSTYLE
  2
ISO-25
  9
$DIMCLRD
 70
     0
  9
$DIMCLRE
 70
     0
  9
$DIMCLRT
 70
     0
  9
$DIMTFAC
 40
1.0
  9
$DIMGAP
 40
1.524
  9
$DIMJUST
 70
     0
  9
$DIMSD1
 70
     0
  9
$DIMSD2
 70
     0
  9
$DIMTOLJ
 70
     0
  9
$DIMTZIN
 70
     0
  9
$DIMALTZ
 70
     0
  9
$DIMALTTZ
 70
     0
  9
$DIMUPT
 70
     0
  9
$DIMDEC
 70
     2
  9
$DIMTDEC
 70
     2
  9
$DIMALTU
 70
     2
  9
$DIMALTTD
 70
     3
  9
$DIMTXSTY
  7
Standard
  9
$DIMAUNIT
 70
     0
  9
$DIMADEC
 70
     2
  9
$DIMALTRND
 40
0.0
  9
$DIMAZIN
 70
     0
  9
$DIMDSEP
 70
    44
  9
$DIMATFIT
 70
     3
  9
$DIMFRAC
 70
     0
  9
$DIMLDRBLK
  1

  9
$DIMLUNIT
 70
     2
  9
$DIMLWD
 70
    -2
  9
$DIMLWE
 70
    -2
  9
$DIMTMOVE
 70
     0
  9
$DIMFXL
 40
1.0
  9
$DIMFXLON
 70
     0
  9
$DIMJOGANG
 40
0.7853981634
  9
$DIMTFILL
 70
     0
  9
$DIMTFILLCLR
 70
     0
  9
$DIMARCSYM
 70
     0
  9
$DIMLTYPE
  6

  9
$DIMLTEX1
  6

  9
$DIMLTEX2
  6

  9
$LUNITS
 70
     2
  9
$LUPREC
 70
     2
  9
$SKETCHINC
 40
1.0
  9
$FILLETRAD
 40
10.0
  9
$AUNITS
 70
     0
  9
$AUPREC
 70
     2
  9
$MENU
  1
.
  9
$ELEVATION
 40
0.0
  9
$PELEVATION
 40
0.0
  9
$THICKNESS
 40
0.0
  9
$LIMCHECK
 70
     0
  9
$CHAMFERA
 40
0.0
  9
$CHAMFERB
 40
0.0
  9
$CHAMFERC
 40
0.0
  9
$CHAMFERD
 40
0.0
  9
$SKPOLY
 70
     0
  9
$TDCREATE
 40
2458094.274464248
  9
$TDUCREATE
 40
2458094.232797581
  9
$TDUPDATE
 40
2458094.274464676
  9
$TDUUPDATE
 40
2458094.232798009
  9
$TDINDWG
 40
0.0000000116
  9
$TDUSRTIMER
 40
0.0000000116
  9
$USRTIMER
 70
     1
  9
$ANGBASE
 50
0.0
  9
$ANGDIR
 70
     0
  9
$PDMODE
 70
     0
  9
$PDSIZE
 40
-1.0
  9
$PLINEWID
 40
0.0
  9
$SPLFRAME
 70
     0
  9
$SPLINETYPE
 70
     6
  9
$SPLINESEGS
 70
     8
  9
$HANDSEED
  5
402
  9
$SURFTAB1
 70
     6
  9
$SURFTAB2
 70
     6
  9
$SURFTYPE
 70
     6
  9
$SURFU
 70
     6
  9
$SURFV
 70
     6
  9
$UCSBASE
  2

  9
$UCSNAME
  2

  9
$UCSORG
 10
0.0
 20
0.0
 30
0.0
  9
$UCSXDIR
 10
1.0
 20
0.0
 30
0.0
  9
$UCSYDIR
 10
0.0
 20
1.0
 30
0.0
  9
$UCSORTHOREF
  2

  9
$UCSORTHOVIEW
 70
     0
  9
$UCSORGTOP
 10
0.0
 20
0.0
 30
0.0
  9
$UCSORGBOTTOM
 10
0.0
 20
0.0
 30
0.0
  9
$UCSORGLEFT
 10
0.0
 20
0.0
 30
0.0
  9
$UCSORGRIGHT
 10
0.0
 20
0.0
 30
0.0
  9
$UCSORGFRONT
 10
0.0
 20
0.0
 30
0.0
  9
$UCSORGBACK
 10
0.0
 20
0.0
 30
0.0
  9
$PUCSBASE
  2

  9
$PUCSNAME
  2

  9
$PUCSORG
 10
0.0
 20
0.0
 30
0.0
  9
$PUCSXDIR
 10
1.0
 20
0.0
 30
0.0
  9
$PUCSYDIR
 10
0.0
 20
1.0
 30
0.0
  9
$PUCSORTHOREF
  2

  9
$PUCSORTHOVIEW
 70
     0
  9
$PUCSORGTOP
 10
0.0
 20
0.0
 30
0.0
  9
$PUCSORGBOTTOM
 10
0.0
 20
0.0
 30
0.0
  9
$PUCSORGLEFT
 10
0.0
 20
0.0
 30
0.0
  9
$PUCSORGRIGHT
 10
0.0
 20
0.0
 30
0.0
  9
$PUCSORGFRONT
 10
0.0
 20
0.0
 30
0.0
  9
$PUCSORGBACK
 10
0.0
 20
0.0
 30
0.0
  9
$USERI1
 70
     0
  9
$USERI2
 70
     0
  9
$USERI3
 70
     0
  9
$USERI4
 70
     0
  9
$USERI5
 70
     0
  9
$USERR1
 40
0.0
  9
$USERR2
 40
0.0
  9
$USERR3
 40
0.0
  9
$USERR4
 40
0.0
  9
$USERR5
 40
0.0
  9
$WORLDVIEW
 70
     1
  9
$SHADEDGE
 70
     3
  9
$SHADEDIF
 70
    70
  9
$TILEMODE
 70
     1
  9
$MAXACTVP
 70
    64
  9
$PINSBASE
 10
0.0
 20
0.0
 30
0.0
  9
$PLIMCHECK
 70
     0
  9
$PEXTMIN
 10
1.0000000000E+20
 20
1.0000000000E+20
 30
1.0000000000E+20
  9
$PEXTMAX
 10
-1.0000000000E+20
 20
-1.0000000000E+20
 30
-1.0000000000E+20
  9
$PLIMMIN
 10
0.0
 20
0.0
  9
$PLIMMAX
 10
420.0
 20
297.0
  9
$UNITMODE
 70
     0
  9
$VISRETAIN
 70
     1
  9
$PLINEGEN
 70
     0
  9
$PSLTSCALE
 70
     1
  9
$TREEDEPTH
 70
  3020
  9
$CMLSTYLE
  2
Standard
  9
$CMLJUST
 70
     0
  9
$CMLSCALE
 40
20.0
  9
$PROXYGRAPHICS
 70
     1
  9
$MEASUREMENT
 70
     1
  9
$CELWEIGHT
370
    -1
  9
$ENDCAPS
280
     0
  9
$JOINSTYLE
280
     0
  9
$LWDISPLAY
290
     1
  9
$INSUNITS
 70
     4
  9
$HYPERLINKBASE
  1

  9
$STYLESHEET
  1

  9
$XEDIT
290
     1
  9
$CEPSNTYPE
380
     0
  9
$PSTYLEMODE
290
     1
  9
$FINGERPRINTGUID
  2
{E9F95B3B-7E79-4A77-8B0A-644EAB55B796}
  9
$VERSIONGUID
  2
{FAEB1C32-E019-11D5-929B-00C0DF256EC4}
  9
$EXTNAMES
290
     1
  9
$PSVPSCALE
 40
0.0
  9
$OLESTARTUP
290
     0
  9
$SORTENTS
280
   127
  9
$INDEXCTL
280
     0
  9
$HIDETEXT
280
     1
  9
$XCLIPFRAME
290
     0
  9
$HALOGAP
280
     0
  9
$OBSCOLOR
 70
   257
  9
$OBSLTYPE
280
     0
  9
$INTERSECTIONDISPLAY
280
     0
  9
$INTERSECTIONCOLOR
 70
   257
  9
$DIMASSOC
280
     2
  9
$PROJECTNAME
  1

  9
$CAMERADISPLAY
290
     0
  9
$LENSLENGTH
 40
50.0
  9
$CAMERAHEIGHT
 40
0.0
  9
$STEPSPERSEC
 40
2.0
  9
$STEPSIZE
 40
6.0
  9
$3DDWFPREC
 40
2.0
  9
$PSOLWIDTH
 40
5.0
  9
$PSOLHEIGHT
 40
80.0
  9
$LOFTANG1
 40
1.5707963268
  9
$LOFTANG2
 40
1.5707963268
  9
$LOFTMAG1
 40
0.0
  9
$LOFTMAG2
 40
0.0
  9
$LOFTPARAM
 70
     7
  9
$LOFTNORMALS
280
     1
  9
$LATITUDE
 40
37.795
  9
$LONGITUDE
 40
-122.394
  9
$NORTHDIRECTION
 40
0.0
  9
$TIMEZONE
 70
 -8000
  9
$LIGHTGLYPHDISPLAY
280
     1
  9
$TILEMODELIGHTSYNCH
280
     1
  9
$CMATERIAL
347
44
  9
$SOLIDHIST
280
     0
  9
$SHOWHIST
280
     1
  9
$DWFFRAME
280
     2
  9
$DGNFRAME
280
     2
  9
$REALWORLDSCALE
290
     1
  9
$INTERFERECOLOR
 62
   256
  9
$CSHADOW
280
     0
  9
$SHADOWPLANELOCATION
 40
0.0
  0
ENDSEC
  0
SECTION
  2
CLASSES
  0
CLASS
  1
ACDBDICTIONARYWDFLT
  2
AcDbDictionaryWithDefault
  3
ObjectDBX Classes
 90
        0
 91
        4
280
     0
281
     0
  0
CLASS
  1
VISUALSTYLE
  2
AcDbVisualStyle
  3
ObjectDBX Classes
 90
     4095
 91
        4
280
     0
281
     0
  0
CLASS
  1
MATERIAL
  2
AcDbMaterial
  3
ObjectDBX Classes
 90
     1153
 91
        4
280
     0
281
     0
  0
CLASS
  1
SCALE
  2
AcDbScale
  3
ObjectDBX Classes
 90
     1153
 91
        4
280
     0
281
     0
  0
CLASS
  1
TABLESTYLE
  2
AcDbTableStyle
  3
ObjectDBX Classes
 90
     4095
 91
        4
280
     0
281
     0
  0
CLASS
  1
MLEADERSTYLE
  2
AcDbMLeaderStyle
  3
ACDB_MLEADERSTYLE_CLASS
 90
     4095
 91
        4
280
     0
281
     0
  0
CLASS
  1
SUN
  2
AcDbSun
  3
SCENEOE
 90
     1153
 91
        4
280
     0
281
     0
  0
CLASS
  1
DICTIONARYVAR
  2
AcDbDictionaryVar
  3
ObjectDBX Classes
 90
        0
 91
        4
280
     0
281
     0
  0
CLASS
  1
CELLSTYLEMAP
  2
AcDbCellStyleMap
  3
ObjectDBX Classes
 90
     1152
 91
        4
280
     0
281
     0
  0
ENDSEC
  0
SECTION
  2
TABLES
  0
TABLE
  2
VPORT
  5
8
330
0
100
AcDbSymbolTable
 70
     1
  0
VPORT
  5
29
330
8
100
AcDbSymbolTableRecord
100
AcDbViewportTableRecord
  2
*Active
 70
     0
 10
0.0
 20
0.0
 11
1.0
 21
1.0
 12
105.0
 22
300.0
 13
0.0
 23
0.0
 14
10.0
 24
10.0
 15
10.0
 25
10.0
 16
0.0
 26
0.0
 36
1.0
 17
0.0
 27
0.0
 37
0.0
 40
600.0
 41
0.35
 42
50.0
 43
0.0
 44
0.0
 50
0.0
 51
0.0
 71
     0
 72
  2000
 73
     1
 74
     3
 75
     0
 76
     0
 77
     0
 78
     0
281
     0
 65
     1
110
0.0
120
0.0
130
0.0
111
1.0
121
0.0
131
0.0
112
0.0
122
1.0
132
0.0
 79
     0
146
0.0
 60
     3
 61
     5
292
     1
282
     1
141
0.0
142
0.0
 63
   250
361
6D
  0
ENDTAB
  0
TABLE
  2
LTYPE
  5
5
330
0
100
AcDbSymbolTable
 70
     6
  0
LTYPE
  5
14
330
5
100
AcDbSymbolTableRecord
100
AcDbLinetypeTableRecord
  2
ByBlock
 70
     0
  3

 72
    65
 73
     0
 40
0.0
  0
LTYPE
  5
15
330
5
100
AcDbSymbolTableRecord
100
AcDbLinetypeTableRecord
  2
ByLayer
 70
     0
  3

 72
    65
 73
     0
 40
0.0
  0
LTYPE
  5
16
330
5
100
AcDbSymbolTableRecord
100
AcDbLinetypeTableRecord
  2
Continuous
 70
     0
  3
Solid line
 72
    65
 73
     0
 40
0.0
  0
LTYPE
  5
6E
330
5
100
AcDbSymbolTableRecord
100
AcDbLinetypeTableRecord
  2
HIDDEN
 70
     0
  3
Hidden __ __ __ __ __ __ __ __ __ __ __ __ __ __
 72
    65
 73
     2
 40
1.905
 49
1.27
 74
     0
 49
-0.635
 74
     0
  0
LTYPE
  5
6F
330
5
100
AcDbSymbolTableRecord
100
AcDbLinetypeTableRecord
  2
PHANTOM
 70
     0
  3
Phantom ______  __  __  ______  __  __  ______
 72
    65
 73
     6
 40
12.7
 49
6.35
 74
     0
 49
-1.27
 74
     0
 49
1.27
 74
     0
 49
-1.27
 74
     0
 49
1.27
 74
     0
 49
-1.27
 74
     0
  0
LTYPE
  5
70
330
5
100
AcDbSymbolTableRecord
100
AcDbLinetypeTableRecord
  2
CENTER
 70
     0
  3
Center ____ _ ____ _ ____ _ ____ _ ____ _ ____
 72
    65
 73
     4
 40
10.16
 49
6.35
 74
     0
 49
-1.27
 74
     0
 49
1.27
 74
     0
 49
-1.27
 74
     0
  0
LTYPE
  5
71
330
5
100
AcDbSymbolTableRecord
100
AcDbLinetypeTableRecord
  2
CENTERX2
 70
     0
  3
Center (2x) ________  __  ________  __  _____
 72
    65
 73
     4
 40
20.32
 49
12.7
 74
     0
 49
-2.54
 74
     0
 49
2.54
 74
     0
 49
-2.54
 74
     0
  0
LTYPE
  5
72
330
5
100
AcDbSymbolTableRecord
100
AcDbLinetypeTableRecord
  2
DOT2
 70
     0
  3
Dot (.5x) ........................................
 72
    65
 73
     2
 40
0.635
 49
0.0
 74
     0
 49
-0.635
 74
     0
  0
ENDTAB
  0
TABLE
  2
LAYER
  5
2
330
0
100
AcDbSymbolTable
 70
     2
  0
LAYER
  5
10
330
2
100
AcDbSymbolTableRecord
100
AcDbLayerTableRecord
  2
0
 70
     0
 62
     7
  6
Continuous
370
    -3
390
F
347
46
  0
LAYER
  5
73
330
2
100
AcDbSymbolTableRecord
100
AcDbLayerTableRecord
  2
FORMAT
 70
     0
 62
     7
  6
Continuous
370
    -3
390
F
347
46
  0
ENDTAB
  0
TABLE
  2
STYLE
  5
3
330
0
100
AcDbSymbolTable
 70
     1
  0
STYLE
  5
11
330
3
100
AcDbSymbolTableRecord
100
AcDbTextStyleTableRecord
  2
Standard
 70
     0
 40
0.0
 41
1.0
 50
0.0
 71
     0
 42
3.5
  3
txt
  4

  0
ENDTAB
  0
TABLE
  2
VIEW
  5
6
330
0
100
AcDbSymbolTable
 70
     0
  0
ENDTAB
  0
TABLE
  2
UCS
  5
7
330
0
100
AcDbSymbolTable
 70
     0
  0
ENDTAB
  0
TABLE
  2
APPID
  5
9
330
0
100
AcDbSymbolTable
 70
     2
  0
APPID
  5
12
330
9
100
AcDbSymbolTableRecord
100
AcDbRegAppTableRecord
  2
ACAD
 70
     0
  0
APPID
  5
3FC
330
9
100
AcDbSymbolTableRecord
100
AcDbRegAppTableRecord
  2
ACAD_MLEADERVER
 70
     0
  0
ENDTAB
  0
TABLE
  2
DIMSTYLE
  5
A
330
0
100
AcDbSymbolTable
 70
     1
100
AcDbDimStyleTable
  0
DIMSTYLE
105
27
330
A
100
AcDbSymbolTableRecord
100
AcDbDimStyleTableRecord
  2
ISO-25
 70
     0
 41
2.5
 42
0.625
 43
3.75
 44
1.25
 73
     0
 74
     0
 77
     1
 78
     8
140
2.5
141
2.5
143
0.0393700787
147
0.625
171
     3
172
     1
178
     0
271
     2
272
     2
274
     3
278
    44
283
     0
284
     8
340
11
  0
ENDTAB
  0
TABLE
  2
BLOCK_RECORD
  5
1
330
0
100
AcDbSymbolTable
 70
     2
  0
BLOCK_RECORD
  5
1F
330
1
100
AcDbSymbolTableRecord
100
AcDbBlockTableRecord
  2
*Model_Space
340
22
 70
     0
280
     1
281
     0
  0
BLOCK_RECORD
  5
1B
330
1
100
AcDbSymbolTableRecord
100
AcDbBlockTableRecord
  2
*Paper_Space
340
1E
 70
     0
280
     1
281
     0
  0
BLOCK_RECORD
  5
23
330
1
100
AcDbSymbolTableRecord
100
AcDbBlockTableRecord
  2
*Paper_Space0
340
26
 70
     0
280
     1
281
     0
  0
BLOCK_RECORD
  5
74
330
1
100
AcDbSymbolTableRecord
100
AcDbBlockTableRecord
  2
Blok3
340
0
 70
     0
280
     1
281
     0
  0
ENDTAB
  0
ENDSEC
  0
SECTION
  2
BLOCKS
  0
BLOCK
  5
20
330
1F
100
AcDbEntity
  8
0
100
AcDbBlockBegin
  2
*Model_Space
 70
     0
 10
0.0
 20
0.0
 30
0.0
  3
*Model_Space
  1

  0
ENDBLK
  5
21
330
1F
100
AcDbEntity
  8
0
100
AcDbBlockEnd
  0
BLOCK
  5
1C
330
1B
100
AcDbEntity
 67
     1
  8
0
100
AcDbBlockBegin
  2
*Paper_Space
 70
     0
 10
0.0
 20
0.0
 30
0.0
  3
*Paper_Space
  1

  0
ENDBLK
  5
1D
330
1B
100
AcDbEntity
 67
     1
  8
0
100
AcDbBlockEnd
  0
BLOCK
  5
24
330
23
100
AcDbEntity
  8
0
100
AcDbBlockBegin
  2
*Paper_Space0
 70
     0
 10
0.0
 20
0.0
 30
0.0
  3
*Paper_Space0
  1

  0
ENDBLK
  5
25
330
23
100
AcDbEntity
  8
0
100
AcDbBlockEnd
  0
BLOCK
  5
75
330
74
100
AcDbEntity
  8
0
100
AcDbBlockBegin
  2
Blok3
 70
     0
 10
0.0
 20
0.0
 30
0.0
  3
Blok3
  1

  0
ARC
  5
77
330
74
100
AcDbEntity
  8
0
  6
Continuous
 62
     7
370
    18
100
AcDbCircle
 10
0.0
 20
0.0
 30
0.0
 40
5.26516622082969
100
AcDbArc
 50
197.1531468723
 51
6.1853684648
  0
ARC
  5
78
330
74
100
AcDbEntity
  8
0
  6
Continuous
 62
     7
370
    18
100
AcDbCircle
 10
0.0
 20
0.0
 30
0.0
 40
5.265166220829696
100
AcDbArc
 50
17.1531468723
 51
186.1853684648
  0
ARC
  5
79
330
74
100
AcDbEntity
  8
0
  6
Continuous
 62
     7
370
    18
100
AcDbCircle
 10
0.9855406751
 20
1.5528385231
 30
0.0
 40
0.9855406751265245
100
AcDbArc
 50
360.0
 51
270.0
  0
ARC
  5
7A
330
74
100
AcDbEntity
  8
0
  6
Continuous
 62
     7
370
    18
100
AcDbCircle
 10
-0.9855406751
 20
-1.5528385231
 30
0.0
 40
0.9855406751265233
100
AcDbArc
 50
180.0
 51
90.0
  0
LINE
  5
7B
330
74
100
AcDbEntity
  8
0
  6
Continuous
 62
     7
370
    18
100
AcDbLine
 10
-1.9710813503
 20
-1.5528385231
 30
0.0
 11
-5.030970866
 21
-1.5528385231
 31
0.0
  0
LINE
  5
7C
330
74
100
AcDbEntity
  8
0
  6
Continuous
 62
     7
370
    18
100
AcDbLine
 10
0.9855406751
 20
0.567297848
 30
0.0
 11
5.2345151146
 21
0.567297848
 31
0.0
  0
LINE
  5
7D
330
74
100
AcDbEntity
  8
0
  6
Continuous
 62
     7
370
    18
100
AcDbLine
 10
-0.9855406751
 20
-0.567297848
 30
0.0
 11
-5.2345151146
 21
-0.567297848
 31
0.0
  0
LINE
  5
7E
330
74
100
AcDbEntity
  8
0
  6
Continuous
 62
     7
370
    18
100
AcDbLine
 10
1.9710813503
 20
1.5528385231
 30
0.0
 11
5.030970866
 21
1.5528385231
 31
0.0
  0
ENDBLK
  5
76
330
74
100
AcDbEntity
  8
0
100
AcDbBlockEnd
  0
ENDSEC
  0
SECTION
  2
ENTITIES
  0
LINE
  5
7F
330
1F
100
AcDbEntity
  8
0
  6
Continuous
 62
     7
370
    25
100
AcDbLine
 10
109.1506618906
 20
491.0227184282
 30
0.0
 11
109.1666618906
 21
491.0227184282
 31
0.0
  0
LINE
  5
80
330
1F
100
AcDbEntity
  8
0
  6
Continuous
 62
     7
370
    25
100
AcDbLine
 10
109.1666618906
 20
491.5627184282
 30
0.0
 11
109.1506618906
 21
491.5627184282
 31
0.0
  0
LINE
  5
81
330
1F
100
AcDbEntity
  8
0
  6
Continuous
 62
     7
370
    25
100
AcDbLine
 10
109.3266618906
 20
491.1327184282
 30
0.0
 11
109.8466618906
 21
491.1327184282
 31
0.0
  0
LINE
  5
82
330
1F
100
AcDbEntity
  8
0
  6
Continuous
 62
     7
370
    25
100
AcDbLine
 10
109.8466618906
 20
491.4527184282
 30
0.0
 11
109.3266618906
 21
491.4527184282
 31
0.0
  0
LINE
  5
83
330
1F
100
AcDbEntity
  8
0
  6
Continuous
 62
     7
370
    25
100
AcDbLine
 10
111.5700045893
 20
291.3801262488
 30
0.0
 11
111.575082396
 21
291.4001824196
 31
0.0
  0
LINE
  5
84
330
1F
100
AcDbEntity
  8
0
  6
Continuous
 62
     7
370
    25
100
AcDbLine
 10
106.1463697029
 20
292.7746199394
 30
0.0
 11
106.1412918962
 21
292.7545637685
 31
0.0
  0
LINE
  5
85
330
1F
100
AcDbEntity
  8
0
  6
Continuous
 62
     7
370
    25
100
AcDbLine
 10
108.8031318719
 20
292.7277633236
 30
0.0
 11
108.6669356013
 21
292.1898193194
 31
0.0
  0
ARC
  5
86
330
1F
100
AcDbEntity
  8
0
  6
Continuous
 62
     7
370
    25
100
AcDbCircle
 10
109.8537650127
 20
292.145429554
 30
0.0
 40
0.2000000000000196
100
AcDbArc
 50
358.400656143
 51
0.4743741814
  0
LINE
  5
87
330
1F
100
AcDbEntity
  8
0
  6
Continuous
 62
     7
370
    25
100
AcDbLine
 10
110.0376186821
 20
291.5643531526
 30
0.0
 11
110.0536870996
 21
292.1398475158
 31
0.0
  0
ARC
  5
88
330
1F
100
AcDbEntity
  8
0
  6
Continuous
 62
     7
370
    25
100
AcDbCircle
 10
109.8495802129
 20
296.6980596165
 30
0.0
 40
0.2000000000000138
100
AcDbArc
 50
359.6540459373
 51
2.1892816659
  0
LINE
  5
89
330
1F
100
AcDbEntity
  8
0
  6
Continuous
 62
     7
370
    25
100
AcDbLine
 10
110.0494342289
 20
296.7056997918
 30
0.0
 11
110.0324278997
 21
297.1505564981
 31
0.0
  0
ARC
  5
8A
330
1F
100
AcDbEntity
  8
0
  6
Continuous
 62
     7
370
    25
100
AcDbCircle
 10
109.8376965952
 20
291.5699351909
 30
0.0
 40
0.1999999999999952
100
AcDbArc
 50
345.7924416349
 51
358.4006561429
  0
LINE
  5
8B
330
1F
100
AcDbEntity
  8
0
  6
Continuous
 62
     7
370
    25
100
AcDbLine
 10
110.0123019691
 20
291.444707534
 30
0.0
 11
110.0315791914
 21
291.5208481366
 31
0.0
  0
ARC
  5
8C
330
1F
100
AcDbEntity
  8
0
  6
Continuous
 62
     7
370
    25
100
AcDbCircle
 10
109.0326386837
 20
297.1426919964
 30
0.0
 40
0.2000000000000157
100
AcDbArc
 50
90.0160675015
 51
165.7924416349
  0
LINE
  5
8D
330
1F
100
AcDbEntity
  8
0
  6
Continuous
 62
     7
370
    25
100
AcDbLine
 10
109.8325177975
 20
297.3429163151
 30
0.0
 11
109.0325825976
 21
297.3426919886
 31
0.0
  0
ARC
  5
8E
330
1F
100
AcDbEntity
  8
0
  6
Continuous
 62
     7
370
    25
100
AcDbCircle
 10
109.8325738837
 20
297.1429163229
 30
0.0
 40
0.2000000000000157
100
AcDbArc
 50
2.1892816659
 51
90.0160675015
  0
LINE
  5
8F
330
1F
100
AcDbEntity
  8
0
  6
Continuous
 62
     7
370
    25
100
AcDbLine
 10
108.8387560876
 20
297.1917790507
 30
0.0
 11
108.8194788653
 21
297.1156384481
 31
0.0
  0
ARC
  5
90
330
1F
100
AcDbEntity
  8
0
  6
Continuous
 62
     7
370
    25
100
AcDbCircle
 10
109.018484173
 20
291.4935702618
 30
0.0
 40
0.2000000000000157
100
AcDbArc
 50
180.7119567636
 51
270.0160675015
  0
LINE
  5
91
330
1F
100
AcDbEntity
  8
0
  6
Continuous
 62
     7
370
    25
100
AcDbLine
 10
109.0185402592
 20
291.2935702696
 30
0.0
 11
109.1684234353
 21
291.2936123015
 31
0.0
  0
LINE
  5
92
330
1F
100
AcDbEntity
  8
0
  6
Continuous
 62
     7
370
    25
100
AcDbLine
 10
109.3684240691
 20
291.2936683878
 30
0.0
 11
109.8184754591
 21
291.2937945961
 31
0.0
  0
LINE
  5
93
330
1F
100
AcDbEntity
  8
0
  6
Continuous
 62
     7
370
    25
100
AcDbLine
 10
108.7927356329
 20
293.5643730585
 30
0.0
 11
108.8184996133
 21
291.4910851278
 31
0.0
  0
ARC
  5
94
330
1F
100
AcDbEntity
  8
0
  6
Continuous
 62
     7
370
    25
100
AcDbCircle
 10
109.8184193729
 20
291.4937945883
 30
0.0
 40
0.2000000000000366
100
AcDbArc
 50
270.0160675015
 51
345.7924416349
  0
LINE
  5
95
330
1F
100
AcDbEntity
  8
0
  6
Continuous
 62
     7
370
    25
100
AcDbLine
 10
108.8133707394
 20
297.0684778052
 30
0.0
 11
108.7915909265
 21
294.8074028051
 31
0.0
  0
ARC
  5
96
330
1F
100
AcDbEntity
  8
0
  6
Continuous
 62
     7
370
    25
100
AcDbCircle
 10
109.0133614615
 20
297.0665513939
 30
0.0
 40
0.1999999999999952
100
AcDbArc
 50
165.7924416349
 51
179.448115272
  0
LINE
  5
97
330
1F
100
AcDbEntity
  8
0
  6
Continuous
 62
     7
370
    25
100
AcDbLine
 10
108.7915817332
 20
294.8052925528
 30
0.0
 11
108.7927202771
 21
293.5666743515
 31
0.0
  0
LWPOLYLINE
  5
98
330
1F
100
AcDbEntity
  8
0
  6
Continuous
 62
     7
370
    25
100
AcDbPolyline
 90
       30
 70
   128
 43
0.0
 10
109.1217375597
 20
486.5127601673
 10
109.120273381
 20
482.8997392084
 10
109.1177331774
 20
476.0351148626
 10
109.1155097334
 20
469.1706476849
 10
109.1136030511
 20
462.3063436613
 10
109.112013132
 20
455.4422086022
 10
109.1107399775
 20
448.5782483171
 10
109.1097835886
 20
441.7144686165
 10
109.1091439662
 20
434.8508753103
 10
109.1088211108
 20
427.9874742072
 10
109.1088150227
 20
421.1242711176
 10
109.1091257019
 20
414.2612718501
 10
109.109753148
 20
407.3984822139
 10
109.1106973607
 20
400.5359080182
 10
109.1119583391
 20
393.6735550715
 10
109.1135360821
 20
386.8114291829
 10
109.1154305883
 20
379.9495361606
 10
109.1176418563
 20
373.0878818129
 10
109.1201698841
 20
366.226471947
 10
109.1230146695
 20
359.3653123714
 10
109.1261762102
 20
352.5044088937
 10
109.1296545035
 20
345.6437673198
 10
109.1334495465
 20
338.7833934579
 10
109.1375613358
 20
331.9232931149
 10
109.1419898682
 20
325.0634720981
 10
109.1467351397
 20
318.2039362123
 10
109.1517971464
 20
311.3446912645
 10
109.157175884
 20
304.4857430609
 10
109.162871348
 20
297.6270974071
 10
109.1631206326
 20
297.3427285955
  0
LWPOLYLINE
  5
99
330
1F
100
AcDbEntity
  8
0
  6
Continuous
 62
     7
370
    25
100
AcDbPolyline
 90
       32
 70
   128
 43
0.0
 10
109.1683836574
 20
291.3389885017
 10
109.1688835335
 20
290.7687601081
 10
109.1752124355
 20
283.9107369706
 10
109.1818580485
 20
277.053033797
 10
109.188820367
 20
270.1956563937
 10
109.196099385
 20
263.3386105644
 10
109.2036950965
 20
256.4819021139
 10
109.2116074949
 20
249.6255368445
 10
109.2198365736
 20
242.7695205614
 10
109.2283823256
 20
235.9138590659
 10
109.2372447437
 20
229.058558162
 10
109.2464238204
 20
222.2036236531
 10
109.2559195479
 20
215.3490613405
 10
109.2657319182
 20
208.4948770256
 10
109.2758609229
 20
201.6410765108
 10
109.2863065535
 20
194.7876655976
 10
109.2970688012
 20
187.9346500865
 10
109.3081476568
 20
181.0820357786
 10
109.319543111
 20
174.2298284743
 10
109.3312551541
 20
167.3780339728
 10
109.3432837762
 20
160.5266580743
 10
109.3556289671
 20
153.6757065778
 10
109.3682907164
 20
146.825185283
 10
109.3812690134
 20
139.9750999878
 10
109.394563847
 20
133.1254564912
 10
109.4081752061
 20
126.276260589
 10
109.422103079
 20
119.4275180807
 10
109.4363474541
 20
112.5792347617
 10
109.4509083192
 20
105.7314164292
 10
109.465785662
 20
98.8840688805
 10
109.48097947
 20
92.0371979098
 10
109.4866621459
 20
89.5124924909
  0
LWPOLYLINE
  5
9A
330
1F
100
AcDbEntity
  8
0
  6
Continuous
 62
     7
370
    25
100
AcDbPolyline
 90
       31
 70
   128
 43
0.0
 10
109.6866616354
 20
89.5129443655
 10
109.6785640408
 20
93.1164019298
 10
109.663420115
 20
99.9633388835
 10
109.6485926556
 20
106.8107516804
 10
109.6340816753
 20
113.6586343489
 10
109.6198871866
 20
120.5069810941
 10
109.6060092015
 20
127.3557861185
 10
109.5924477317
 20
134.2050436248
 10
109.5792027886
 20
141.0547478149
 10
109.5662743835
 20
147.9048928915
 10
109.5536625273
 20
154.7554730571
 10
109.5413672308
 20
161.6064825124
 10
109.5293885042
 20
168.4579154587
 10
109.5177263578
 20
175.3097660962
 10
109.5063808014
 20
182.1620286257
 10
109.4953518447
 20
189.0146972467
 10
109.4846394969
 20
195.8677661591
 10
109.4742437671
 20
202.7212295614
 10
109.4641646642
 20
209.5750816537
 10
109.4544021966
 20
216.4293166327
 10
109.4449563726
 20
223.2839286988
 10
109.4358272003
 20
230.1389120491
 10
109.4270146873
 20
236.9942608814
 10
109.4185188411
 20
243.8499693924
 10
109.4103396689
 20
250.70603178
 10
109.4024771776
 20
257.5624422399
 10
109.3949313739
 20
264.4191949698
 10
109.3877022642
 20
271.2762841657
 10
109.3807898545
 20
278.1337040225
 10
109.3741941508
 20
284.9914487363
 10
109.3683704602
 20
291.3522213728
  0
LWPOLYLINE
  5
9B
330
1F
100
AcDbEntity
  8
0
  6
Continuous
 62
     7
370
    25
100
AcDbPolyline
 90
       30
 70
   128
 43
0.0
 10
109.3631396262
 20
297.342784687
 10
109.3619528832
 20
298.7078895159
 10
109.3563073297
 20
305.5665739713
 10
109.3509785029
 20
312.4255600635
 10
109.3459664072
 20
319.2848419866
 10
109.341271047
 20
326.144413935
 10
109.3368924261
 20
333.0042701017
 10
109.3328305483
 20
339.8644046797
 10
109.329085417
 20
346.7248118642
 10
109.3256570355
 20
353.5854858466
 10
109.3225454065
 20
360.4464208202
 10
109.3197505328
 20
367.3076109778
 10
109.3172724166
 20
374.1690505121
 10
109.3151110602
 20
381.0307336138
 10
109.3132664653
 20
387.8926544761
 10
109.3117386335
 20
394.7548072914
 10
109.3105275661
 20
401.6171862502
 10
109.309633264
 20
408.4797855434
 10
109.3090557282
 20
415.3425993629
 10
109.308794959
 20
422.2056219007
 10
109.3088509566
 20
429.0688473463
 10
109.3092237211
 20
435.9322698908
 10
109.3099132521
 20
442.7958837237
 10
109.3109195491
 20
449.6596830368
 10
109.3122426111
 20
456.5236620204
 10
109.3138824371
 20
463.3878148632
 10
109.3158390256
 20
470.2521357558
 10
109.318112375
 20
477.1166188884
 10
109.3207024835
 20
483.9812584502
 10
109.3217375423
 20
486.5126766891
  0
ARC
  5
9C
330
1F
100
AcDbEntity
  8
0
  6
Continuous
 62
     7
370
    25
100
AcDbCircle
 10
108.0867820177
 20
81.791532945
 30
0.0
 40
0.2130000000000081
100
AcDbArc
 50
180.0
 51
0.0
  0
LINE
  5
9D
330
1F
100
AcDbEntity
  8
0
  6
Continuous
 62
     7
370
    25
100
AcDbLine
 10
108.2997820177
 20
81.791532945
 30
0.0
 11
108.2997820177
 21
83.3901681884
 31
0.0
  0
LINE
  5
9E
330
1F
100
AcDbEntity
  8
0
  6
Continuous
 62
     7
370
    25
100
AcDbLine
 10
107.8737820177
 20
83.3901681884
 30
0.0
 11
107.8737820177
 21
81.791532945
 31
0.0
  0
ARC
  5
9F
330
1F
100
AcDbEntity
  8
0
  6
Continuous
 62
     7
370
    25
100
AcDbCircle
 10
111.0867820177
 20
81.791532945
 30
0.0
 40
0.2130000000000081
100
AcDbArc
 50
180.0
 51
0.0000000001
  0
LINE
  5
A0
330
1F
100
AcDbEntity
  8
0
  6
Continuous
 62
     7
370
    25
100
AcDbLine
 10
111.2997820177
 20
81.791532945
 30
0.0
 11
111.2997820177
 21
83.3901681884
 31
0.0
  0
LINE
  5
A1
330
1F
100
AcDbEntity
  8
0
  6
Continuous
 62
     7
370
    25
100
AcDbLine
 10
110.8737820177
 20
83.3901681884
 30
0.0
 11
110.8737820177
 21
81.791532945
 31
0.0
  0
LINE
  5
A2
330
1F
100
AcDbEntity
  8
0
  6
Continuous
 62
     7
370
    25
100
AcDbLine
 10
110.8737820177
 20
86.3927184282
 30
0.0
 11
110.8737820177
 21
83.3901681884
 31
0.0
  0
LINE
  5
A3
330
1F
100
AcDbEntity
  8
0
  6
Continuous
 62
     7
370
    25
100
AcDbLine
 10
111.2997820177
 20
83.3901681884
 30
0.0
 11
111.2997820177
 21
86.3927184282
 31
0.0
  0
LINE
  5
A4
330
1F
100
AcDbEntity
  8
0
  6
Continuous
 62
     7
370
    25
100
AcDbLine
 10
107.8737820177
 20
86.3927184282
 30
0.0
 11
107.8737820177
 21
83.3901681884
 31
0.0
  0
LINE
  5
A5
330
1F
100
AcDbEntity
  8
0
  6
Continuous
 62
     7
370
    25
100
AcDbLine
 10
108.2997820177
 20
83.3901681884
 30
0.0
 11
108.2997820177
 21
86.3927184282
 31
0.0
  0
LINE
  5
A6
330
1F
100
AcDbEntity
  8
0
  6
Continuous
 62
     7
370
    25
100
AcDbLine
 10
111.3276552568
 20
84.3190696049
 30
0.0
 11
111.2997820177
 21
84.3190696049
 31
0.0
  0
LINE
  5
A7
330
1F
100
AcDbEntity
  8
0
  6
Continuous
 62
     7
370
    25
100
AcDbLine
 10
110.8737820177
 20
84.3190696049
 30
0.0
 11
108.2997820177
 21
84.3190696049
 31
0.0
  0
LINE
  5
A8
330
1F
100
AcDbEntity
  8
0
  6
Continuous
 62
     7
370
    25
100
AcDbLine
 10
111.9867820177
 20
84.3190696049
 30
0.0
 11
111.7243754196
 21
84.3190696049
 31
0.0
  0
LINE
  5
A9
330
1F
100
AcDbEntity
  8
0
  6
Continuous
 62
     7
370
    25
100
AcDbLine
 10
111.7259087785
 20
82.5410696049
 30
0.0
 11
111.9867820177
 21
82.5410696049
 31
0.0
  0
LINE
  5
AA
330
1F
100
AcDbEntity
  8
0
  6
Continuous
 62
     7
370
    25
100
AcDbLine
 10
108.2997820177
 20
82.5410696049
 30
0.0
 11
110.8737820177
 21
82.5410696049
 31
0.0
  0
LINE
  5
AB
330
1F
100
AcDbEntity
  8
0
  6
Continuous
 62
     7
370
    25
100
AcDbLine
 10
111.2997820177
 20
82.5410696049
 30
0.0
 11
111.3291886157
 21
82.5410696049
 31
0.0
  0
LINE
  5
AC
330
1F
100
AcDbEntity
  8
0
  6
Continuous
 62
     7
370
    25
100
AcDbLine
 10
107.8366618906
 20
84.3352961168
 30
0.0
 11
107.8667820177
 21
84.3352961168
 31
0.0
  0
LINE
  5
AD
330
1F
100
AcDbEntity
  8
0
  6
Continuous
 62
     7
370
    25
100
AcDbLine
 10
80.5866618906
 20
86.4207184282
 30
0.0
 11
80.5866618906
 21
86.4327184282
 31
0.0
  0
LINE
  5
AE
330
1F
100
AcDbEntity
  8
0
  6
Continuous
 62
     7
370
    25
100
AcDbLine
 10
80.2666618906
 20
86.4327184282
 30
0.0
 11
80.2666618906
 21
86.4207184282
 31
0.0
  0
LINE
  5
AF
330
1F
100
AcDbEntity
  8
0
  6
Continuous
 62
     7
370
    25
100
AcDbLine
 10
78.9066618906
 20
86.4207184282
 30
0.0
 11
78.9066618906
 21
86.4327184282
 31
0.0
  0
LINE
  5
B0
330
1F
100
AcDbEntity
  8
0
  6
Continuous
 62
     7
370
    25
100
AcDbLine
 10
78.5866618906
 20
86.4327184282
 30
0.0
 11
78.5866618906
 21
86.4207184282
 31
0.0
  0
LINE
  5
B1
330
1F
100
AcDbEntity
  8
0
  6
Continuous
 62
     7
370
    25
100
AcDbLine
 10
144.5866618906
 20
489.6047184282
 30
0.0
 11
144.5866618906
 21
489.5927184282
 31
0.0
  0
LINE
  5
B2
330
1F
100
AcDbEntity
  8
0
  6
Continuous
 62
     7
370
    25
100
AcDbLine
 10
144.9066618906
 20
489.5927184282
 30
0.0
 11
144.9066618906
 21
489.6047184282
 31
0.0
  0
LINE
  5
B3
330
1F
100
AcDbEntity
  8
0
  6
Continuous
 62
     7
370
    25
100
AcDbLine
 10
146.2666618906
 20
489.6047184282
 30
0.0
 11
146.2666618906
 21
489.5927184282
 31
0.0
  0
LINE
  5
B4
330
1F
100
AcDbEntity
  8
0
  6
Continuous
 62
     7
370
    25
100
AcDbLine
 10
146.5866618906
 20
489.5927184282
 30
0.0
 11
146.5866618906
 21
489.6047184282
 31
0.0
  0
LINE
  5
B5
330
1F
100
AcDbEntity
  8
0
  6
Continuous
 62
     7
370
    25
100
AcDbLine
 10
140.2666618906
 20
89.6047184282
 30
0.0
 11
140.2666618906
 21
89.5927184282
 31
0.0
  0
LINE
  5
B6
330
1F
100
AcDbEntity
  8
0
  6
Continuous
 62
     7
370
    25
100
AcDbLine
 10
140.5866618906
 20
89.5927184282
 30
0.0
 11
140.5866618906
 21
89.6047184282
 31
0.0
  0
LINE
  5
B7
330
1F
100
AcDbEntity
  8
0
  6
Continuous
 62
     7
370
    25
100
AcDbLine
 10
138.5866618906
 20
89.6047184282
 30
0.0
 11
138.5866618906
 21
89.5927184282
 31
0.0
  0
LINE
  5
B8
330
1F
100
AcDbEntity
  8
0
  6
Continuous
 62
     7
370
    25
100
AcDbLine
 10
138.9066618906
 20
89.5927184282
 30
0.0
 11
138.9066618906
 21
89.6047184282
 31
0.0
  0
LINE
  5
B9
330
1F
100
AcDbEntity
  8
0
  6
Continuous
 62
     7
370
    25
100
AcDbLine
 10
144.9066618906
 20
486.4207184282
 30
0.0
 11
144.9066618906
 21
486.4327184282
 31
0.0
  0
LINE
  5
BA
330
1F
100
AcDbEntity
  8
0
  6
Continuous
 62
     7
370
    25
100
AcDbLine
 10
144.5866618906
 20
486.4327184282
 30
0.0
 11
144.5866618906
 21
486.4207184282
 31
0.0
  0
LINE
  5
BB
330
1F
100
AcDbEntity
  8
0
  6
Continuous
 62
     7
370
    25
100
AcDbLine
 10
146.5866618906
 20
486.4207184282
 30
0.0
 11
146.5866618906
 21
486.4327184282
 31
0.0
  0
LINE
  5
BC
330
1F
100
AcDbEntity
  8
0
  6
Continuous
 62
     7
370
    25
100
AcDbLine
 10
146.2666618906
 20
486.4327184282
 30
0.0
 11
146.2666618906
 21
486.4207184282
 31
0.0
  0
LINE
  5
BD
330
1F
100
AcDbEntity
  8
0
  6
Continuous
 62
     7
370
    25
100
AcDbLine
 10
140.5866618906
 20
86.4207184282
 30
0.0
 11
140.5866618906
 21
86.4327184282
 31
0.0
  0
LINE
  5
BE
330
1F
100
AcDbEntity
  8
0
  6
Continuous
 62
     7
370
    25
100
AcDbLine
 10
140.2666618906
 20
86.4327184282
 30
0.0
 11
140.2666618906
 21
86.4207184282
 31
0.0
  0
LINE
  5
BF
330
1F
100
AcDbEntity
  8
0
  6
Continuous
 62
     7
370
    25
100
AcDbLine
 10
74.2666618906
 20
489.6047184282
 30
0.0
 11
74.2666618906
 21
489.5927184282
 31
0.0
  0
LINE
  5
C0
330
1F
100
AcDbEntity
  8
0
  6
Continuous
 62
     7
370
    25
100
AcDbLine
 10
74.5866618906
 20
489.5927184282
 30
0.0
 11
74.5866618906
 21
489.6047184282
 31
0.0
  0
LINE
  5
C1
330
1F
100
AcDbEntity
  8
0
  6
Continuous
 62
     7
370
    25
100
AcDbLine
 10
72.5866618906
 20
489.6047184282
 30
0.0
 11
72.5866618906
 21
489.5927184282
 31
0.0
  0
LINE
  5
C2
330
1F
100
AcDbEntity
  8
0
  6
Continuous
 62
     7
370
    25
100
AcDbLine
 10
72.9066618906
 20
489.5927184282
 30
0.0
 11
72.9066618906
 21
489.6047184282
 31
0.0
  0
LINE
  5
C3
330
1F
100
AcDbEntity
  8
0
  6
Continuous
 62
     7
370
    25
100
AcDbLine
 10
138.9066618906
 20
86.4207184282
 30
0.0
 11
138.9066618906
 21
86.4327184282
 31
0.0
  0
LINE
  5
C4
330
1F
100
AcDbEntity
  8
0
  6
Continuous
 62
     7
370
    25
100
AcDbLine
 10
138.5866618906
 20
86.4327184282
 30
0.0
 11
138.5866618906
 21
86.4207184282
 31
0.0
  0
LINE
  5
C5
330
1F
100
AcDbEntity
  8
0
  6
Continuous
 62
     7
370
    25
100
AcDbLine
 10
80.2666618906
 20
89.6047184282
 30
0.0
 11
80.2666618906
 21
89.5927184282
 31
0.0
  0
LINE
  5
C6
330
1F
100
AcDbEntity
  8
0
  6
Continuous
 62
     7
370
    25
100
AcDbLine
 10
80.5866618906
 20
89.5927184282
 30
0.0
 11
80.5866618906
 21
89.6047184282
 31
0.0
  0
LINE
  5
C7
330
1F
100
AcDbEntity
  8
0
  6
Continuous
 62
     7
370
    25
100
AcDbLine
 10
78.5866618906
 20
89.6047184282
 30
0.0
 11
78.5866618906
 21
89.5927184282
 31
0.0
  0
LINE
  5
C8
330
1F
100
AcDbEntity
  8
0
  6
Continuous
 62
     7
370
    25
100
AcDbLine
 10
78.9066618906
 20
89.5927184282
 30
0.0
 11
78.9066618906
 21
89.6047184282
 31
0.0
  0
LINE
  5
C9
330
1F
100
AcDbEntity
  8
0
  6
Continuous
 62
     7
370
    25
100
AcDbLine
 10
72.9066618906
 20
486.4207184282
 30
0.0
 11
72.9066618906
 21
486.4327184282
 31
0.0
  0
LINE
  5
CA
330
1F
100
AcDbEntity
  8
0
  6
Continuous
 62
     7
370
    25
100
AcDbLine
 10
72.5866618906
 20
486.4327184282
 30
0.0
 11
72.5866618906
 21
486.4207184282
 31
0.0
  0
LINE
  5
CB
330
1F
100
AcDbEntity
  8
0
  6
Continuous
 62
     7
370
    25
100
AcDbLine
 10
74.5866618906
 20
486.4207184282
 30
0.0
 11
74.5866618906
 21
486.4327184282
 31
0.0
  0
LINE
  5
CC
330
1F
100
AcDbEntity
  8
0
  6
Continuous
 62
     7
370
    25
100
AcDbLine
 10
74.2666618906
 20
486.4327184282
 30
0.0
 11
74.2666618906
 21
486.4207184282
 31
0.0
  0
CIRCLE
  5
CD
330
1F
100
AcDbEntity
  8
0
  6
Continuous
 62
     7
370
    25
100
AcDbCircle
 10
117.586394112
 20
102.0127722119
 30
0.0
 40
0.881386377726392
  0
LINE
  5
CE
330
1F
100
AcDbEntity
  8
0
  6
Continuous
 62
     7
370
    25
100
AcDbLine
 10
101.2496618906
 20
117.1900690497
 30
0.0
 11
101.2496618906
 21
102.8353678067
 31
0.0
  0
LINE
  5
CF
330
1F
100
AcDbEntity
  8
0
  6
Continuous
 62
     7
370
    25
100
AcDbLine
 10
101.9236618906
 20
102.8354932906
 30
0.0
 11
101.9236618906
 21
117.1899435658
 31
0.0
  0
LINE
  5
D0
330
1F
100
AcDbEntity
  8
0
  6
Continuous
 62
     7
370
    25
100
AcDbLine
 10
102.4093112692
 20
101.6757184282
 30
0.0
 11
109.4597201999
 21
101.6757184282
 31
0.0
  0
LINE
  5
D1
330
1F
100
AcDbEntity
  8
0
  6
Continuous
 62
     7
370
    25
100
AcDbLine
 10
109.6597121104
 20
101.6757184282
 30
0.0
 11
116.7640125121
 21
101.6757184282
 31
0.0
  0
LINE
  5
D2
330
1F
100
AcDbEntity
  8
0
  6
Continuous
 62
     7
370
    25
100
AcDbLine
 10
116.7638870282
 20
102.3497184282
 30
0.0
 11
109.6582526237
 21
102.3497184282
 31
0.0
  0
LINE
  5
D3
330
1F
100
AcDbEntity
  8
0
  6
Continuous
 62
     7
370
    25
100
AcDbLine
 10
109.4582557892
 20
102.3497184282
 30
0.0
 11
102.4094353008
 21
102.3497184282
 31
0.0
  0
LINE
  5
D4
330
1F
100
AcDbEntity
  8
0
  6
Continuous
 62
     7
370
    25
100
AcDbLine
 10
117.9236618906
 20
102.8353678067
 30
0.0
 11
117.9236618906
 21
117.1900690497
 31
0.0
  0
LINE
  5
D5
330
1F
100
AcDbEntity
  8
0
  6
Continuous
 62
     7
370
    25
100
AcDbLine
 10
117.2496618906
 20
117.1899435658
 30
0.0
 11
117.2496618906
 21
102.8354932906
 31
0.0
  0
LINE
  5
D6
330
1F
100
AcDbEntity
  8
0
  6
Continuous
 62
     7
370
    25
100
AcDbLine
 10
138.6976618906
 20
86.3047184282
 30
0.0
 11
138.6976618906
 21
58.0127184282
 31
0.0
  0
LINE
  5
D7
330
1F
100
AcDbEntity
  8
0
  6
Continuous
 62
     7
370
    25
100
AcDbLine
 10
140.4756618906
 20
58.0127184282
 30
0.0
 11
140.4756618906
 21
86.3047184282
 31
0.0
  0
LINE
  5
D8
330
1F
100
AcDbEntity
  8
0
  6
Continuous
 62
     7
370
    25
100
AcDbLine
 10
140.4756618906
 20
89.7207184282
 30
0.0
 11
140.4756618906
 21
118.0127184282
 31
0.0
  0
LINE
  5
D9
330
1F
100
AcDbEntity
  8
0
  6
Continuous
 62
     7
370
    25
100
AcDbLine
 10
138.6976618906
 20
118.0127184282
 30
0.0
 11
138.6976618906
 21
89.7207184282
 31
0.0
  0
LINE
  5
DA
330
1F
100
AcDbEntity
  8
0
  6
Continuous
 62
     7
370
    25
100
AcDbLine
 10
78.6976618906
 20
86.3047184282
 30
0.0
 11
78.6976618906
 21
58.0127184282
 31
0.0
  0
LINE
  5
DB
330
1F
100
AcDbEntity
  8
0
  6
Continuous
 62
     7
370
    25
100
AcDbLine
 10
80.4756618906
 20
58.0127184282
 30
0.0
 11
80.4756618906
 21
86.3047184282
 31
0.0
  0
LINE
  5
DC
330
1F
100
AcDbEntity
  8
0
  6
Continuous
 62
     7
370
    25
100
AcDbLine
 10
80.4756618906
 20
89.7207184282
 30
0.0
 11
80.4756618906
 21
118.0127184282
 31
0.0
  0
LINE
  5
DD
330
1F
100
AcDbEntity
  8
0
  6
Continuous
 62
     7
370
    25
100
AcDbLine
 10
78.6976618906
 20
118.0127184282
 30
0.0
 11
78.6976618906
 21
89.7207184282
 31
0.0
  0
LINE
  5
DE
330
1F
100
AcDbEntity
  8
0
  6
Continuous
 62
     7
370
    25
100
AcDbLine
 10
74.4756618906
 20
489.7207184282
 30
0.0
 11
74.4756618906
 21
518.0127184282
 31
0.0
  0
LINE
  5
DF
330
1F
100
AcDbEntity
  8
0
  6
Continuous
 62
     7
370
    25
100
AcDbLine
 10
72.6976618906
 20
518.0127184282
 30
0.0
 11
72.6976618906
 21
489.7207184282
 31
0.0
  0
LINE
  5
E0
330
1F
100
AcDbEntity
  8
0
  6
Continuous
 62
     7
370
    25
100
AcDbLine
 10
72.6976618906
 20
486.3047184282
 30
0.0
 11
72.6976618906
 21
458.0127184282
 31
0.0
  0
LINE
  5
E1
330
1F
100
AcDbEntity
  8
0
  6
Continuous
 62
     7
370
    25
100
AcDbLine
 10
74.4756618906
 20
458.0127184282
 30
0.0
 11
74.4756618906
 21
486.3047184282
 31
0.0
  0
LINE
  5
E2
330
1F
100
AcDbEntity
  8
0
  6
Continuous
 62
     7
370
    25
100
AcDbLine
 10
146.4756618906
 20
489.7207184282
 30
0.0
 11
146.4756618906
 21
518.0127184282
 31
0.0
  0
LINE
  5
E3
330
1F
100
AcDbEntity
  8
0
  6
Continuous
 62
     7
370
    25
100
AcDbLine
 10
144.6976618906
 20
518.0127184282
 30
0.0
 11
144.6976618906
 21
489.7207184282
 31
0.0
  0
LINE
  5
E4
330
1F
100
AcDbEntity
  8
0
  6
Continuous
 62
     7
370
    25
100
AcDbLine
 10
144.6976618906
 20
486.3047184282
 30
0.0
 11
144.6976618906
 21
458.0127184282
 31
0.0
  0
LINE
  5
E5
330
1F
100
AcDbEntity
  8
0
  6
Continuous
 62
     7
370
    25
100
AcDbLine
 10
146.4756618906
 20
458.0127184282
 30
0.0
 11
146.4756618906
 21
486.3047184282
 31
0.0
  0
LINE
  5
E6
330
1F
100
AcDbEntity
  8
0
  6
Continuous
 62
     7
370
    25
100
AcDbLine
 10
110.2217285573
 20
491.5327184282
 30
0.0
 11
110.1550618906
 21
491.5327184282
 31
0.0
  0
LINE
  5
E7
330
1F
100
AcDbEntity
  8
0
  6
Continuous
 62
     7
370
    25
100
AcDbLine
 10
110.1550618906
 20
491.0527184282
 30
0.0
 11
110.2217285573
 21
491.0527184282
 31
0.0
  0
ARC
  5
E8
330
1F
100
AcDbEntity
  8
0
  6
Continuous
 62
     7
370
    25
100
AcDbCircle
 10
110.2217285573
 20
491.4993850949
 30
0.0
 40
0.0333333333333599
100
AcDbArc
 50
0.0
 51
90.0
  0
ARC
  5
E9
330
1F
100
AcDbEntity
  8
0
  6
Continuous
 62
     7
370
    25
100
AcDbCircle
 10
110.2217285573
 20
491.0860517615
 30
0.0
 40
0.0333333333334167
100
AcDbArc
 50
270.0
 51
0.0
  0
LINE
  5
EA
330
1F
100
AcDbEntity
  8
0
  6
Continuous
 62
     7
370
    25
100
AcDbLine
 10
69.5866618906
 20
56.8622040024
 30
0.0
 11
149.5866618906
 21
56.8622040024
 31
0.0
  0
LINE
  5
EB
330
1F
100
AcDbEntity
  8
0
  6
Continuous
 62
     7
370
    25
100
AcDbLine
 10
69.5866618906
 20
518.8622040024
 30
0.0
 11
69.5866618906
 21
489.5127184282
 31
0.0
  0
LINE
  5
EC
330
1F
100
AcDbEntity
  8
0
  6
Continuous
 62
     7
370
    25
100
AcDbLine
 10
69.5866618906
 20
486.5127184282
 30
0.0
 11
69.5866618906
 21
56.8622040024
 31
0.0
  0
LINE
  5
ED
330
1F
100
AcDbEntity
  8
0
  6
Continuous
 62
     7
370
    25
100
AcDbLine
 10
149.5866618906
 20
518.8622040024
 30
0.0
 11
146.0989999804
 21
518.8622040024
 31
0.0
  0
LINE
  5
EE
330
1F
100
AcDbEntity
  8
0
  6
Continuous
 62
     7
370
    25
100
AcDbLine
 10
145.0743238008
 20
518.8622040024
 30
0.0
 11
74.0989999804
 21
518.8622040024
 31
0.0
  0
LINE
  5
EF
330
1F
100
AcDbEntity
  8
0
  6
Continuous
 62
     7
370
    25
100
AcDbLine
 10
73.0743238008
 20
518.8622040024
 30
0.0
 11
69.5866618906
 21
518.8622040024
 31
0.0
  0
LINE
  5
F0
330
1F
100
AcDbEntity
  8
0
  6
Continuous
 62
     7
370
    25
100
AcDbLine
 10
149.5866618906
 20
56.8622040024
 30
0.0
 11
149.5866618906
 21
486.5127184282
 31
0.0
  0
LINE
  5
F1
330
1F
100
AcDbEntity
  8
0
  6
Continuous
 62
     7
370
    25
100
AcDbLine
 10
149.5866618906
 20
489.5127184282
 30
0.0
 11
149.5866618906
 21
518.8622040024
 31
0.0
  0
LINE
  5
F2
330
1F
100
AcDbEntity
  8
0
  6
Continuous
 62
     7
370
    25
100
AcDbLine
 10
109.1506618906
 20
491.4277184282
 30
0.0
 11
109.1506618906
 21
491.2927184282
 31
0.0
  0
LINE
  5
F3
330
1F
100
AcDbEntity
  8
0
  6
Continuous
 62
     7
370
    25
100
AcDbLine
 10
109.1506618906
 20
491.2927184282
 30
0.0
 11
108.9907773179
 21
491.2927184282
 31
0.0
  0
LWPOLYLINE
  5
F4
330
1F
100
AcDbEntity
  8
0
  6
Continuous
 62
     7
370
    25
100
AcDbPolyline
 90
        3
 70
   128
 43
0.0
 10
108.9907773179
 20
491.2927184282
 10
108.9732808648
 20
491.3588587434
 10
108.9666618906
 20
491.4277184282
  0
ARC
  5
F5
330
1F
100
AcDbEntity
  8
0
  6
Continuous
 62
     7
370
    25
100
AcDbCircle
 10
109.3759182011
 20
491.4242657327
 30
0.0
 40
0.4092708745211377
100
AcDbArc
 50
160.227207024
 51
179.5166349756
  0
LINE
  5
F6
330
1F
100
AcDbEntity
  8
0
  6
Continuous
 62
     7
370
    25
100
AcDbLine
 10
109.1506618906
 20
491.5627184282
 30
0.0
 11
108.9907773179
 21
491.5627184282
 31
0.0
  0
LINE
  5
F7
330
1F
100
AcDbEntity
  8
0
  6
Continuous
 62
     7
370
    25
100
AcDbLine
 10
109.1506618906
 20
491.5627184282
 30
0.0
 11
109.1506618906
 21
491.4277184282
 31
0.0
  0
LINE
  5
F8
330
1F
100
AcDbEntity
  8
0
  6
Continuous
 62
     7
370
    25
100
AcDbLine
 10
108.9666618906
 20
491.4277184282
 30
0.0
 11
108.9666618906
 21
491.1577184282
 31
0.0
  0
ARC
  5
F9
330
1F
100
AcDbEntity
  8
0
  6
Continuous
 62
     7
370
    25
100
AcDbCircle
 10
109.3759182011
 20
491.1542657327
 30
0.0
 40
0.4092708745204267
100
AcDbArc
 50
160.227207024
 51
179.5166349756
  0
LINE
  5
FA
330
1F
100
AcDbEntity
  8
0
  6
Continuous
 62
     7
370
    25
100
AcDbLine
 10
109.1506618906
 20
491.1577184282
 30
0.0
 11
109.1506618906
 21
491.0227184282
 31
0.0
  0
LINE
  5
FB
330
1F
100
AcDbEntity
  8
0
  6
Continuous
 62
     7
370
    25
100
AcDbLine
 10
109.1506618906
 20
491.0227184282
 30
0.0
 11
108.9907773179
 21
491.0227184282
 31
0.0
  0
LWPOLYLINE
  5
FC
330
1F
100
AcDbEntity
  8
0
  6
Continuous
 62
     7
370
    25
100
AcDbPolyline
 90
        3
 70
   128
 43
0.0
 10
108.9907773179
 20
491.0227184282
 10
108.9732808648
 20
491.0888587434
 10
108.9666618906
 20
491.1577184282
  0
LINE
  5
FD
330
1F
100
AcDbEntity
  8
0
  6
Continuous
 62
     7
370
    25
100
AcDbLine
 10
109.1506618906
 20
491.2927184282
 30
0.0
 11
109.1506618906
 21
491.1577184282
 31
0.0
  0
LINE
  5
FE
330
1F
100
AcDbEntity
  8
0
  6
Continuous
 62
     7
370
    25
100
AcDbLine
 10
108.9907773179
 20
491.5627184282
 30
0.0
 11
108.9666618906
 21
491.5627184282
 31
0.0
  0
LINE
  5
FF
330
1F
100
AcDbEntity
  8
0
  6
Continuous
 62
     7
370
    25
100
AcDbLine
 10
108.9666618906
 20
491.5627184282
 30
0.0
 11
108.9666618906
 21
491.4277184282
 31
0.0
  0
LINE
  5
100
330
1F
100
AcDbEntity
  8
0
  6
Continuous
 62
     7
370
    25
100
AcDbLine
 10
108.9666618906
 20
491.0227184282
 30
0.0
 11
108.9907773179
 21
491.0227184282
 31
0.0
  0
LINE
  5
101
330
1F
100
AcDbEntity
  8
0
  6
Continuous
 62
     7
370
    25
100
AcDbLine
 10
108.9666618906
 20
491.0227184282
 30
0.0
 11
108.9666618906
 21
491.1577184282
 31
0.0
  0
ARC
  5
102
330
1F
100
AcDbEntity
  8
0
  6
Continuous
 62
     7
370
    25
100
AcDbCircle
 10
108.8630711399
 20
292.0853746613
 30
0.0
 40
2.79722960472004
100
AcDbArc
 50
345.8208918712
 51
65.0287499594
  0
ARC
  5
103
330
1F
100
AcDbEntity
  8
0
  6
Continuous
 62
     7
370
    25
100
AcDbCircle
 10
108.8574195927
 20
292.0869360358
 30
0.0
 40
2.796909125478305
100
AcDbArc
 50
91.3337119489
 51
165.7665801089
  0
ARC
  5
104
330
1F
100
AcDbEntity
  8
0
  6
Continuous
 62
     7
370
    25
100
AcDbCircle
 10
108.8558758286
 20
292.070193181
 30
0.0
 40
2.799522999920815
100
AcDbArc
 50
165.8500933277
 51
276.4555245772
  0
ARC
  5
105
330
1F
100
AcDbEntity
  8
0
  6
Continuous
 62
     7
370
    25
100
AcDbCircle
 10
108.859743011
 20
292.0671692515
 30
0.0
 40
2.795987466095108
100
AcDbArc
 50
280.531040952
 51
345.7753384955
  0
ARC
  5
106
330
1F
100
AcDbEntity
  8
0
  6
Continuous
 62
     7
370
    25
100
AcDbCircle
 10
108.8733189909
 20
292.1377201648
 30
0.0
 40
0.2128577586849607
100
AcDbArc
 50
165.8323242094
 51
253.5383667624
  0
LWPOLYLINE
  5
107
330
1F
100
AcDbEntity
  8
0
  6
Continuous
 62
     7
370
    25
100
AcDbPolyline
 90
        9
 70
   128
 43
0.0
 10
108.8538460127
 20
292.1451491459
 10
108.858103155
 20
292.1659161768
 10
108.869881963
 20
292.1858872975
 10
108.8887297837
 20
292.2042950291
 10
108.9139223059
 20
292.2204319727
 10
108.9444913951
 20
292.2336779947
 10
108.9792622984
 20
292.2435240579
 10
109.0168987895
 20
292.2495917835
 10
109.0559545191
 20
292.2516479924
  0
ARC
  5
108
330
1F
100
AcDbEntity
  8
0
  6
Continuous
 62
     7
370
    25
100
AcDbCircle
 10
98.4454280705
 20
292.1450102899
 30
0.0
 40
10.6110622990942
100
AcDbArc
 50
359.0166407873
 51
0.5758135208
  0
ARC
  5
109
330
1F
100
AcDbEntity
  8
0
  6
Continuous
 62
     7
370
    25
100
AcDbCircle
 10
109.0466042178
 20
292.1557744091
 30
0.0
 40
0.193050827072864
100
AcDbArc
 50
183.1550785155
 51
272.4710697365
  0
ARC
  5
10A
330
1F
100
AcDbEntity
  8
0
  6
Continuous
 62
     7
370
    25
100
AcDbCircle
 10
98.9826518295
 20
292.1461689554
 30
0.0
 40
10.87375167099412
100
AcDbArc
 50
359.0354752469
 51
0.5569790611
  0
LINE
  5
10B
330
1F
100
AcDbEntity
  8
0
  6
Continuous
 62
     7
370
    25
100
AcDbLine
 10
109.8548627914
 20
291.9631274229
 30
0.0
 11
109.0549275915
 21
291.9629030964
 31
0.0
  0
LINE
  5
10C
330
1F
100
AcDbEntity
  8
0
  6
Continuous
 62
     7
370
    25
100
AcDbLine
 10
109.855889719
 20
292.2518723189
 30
0.0
 11
109.0559545191
 21
292.2516479924
 31
0.0
  0
LWPOLYLINE
  5
10D
330
1F
100
AcDbEntity
  8
0
  6
Continuous
 62
     7
370
    25
100
AcDbPolyline
 90
        9
 70
   128
 43
0.0
 10
109.855889719
 20
292.2518723189
 10
109.8948637973
 20
292.249837992
 10
109.9322584724
 20
292.2437913074
 10
109.9666366878
 20
292.2339646357
 10
109.996677308
 20
292.2207356106
 10
110.0212258889
 20
292.2046126159
 10
110.0393390422
 20
292.1862152493
 10
110.0503206896
 20
292.1662505113
 10
110.0537488126
 20
292.1454856357
  0
LINE
  5
10E
330
1F
100
AcDbEntity
  8
0
  6
Continuous
 62
     7
370
    25
100
AcDbLine
 10
110.0536870996
 20
292.1398475158
 30
0.0
 11
110.0537488126
 21
292.1454856357
 31
0.0
  0
ARC
  5
10F
330
1F
100
AcDbEntity
  8
0
  6
Continuous
 62
     7
370
    25
100
AcDbCircle
 10
431.6622041973
 20
294.7268101424
 30
0.0
 40
322.6157447476833
100
AcDbArc
 50
179.6657459402
 51
180.439587151
  0
ARC
  5
110
330
1F
100
AcDbEntity
  8
0
  6
Continuous
 62
     7
370
    25
100
AcDbCircle
 10
445.7584522995
 20
294.7311504606
 30
0.0
 40
336.9145309126296
100
AcDbArc
 50
179.6655526649
 51
180.4397804263
  0
LWPOLYLINE
  5
111
330
1F
100
AcDbEntity
  8
0
  6
Continuous
 62
     7
370
    25
100
AcDbPolyline
 90
        9
 70
   128
 43
0.0
 10
109.0519493245
 20
296.6088861292
 10
109.0128901438
 20
296.6105843214
 10
108.9752434322
 20
296.6156355194
 10
108.9404559316
 20
296.6238456085
 10
108.9098645061
 20
296.6348990796
 10
108.8846447672
 20
296.6483711539
 10
108.8657658951
 20
296.6637441072
 10
108.8539533945
 20
296.6804271656
 10
108.8496612129
 20
296.6977792084
  0
ARC
  5
112
330
1F
100
AcDbEntity
  8
0
  6
Continuous
 62
     7
370
    25
100
AcDbCircle
 10
432.7009691414
 20
294.7272540024
 30
0.0
 40
322.8545691510666
100
AcDbArc
 50
179.6660321604
 51
180.4393009309
  0
LINE
  5
113
330
1F
100
AcDbEntity
  8
0
  6
Continuous
 62
     7
370
    25
100
AcDbLine
 10
109.8518845244
 20
296.6091104557
 30
0.0
 11
109.0519493245
 21
296.6088861292
 31
0.0
  0
LWPOLYLINE
  5
114
330
1F
100
AcDbEntity
  8
0
  6
Continuous
 62
     7
370
    25
100
AcDbPolyline
 90
        9
 70
   128
 43
0.0
 10
109.8518845244
 20
296.6091104557
 10
109.8908551517
 20
296.6108305299
 10
109.9282396061
 20
296.6159027689
 10
109.9626012243
 20
296.6241322495
 10
109.9926195083
 20
296.6352027174
 10
110.0171408724
 20
296.6486887407
 10
110.0352229744
 20
296.664072059
 10
110.0461709291
 20
296.6807615001
 10
110.0495640129
 20
296.6981156982
  0
ARC
  5
115
330
1F
100
AcDbEntity
  8
0
  6
Continuous
 62
     7
370
    25
100
AcDbCircle
 10
446.9583550995
 20
294.7314869503
 30
0.0
 40
336.9145309126491
100
AcDbArc
 50
179.6655526649
 51
180.4397804263
  0
LINE
  5
116
330
1F
100
AcDbEntity
  8
0
  6
Continuous
 62
     7
370
    25
100
AcDbLine
 10
108.8377775952
 20
291.5696547828
 30
0.0
 11
108.8538460127
 21
292.1451491459
 31
0.0
  0
LINE
  5
117
330
1F
100
AcDbEntity
  8
0
  6
Continuous
 62
     7
370
    25
100
AcDbLine
 10
109.0549275915
 20
291.9629030964
 30
0.0
 11
109.038859174
 21
291.3874087332
 31
0.0
  0
ARC
  5
118
330
1F
100
AcDbEntity
  8
0
  6
Continuous
 62
     7
370
    25
100
AcDbCircle
 10
109.0305358003
 20
291.5802800459
 30
0.0
 40
0.1930508270728484
100
AcDbArc
 50
183.1550785155
 51
272.4710697364
  0
LINE
  5
119
330
1F
100
AcDbEntity
  8
0
  6
Continuous
 62
     7
370
    25
100
AcDbLine
 10
109.8387943739
 20
291.3876330597
 30
0.0
 11
109.8548627914
 21
291.9631274229
 31
0.0
  0
LINE
  5
11A
330
1F
100
AcDbEntity
  8
0
  6
Continuous
 62
     7
370
    25
100
AcDbLine
 10
109.8387943739
 20
291.3876330597
 30
0.0
 11
109.038859174
 21
291.3874087332
 31
0.0
  0
LINE
  5
11B
330
1F
100
AcDbEntity
  8
0
  6
Continuous
 62
     7
370
    25
100
AcDbLine
 10
108.818500373
 20
291.4935141802
 30
0.0
 11
108.8377775952
 21
291.5696547828
 31
0.0
  0
LINE
  5
11C
330
1F
100
AcDbEntity
  8
0
  6
Continuous
 62
     7
370
    25
100
AcDbLine
 10
108.7927363926
 20
293.5668021108
 30
0.0
 11
108.818500373
 21
291.4935141802
 31
0.0
  0
LINE
  5
11D
330
1F
100
AcDbEntity
  8
0
  6
Continuous
 62
     7
370
    25
100
AcDbLine
 10
108.7915978487
 20
294.8054203121
 30
0.0
 11
108.7927363926
 21
293.5668021108
 31
0.0
  0
LINE
  5
11E
330
1F
100
AcDbEntity
  8
0
  6
Continuous
 62
     7
370
    25
100
AcDbLine
 10
108.8133776615
 20
297.0664953122
 30
0.0
 11
108.7915978487
 21
294.8054203121
 31
0.0
  0
LINE
  5
11F
330
1F
100
AcDbEntity
  8
0
  6
Continuous
 62
     7
370
    25
100
AcDbLine
 10
108.8326548838
 20
297.1426359148
 30
0.0
 11
108.8133776615
 21
297.0664953122
 31
0.0
  0
LINE
  5
120
330
1F
100
AcDbEntity
  8
0
  6
Continuous
 62
     7
370
    25
100
AcDbLine
 10
108.8496612129
 20
296.6977792084
 30
0.0
 11
108.8326548838
 21
297.1426359148
 31
0.0
  0
ARC
  5
121
330
1F
100
AcDbEntity
  8
0
  6
Continuous
 62
     7
370
    25
100
AcDbCircle
 10
109.0455492511
 20
296.6915314504
 30
0.0
 40
0.1959876474696162
100
AcDbArc
 50
88.5815009075
 51
178.1731969759
  0
ARC
  5
122
330
1F
100
AcDbEntity
  8
0
  6
Continuous
 62
     7
370
    25
100
AcDbCircle
 10
99.3776651243
 20
296.6944037188
 30
0.0
 40
9.674662166870585
100
AcDbArc
 50
359.4935367582
 51
1.1433979797
  0
ARC
  5
123
330
1F
100
AcDbEntity
  8
0
  6
Continuous
 62
     7
370
    25
100
AcDbCircle
 10
100.5021124934
 20
296.6964318012
 30
0.0
 40
9.350179787016167
100
AcDbArc
 50
359.464906836
 51
1.1720279019
  0
LINE
  5
124
330
1F
100
AcDbEntity
  8
0
  6
Continuous
 62
     7
370
    25
100
AcDbLine
 10
109.8503361155
 20
296.8876833637
 30
0.0
 11
109.0504009156
 21
296.8874590373
 31
0.0
  0
LINE
  5
125
330
1F
100
AcDbEntity
  8
0
  6
Continuous
 62
     7
370
    25
100
AcDbLine
 10
109.0333945864
 20
297.3323157437
 30
0.0
 11
109.0504009156
 21
296.8874590373
 31
0.0
  0
ARC
  5
126
330
1F
100
AcDbEntity
  8
0
  6
Continuous
 62
     7
370
    25
100
AcDbCircle
 10
109.0285429219
 20
297.1363881567
 30
0.0
 40
0.1959876474694489
100
AcDbArc
 50
88.5815009075
 51
178.1731969759
  0
LINE
  5
127
330
1F
100
AcDbEntity
  8
0
  6
Continuous
 62
     7
370
    25
100
AcDbLine
 10
109.8503361155
 20
296.8876833637
 30
0.0
 11
109.8333297864
 21
297.3325400701
 31
0.0
  0
LINE
  5
128
330
1F
100
AcDbEntity
  8
0
  6
Continuous
 62
     7
370
    25
100
AcDbLine
 10
109.8333297864
 20
297.3325400701
 30
0.0
 11
109.0333945864
 21
297.3323157437
 31
0.0
  0
ARC
  5
129
330
1F
100
AcDbEntity
  8
0
  6
Continuous
 62
     7
370
    25
100
AcDbCircle
 10
108.8617446104
 20
291.3879422655
 30
0.0
 40
0.1771153671210235
100
AcDbArc
 50
354.1735946657
 51
359.8274051758
  0
ARC
  5
12A
330
1F
100
AcDbEntity
  8
0
  6
Continuous
 62
     7
370
    25
100
AcDbCircle
 10
109.0377931828
 20
291.5699782281
 30
0.0
 40
0.2000158490388164
100
AcDbArc
 50
180.0926529696
 51
270.0434904144
  0
ARC
  5
12B
330
1F
100
AcDbEntity
  8
0
  6
Continuous
 62
     7
370
    25
100
AcDbCircle
 10
109.6616798104
 20
291.388166592
 30
0.0
 40
0.1771153671147671
100
AcDbArc
 50
354.1735946656
 51
359.8274051759
  0
LINE
  5
12C
330
1F
100
AcDbEntity
  8
0
  6
Continuous
 62
     7
370
    25
100
AcDbLine
 10
109.8378802049
 20
291.3701867632
 30
0.0
 11
109.037945005
 21
291.3699624367
 31
0.0
  0
LINE
  5
12D
330
1F
100
AcDbEntity
  8
0
  6
Continuous
 62
     7
370
    25
100
AcDbLine
 10
109.037945005
 20
291.3699624367
 30
0.0
 11
109.0186677827
 21
291.2938218341
 31
0.0
  0
ARC
  5
12E
330
1F
100
AcDbEntity
  8
0
  6
Continuous
 62
     7
370
    25
100
AcDbCircle
 10
109.0185159605
 20
291.4938376255
 30
0.0
 40
0.2000158490390437
100
AcDbArc
 50
180.0926529697
 51
270.0434904144
  0
LINE
  5
12F
330
1F
100
AcDbEntity
  8
0
  6
Continuous
 62
     7
370
    25
100
AcDbLine
 10
109.8186029827
 20
291.2940461606
 30
0.0
 11
109.8378802049
 21
291.3701867632
 31
0.0
  0
LWPOLYLINE
  5
130
330
1F
100
AcDbEntity
  8
0
  6
Continuous
 62
     7
370
    25
100
AcDbPolyline
 90
       17
 70
   128
 43
0.0
 10
109.5816762582
 20
291.3455325131
 10
109.5785789675
 20
291.3471483362
 10
109.5686132375
 20
291.3486866384
 10
109.5522450547
 20
291.3500754906
 10
109.5302397771
 20
291.3512499514
 10
109.503626347
 20
291.3521551044
 10
109.4736491788
 20
291.3527486257
 10
109.4417099716
 20
291.3530027628
 10
109.4093021673
 20
291.3529056326
 10
109.3779411187
 20
291.3524617768
 10
109.3490932337
 20
291.3516919496
 10
109.3241074072
 20
291.3506321473
 10
109.3041519487
 20
291.349331925
 10
109.2901599534
 20
291.3478520797
 10
109.2827856713
 20
291.3462618073
 10
109.2823739157
 20
291.3446354672
 10
109.284019814
 20
291.3440343927
  0
ARC
  5
131
330
1F
100
AcDbEntity
  8
0
  6
Continuous
 62
     7
370
    25
100
AcDbCircle
 10
109.4343094468
 20
292.5908481242
 30
0.0
 40
1.25400476415612
100
AcDbArc
 50
266.9300834687
 51
276.7488201012
  0
LINE
  5
132
330
1F
100
AcDbEntity
  8
0
  6
Continuous
 62
     7
370
    25
100
AcDbLine
 10
108.818500373
 20
291.4935141802
 30
0.0
 11
108.8184996133
 21
291.4910851278
 31
0.0
  0
LINE
  5
133
330
1F
100
AcDbEntity
  8
0
  6
Continuous
 62
     7
370
    25
100
AcDbLine
 10
108.7927363926
 20
293.5668021108
 30
0.0
 11
108.7927356329
 21
293.5643730585
 31
0.0
  0
ARC
  5
134
330
1F
100
AcDbEntity
  8
0
  6
Continuous
 62
     7
370
    25
100
AcDbCircle
 10
109.6174403551
 20
89.2478486099
 30
0.0
 40
0.273754767203895
100
AcDbArc
 50
75.3625332474
 51
95.4014310145
  0
ARC
  5
135
330
1F
100
AcDbEntity
  8
0
  6
Continuous
 62
     7
370
    25
100
AcDbCircle
 10
109.5655806175
 20
89.1553335436
 30
0.0
 40
0.3659854035931334
100
AcDbArc
 50
85.9120366636
 51
102.4457836101
  0
LINE
  5
136
330
1F
100
AcDbEntity
  8
0
  6
Continuous
 62
     7
370
    25
100
AcDbLine
 10
107.4666618906
 20
86.5127184282
 30
0.0
 11
107.4666618906
 21
86.3927184282
 31
0.0
  0
LINE
  5
137
330
1F
100
AcDbEntity
  8
0
  6
Continuous
 62
     7
370
    25
100
AcDbLine
 10
111.7066618906
 20
86.5127184282
 30
0.0
 11
111.7066618906
 21
86.3927184282
 31
0.0
  0
LINE
  5
138
330
1F
100
AcDbEntity
  8
0
  6
Continuous
 62
     7
370
    25
100
AcDbLine
 10
111.7066618906
 20
86.3927184282
 30
0.0
 11
107.4666618906
 21
86.3927184282
 31
0.0
  0
LINE
  5
139
330
1F
100
AcDbEntity
  8
0
  6
Continuous
 62
     7
370
    25
100
AcDbLine
 10
111.7866618906
 20
86.5127184282
 30
0.0
 11
111.7866618906
 21
86.3927184282
 31
0.0
  0
LINE
  5
13A
330
1F
100
AcDbEntity
  8
0
  6
Continuous
 62
     7
370
    25
100
AcDbLine
 10
111.7866618906
 20
86.3927184282
 30
0.0
 11
111.7066618906
 21
86.3927184282
 31
0.0
  0
LINE
  5
13B
330
1F
100
AcDbEntity
  8
0
  6
Continuous
 62
     7
370
    25
100
AcDbLine
 10
107.3866618906
 20
86.5127184282
 30
0.0
 11
107.3866618906
 21
86.3927184282
 31
0.0
  0
LINE
  5
13C
330
1F
100
AcDbEntity
  8
0
  6
Continuous
 62
     7
370
    25
100
AcDbLine
 10
107.4666618906
 20
86.3927184282
 30
0.0
 11
107.3866618906
 21
86.3927184282
 31
0.0
  0
ARC
  5
13D
330
1F
100
AcDbEntity
  8
0
  6
Continuous
 62
     7
370
    25
100
AcDbCircle
 10
108.0867820177
 20
86.6030903873
 30
0.0
 40
3.219974853356933
100
AcDbArc
 50
266.207138417
 51
273.792861583
  0
ARC
  5
13E
330
1F
100
AcDbEntity
  8
0
  6
Continuous
 62
     7
370
    25
100
AcDbCircle
 10
111.0867820177
 20
86.6030903873
 30
0.0
 40
3.219974853356721
100
AcDbArc
 50
266.207138417
 51
273.792861583
  0
ARC
  5
13F
330
1F
100
AcDbEntity
  8
0
  6
Continuous
 62
     7
370
    25
100
AcDbCircle
 10
111.0280232974
 20
85.3480524097
 30
0.0
 40
1.963950354886257
100
AcDbArc
 50
265.4955661792
 51
271.7144675427
  0
ARC
  5
140
330
1F
100
AcDbEntity
  8
0
  6
Continuous
 62
     7
370
    25
100
AcDbCircle
 10
111.1409161304
 20
85.5379601775
 30
0.0
 40
2.153659397116889
100
AcDbArc
 50
268.5596687697
 51
274.2302975084
  0
ARC
  5
141
330
1F
100
AcDbEntity
  8
0
  6
Continuous
 62
     7
370
    25
100
AcDbCircle
 10
108.0280232974
 20
85.3480524097
 30
0.0
 40
1.963950354886882
100
AcDbArc
 50
265.4955661792
 51
271.7144675427
  0
ARC
  5
142
330
1F
100
AcDbEntity
  8
0
  6
Continuous
 62
     7
370
    25
100
AcDbCircle
 10
108.1409161304
 20
85.5379601775
 30
0.0
 40
2.153659397116605
100
AcDbArc
 50
268.5596687697
 51
274.2302975084
  0
LWPOLYLINE
  5
143
330
1F
100
AcDbEntity
  8
0
  6
Continuous
 62
     7
370
    25
100
AcDbPolyline
 90
       12
 70
   128
 43
0.0
 10
111.7243754196
 20
84.3185333693
 10
111.7257024356
 20
84.3188273518
 10
111.7083188826
 20
84.3150987758
 10
111.6712626315
 20
84.308247063
 10
111.6172919523
 20
84.3009961508
 10
111.5526413024
 20
84.2966662254
 10
111.4863483696
 20
84.2972235013
 10
111.4253865764
 20
84.3021946163
 10
111.3746786615
 20
84.3095333227
 10
111.3401147997
 20
84.3161653392
 10
111.3268646442
 20
84.3190510199
 10
111.3276552568
 20
84.3188770286
  0
LWPOLYLINE
  5
144
330
1F
100
AcDbEntity
  8
0
  6
Continuous
 62
     7
370
    25
100
AcDbPolyline
 90
       12
 70
   128
 43
0.0
 10
111.3291886157
 20
82.5416058406
 10
111.3278615997
 20
82.541311858
 10
111.3452451527
 20
82.545040434
 10
111.3823014038
 20
82.5518921469
 10
111.436272083
 20
82.5591430591
 10
111.5009227329
 20
82.5634729845
 10
111.5672156657
 20
82.5629157086
 10
111.6281774589
 20
82.5579445935
 10
111.6788853738
 20
82.5506058871
 10
111.7134492356
 20
82.5439738707
 10
111.7266993911
 20
82.5410881899
 10
111.7259087785
 20
82.5412621813
  0
CIRCLE
  5
145
330
1F
100
AcDbEntity
  8
0
  6
Continuous
 62
     7
370
    25
100
AcDbCircle
 10
111.5267820177
 20
83.4300696049
 30
0.0
 40
0.2000000000000171
  0
LINE
  5
146
330
1F
100
AcDbEntity
  8
0
  6
Continuous
 62
     7
370
    25
100
AcDbLine
 10
111.9867820177
 20
82.5410696049
 30
0.0
 11
111.9867820177
 21
84.3190696049
 31
0.0
  0
LINE
  5
147
330
1F
100
AcDbEntity
  8
0
  6
Continuous
 62
     7
370
    25
100
AcDbLine
 10
107.8667820177
 20
83.4300696049
 30
0.0
 11
107.8737820177
 21
83.4300696049
 31
0.0
  0
LINE
  5
148
330
1F
100
AcDbEntity
  8
0
  6
Continuous
 62
     7
370
    25
100
AcDbLine
 10
107.8667820177
 20
83.4300696049
 30
0.0
 11
107.8667820177
 21
83.4931501215
 31
0.0
  0
LINE
  5
149
330
1F
100
AcDbEntity
  8
0
  6
Continuous
 62
     7
370
    25
100
AcDbLine
 10
107.8667820177
 20
83.4931501215
 30
0.0
 11
107.8737820177
 21
83.4931501215
 31
0.0
  0
LINE
  5
14A
330
1F
100
AcDbEntity
  8
0
  6
Continuous
 62
     7
370
    25
100
AcDbLine
 10
107.8667820177
 20
83.2395457823
 30
0.0
 11
107.8737820177
 21
83.2395457823
 31
0.0
  0
LINE
  5
14B
330
1F
100
AcDbEntity
  8
0
  6
Continuous
 62
     7
370
    25
100
AcDbLine
 10
107.8667820177
 20
83.4300696049
 30
0.0
 11
107.8667820177
 21
83.2395457823
 31
0.0
  0
LINE
  5
14C
330
1F
100
AcDbEntity
  8
0
  6
Continuous
 62
     7
370
    25
100
AcDbLine
 10
107.8667820177
 20
83.0795326642
 30
0.0
 11
107.8737820177
 21
83.0795326642
 31
0.0
  0
LINE
  5
14D
330
1F
100
AcDbEntity
  8
0
  6
Continuous
 62
     7
370
    25
100
AcDbLine
 10
107.8667820177
 20
83.1090513289
 30
0.0
 11
107.8737820177
 21
83.1090513289
 31
0.0
  0
LINE
  5
14E
330
1F
100
AcDbEntity
  8
0
  6
Continuous
 62
     7
370
    25
100
AcDbLine
 10
107.8667820177
 20
83.1090513289
 30
0.0
 11
107.8667820177
 21
83.0795326642
 31
0.0
  0
LINE
  5
14F
330
1F
100
AcDbEntity
  8
0
  6
Continuous
 62
     7
370
    25
100
AcDbLine
 10
107.8667820177
 20
83.0190770024
 30
0.0
 11
107.8737820177
 21
83.0190770024
 31
0.0
  0
LINE
  5
150
330
1F
100
AcDbEntity
  8
0
  6
Continuous
 62
     7
370
    25
100
AcDbLine
 10
107.8667820177
 20
83.0190770024
 30
0.0
 11
107.8667820177
 21
83.0795326642
 31
0.0
  0
LINE
  5
151
330
1F
100
AcDbEntity
  8
0
  6
Continuous
 62
     7
370
    25
100
AcDbLine
 10
107.8667820177
 20
83.8410622075
 30
0.0
 11
107.8737820177
 21
83.8410622075
 31
0.0
  0
LINE
  5
152
330
1F
100
AcDbEntity
  8
0
  6
Continuous
 62
     7
370
    25
100
AcDbLine
 10
107.8667820177
 20
83.9005928183
 30
0.0
 11
107.8737820177
 21
83.9005928183
 31
0.0
  0
LINE
  5
153
330
1F
100
AcDbEntity
  8
0
  6
Continuous
 62
     7
370
    25
100
AcDbLine
 10
107.8667820177
 20
83.8410622075
 30
0.0
 11
107.8667820177
 21
83.9005928183
 31
0.0
  0
LINE
  5
154
330
1F
100
AcDbEntity
  8
0
  6
Continuous
 62
     7
370
    25
100
AcDbLine
 10
107.8667820177
 20
82.9332974634
 30
0.0
 11
107.8737820177
 21
82.9332974634
 31
0.0
  0
LINE
  5
155
330
1F
100
AcDbEntity
  8
0
  6
Continuous
 62
     7
370
    25
100
AcDbLine
 10
107.8667820177
 20
83.0190770024
 30
0.0
 11
107.8667820177
 21
82.9332974634
 31
0.0
  0
LINE
  5
156
330
1F
100
AcDbEntity
  8
0
  6
Continuous
 62
     7
370
    25
100
AcDbLine
 10
107.8667820177
 20
83.5644439004
 30
0.0
 11
107.8737820177
 21
83.5644439004
 31
0.0
  0
LINE
  5
157
330
1F
100
AcDbEntity
  8
0
  6
Continuous
 62
     7
370
    25
100
AcDbLine
 10
107.8667820177
 20
83.8410622075
 30
0.0
 11
107.8667820177
 21
83.5644439004
 31
0.0
  0
LINE
  5
158
330
1F
100
AcDbEntity
  8
0
  6
Continuous
 62
     7
370
    25
100
AcDbLine
 10
107.8667820177
 20
82.700228205
 30
0.0
 11
107.8737820177
 21
82.700228205
 31
0.0
  0
LINE
  5
159
330
1F
100
AcDbEntity
  8
0
  6
Continuous
 62
     7
370
    25
100
AcDbLine
 10
107.8667820177
 20
82.8194565584
 30
0.0
 11
107.8737820177
 21
82.8194565584
 31
0.0
  0
LINE
  5
15A
330
1F
100
AcDbEntity
  8
0
  6
Continuous
 62
     7
370
    25
100
AcDbLine
 10
107.8667820177
 20
82.8194565584
 30
0.0
 11
107.8667820177
 21
82.700228205
 31
0.0
  0
LINE
  5
15B
330
1F
100
AcDbEntity
  8
0
  6
Continuous
 62
     7
370
    25
100
AcDbLine
 10
107.8667820177
 20
82.6483152194
 30
0.0
 11
107.8737820177
 21
82.6483152194
 31
0.0
  0
LINE
  5
15C
330
1F
100
AcDbEntity
  8
0
  6
Continuous
 62
     7
370
    25
100
AcDbLine
 10
107.8667820177
 20
82.6483152194
 30
0.0
 11
107.8667820177
 21
82.700228205
 31
0.0
  0
LINE
  5
15D
330
1F
100
AcDbEntity
  8
0
  6
Continuous
 62
     7
370
    25
100
AcDbLine
 10
107.8667820177
 20
84.2118239905
 30
0.0
 11
107.8737820177
 21
84.2118239905
 31
0.0
  0
LINE
  5
15E
330
1F
100
AcDbEntity
  8
0
  6
Continuous
 62
     7
370
    25
100
AcDbLine
 10
107.8667820177
 20
84.2619774247
 30
0.0
 11
107.8737820177
 21
84.2619774247
 31
0.0
  0
LINE
  5
15F
330
1F
100
AcDbEntity
  8
0
  6
Continuous
 62
     7
370
    25
100
AcDbLine
 10
107.8667820177
 20
84.2118239905
 30
0.0
 11
107.8667820177
 21
84.2619774247
 31
0.0
  0
LINE
  5
160
330
1F
100
AcDbEntity
  8
0
  6
Continuous
 62
     7
370
    25
100
AcDbLine
 10
107.8667820177
 20
84.2118239905
 30
0.0
 11
107.8667820177
 21
83.9005928183
 31
0.0
  0
LINE
  5
161
330
1F
100
AcDbEntity
  8
0
  6
Continuous
 62
     7
370
    25
100
AcDbLine
 10
107.8667820177
 20
83.5644439004
 30
0.0
 11
107.8667820177
 21
83.4931501215
 31
0.0
  0
LINE
  5
162
330
1F
100
AcDbEntity
  8
0
  6
Continuous
 62
     7
370
    25
100
AcDbLine
 10
107.8667820177
 20
83.2395457823
 30
0.0
 11
107.8667820177
 21
83.1090513289
 31
0.0
  0
LINE
  5
163
330
1F
100
AcDbEntity
  8
0
  6
Continuous
 62
     7
370
    25
100
AcDbLine
 10
107.8667820177
 20
82.9332974634
 30
0.0
 11
107.8667820177
 21
82.8194565584
 31
0.0
  0
LINE
  5
164
330
1F
100
AcDbEntity
  8
0
  6
Continuous
 62
     7
370
    25
100
AcDbLine
 10
107.8667820177
 20
82.3923657072
 30
0.0
 11
107.8737820177
 21
82.3923657072
 31
0.0
  0
LINE
  5
165
330
1F
100
AcDbEntity
  8
0
  6
Continuous
 62
     7
370
    25
100
AcDbLine
 10
107.8667820177
 20
82.5896328473
 30
0.0
 11
107.8737820177
 21
82.5896328473
 31
0.0
  0
LINE
  5
166
330
1F
100
AcDbEntity
  8
0
  6
Continuous
 62
     7
370
    25
100
AcDbLine
 10
107.8667820177
 20
82.5896328473
 30
0.0
 11
107.8667820177
 21
82.3923657072
 31
0.0
  0
LINE
  5
167
330
1F
100
AcDbEntity
  8
0
  6
Continuous
 62
     7
370
    25
100
AcDbLine
 10
107.8667820177
 20
82.3540770024
 30
0.0
 11
107.8737820177
 21
82.3540770024
 31
0.0
  0
LINE
  5
168
330
1F
100
AcDbEntity
  8
0
  6
Continuous
 62
     7
370
    25
100
AcDbLine
 10
107.8667820177
 20
82.3540770024
 30
0.0
 11
107.8667820177
 21
82.3923657072
 31
0.0
  0
LINE
  5
169
330
1F
100
AcDbEntity
  8
0
  6
Continuous
 62
     7
370
    25
100
AcDbLine
 10
107.8667820177
 20
84.5060622075
 30
0.0
 11
107.8737820177
 21
84.5060622075
 31
0.0
  0
LINE
  5
16A
330
1F
100
AcDbEntity
  8
0
  6
Continuous
 62
     7
370
    25
100
AcDbLine
 10
107.8667820177
 20
84.5419290974
 30
0.0
 11
107.8737820177
 21
84.5419290974
 31
0.0
  0
LINE
  5
16B
330
1F
100
AcDbEntity
  8
0
  6
Continuous
 62
     7
370
    25
100
AcDbLine
 10
107.8667820177
 20
84.5060622075
 30
0.0
 11
107.8667820177
 21
84.5419290974
 31
0.0
  0
LINE
  5
16C
330
1F
100
AcDbEntity
  8
0
  6
Continuous
 62
     7
370
    25
100
AcDbLine
 10
107.8667820177
 20
84.5060622075
 30
0.0
 11
107.8667820177
 21
84.2619774247
 31
0.0
  0
LINE
  5
16D
330
1F
100
AcDbEntity
  8
0
  6
Continuous
 62
     7
370
    25
100
AcDbLine
 10
107.8667820177
 20
82.6483152194
 30
0.0
 11
107.8667820177
 21
82.5896328473
 31
0.0
  0
LINE
  5
16E
330
1F
100
AcDbEntity
  8
0
  6
Continuous
 62
     7
370
    25
100
AcDbLine
 10
107.8667820177
 20
82.1860808969
 30
0.0
 11
107.8737820177
 21
82.1860808969
 31
0.0
  0
LINE
  5
16F
330
1F
100
AcDbEntity
  8
0
  6
Continuous
 62
     7
370
    25
100
AcDbLine
 10
107.8667820177
 20
82.3540770024
 30
0.0
 11
107.8667820177
 21
82.1860808969
 31
0.0
  0
LINE
  5
170
330
1F
100
AcDbEntity
  8
0
  6
Continuous
 62
     7
370
    25
100
AcDbLine
 10
107.8667820177
 20
82.1651644383
 30
0.0
 11
107.8737820177
 21
82.1651644383
 31
0.0
  0
LINE
  5
171
330
1F
100
AcDbEntity
  8
0
  6
Continuous
 62
     7
370
    25
100
AcDbLine
 10
107.8667820177
 20
82.1651644383
 30
0.0
 11
107.8667820177
 21
82.1860808969
 31
0.0
  0
LINE
  5
172
330
1F
100
AcDbEntity
  8
0
  6
Continuous
 62
     7
370
    25
100
AcDbLine
 10
107.8667820177
 20
82.1000696049
 30
0.0
 11
107.8737820177
 21
82.1000696049
 31
0.0
  0
LINE
  5
173
330
1F
100
AcDbEntity
  8
0
  6
Continuous
 62
     7
370
    25
100
AcDbLine
 10
107.8667820177
 20
82.1651644383
 30
0.0
 11
107.8667820177
 21
82.1000696049
 31
0.0
  0
LINE
  5
174
330
1F
100
AcDbEntity
  8
0
  6
Continuous
 62
     7
370
    25
100
AcDbLine
 10
107.8366618906
 20
84.9134992091
 30
0.0
 11
107.8737820177
 21
84.9134992091
 31
0.0
  0
LINE
  5
175
330
1F
100
AcDbEntity
  8
0
  6
Continuous
 62
     7
370
    25
100
AcDbLine
 10
107.8366618906
 20
85.5187342543
 30
0.0
 11
107.8737820177
 21
85.5187342543
 31
0.0
  0
LINE
  5
176
330
1F
100
AcDbEntity
  8
0
  6
Continuous
 62
     7
370
    25
100
AcDbLine
 10
107.8366618906
 20
84.9134992091
 30
0.0
 11
107.8366618906
 21
85.5187342543
 31
0.0
  0
LINE
  5
177
330
1F
100
AcDbEntity
  8
0
  6
Continuous
 62
     7
370
    25
100
AcDbLine
 10
107.8366618906
 20
84.3743177414
 30
0.0
 11
107.8667820177
 21
84.3743177414
 31
0.0
  0
LINE
  5
178
330
1F
100
AcDbEntity
  8
0
  6
Continuous
 62
     7
370
    25
100
AcDbLine
 10
107.8366618906
 20
84.3743177414
 30
0.0
 11
107.8366618906
 21
84.9134992091
 31
0.0
  0
LINE
  5
179
330
1F
100
AcDbEntity
  8
0
  6
Continuous
 62
     7
370
    25
100
AcDbLine
 10
107.8366618906
 20
86.088496063
 30
0.0
 11
107.8737820177
 21
86.088496063
 31
0.0
  0
LINE
  5
17A
330
1F
100
AcDbEntity
  8
0
  6
Continuous
 62
     7
370
    25
100
AcDbLine
 10
107.8366618906
 20
85.5187342543
 30
0.0
 11
107.8366618906
 21
86.088496063
 31
0.0
  0
LINE
  5
17B
330
1F
100
AcDbEntity
  8
0
  6
Continuous
 62
     7
370
    25
100
AcDbLine
 10
107.8366618906
 20
86.197215513
 30
0.0
 11
107.8737820177
 21
86.197215513
 31
0.0
  0
LINE
  5
17C
330
1F
100
AcDbEntity
  8
0
  6
Continuous
 62
     7
370
    25
100
AcDbLine
 10
107.8366618906
 20
86.088496063
 30
0.0
 11
107.8366618906
 21
86.197215513
 31
0.0
  0
LINE
  5
17D
330
1F
100
AcDbEntity
  8
0
  6
Continuous
 62
     7
370
    25
100
AcDbLine
 10
107.8366618906
 20
84.3352961168
 30
0.0
 11
107.8366618906
 21
84.3743177414
 31
0.0
  0
LINE
  5
17E
330
1F
100
AcDbEntity
  8
0
  6
Continuous
 62
     7
370
    25
100
AcDbLine
 10
107.7166618906
 20
85.395412274
 30
0.0
 11
107.7166618906
 21
85.5208895627
 31
0.0
  0
ELLIPSE
  5
17F
330
1F
100
AcDbEntity
  8
0
  6
Continuous
 62
     7
370
    25
100
AcDbEllipse
 10
107.7366618906
 20
85.5208895627
 30
0.0
 11
0.01999999999999602
 21
0.0
 31
0.0
210
0.0
220
0.0
230
1.0
 40
0.7255870739
 41
1.570796326794897
 42
3.141592653589793
  0
LINE
  5
180
330
1F
100
AcDbEntity
  8
0
  6
Continuous
 62
     7
370
    25
100
AcDbLine
 10
107.7366618906
 20
85.5354013042
 30
0.0
 11
107.7366618906
 21
85.387109963
 31
0.0
  0
ELLIPSE
  5
181
330
1F
100
AcDbEntity
  8
0
  6
Continuous
 62
     7
370
    25
100
AcDbEllipse
 10
107.7366618906
 20
85.395412274
 30
0.0
 11
0.01999999999999602
 21
0.0
 31
0.0
210
0.0
220
0.0
230
1.0
 40
0.4151155507
 41
3.141592653589793
 42
4.712388980384695
  0
LINE
  5
182
330
1F
100
AcDbEntity
  8
0
  6
Continuous
 62
     7
370
    25
100
AcDbLine
 10
107.7166618906
 20
85.3155976959
 30
0.0
 11
107.7166618906
 21
85.395412274
 31
0.0
  0
LINE
  5
183
330
1F
100
AcDbEntity
  8
0
  6
Continuous
 62
     7
370
    25
100
AcDbLine
 10
107.7366618906
 20
85.387109963
 30
0.0
 11
107.7366618906
 21
85.2927836434
 31
0.0
  0
ELLIPSE
  5
184
330
1F
100
AcDbEntity
  8
0
  6
Continuous
 62
     7
370
    25
100
AcDbEllipse
 10
107.7366618906
 20
85.3155976959
 30
0.0
 11
0.0
 21
0.02281405249182455
 31
0.0
210
0.0
220
0.0
230
1.0
 40
0.8766526687
 41
1.570796326794897
 42
3.141592653589793
  0
LINE
  5
185
330
1F
100
AcDbEntity
  8
0
  6
Continuous
 62
     7
370
    25
100
AcDbLine
 10
107.7366618906
 20
85.387109963
 30
0.0
 11
107.8366618906
 21
85.387109963
 31
0.0
  0
LINE
  5
186
330
1F
100
AcDbEntity
  8
0
  6
Continuous
 62
     7
370
    25
100
AcDbLine
 10
107.7366618906
 20
85.5354013042
 30
0.0
 11
107.8366618906
 21
85.5354013042
 31
0.0
  0
LINE
  5
187
330
1F
100
AcDbEntity
  8
0
  6
Continuous
 62
     7
370
    25
100
AcDbLine
 10
107.7366618906
 20
85.2927836434
 30
0.0
 11
107.8366618906
 21
85.2927836434
 31
0.0
  0
ELLIPSE
  5
188
330
1F
100
AcDbEntity
  8
0
  6
Continuous
 62
     7
370
    25
100
AcDbEllipse
 10
107.7366618906
 20
85.5665522733
 30
0.0
 11
0.0
 21
0.02281405249185298
 31
0.0
210
0.0
220
0.0
230
1.0
 40
0.8766526687
 41
0.0
 42
1.570796326794897
  0
LINE
  5
189
330
1F
100
AcDbEntity
  8
0
  6
Continuous
 62
     7
370
    25
100
AcDbLine
 10
107.7366618906
 20
85.5893663258
 30
0.0
 11
107.7366618906
 21
85.5354013042
 31
0.0
  0
LINE
  5
18A
330
1F
100
AcDbEntity
  8
0
  6
Continuous
 62
     7
370
    25
100
AcDbLine
 10
107.7166618906
 20
85.5208895627
 30
0.0
 11
107.7166618906
 21
85.5665522733
 31
0.0
  0
LINE
  5
18B
330
1F
100
AcDbEntity
  8
0
  6
Continuous
 62
     7
370
    25
100
AcDbLine
 10
107.7366618906
 20
85.5893663258
 30
0.0
 11
107.8366618906
 21
85.5893663258
 31
0.0
  0
LINE
  5
18C
330
1F
100
AcDbEntity
  8
0
  6
Continuous
 62
     7
370
    25
100
AcDbLine
 10
107.7366618906
 20
85.7896938086
 30
0.0
 11
107.8366618906
 21
85.7896938086
 31
0.0
  0
LINE
  5
18D
330
1F
100
AcDbEntity
  8
0
  6
Continuous
 62
     7
370
    25
100
AcDbLine
 10
107.7366618906
 20
85.978347529
 30
0.0
 11
107.7366618906
 21
85.7896938086
 31
0.0
  0
LINE
  5
18E
330
1F
100
AcDbEntity
  8
0
  6
Continuous
 62
     7
370
    25
100
AcDbLine
 10
107.7366618906
 20
85.978347529
 30
0.0
 11
107.8366618906
 21
85.978347529
 31
0.0
  0
LINE
  5
18F
330
1F
100
AcDbEntity
  8
0
  6
Continuous
 62
     7
370
    25
100
AcDbLine
 10
107.7166618906
 20
85.8063184079
 30
0.0
 11
107.7166618906
 21
85.972777573
 31
0.0
  0
ELLIPSE
  5
190
330
1F
100
AcDbEntity
  8
0
  6
Continuous
 62
     7
370
    25
100
AcDbEllipse
 10
107.7366618906
 20
85.972777573
 30
0.0
 11
0.01999999999999602
 21
0.0
 31
0.0
210
0.0
220
0.0
230
1.0
 40
0.2784978012
 41
1.570796326794897
 42
3.141592653589793
  0
ELLIPSE
  5
191
330
1F
100
AcDbEntity
  8
0
  6
Continuous
 62
     7
370
    25
100
AcDbEllipse
 10
107.7366618906
 20
85.8063184079
 30
0.0
 11
0.01999999999999602
 21
0.0
 31
0.0
210
0.0
220
0.0
230
1.0
 40
0.8312299663
 41
3.141592653589793
 42
4.712388980384701
  0
LINE
  5
192
330
1F
100
AcDbEntity
  8
0
  6
Continuous
 62
     7
370
    25
100
AcDbLine
 10
107.7366618906
 20
86.1196566233
 30
0.0
 11
107.7366618906
 21
85.978347529
 31
0.0
  0
LINE
  5
193
330
1F
100
AcDbEntity
  8
0
  6
Continuous
 62
     7
370
    25
100
AcDbLine
 10
107.7366618906
 20
86.1196566233
 30
0.0
 11
107.8366618906
 21
86.1196566233
 31
0.0
  0
LINE
  5
194
330
1F
100
AcDbEntity
  8
0
  6
Continuous
 62
     7
370
    25
100
AcDbLine
 10
107.7166618906
 20
85.972777573
 30
0.0
 11
107.7166618906
 21
86.097462068
 31
0.0
  0
ELLIPSE
  5
195
330
1F
100
AcDbEntity
  8
0
  6
Continuous
 62
     7
370
    25
100
AcDbEllipse
 10
107.7366618906
 20
86.097462068
 30
0.0
 11
0.0
 21
0.02219455534918779
 31
0.0
210
0.0
220
0.0
230
1.0
 40
0.9011219051
 41
0.0
 42
1.570796326794897
  0
LINE
  5
196
330
1F
100
AcDbEntity
  8
0
  6
Continuous
 62
     7
370
    25
100
AcDbLine
 10
107.7366618906
 20
85.7896938086
 30
0.0
 11
107.7366618906
 21
85.7423491824
 31
0.0
  0
ELLIPSE
  5
197
330
1F
100
AcDbEntity
  8
0
  6
Continuous
 62
     7
370
    25
100
AcDbEllipse
 10
107.7366618906
 20
85.7645437377
 30
0.0
 11
0.0
 21
0.02219455534917358
 31
0.0
210
0.0
220
0.0
230
1.0
 40
0.9011219051
 41
1.570796326794897
 42
3.141592653589793
  0
LINE
  5
198
330
1F
100
AcDbEntity
  8
0
  6
Continuous
 62
     7
370
    25
100
AcDbLine
 10
107.7166618906
 20
85.7645437377
 30
0.0
 11
107.7166618906
 21
85.8063184079
 31
0.0
  0
LINE
  5
199
330
1F
100
AcDbEntity
  8
0
  6
Continuous
 62
     7
370
    25
100
AcDbLine
 10
107.7366618906
 20
85.7423491824
 30
0.0
 11
107.8366618906
 21
85.7423491824
 31
0.0
  0
LINE
  5
19A
330
1F
100
AcDbEntity
  8
0
  6
Continuous
 62
     7
370
    25
100
AcDbLine
 10
80.5265882475
 20
86.4207184282
 30
0.0
 11
80.598733294
 21
86.4207184282
 31
0.0
  0
LINE
  5
19B
330
1F
100
AcDbEntity
  8
0
  6
Continuous
 62
     7
370
    25
100
AcDbLine
 10
80.598733294
 20
86.4207184282
 30
0.0
 11
80.598733294
 21
86.3190090518
 31
0.0
  0
LWPOLYLINE
  5
19C
330
1F
100
AcDbEntity
  8
0
  6
Continuous
 62
     7
370
    25
100
AcDbPolyline
 90
        3
 70
   128
 43
0.0
 10
80.598733294
 20
86.3190090518
 10
80.5633873969
 20
86.3086407833
 10
80.5265882475
 20
86.3047184282
  0
ARC
  5
19D
330
1F
100
AcDbEntity
  8
0
  6
Continuous
 62
     7
370
    25
100
AcDbCircle
 10
80.5285636762
 20
86.503945719
 30
0.0
 40
0.1992370841562139
100
AcDbArc
 50
248.1596585982
 51
269.4319050562
  0
LINE
  5
19E
330
1F
100
AcDbEntity
  8
0
  6
Continuous
 62
     7
370
    25
100
AcDbLine
 10
80.454443201
 20
86.4207184282
 30
0.0
 11
80.454443201
 21
86.3190090518
 31
0.0
  0
LINE
  5
19F
330
1F
100
AcDbEntity
  8
0
  6
Continuous
 62
     7
370
    25
100
AcDbLine
 10
80.454443201
 20
86.4207184282
 30
0.0
 11
80.5265882475
 21
86.4207184282
 31
0.0
  0
LWPOLYLINE
  5
1A0
330
1F
100
AcDbEntity
  8
0
  6
Continuous
 62
     7
370
    25
100
AcDbPolyline
 90
        3
 70
   128
 43
0.0
 10
80.454443201
 20
86.3190090518
 10
80.3870939974
 20
86.3054418794
 10
80.3684074993
 20
86.3047184282
  0
LINE
  5
1A1
330
1F
100
AcDbEntity
  8
0
  6
Continuous
 62
     7
370
    25
100
AcDbLine
 10
80.3684074993
 20
86.3047184282
 30
0.0
 11
80.5265882475
 21
86.3047184282
 31
0.0
  0
LWPOLYLINE
  5
1A2
330
1F
100
AcDbEntity
  8
0
  6
Continuous
 62
     7
370
    25
100
AcDbPolyline
 90
        3
 70
   128
 43
0.0
 10
80.3684074993
 20
86.3047184282
 10
80.2982621474
 20
86.314440865
 10
80.2823717976
 20
86.3190090518
  0
LINE
  5
1A3
330
1F
100
AcDbEntity
  8
0
  6
Continuous
 62
     7
370
    25
100
AcDbLine
 10
80.2823717976
 20
86.4207184282
 30
0.0
 11
80.2823717976
 21
86.3190090518
 31
0.0
  0
LINE
  5
1A4
330
1F
100
AcDbEntity
  8
0
  6
Continuous
 62
     7
370
    25
100
AcDbLine
 10
80.2823717976
 20
86.4207184282
 30
0.0
 11
80.3684074993
 21
86.4207184282
 31
0.0
  0
LINE
  5
1A5
330
1F
100
AcDbEntity
  8
0
  6
Continuous
 62
     7
370
    25
100
AcDbLine
 10
80.3684074993
 20
86.4207184282
 30
0.0
 11
80.454443201
 21
86.4207184282
 31
0.0
  0
LWPOLYLINE
  5
1A6
330
1F
100
AcDbEntity
  8
0
  6
Continuous
 62
     7
370
    25
100
AcDbPolyline
 90
        3
 70
   128
 43
0.0
 10
80.2823717976
 20
86.3190090518
 10
80.2755663731
 20
86.3086407833
 10
80.2684811424
 20
86.3047184282
  0
LINE
  5
1A7
330
1F
100
AcDbEntity
  8
0
  6
Continuous
 62
     7
370
    25
100
AcDbLine
 10
80.2684811424
 20
86.3047184282
 30
0.0
 11
80.3684074993
 21
86.3047184282
 31
0.0
  0
LWPOLYLINE
  5
1A8
330
1F
100
AcDbEntity
  8
0
  6
Continuous
 62
     7
370
    25
100
AcDbPolyline
 90
        4
 70
   128
 43
0.0
 10
80.5848426388
 20
86.3047184282
 10
80.585830372
 20
86.3047962425
 10
80.5922920094
 20
86.3090450461
 10
80.598733294
 20
86.3190090518
  0
LINE
  5
1A9
330
1F
100
AcDbEntity
  8
0
  6
Continuous
 62
     7
370
    25
100
AcDbLine
 10
80.5265882475
 20
86.3047184282
 30
0.0
 11
80.5866297521
 21
86.3047184282
 31
0.0
  0
LWPOLYLINE
  5
1AA
330
1F
100
AcDbEntity
  8
0
  6
Continuous
 62
     7
370
    25
100
AcDbPolyline
 90
        4
 70
   128
 43
0.0
 10
80.2684811424
 20
86.3047184282
 10
80.2674934092
 20
86.3047962425
 10
80.2610317718
 20
86.3090450461
 10
80.2545904873
 20
86.3190090518
  0
LINE
  5
1AB
330
1F
100
AcDbEntity
  8
0
  6
Continuous
 62
     7
370
    25
100
AcDbLine
 10
80.2545904873
 20
86.4207184282
 30
0.0
 11
80.2545904873
 21
86.3190090518
 31
0.0
  0
LINE
  5
1AC
330
1F
100
AcDbEntity
  8
0
  6
Continuous
 62
     7
370
    25
100
AcDbLine
 10
80.2545904873
 20
86.4207184282
 30
0.0
 11
80.2684811424
 21
86.4207184282
 31
0.0
  0
LINE
  5
1AD
330
1F
100
AcDbEntity
  8
0
  6
Continuous
 62
     7
370
    25
100
AcDbLine
 10
80.2684811424
 20
86.4207184282
 30
0.0
 11
80.2823717976
 21
86.4207184282
 31
0.0
  0
LINE
  5
1AE
330
1F
100
AcDbEntity
  8
0
  6
Continuous
 62
     7
370
    25
100
AcDbLine
 10
78.8266618906
 20
86.4207184282
 30
0.0
 11
78.9066618906
 21
86.4207184282
 31
0.0
  0
LINE
  5
1AF
330
1F
100
AcDbEntity
  8
0
  6
Continuous
 62
     7
370
    25
100
AcDbLine
 10
78.9066618906
 20
86.4207184282
 30
0.0
 11
78.9066618906
 21
86.3190090518
 31
0.0
  0
LWPOLYLINE
  5
1B0
330
1F
100
AcDbEntity
  8
0
  6
Continuous
 62
     7
370
    25
100
AcDbPolyline
 90
        3
 70
   128
 43
0.0
 10
78.9066618906
 20
86.3190090518
 10
78.8674676298
 20
86.3086407833
 10
78.8266618906
 20
86.3047184282
  0
ARC
  5
1B1
330
1F
100
AcDbEntity
  8
0
  6
Continuous
 62
     7
370
    25
100
AcDbCircle
 10
78.8287078536
 20
86.5472402451
 30
0.0
 40
0.242530446858918
100
AcDbArc
 50
250.2271892893
 51
269.5166527103
  0
LINE
  5
1B2
330
1F
100
AcDbEntity
  8
0
  6
Continuous
 62
     7
370
    25
100
AcDbLine
 10
78.7466618906
 20
86.4207184282
 30
0.0
 11
78.7466618906
 21
86.3190090518
 31
0.0
  0
LINE
  5
1B3
330
1F
100
AcDbEntity
  8
0
  6
Continuous
 62
     7
370
    25
100
AcDbLine
 10
78.7466618906
 20
86.4207184282
 30
0.0
 11
78.8266618906
 21
86.4207184282
 31
0.0
  0
LINE
  5
1B4
330
1F
100
AcDbEntity
  8
0
  6
Continuous
 62
     7
370
    25
100
AcDbLine
 10
78.6666618906
 20
86.4207184282
 30
0.0
 11
78.7466618906
 21
86.4207184282
 31
0.0
  0
LWPOLYLINE
  5
1B5
330
1F
100
AcDbEntity
  8
0
  6
Continuous
 62
     7
370
    25
100
AcDbPolyline
 90
        3
 70
   128
 43
0.0
 10
78.7466618906
 20
86.3190090518
 10
78.7074676298
 20
86.3086407833
 10
78.6666618906
 20
86.3047184282
  0
ARC
  5
1B6
330
1F
100
AcDbEntity
  8
0
  6
Continuous
 62
     7
370
    25
100
AcDbCircle
 10
78.6687078536
 20
86.5472402451
 30
0.0
 40
0.242530446858895
100
AcDbArc
 50
250.2271892893
 51
269.5166527103
  0
LINE
  5
1B7
330
1F
100
AcDbEntity
  8
0
  6
Continuous
 62
     7
370
    25
100
AcDbLine
 10
78.5866618906
 20
86.4207184282
 30
0.0
 11
78.5866618906
 21
86.3190090518
 31
0.0
  0
LINE
  5
1B8
330
1F
100
AcDbEntity
  8
0
  6
Continuous
 62
     7
370
    25
100
AcDbLine
 10
78.5866618906
 20
86.4207184282
 30
0.0
 11
78.6666618906
 21
86.4207184282
 31
0.0
  0
LINE
  5
1B9
330
1F
100
AcDbEntity
  8
0
  6
Continuous
 62
     7
370
    25
100
AcDbLine
 10
78.6666618906
 20
86.3047184282
 30
0.0
 11
78.8266618906
 21
86.3047184282
 31
0.0
  0
LINE
  5
1BA
330
1F
100
AcDbEntity
  8
0
  6
Continuous
 62
     7
370
    25
100
AcDbLine
 10
78.5866618906
 20
86.3190090518
 30
0.0
 11
78.5866618906
 21
86.3047184282
 31
0.0
  0
LINE
  5
1BB
330
1F
100
AcDbEntity
  8
0
  6
Continuous
 62
     7
370
    25
100
AcDbLine
 10
78.5866618906
 20
86.3047184282
 30
0.0
 11
78.6666618906
 21
86.3047184282
 31
0.0
  0
LINE
  5
1BC
330
1F
100
AcDbEntity
  8
0
  6
Continuous
 62
     7
370
    25
100
AcDbLine
 10
78.9066618906
 20
86.3047184282
 30
0.0
 11
78.9066618906
 21
86.3190090518
 31
0.0
  0
LINE
  5
1BD
330
1F
100
AcDbEntity
  8
0
  6
Continuous
 62
     7
370
    25
100
AcDbLine
 10
78.9066618906
 20
86.3047184282
 30
0.0
 11
78.8266618906
 21
86.3047184282
 31
0.0
  0
LINE
  5
1BE
330
1F
100
AcDbEntity
  8
0
  6
Continuous
 62
     7
370
    25
100
AcDbLine
 10
144.6467355338
 20
489.6047184282
 30
0.0
 11
144.5745904873
 21
489.6047184282
 31
0.0
  0
LINE
  5
1BF
330
1F
100
AcDbEntity
  8
0
  6
Continuous
 62
     7
370
    25
100
AcDbLine
 10
144.5745904873
 20
489.6047184282
 30
0.0
 11
144.5745904873
 21
489.7064278046
 31
0.0
  0
LWPOLYLINE
  5
1C0
330
1F
100
AcDbEntity
  8
0
  6
Continuous
 62
     7
370
    25
100
AcDbPolyline
 90
        3
 70
   128
 43
0.0
 10
144.5745904873
 20
489.7064278046
 10
144.6099363844
 20
489.7167960731
 10
144.6467355338
 20
489.7207184282
  0
ARC
  5
1C1
330
1F
100
AcDbEntity
  8
0
  6
Continuous
 62
     7
370
    25
100
AcDbCircle
 10
144.6447601051
 20
489.5214911374
 30
0.0
 40
0.1992370841571426
100
AcDbArc
 50
68.1596585982
 51
89.4319050562
  0
LINE
  5
1C2
330
1F
100
AcDbEntity
  8
0
  6
Continuous
 62
     7
370
    25
100
AcDbLine
 10
144.7188805803
 20
489.6047184282
 30
0.0
 11
144.7188805803
 21
489.7064278046
 31
0.0
  0
LINE
  5
1C3
330
1F
100
AcDbEntity
  8
0
  6
Continuous
 62
     7
370
    25
100
AcDbLine
 10
144.7188805803
 20
489.6047184282
 30
0.0
 11
144.6467355338
 21
489.6047184282
 31
0.0
  0
LWPOLYLINE
  5
1C4
330
1F
100
AcDbEntity
  8
0
  6
Continuous
 62
     7
370
    25
100
AcDbPolyline
 90
        3
 70
   128
 43
0.0
 10
144.7188805803
 20
489.7064278046
 10
144.7862297839
 20
489.719994977
 10
144.804916282
 20
489.7207184282
  0
LINE
  5
1C5
330
1F
100
AcDbEntity
  8
0
  6
Continuous
 62
     7
370
    25
100
AcDbLine
 10
144.804916282
 20
489.7207184282
 30
0.0
 11
144.6467355338
 21
489.7207184282
 31
0.0
  0
LWPOLYLINE
  5
1C6
330
1F
100
AcDbEntity
  8
0
  6
Continuous
 62
     7
370
    25
100
AcDbPolyline
 90
        3
 70
   128
 43
0.0
 10
144.804916282
 20
489.7207184282
 10
144.8750616338
 20
489.7109959914
 10
144.8909519836
 20
489.7064278046
  0
LINE
  5
1C7
330
1F
100
AcDbEntity
  8
0
  6
Continuous
 62
     7
370
    25
100
AcDbLine
 10
144.8909519836
 20
489.6047184282
 30
0.0
 11
144.8909519836
 21
489.7064278046
 31
0.0
  0
LINE
  5
1C8
330
1F
100
AcDbEntity
  8
0
  6
Continuous
 62
     7
370
    25
100
AcDbLine
 10
144.8909519836
 20
489.6047184282
 30
0.0
 11
144.804916282
 21
489.6047184282
 31
0.0
  0
LINE
  5
1C9
330
1F
100
AcDbEntity
  8
0
  6
Continuous
 62
     7
370
    25
100
AcDbLine
 10
144.804916282
 20
489.6047184282
 30
0.0
 11
144.7188805803
 21
489.6047184282
 31
0.0
  0
LWPOLYLINE
  5
1CA
330
1F
100
AcDbEntity
  8
0
  6
Continuous
 62
     7
370
    25
100
AcDbPolyline
 90
        3
 70
   128
 43
0.0
 10
144.8909519836
 20
489.7064278046
 10
144.8977574082
 20
489.7167960731
 10
144.9048426388
 20
489.7207184282
  0
LINE
  5
1CB
330
1F
100
AcDbEntity
  8
0
  6
Continuous
 62
     7
370
    25
100
AcDbLine
 10
144.9048426388
 20
489.7207184282
 30
0.0
 11
144.804916282
 21
489.7207184282
 31
0.0
  0
LWPOLYLINE
  5
1CC
330
1F
100
AcDbEntity
  8
0
  6
Continuous
 62
     7
370
    25
100
AcDbPolyline
 90
        4
 70
   128
 43
0.0
 10
144.5884811424
 20
489.7207184282
 10
144.5874934092
 20
489.720640614
 10
144.5810317718
 20
489.7163918103
 10
144.5745904873
 20
489.7064278046
  0
LINE
  5
1CD
330
1F
100
AcDbEntity
  8
0
  6
Continuous
 62
     7
370
    25
100
AcDbLine
 10
144.6467355338
 20
489.7207184282
 30
0.0
 11
144.5866940292
 21
489.7207184282
 31
0.0
  0
LWPOLYLINE
  5
1CE
330
1F
100
AcDbEntity
  8
0
  6
Continuous
 62
     7
370
    25
100
AcDbPolyline
 90
        4
 70
   128
 43
0.0
 10
144.9048426388
 20
489.7207184282
 10
144.905830372
 20
489.720640614
 10
144.9122920094
 20
489.7163918103
 10
144.918733294
 20
489.7064278046
  0
LINE
  5
1CF
330
1F
100
AcDbEntity
  8
0
  6
Continuous
 62
     7
370
    25
100
AcDbLine
 10
144.918733294
 20
489.6047184282
 30
0.0
 11
144.918733294
 21
489.7064278046
 31
0.0
  0
LINE
  5
1D0
330
1F
100
AcDbEntity
  8
0
  6
Continuous
 62
     7
370
    25
100
AcDbLine
 10
144.918733294
 20
489.6047184282
 30
0.0
 11
144.9048426388
 21
489.6047184282
 31
0.0
  0
LINE
  5
1D1
330
1F
100
AcDbEntity
  8
0
  6
Continuous
 62
     7
370
    25
100
AcDbLine
 10
144.9048426388
 20
489.6047184282
 30
0.0
 11
144.8909519836
 21
489.6047184282
 31
0.0
  0
LINE
  5
1D2
330
1F
100
AcDbEntity
  8
0
  6
Continuous
 62
     7
370
    25
100
AcDbLine
 10
146.3466618906
 20
489.6047184282
 30
0.0
 11
146.2666618906
 21
489.6047184282
 31
0.0
  0
LINE
  5
1D3
330
1F
100
AcDbEntity
  8
0
  6
Continuous
 62
     7
370
    25
100
AcDbLine
 10
146.2666618906
 20
489.6047184282
 30
0.0
 11
146.2666618906
 21
489.7064278046
 31
0.0
  0
LWPOLYLINE
  5
1D4
330
1F
100
AcDbEntity
  8
0
  6
Continuous
 62
     7
370
    25
100
AcDbPolyline
 90
        3
 70
   128
 43
0.0
 10
146.2666618906
 20
489.7064278046
 10
146.3058561515
 20
489.7167960731
 10
146.3466618906
 20
489.7207184282
  0
ARC
  5
1D5
330
1F
100
AcDbEntity
  8
0
  6
Continuous
 62
     7
370
    25
100
AcDbCircle
 10
146.3446159277
 20
489.4781966113
 30
0.0
 40
0.2425304468596813
100
AcDbArc
 50
70.2271892893
 51
89.5166527103
  0
LINE
  5
1D6
330
1F
100
AcDbEntity
  8
0
  6
Continuous
 62
     7
370
    25
100
AcDbLine
 10
146.4266618906
 20
489.6047184282
 30
0.0
 11
146.4266618906
 21
489.7064278046
 31
0.0
  0
LINE
  5
1D7
330
1F
100
AcDbEntity
  8
0
  6
Continuous
 62
     7
370
    25
100
AcDbLine
 10
146.4266618906
 20
489.6047184282
 30
0.0
 11
146.3466618906
 21
489.6047184282
 31
0.0
  0
LINE
  5
1D8
330
1F
100
AcDbEntity
  8
0
  6
Continuous
 62
     7
370
    25
100
AcDbLine
 10
146.5066618906
 20
489.7207184282
 30
0.0
 11
146.3466618906
 21
489.7207184282
 31
0.0
  0
LWPOLYLINE
  5
1D9
330
1F
100
AcDbEntity
  8
0
  6
Continuous
 62
     7
370
    25
100
AcDbPolyline
 90
        3
 70
   128
 43
0.0
 10
146.4266618906
 20
489.7064278046
 10
146.4658561515
 20
489.7167960731
 10
146.5066618906
 20
489.7207184282
  0
ARC
  5
1DA
330
1F
100
AcDbEntity
  8
0
  6
Continuous
 62
     7
370
    25
100
AcDbCircle
 10
146.5046159277
 20
489.4781966113
 30
0.0
 40
0.2425304468597979
100
AcDbArc
 50
70.2271892893
 51
89.5166527103
  0
LINE
  5
1DB
330
1F
100
AcDbEntity
  8
0
  6
Continuous
 62
     7
370
    25
100
AcDbLine
 10
146.5866618906
 20
489.6047184282
 30
0.0
 11
146.5866618906
 21
489.7064278046
 31
0.0
  0
LINE
  5
1DC
330
1F
100
AcDbEntity
  8
0
  6
Continuous
 62
     7
370
    25
100
AcDbLine
 10
146.5866618906
 20
489.6047184282
 30
0.0
 11
146.5066618906
 21
489.6047184282
 31
0.0
  0
LINE
  5
1DD
330
1F
100
AcDbEntity
  8
0
  6
Continuous
 62
     7
370
    25
100
AcDbLine
 10
146.5066618906
 20
489.6047184282
 30
0.0
 11
146.4266618906
 21
489.6047184282
 31
0.0
  0
LINE
  5
1DE
330
1F
100
AcDbEntity
  8
0
  6
Continuous
 62
     7
370
    25
100
AcDbLine
 10
146.5866618906
 20
489.7064278046
 30
0.0
 11
146.5866618906
 21
489.7207184282
 31
0.0
  0
LINE
  5
1DF
330
1F
100
AcDbEntity
  8
0
  6
Continuous
 62
     7
370
    25
100
AcDbLine
 10
146.5866618906
 20
489.7207184282
 30
0.0
 11
146.5066618906
 21
489.7207184282
 31
0.0
  0
LINE
  5
1E0
330
1F
100
AcDbEntity
  8
0
  6
Continuous
 62
     7
370
    25
100
AcDbLine
 10
146.2666618906
 20
489.7207184282
 30
0.0
 11
146.2666618906
 21
489.7064278046
 31
0.0
  0
LINE
  5
1E1
330
1F
100
AcDbEntity
  8
0
  6
Continuous
 62
     7
370
    25
100
AcDbLine
 10
146.2666618906
 20
489.7207184282
 30
0.0
 11
146.3466618906
 21
489.7207184282
 31
0.0
  0
LINE
  5
1E2
330
1F
100
AcDbEntity
  8
0
  6
Continuous
 62
     7
370
    25
100
AcDbLine
 10
140.5066618906
 20
89.6047184282
 30
0.0
 11
140.4266618906
 21
89.6047184282
 31
0.0
  0
LINE
  5
1E3
330
1F
100
AcDbEntity
  8
0
  6
Continuous
 62
     7
370
    25
100
AcDbLine
 10
140.4266618906
 20
89.6047184282
 30
0.0
 11
140.4266618906
 21
89.7064278046
 31
0.0
  0
LWPOLYLINE
  5
1E4
330
1F
100
AcDbEntity
  8
0
  6
Continuous
 62
     7
370
    25
100
AcDbPolyline
 90
        3
 70
   128
 43
0.0
 10
140.4266618906
 20
89.7064278046
 10
140.4658561515
 20
89.7167960731
 10
140.5066618906
 20
89.7207184282
  0
ARC
  5
1E5
330
1F
100
AcDbEntity
  8
0
  6
Continuous
 62
     7
370
    25
100
AcDbCircle
 10
140.5046159277
 20
89.4781966113
 30
0.0
 40
0.242530446857537
100
AcDbArc
 50
70.2271892892
 51
89.5166527104
  0
LINE
  5
1E6
330
1F
100
AcDbEntity
  8
0
  6
Continuous
 62
     7
370
    25
100
AcDbLine
 10
140.5866618906
 20
89.6047184282
 30
0.0
 11
140.5866618906
 21
89.7064278046
 31
0.0
  0
LINE
  5
1E7
330
1F
100
AcDbEntity
  8
0
  6
Continuous
 62
     7
370
    25
100
AcDbLine
 10
140.5866618906
 20
89.6047184282
 30
0.0
 11
140.5066618906
 21
89.6047184282
 31
0.0
  0
LINE
  5
1E8
330
1F
100
AcDbEntity
  8
0
  6
Continuous
 62
     7
370
    25
100
AcDbLine
 10
140.5066618906
 20
89.7207184282
 30
0.0
 11
140.3466618906
 21
89.7207184282
 31
0.0
  0
ARC
  5
1E9
330
1F
100
AcDbEntity
  8
0
  6
Continuous
 62
     7
370
    25
100
AcDbCircle
 10
140.3446159277
 20
89.4781966113
 30
0.0
 40
0.242530446857304
100
AcDbArc
 50
70.2271892892
 51
89.5166527104
  0
LINE
  5
1EA
330
1F
100
AcDbEntity
  8
0
  6
Continuous
 62
     7
370
    25
100
AcDbLine
 10
140.3466618906
 20
89.6047184282
 30
0.0
 11
140.2666618906
 21
89.6047184282
 31
0.0
  0
LINE
  5
1EB
330
1F
100
AcDbEntity
  8
0
  6
Continuous
 62
     7
370
    25
100
AcDbLine
 10
140.2666618906
 20
89.6047184282
 30
0.0
 11
140.2666618906
 21
89.7064278046
 31
0.0
  0
LWPOLYLINE
  5
1EC
330
1F
100
AcDbEntity
  8
0
  6
Continuous
 62
     7
370
    25
100
AcDbPolyline
 90
        3
 70
   128
 43
0.0
 10
140.2666618906
 20
89.7064278046
 10
140.3058561515
 20
89.7167960731
 10
140.3466618906
 20
89.7207184282
  0
LINE
  5
1ED
330
1F
100
AcDbEntity
  8
0
  6
Continuous
 62
     7
370
    25
100
AcDbLine
 10
140.4266618906
 20
89.6047184282
 30
0.0
 11
140.3466618906
 21
89.6047184282
 31
0.0
  0
LINE
  5
1EE
330
1F
100
AcDbEntity
  8
0
  6
Continuous
 62
     7
370
    25
100
AcDbLine
 10
140.2666618906
 20
89.7207184282
 30
0.0
 11
140.2666618906
 21
89.7064278046
 31
0.0
  0
LINE
  5
1EF
330
1F
100
AcDbEntity
  8
0
  6
Continuous
 62
     7
370
    25
100
AcDbLine
 10
140.2666618906
 20
89.7207184282
 30
0.0
 11
140.3466618906
 21
89.7207184282
 31
0.0
  0
LINE
  5
1F0
330
1F
100
AcDbEntity
  8
0
  6
Continuous
 62
     7
370
    25
100
AcDbLine
 10
140.5866618906
 20
89.7064278046
 30
0.0
 11
140.5866618906
 21
89.7207184282
 31
0.0
  0
LINE
  5
1F1
330
1F
100
AcDbEntity
  8
0
  6
Continuous
 62
     7
370
    25
100
AcDbLine
 10
140.5866618906
 20
89.7207184282
 30
0.0
 11
140.5066618906
 21
89.7207184282
 31
0.0
  0
LINE
  5
1F2
330
1F
100
AcDbEntity
  8
0
  6
Continuous
 62
     7
370
    25
100
AcDbLine
 10
138.6467355338
 20
89.6047184282
 30
0.0
 11
138.5745904873
 21
89.6047184282
 31
0.0
  0
LINE
  5
1F3
330
1F
100
AcDbEntity
  8
0
  6
Continuous
 62
     7
370
    25
100
AcDbLine
 10
138.5745904873
 20
89.6047184282
 30
0.0
 11
138.5745904873
 21
89.7064278046
 31
0.0
  0
LWPOLYLINE
  5
1F4
330
1F
100
AcDbEntity
  8
0
  6
Continuous
 62
     7
370
    25
100
AcDbPolyline
 90
        3
 70
   128
 43
0.0
 10
138.5745904873
 20
89.7064278046
 10
138.6099363844
 20
89.7167960731
 10
138.6467355338
 20
89.7207184282
  0
ARC
  5
1F5
330
1F
100
AcDbEntity
  8
0
  6
Continuous
 62
     7
370
    25
100
AcDbCircle
 10
138.6447601051
 20
89.5214911375
 30
0.0
 40
0.1992370841549948
100
AcDbArc
 50
68.1596585981
 51
89.4319050563
  0
LINE
  5
1F6
330
1F
100
AcDbEntity
  8
0
  6
Continuous
 62
     7
370
    25
100
AcDbLine
 10
138.7188805803
 20
89.6047184282
 30
0.0
 11
138.7188805803
 21
89.7064278046
 31
0.0
  0
LINE
  5
1F7
330
1F
100
AcDbEntity
  8
0
  6
Continuous
 62
     7
370
    25
100
AcDbLine
 10
138.7188805803
 20
89.6047184282
 30
0.0
 11
138.6467355338
 21
89.6047184282
 31
0.0
  0
LWPOLYLINE
  5
1F8
330
1F
100
AcDbEntity
  8
0
  6
Continuous
 62
     7
370
    25
100
AcDbPolyline
 90
        3
 70
   128
 43
0.0
 10
138.7188805803
 20
89.7064278046
 10
138.7862297839
 20
89.719994977
 10
138.804916282
 20
89.7207184282
  0
LINE
  5
1F9
330
1F
100
AcDbEntity
  8
0
  6
Continuous
 62
     7
370
    25
100
AcDbLine
 10
138.804916282
 20
89.7207184282
 30
0.0
 11
138.6467355338
 21
89.7207184282
 31
0.0
  0
LWPOLYLINE
  5
1FA
330
1F
100
AcDbEntity
  8
0
  6
Continuous
 62
     7
370
    25
100
AcDbPolyline
 90
        3
 70
   128
 43
0.0
 10
138.804916282
 20
89.7207184282
 10
138.8750616338
 20
89.7109959914
 10
138.8909519836
 20
89.7064278046
  0
LINE
  5
1FB
330
1F
100
AcDbEntity
  8
0
  6
Continuous
 62
     7
370
    25
100
AcDbLine
 10
138.8909519836
 20
89.6047184282
 30
0.0
 11
138.8909519836
 21
89.7064278046
 31
0.0
  0
LINE
  5
1FC
330
1F
100
AcDbEntity
  8
0
  6
Continuous
 62
     7
370
    25
100
AcDbLine
 10
138.8909519836
 20
89.6047184282
 30
0.0
 11
138.804916282
 21
89.6047184282
 31
0.0
  0
LINE
  5
1FD
330
1F
100
AcDbEntity
  8
0
  6
Continuous
 62
     7
370
    25
100
AcDbLine
 10
138.804916282
 20
89.6047184282
 30
0.0
 11
138.7188805803
 21
89.6047184282
 31
0.0
  0
LWPOLYLINE
  5
1FE
330
1F
100
AcDbEntity
  8
0
  6
Continuous
 62
     7
370
    25
100
AcDbPolyline
 90
        3
 70
   128
 43
0.0
 10
138.8909519836
 20
89.7064278046
 10
138.8977574082
 20
89.7167960731
 10
138.9048426388
 20
89.7207184282
  0
LINE
  5
1FF
330
1F
100
AcDbEntity
  8
0
  6
Continuous
 62
     7
370
    25
100
AcDbLine
 10
138.9048426388
 20
89.7207184282
 30
0.0
 11
138.804916282
 21
89.7207184282
 31
0.0
  0
LWPOLYLINE
  5
200
330
1F
100
AcDbEntity
  8
0
  6
Continuous
 62
     7
370
    25
100
AcDbPolyline
 90
        4
 70
   128
 43
0.0
 10
138.5884811424
 20
89.7207184282
 10
138.5874934092
 20
89.720640614
 10
138.5810317718
 20
89.7163918103
 10
138.5745904873
 20
89.7064278046
  0
LINE
  5
201
330
1F
100
AcDbEntity
  8
0
  6
Continuous
 62
     7
370
    25
100
AcDbLine
 10
138.6467355338
 20
89.7207184282
 30
0.0
 11
138.5866940292
 21
89.7207184282
 31
0.0
  0
LWPOLYLINE
  5
202
330
1F
100
AcDbEntity
  8
0
  6
Continuous
 62
     7
370
    25
100
AcDbPolyline
 90
        4
 70
   128
 43
0.0
 10
138.9048426388
 20
89.7207184282
 10
138.905830372
 20
89.720640614
 10
138.9122920094
 20
89.7163918103
 10
138.918733294
 20
89.7064278046
  0
LINE
  5
203
330
1F
100
AcDbEntity
  8
0
  6
Continuous
 62
     7
370
    25
100
AcDbLine
 10
138.918733294
 20
89.6047184282
 30
0.0
 11
138.918733294
 21
89.7064278046
 31
0.0
  0
LINE
  5
204
330
1F
100
AcDbEntity
  8
0
  6
Continuous
 62
     7
370
    25
100
AcDbLine
 10
138.918733294
 20
89.6047184282
 30
0.0
 11
138.9048426388
 21
89.6047184282
 31
0.0
  0
LINE
  5
205
330
1F
100
AcDbEntity
  8
0
  6
Continuous
 62
     7
370
    25
100
AcDbLine
 10
138.9048426388
 20
89.6047184282
 30
0.0
 11
138.8909519836
 21
89.6047184282
 31
0.0
  0
LINE
  5
206
330
1F
100
AcDbEntity
  8
0
  6
Continuous
 62
     7
370
    25
100
AcDbLine
 10
144.6666618906
 20
486.4207184282
 30
0.0
 11
144.7466618906
 21
486.4207184282
 31
0.0
  0
LINE
  5
207
330
1F
100
AcDbEntity
  8
0
  6
Continuous
 62
     7
370
    25
100
AcDbLine
 10
144.7466618906
 20
486.4207184282
 30
0.0
 11
144.7466618906
 21
486.3190090518
 31
0.0
  0
LWPOLYLINE
  5
208
330
1F
100
AcDbEntity
  8
0
  6
Continuous
 62
     7
370
    25
100
AcDbPolyline
 90
        3
 70
   128
 43
0.0
 10
144.7466618906
 20
486.3190090518
 10
144.7074676298
 20
486.3086407833
 10
144.6666618906
 20
486.3047184282
  0
ARC
  5
209
330
1F
100
AcDbEntity
  8
0
  6
Continuous
 62
     7
370
    25
100
AcDbCircle
 10
144.6687078536
 20
486.5472402451
 30
0.0
 40
0.242530446859738
100
AcDbArc
 50
250.2271892893
 51
269.5166527103
  0
LINE
  5
20A
330
1F
100
AcDbEntity
  8
0
  6
Continuous
 62
     7
370
    25
100
AcDbLine
 10
144.5866618906
 20
486.4207184282
 30
0.0
 11
144.5866618906
 21
486.3190090518
 31
0.0
  0
LINE
  5
20B
330
1F
100
AcDbEntity
  8
0
  6
Continuous
 62
     7
370
    25
100
AcDbLine
 10
144.5866618906
 20
486.4207184282
 30
0.0
 11
144.6666618906
 21
486.4207184282
 31
0.0
  0
LINE
  5
20C
330
1F
100
AcDbEntity
  8
0
  6
Continuous
 62
     7
370
    25
100
AcDbLine
 10
144.8266618906
 20
486.4207184282
 30
0.0
 11
144.9066618906
 21
486.4207184282
 31
0.0
  0
LINE
  5
20D
330
1F
100
AcDbEntity
  8
0
  6
Continuous
 62
     7
370
    25
100
AcDbLine
 10
144.9066618906
 20
486.4207184282
 30
0.0
 11
144.9066618906
 21
486.3190090518
 31
0.0
  0
LWPOLYLINE
  5
20E
330
1F
100
AcDbEntity
  8
0
  6
Continuous
 62
     7
370
    25
100
AcDbPolyline
 90
        3
 70
   128
 43
0.0
 10
144.9066618906
 20
486.3190090518
 10
144.8674676298
 20
486.3086407833
 10
144.8266618906
 20
486.3047184282
  0
ARC
  5
20F
330
1F
100
AcDbEntity
  8
0
  6
Continuous
 62
     7
370
    25
100
AcDbCircle
 10
144.8287078536
 20
486.5472402451
 30
0.0
 40
0.2425304468597444
100
AcDbArc
 50
250.2271892893
 51
269.5166527103
  0
LINE
  5
210
330
1F
100
AcDbEntity
  8
0
  6
Continuous
 62
     7
370
    25
100
AcDbLine
 10
144.7466618906
 20
486.4207184282
 30
0.0
 11
144.8266618906
 21
486.4207184282
 31
0.0
  0
LINE
  5
211
330
1F
100
AcDbEntity
  8
0
  6
Continuous
 62
     7
370
    25
100
AcDbLine
 10
144.6666618906
 20
486.3047184282
 30
0.0
 11
144.8266618906
 21
486.3047184282
 31
0.0
  0
LINE
  5
212
330
1F
100
AcDbEntity
  8
0
  6
Continuous
 62
     7
370
    25
100
AcDbLine
 10
144.5866618906
 20
486.3190090518
 30
0.0
 11
144.5866618906
 21
486.3047184282
 31
0.0
  0
LINE
  5
213
330
1F
100
AcDbEntity
  8
0
  6
Continuous
 62
     7
370
    25
100
AcDbLine
 10
144.5866618906
 20
486.3047184282
 30
0.0
 11
144.6666618906
 21
486.3047184282
 31
0.0
  0
LINE
  5
214
330
1F
100
AcDbEntity
  8
0
  6
Continuous
 62
     7
370
    25
100
AcDbLine
 10
144.9066618906
 20
486.3047184282
 30
0.0
 11
144.9066618906
 21
486.3190090518
 31
0.0
  0
LINE
  5
215
330
1F
100
AcDbEntity
  8
0
  6
Continuous
 62
     7
370
    25
100
AcDbLine
 10
144.9066618906
 20
486.3047184282
 30
0.0
 11
144.8266618906
 21
486.3047184282
 31
0.0
  0
LINE
  5
216
330
1F
100
AcDbEntity
  8
0
  6
Continuous
 62
     7
370
    25
100
AcDbLine
 10
146.5265882475
 20
486.4207184282
 30
0.0
 11
146.598733294
 21
486.4207184282
 31
0.0
  0
LINE
  5
217
330
1F
100
AcDbEntity
  8
0
  6
Continuous
 62
     7
370
    25
100
AcDbLine
 10
146.598733294
 20
486.4207184282
 30
0.0
 11
146.598733294
 21
486.3190090518
 31
0.0
  0
LWPOLYLINE
  5
218
330
1F
100
AcDbEntity
  8
0
  6
Continuous
 62
     7
370
    25
100
AcDbPolyline
 90
        3
 70
   128
 43
0.0
 10
146.598733294
 20
486.3190090518
 10
146.5633873969
 20
486.3086407833
 10
146.5265882475
 20
486.3047184282
  0
ARC
  5
219
330
1F
100
AcDbEntity
  8
0
  6
Continuous
 62
     7
370
    25
100
AcDbCircle
 10
146.5285636762
 20
486.503945719
 30
0.0
 40
0.1992370841567943
100
AcDbArc
 50
248.1596585982
 51
269.4319050562
  0
LINE
  5
21A
330
1F
100
AcDbEntity
  8
0
  6
Continuous
 62
     7
370
    25
100
AcDbLine
 10
146.454443201
 20
486.4207184282
 30
0.0
 11
146.454443201
 21
486.3190090518
 31
0.0
  0
LINE
  5
21B
330
1F
100
AcDbEntity
  8
0
  6
Continuous
 62
     7
370
    25
100
AcDbLine
 10
146.454443201
 20
486.4207184282
 30
0.0
 11
146.5265882475
 21
486.4207184282
 31
0.0
  0
LWPOLYLINE
  5
21C
330
1F
100
AcDbEntity
  8
0
  6
Continuous
 62
     7
370
    25
100
AcDbPolyline
 90
        3
 70
   128
 43
0.0
 10
146.454443201
 20
486.3190090518
 10
146.3870939974
 20
486.3054418794
 10
146.3684074993
 20
486.3047184282
  0
LINE
  5
21D
330
1F
100
AcDbEntity
  8
0
  6
Continuous
 62
     7
370
    25
100
AcDbLine
 10
146.3684074993
 20
486.3047184282
 30
0.0
 11
146.5265882475
 21
486.3047184282
 31
0.0
  0
LWPOLYLINE
  5
21E
330
1F
100
AcDbEntity
  8
0
  6
Continuous
 62
     7
370
    25
100
AcDbPolyline
 90
        3
 70
   128
 43
0.0
 10
146.3684074993
 20
486.3047184282
 10
146.2982621474
 20
486.314440865
 10
146.2823717976
 20
486.3190090518
  0
LINE
  5
21F
330
1F
100
AcDbEntity
  8
0
  6
Continuous
 62
     7
370
    25
100
AcDbLine
 10
146.2823717976
 20
486.4207184282
 30
0.0
 11
146.2823717976
 21
486.3190090518
 31
0.0
  0
LINE
  5
220
330
1F
100
AcDbEntity
  8
0
  6
Continuous
 62
     7
370
    25
100
AcDbLine
 10
146.2823717976
 20
486.4207184282
 30
0.0
 11
146.3684074993
 21
486.4207184282
 31
0.0
  0
LINE
  5
221
330
1F
100
AcDbEntity
  8
0
  6
Continuous
 62
     7
370
    25
100
AcDbLine
 10
146.3684074993
 20
486.4207184282
 30
0.0
 11
146.454443201
 21
486.4207184282
 31
0.0
  0
LWPOLYLINE
  5
222
330
1F
100
AcDbEntity
  8
0
  6
Continuous
 62
     7
370
    25
100
AcDbPolyline
 90
        3
 70
   128
 43
0.0
 10
146.2823717976
 20
486.3190090518
 10
146.2755663731
 20
486.3086407833
 10
146.2684811424
 20
486.3047184282
  0
LINE
  5
223
330
1F
100
AcDbEntity
  8
0
  6
Continuous
 62
     7
370
    25
100
AcDbLine
 10
146.2684811424
 20
486.3047184282
 30
0.0
 11
146.3684074993
 21
486.3047184282
 31
0.0
  0
LWPOLYLINE
  5
224
330
1F
100
AcDbEntity
  8
0
  6
Continuous
 62
     7
370
    25
100
AcDbPolyline
 90
        4
 70
   128
 43
0.0
 10
146.5848426388
 20
486.3047184282
 10
146.585830372
 20
486.3047962425
 10
146.5922920094
 20
486.3090450461
 10
146.598733294
 20
486.3190090518
  0
LINE
  5
225
330
1F
100
AcDbEntity
  8
0
  6
Continuous
 62
     7
370
    25
100
AcDbLine
 10
146.5265882475
 20
486.3047184282
 30
0.0
 11
146.5866297521
 21
486.3047184282
 31
0.0
  0
LWPOLYLINE
  5
226
330
1F
100
AcDbEntity
  8
0
  6
Continuous
 62
     7
370
    25
100
AcDbPolyline
 90
        4
 70
   128
 43
0.0
 10
146.2684811424
 20
486.3047184282
 10
146.2674934092
 20
486.3047962425
 10
146.2610317718
 20
486.3090450461
 10
146.2545904873
 20
486.3190090518
  0
LINE
  5
227
330
1F
100
AcDbEntity
  8
0
  6
Continuous
 62
     7
370
    25
100
AcDbLine
 10
146.2545904873
 20
486.4207184282
 30
0.0
 11
146.2545904873
 21
486.3190090518
 31
0.0
  0
LINE
  5
228
330
1F
100
AcDbEntity
  8
0
  6
Continuous
 62
     7
370
    25
100
AcDbLine
 10
146.2545904873
 20
486.4207184282
 30
0.0
 11
146.2684811424
 21
486.4207184282
 31
0.0
  0
LINE
  5
229
330
1F
100
AcDbEntity
  8
0
  6
Continuous
 62
     7
370
    25
100
AcDbLine
 10
146.2684811424
 20
486.4207184282
 30
0.0
 11
146.2823717976
 21
486.4207184282
 31
0.0
  0
LINE
  5
22A
330
1F
100
AcDbEntity
  8
0
  6
Continuous
 62
     7
370
    25
100
AcDbLine
 10
140.5265882475
 20
86.4207184282
 30
0.0
 11
140.598733294
 21
86.4207184282
 31
0.0
  0
LINE
  5
22B
330
1F
100
AcDbEntity
  8
0
  6
Continuous
 62
     7
370
    25
100
AcDbLine
 10
140.598733294
 20
86.4207184282
 30
0.0
 11
140.598733294
 21
86.3190090518
 31
0.0
  0
LWPOLYLINE
  5
22C
330
1F
100
AcDbEntity
  8
0
  6
Continuous
 62
     7
370
    25
100
AcDbPolyline
 90
        3
 70
   128
 43
0.0
 10
140.598733294
 20
86.3190090518
 10
140.5633873969
 20
86.3086407833
 10
140.5265882475
 20
86.3047184282
  0
ARC
  5
22D
330
1F
100
AcDbEntity
  8
0
  6
Continuous
 62
     7
370
    25
100
AcDbCircle
 10
140.5285636762
 20
86.503945719
 30
0.0
 40
0.1992370841562455
100
AcDbArc
 50
248.1596585982
 51
269.4319050563
  0
LINE
  5
22E
330
1F
100
AcDbEntity
  8
0
  6
Continuous
 62
     7
370
    25
100
AcDbLine
 10
140.454443201
 20
86.4207184282
 30
0.0
 11
140.454443201
 21
86.3190090518
 31
0.0
  0
LINE
  5
22F
330
1F
100
AcDbEntity
  8
0
  6
Continuous
 62
     7
370
    25
100
AcDbLine
 10
140.454443201
 20
86.4207184282
 30
0.0
 11
140.5265882475
 21
86.4207184282
 31
0.0
  0
LWPOLYLINE
  5
230
330
1F
100
AcDbEntity
  8
0
  6
Continuous
 62
     7
370
    25
100
AcDbPolyline
 90
        3
 70
   128
 43
0.0
 10
140.454443201
 20
86.3190090518
 10
140.3870939974
 20
86.3054418794
 10
140.3684074993
 20
86.3047184282
  0
LINE
  5
231
330
1F
100
AcDbEntity
  8
0
  6
Continuous
 62
     7
370
    25
100
AcDbLine
 10
140.3684074993
 20
86.3047184282
 30
0.0
 11
140.5265882475
 21
86.3047184282
 31
0.0
  0
LWPOLYLINE
  5
232
330
1F
100
AcDbEntity
  8
0
  6
Continuous
 62
     7
370
    25
100
AcDbPolyline
 90
        3
 70
   128
 43
0.0
 10
140.3684074993
 20
86.3047184282
 10
140.2982621474
 20
86.314440865
 10
140.2823717976
 20
86.3190090518
  0
LINE
  5
233
330
1F
100
AcDbEntity
  8
0
  6
Continuous
 62
     7
370
    25
100
AcDbLine
 10
140.2823717976
 20
86.4207184282
 30
0.0
 11
140.2823717976
 21
86.3190090518
 31
0.0
  0
LINE
  5
234
330
1F
100
AcDbEntity
  8
0
  6
Continuous
 62
     7
370
    25
100
AcDbLine
 10
140.2823717976
 20
86.4207184282
 30
0.0
 11
140.3684074993
 21
86.4207184282
 31
0.0
  0
LINE
  5
235
330
1F
100
AcDbEntity
  8
0
  6
Continuous
 62
     7
370
    25
100
AcDbLine
 10
140.3684074993
 20
86.4207184282
 30
0.0
 11
140.454443201
 21
86.4207184282
 31
0.0
  0
LWPOLYLINE
  5
236
330
1F
100
AcDbEntity
  8
0
  6
Continuous
 62
     7
370
    25
100
AcDbPolyline
 90
        3
 70
   128
 43
0.0
 10
140.2823717976
 20
86.3190090518
 10
140.2755663731
 20
86.3086407833
 10
140.2684811424
 20
86.3047184282
  0
LINE
  5
237
330
1F
100
AcDbEntity
  8
0
  6
Continuous
 62
     7
370
    25
100
AcDbLine
 10
140.2684811424
 20
86.3047184282
 30
0.0
 11
140.3684074993
 21
86.3047184282
 31
0.0
  0
LWPOLYLINE
  5
238
330
1F
100
AcDbEntity
  8
0
  6
Continuous
 62
     7
370
    25
100
AcDbPolyline
 90
        4
 70
   128
 43
0.0
 10
140.5848426388
 20
86.3047184282
 10
140.585830372
 20
86.3047962425
 10
140.5922920094
 20
86.3090450461
 10
140.598733294
 20
86.3190090518
  0
LINE
  5
239
330
1F
100
AcDbEntity
  8
0
  6
Continuous
 62
     7
370
    25
100
AcDbLine
 10
140.5265882475
 20
86.3047184282
 30
0.0
 11
140.5866297521
 21
86.3047184282
 31
0.0
  0
LWPOLYLINE
  5
23A
330
1F
100
AcDbEntity
  8
0
  6
Continuous
 62
     7
370
    25
100
AcDbPolyline
 90
        4
 70
   128
 43
0.0
 10
140.2684811424
 20
86.3047184282
 10
140.2674934092
 20
86.3047962425
 10
140.2610317718
 20
86.3090450461
 10
140.2545904873
 20
86.3190090518
  0
LINE
  5
23B
330
1F
100
AcDbEntity
  8
0
  6
Continuous
 62
     7
370
    25
100
AcDbLine
 10
140.2545904873
 20
86.4207184282
 30
0.0
 11
140.2545904873
 21
86.3190090518
 31
0.0
  0
LINE
  5
23C
330
1F
100
AcDbEntity
  8
0
  6
Continuous
 62
     7
370
    25
100
AcDbLine
 10
140.2545904873
 20
86.4207184282
 30
0.0
 11
140.2684811424
 21
86.4207184282
 31
0.0
  0
LINE
  5
23D
330
1F
100
AcDbEntity
  8
0
  6
Continuous
 62
     7
370
    25
100
AcDbLine
 10
140.2684811424
 20
86.4207184282
 30
0.0
 11
140.2823717976
 21
86.4207184282
 31
0.0
  0
LINE
  5
23E
330
1F
100
AcDbEntity
  8
0
  6
Continuous
 62
     7
370
    25
100
AcDbLine
 10
74.4266618906
 20
489.6047184282
 30
0.0
 11
74.4266618906
 21
489.7064278046
 31
0.0
  0
LWPOLYLINE
  5
23F
330
1F
100
AcDbEntity
  8
0
  6
Continuous
 62
     7
370
    25
100
AcDbPolyline
 90
        3
 70
   128
 43
0.0
 10
74.4266618906
 20
489.7064278046
 10
74.4658561515
 20
489.7167960731
 10
74.5066618906
 20
489.7207184282
  0
ARC
  5
240
330
1F
100
AcDbEntity
  8
0
  6
Continuous
 62
     7
370
    25
100
AcDbCircle
 10
74.5046159277
 20
489.4781966113
 30
0.0
 40
0.2425304468596813
100
AcDbArc
 50
70.2271892893
 51
89.5166527103
  0
LINE
  5
241
330
1F
100
AcDbEntity
  8
0
  6
Continuous
 62
     7
370
    25
100
AcDbLine
 10
74.5866618906
 20
489.6047184282
 30
0.0
 11
74.5866618906
 21
489.7064278046
 31
0.0
  0
LINE
  5
242
330
1F
100
AcDbEntity
  8
0
  6
Continuous
 62
     7
370
    25
100
AcDbLine
 10
74.5866618906
 20
489.6047184282
 30
0.0
 11
74.5066618906
 21
489.6047184282
 31
0.0
  0
LINE
  5
243
330
1F
100
AcDbEntity
  8
0
  6
Continuous
 62
     7
370
    25
100
AcDbLine
 10
74.5066618906
 20
489.6047184282
 30
0.0
 11
74.4266618906
 21
489.6047184282
 31
0.0
  0
LINE
  5
244
330
1F
100
AcDbEntity
  8
0
  6
Continuous
 62
     7
370
    25
100
AcDbLine
 10
74.3466618906
 20
489.6047184282
 30
0.0
 11
74.2666618906
 21
489.6047184282
 31
0.0
  0
LINE
  5
245
330
1F
100
AcDbEntity
  8
0
  6
Continuous
 62
     7
370
    25
100
AcDbLine
 10
74.2666618906
 20
489.6047184282
 30
0.0
 11
74.2666618906
 21
489.7064278046
 31
0.0
  0
LWPOLYLINE
  5
246
330
1F
100
AcDbEntity
  8
0
  6
Continuous
 62
     7
370
    25
100
AcDbPolyline
 90
        3
 70
   128
 43
0.0
 10
74.2666618906
 20
489.7064278046
 10
74.3058561515
 20
489.7167960731
 10
74.3466618906
 20
489.7207184282
  0
ARC
  5
247
330
1F
100
AcDbEntity
  8
0
  6
Continuous
 62
     7
370
    25
100
AcDbCircle
 10
74.3446159277
 20
489.4781966113
 30
0.0
 40
0.2425304468596809
100
AcDbArc
 50
70.2271892893
 51
89.5166527103
  0
LINE
  5
248
330
1F
100
AcDbEntity
  8
0
  6
Continuous
 62
     7
370
    25
100
AcDbLine
 10
74.4266618906
 20
489.6047184282
 30
0.0
 11
74.3466618906
 21
489.6047184282
 31
0.0
  0
LINE
  5
249
330
1F
100
AcDbEntity
  8
0
  6
Continuous
 62
     7
370
    25
100
AcDbLine
 10
74.5066618906
 20
489.7207184282
 30
0.0
 11
74.3466618906
 21
489.7207184282
 31
0.0
  0
LINE
  5
24A
330
1F
100
AcDbEntity
  8
0
  6
Continuous
 62
     7
370
    25
100
AcDbLine
 10
74.5866618906
 20
489.7064278046
 30
0.0
 11
74.5866618906
 21
489.7207184282
 31
0.0
  0
LINE
  5
24B
330
1F
100
AcDbEntity
  8
0
  6
Continuous
 62
     7
370
    25
100
AcDbLine
 10
74.5866618906
 20
489.7207184282
 30
0.0
 11
74.5066618906
 21
489.7207184282
 31
0.0
  0
LINE
  5
24C
330
1F
100
AcDbEntity
  8
0
  6
Continuous
 62
     7
370
    25
100
AcDbLine
 10
74.2666618906
 20
489.7207184282
 30
0.0
 11
74.2666618906
 21
489.7064278046
 31
0.0
  0
LINE
  5
24D
330
1F
100
AcDbEntity
  8
0
  6
Continuous
 62
     7
370
    25
100
AcDbLine
 10
74.2666618906
 20
489.7207184282
 30
0.0
 11
74.3466618906
 21
489.7207184282
 31
0.0
  0
LINE
  5
24E
330
1F
100
AcDbEntity
  8
0
  6
Continuous
 62
     7
370
    25
100
AcDbLine
 10
72.6467355338
 20
489.6047184282
 30
0.0
 11
72.5745904873
 21
489.6047184282
 31
0.0
  0
LINE
  5
24F
330
1F
100
AcDbEntity
  8
0
  6
Continuous
 62
     7
370
    25
100
AcDbLine
 10
72.5745904873
 20
489.6047184282
 30
0.0
 11
72.5745904873
 21
489.7064278046
 31
0.0
  0
LWPOLYLINE
  5
250
330
1F
100
AcDbEntity
  8
0
  6
Continuous
 62
     7
370
    25
100
AcDbPolyline
 90
        3
 70
   128
 43
0.0
 10
72.5745904873
 20
489.7064278046
 10
72.6099363844
 20
489.7167960731
 10
72.6467355338
 20
489.7207184282
  0
ARC
  5
251
330
1F
100
AcDbEntity
  8
0
  6
Continuous
 62
     7
370
    25
100
AcDbCircle
 10
72.6447601051
 20
489.5214911374
 30
0.0
 40
0.1992370841569051
100
AcDbArc
 50
68.1596585982
 51
89.4319050562
  0
LINE
  5
252
330
1F
100
AcDbEntity
  8
0
  6
Continuous
 62
     7
370
    25
100
AcDbLine
 10
72.7188805803
 20
489.6047184282
 30
0.0
 11
72.7188805803
 21
489.7064278046
 31
0.0
  0
LINE
  5
253
330
1F
100
AcDbEntity
  8
0
  6
Continuous
 62
     7
370
    25
100
AcDbLine
 10
72.7188805803
 20
489.6047184282
 30
0.0
 11
72.6467355338
 21
489.6047184282
 31
0.0
  0
LWPOLYLINE
  5
254
330
1F
100
AcDbEntity
  8
0
  6
Continuous
 62
     7
370
    25
100
AcDbPolyline
 90
        3
 70
   128
 43
0.0
 10
72.7188805803
 20
489.7064278046
 10
72.7862297839
 20
489.719994977
 10
72.804916282
 20
489.7207184282
  0
LINE
  5
255
330
1F
100
AcDbEntity
  8
0
  6
Continuous
 62
     7
370
    25
100
AcDbLine
 10
72.804916282
 20
489.7207184282
 30
0.0
 11
72.6467355338
 21
489.7207184282
 31
0.0
  0
LWPOLYLINE
  5
256
330
1F
100
AcDbEntity
  8
0
  6
Continuous
 62
     7
370
    25
100
AcDbPolyline
 90
        3
 70
   128
 43
0.0
 10
72.804916282
 20
489.7207184282
 10
72.8750616338
 20
489.7109959914
 10
72.8909519836
 20
489.7064278046
  0
LINE
  5
257
330
1F
100
AcDbEntity
  8
0
  6
Continuous
 62
     7
370
    25
100
AcDbLine
 10
72.8909519836
 20
489.6047184282
 30
0.0
 11
72.8909519836
 21
489.7064278046
 31
0.0
  0
LINE
  5
258
330
1F
100
AcDbEntity
  8
0
  6
Continuous
 62
     7
370
    25
100
AcDbLine
 10
72.8909519836
 20
489.6047184282
 30
0.0
 11
72.804916282
 21
489.6047184282
 31
0.0
  0
LINE
  5
259
330
1F
100
AcDbEntity
  8
0
  6
Continuous
 62
     7
370
    25
100
AcDbLine
 10
72.804916282
 20
489.6047184282
 30
0.0
 11
72.7188805803
 21
489.6047184282
 31
0.0
  0
LWPOLYLINE
  5
25A
330
1F
100
AcDbEntity
  8
0
  6
Continuous
 62
     7
370
    25
100
AcDbPolyline
 90
        3
 70
   128
 43
0.0
 10
72.8909519836
 20
489.7064278046
 10
72.8977574082
 20
489.7167960731
 10
72.9048426388
 20
489.7207184282
  0
LINE
  5
25B
330
1F
100
AcDbEntity
  8
0
  6
Continuous
 62
     7
370
    25
100
AcDbLine
 10
72.9048426388
 20
489.7207184282
 30
0.0
 11
72.804916282
 21
489.7207184282
 31
0.0
  0
LWPOLYLINE
  5
25C
330
1F
100
AcDbEntity
  8
0
  6
Continuous
 62
     7
370
    25
100
AcDbPolyline
 90
        4
 70
   128
 43
0.0
 10
72.5884811424
 20
489.7207184282
 10
72.5874934092
 20
489.720640614
 10
72.5810317718
 20
489.7163918103
 10
72.5745904873
 20
489.7064278046
  0
LINE
  5
25D
330
1F
100
AcDbEntity
  8
0
  6
Continuous
 62
     7
370
    25
100
AcDbLine
 10
72.6467355338
 20
489.7207184282
 30
0.0
 11
72.5866940292
 21
489.7207184282
 31
0.0
  0
LWPOLYLINE
  5
25E
330
1F
100
AcDbEntity
  8
0
  6
Continuous
 62
     7
370
    25
100
AcDbPolyline
 90
        4
 70
   128
 43
0.0
 10
72.9048426388
 20
489.7207184282
 10
72.905830372
 20
489.720640614
 10
72.9122920094
 20
489.7163918103
 10
72.918733294
 20
489.7064278046
  0
LINE
  5
25F
330
1F
100
AcDbEntity
  8
0
  6
Continuous
 62
     7
370
    25
100
AcDbLine
 10
72.918733294
 20
489.6047184282
 30
0.0
 11
72.918733294
 21
489.7064278046
 31
0.0
  0
LINE
  5
260
330
1F
100
AcDbEntity
  8
0
  6
Continuous
 62
     7
370
    25
100
AcDbLine
 10
72.918733294
 20
489.6047184282
 30
0.0
 11
72.9048426388
 21
489.6047184282
 31
0.0
  0
LINE
  5
261
330
1F
100
AcDbEntity
  8
0
  6
Continuous
 62
     7
370
    25
100
AcDbLine
 10
72.9048426388
 20
489.6047184282
 30
0.0
 11
72.8909519836
 21
489.6047184282
 31
0.0
  0
LINE
  5
262
330
1F
100
AcDbEntity
  8
0
  6
Continuous
 62
     7
370
    25
100
AcDbLine
 10
138.6666618906
 20
86.3047184282
 30
0.0
 11
138.8266618906
 21
86.3047184282
 31
0.0
  0
LWPOLYLINE
  5
263
330
1F
100
AcDbEntity
  8
0
  6
Continuous
 62
     7
370
    25
100
AcDbPolyline
 90
        3
 70
   128
 43
0.0
 10
138.7466618906
 20
86.3190090518
 10
138.7074676298
 20
86.3086407833
 10
138.6666618906
 20
86.3047184282
  0
ARC
  5
264
330
1F
100
AcDbEntity
  8
0
  6
Continuous
 62
     7
370
    25
100
AcDbCircle
 10
138.8287078536
 20
86.5472402451
 30
0.0
 40
0.2425304468590298
100
AcDbArc
 50
250.2271892893
 51
269.5166527103
  0
LINE
  5
265
330
1F
100
AcDbEntity
  8
0
  6
Continuous
 62
     7
370
    25
100
AcDbLine
 10
138.7466618906
 20
86.4207184282
 30
0.0
 11
138.7466618906
 21
86.3190090518
 31
0.0
  0
ARC
  5
266
330
1F
100
AcDbEntity
  8
0
  6
Continuous
 62
     7
370
    25
100
AcDbCircle
 10
138.6687078536
 20
86.5472402451
 30
0.0
 40
0.2425304468587794
100
AcDbArc
 50
250.2271892893
 51
269.5166527103
  0
LINE
  5
267
330
1F
100
AcDbEntity
  8
0
  6
Continuous
 62
     7
370
    25
100
AcDbLine
 10
138.5866618906
 20
86.4207184282
 30
0.0
 11
138.5866618906
 21
86.3190090518
 31
0.0
  0
LINE
  5
268
330
1F
100
AcDbEntity
  8
0
  6
Continuous
 62
     7
370
    25
100
AcDbLine
 10
138.5866618906
 20
86.4207184282
 30
0.0
 11
138.6666618906
 21
86.4207184282
 31
0.0
  0
LINE
  5
269
330
1F
100
AcDbEntity
  8
0
  6
Continuous
 62
     7
370
    25
100
AcDbLine
 10
138.6666618906
 20
86.4207184282
 30
0.0
 11
138.7466618906
 21
86.4207184282
 31
0.0
  0
LINE
  5
26A
330
1F
100
AcDbEntity
  8
0
  6
Continuous
 62
     7
370
    25
100
AcDbLine
 10
138.8266618906
 20
86.4207184282
 30
0.0
 11
138.9066618906
 21
86.4207184282
 31
0.0
  0
LINE
  5
26B
330
1F
100
AcDbEntity
  8
0
  6
Continuous
 62
     7
370
    25
100
AcDbLine
 10
138.9066618906
 20
86.4207184282
 30
0.0
 11
138.9066618906
 21
86.3190090518
 31
0.0
  0
LWPOLYLINE
  5
26C
330
1F
100
AcDbEntity
  8
0
  6
Continuous
 62
     7
370
    25
100
AcDbPolyline
 90
        3
 70
   128
 43
0.0
 10
138.9066618906
 20
86.3190090518
 10
138.8674676298
 20
86.3086407833
 10
138.8266618906
 20
86.3047184282
  0
LINE
  5
26D
330
1F
100
AcDbEntity
  8
0
  6
Continuous
 62
     7
370
    25
100
AcDbLine
 10
138.7466618906
 20
86.4207184282
 30
0.0
 11
138.8266618906
 21
86.4207184282
 31
0.0
  0
LINE
  5
26E
330
1F
100
AcDbEntity
  8
0
  6
Continuous
 62
     7
370
    25
100
AcDbLine
 10
138.9066618906
 20
86.3047184282
 30
0.0
 11
138.9066618906
 21
86.3190090518
 31
0.0
  0
LINE
  5
26F
330
1F
100
AcDbEntity
  8
0
  6
Continuous
 62
     7
370
    25
100
AcDbLine
 10
138.9066618906
 20
86.3047184282
 30
0.0
 11
138.8266618906
 21
86.3047184282
 31
0.0
  0
LINE
  5
270
330
1F
100
AcDbEntity
  8
0
  6
Continuous
 62
     7
370
    25
100
AcDbLine
 10
138.5866618906
 20
86.3190090518
 30
0.0
 11
138.5866618906
 21
86.3047184282
 31
0.0
  0
LINE
  5
271
330
1F
100
AcDbEntity
  8
0
  6
Continuous
 62
     7
370
    25
100
AcDbLine
 10
138.5866618906
 20
86.3047184282
 30
0.0
 11
138.6666618906
 21
86.3047184282
 31
0.0
  0
LINE
  5
272
330
1F
100
AcDbEntity
  8
0
  6
Continuous
 62
     7
370
    25
100
AcDbLine
 10
80.3466618906
 20
89.6047184282
 30
0.0
 11
80.2666618906
 21
89.6047184282
 31
0.0
  0
LINE
  5
273
330
1F
100
AcDbEntity
  8
0
  6
Continuous
 62
     7
370
    25
100
AcDbLine
 10
80.2666618906
 20
89.6047184282
 30
0.0
 11
80.2666618906
 21
89.7064278046
 31
0.0
  0
LWPOLYLINE
  5
274
330
1F
100
AcDbEntity
  8
0
  6
Continuous
 62
     7
370
    25
100
AcDbPolyline
 90
        3
 70
   128
 43
0.0
 10
80.2666618906
 20
89.7064278046
 10
80.3058561515
 20
89.7167960731
 10
80.3466618906
 20
89.7207184282
  0
ARC
  5
275
330
1F
100
AcDbEntity
  8
0
  6
Continuous
 62
     7
370
    25
100
AcDbCircle
 10
80.3446159277
 20
89.4781966113
 30
0.0
 40
0.2425304468574471
100
AcDbArc
 50
70.2271892892
 51
89.5166527104
  0
LINE
  5
276
330
1F
100
AcDbEntity
  8
0
  6
Continuous
 62
     7
370
    25
100
AcDbLine
 10
80.4266618906
 20
89.6047184282
 30
0.0
 11
80.4266618906
 21
89.7064278046
 31
0.0
  0
LINE
  5
277
330
1F
100
AcDbEntity
  8
0
  6
Continuous
 62
     7
370
    25
100
AcDbLine
 10
80.4266618906
 20
89.6047184282
 30
0.0
 11
80.3466618906
 21
89.6047184282
 31
0.0
  0
LINE
  5
278
330
1F
100
AcDbEntity
  8
0
  6
Continuous
 62
     7
370
    25
100
AcDbLine
 10
80.5066618906
 20
89.6047184282
 30
0.0
 11
80.4266618906
 21
89.6047184282
 31
0.0
  0
LWPOLYLINE
  5
279
330
1F
100
AcDbEntity
  8
0
  6
Continuous
 62
     7
370
    25
100
AcDbPolyline
 90
        3
 70
   128
 43
0.0
 10
80.4266618906
 20
89.7064278046
 10
80.4658561515
 20
89.7167960731
 10
80.5066618906
 20
89.7207184282
  0
ARC
  5
27A
330
1F
100
AcDbEntity
  8
0
  6
Continuous
 62
     7
370
    25
100
AcDbCircle
 10
80.5046159277
 20
89.4781966113
 30
0.0
 40
0.2425304468572102
100
AcDbArc
 50
70.2271892892
 51
89.5166527104
  0
LINE
  5
27B
330
1F
100
AcDbEntity
  8
0
  6
Continuous
 62
     7
370
    25
100
AcDbLine
 10
80.5866618906
 20
89.6047184282
 30
0.0
 11
80.5866618906
 21
89.7064278046
 31
0.0
  0
LINE
  5
27C
330
1F
100
AcDbEntity
  8
0
  6
Continuous
 62
     7
370
    25
100
AcDbLine
 10
80.5866618906
 20
89.6047184282
 30
0.0
 11
80.5066618906
 21
89.6047184282
 31
0.0
  0
LINE
  5
27D
330
1F
100
AcDbEntity
  8
0
  6
Continuous
 62
     7
370
    25
100
AcDbLine
 10
80.5066618906
 20
89.7207184282
 30
0.0
 11
80.3466618906
 21
89.7207184282
 31
0.0
  0
LINE
  5
27E
330
1F
100
AcDbEntity
  8
0
  6
Continuous
 62
     7
370
    25
100
AcDbLine
 10
80.2666618906
 20
89.7207184282
 30
0.0
 11
80.2666618906
 21
89.7064278046
 31
0.0
  0
LINE
  5
27F
330
1F
100
AcDbEntity
  8
0
  6
Continuous
 62
     7
370
    25
100
AcDbLine
 10
80.2666618906
 20
89.7207184282
 30
0.0
 11
80.3466618906
 21
89.7207184282
 31
0.0
  0
LINE
  5
280
330
1F
100
AcDbEntity
  8
0
  6
Continuous
 62
     7
370
    25
100
AcDbLine
 10
80.5866618906
 20
89.7064278046
 30
0.0
 11
80.5866618906
 21
89.7207184282
 31
0.0
  0
LINE
  5
281
330
1F
100
AcDbEntity
  8
0
  6
Continuous
 62
     7
370
    25
100
AcDbLine
 10
80.5866618906
 20
89.7207184282
 30
0.0
 11
80.5066618906
 21
89.7207184282
 31
0.0
  0
LINE
  5
282
330
1F
100
AcDbEntity
  8
0
  6
Continuous
 62
     7
370
    25
100
AcDbLine
 10
78.6467355338
 20
89.6047184282
 30
0.0
 11
78.5745904873
 21
89.6047184282
 31
0.0
  0
LINE
  5
283
330
1F
100
AcDbEntity
  8
0
  6
Continuous
 62
     7
370
    25
100
AcDbLine
 10
78.5745904873
 20
89.6047184282
 30
0.0
 11
78.5745904873
 21
89.7064278046
 31
0.0
  0
LWPOLYLINE
  5
284
330
1F
100
AcDbEntity
  8
0
  6
Continuous
 62
     7
370
    25
100
AcDbPolyline
 90
        3
 70
   128
 43
0.0
 10
78.5745904873
 20
89.7064278046
 10
78.6099363844
 20
89.7167960731
 10
78.6467355338
 20
89.7207184282
  0
ARC
  5
285
330
1F
100
AcDbEntity
  8
0
  6
Continuous
 62
     7
370
    25
100
AcDbCircle
 10
78.6447601051
 20
89.5214911375
 30
0.0
 40
0.199237084155134
100
AcDbArc
 50
68.1596585981
 51
89.4319050563
  0
LINE
  5
286
330
1F
100
AcDbEntity
  8
0
  6
Continuous
 62
     7
370
    25
100
AcDbLine
 10
78.7188805803
 20
89.6047184282
 30
0.0
 11
78.7188805803
 21
89.7064278046
 31
0.0
  0
LINE
  5
287
330
1F
100
AcDbEntity
  8
0
  6
Continuous
 62
     7
370
    25
100
AcDbLine
 10
78.7188805803
 20
89.6047184282
 30
0.0
 11
78.6467355338
 21
89.6047184282
 31
0.0
  0
LWPOLYLINE
  5
288
330
1F
100
AcDbEntity
  8
0
  6
Continuous
 62
     7
370
    25
100
AcDbPolyline
 90
        3
 70
   128
 43
0.0
 10
78.7188805803
 20
89.7064278046
 10
78.7862297839
 20
89.719994977
 10
78.804916282
 20
89.7207184282
  0
LINE
  5
289
330
1F
100
AcDbEntity
  8
0
  6
Continuous
 62
     7
370
    25
100
AcDbLine
 10
78.804916282
 20
89.7207184282
 30
0.0
 11
78.6467355338
 21
89.7207184282
 31
0.0
  0
LWPOLYLINE
  5
28A
330
1F
100
AcDbEntity
  8
0
  6
Continuous
 62
     7
370
    25
100
AcDbPolyline
 90
        3
 70
   128
 43
0.0
 10
78.804916282
 20
89.7207184282
 10
78.8750616338
 20
89.7109959914
 10
78.8909519836
 20
89.7064278046
  0
LINE
  5
28B
330
1F
100
AcDbEntity
  8
0
  6
Continuous
 62
     7
370
    25
100
AcDbLine
 10
78.8909519836
 20
89.6047184282
 30
0.0
 11
78.8909519836
 21
89.7064278046
 31
0.0
  0
LINE
  5
28C
330
1F
100
AcDbEntity
  8
0
  6
Continuous
 62
     7
370
    25
100
AcDbLine
 10
78.8909519836
 20
89.6047184282
 30
0.0
 11
78.804916282
 21
89.6047184282
 31
0.0
  0
LINE
  5
28D
330
1F
100
AcDbEntity
  8
0
  6
Continuous
 62
     7
370
    25
100
AcDbLine
 10
78.804916282
 20
89.6047184282
 30
0.0
 11
78.7188805803
 21
89.6047184282
 31
0.0
  0
LWPOLYLINE
  5
28E
330
1F
100
AcDbEntity
  8
0
  6
Continuous
 62
     7
370
    25
100
AcDbPolyline
 90
        3
 70
   128
 43
0.0
 10
78.8909519836
 20
89.7064278046
 10
78.8977574082
 20
89.7167960731
 10
78.9048426388
 20
89.7207184282
  0
LINE
  5
28F
330
1F
100
AcDbEntity
  8
0
  6
Continuous
 62
     7
370
    25
100
AcDbLine
 10
78.9048426388
 20
89.7207184282
 30
0.0
 11
78.804916282
 21
89.7207184282
 31
0.0
  0
LWPOLYLINE
  5
290
330
1F
100
AcDbEntity
  8
0
  6
Continuous
 62
     7
370
    25
100
AcDbPolyline
 90
        4
 70
   128
 43
0.0
 10
78.5884811424
 20
89.7207184282
 10
78.5874934092
 20
89.720640614
 10
78.5810317718
 20
89.7163918103
 10
78.5745904873
 20
89.7064278046
  0
LINE
  5
291
330
1F
100
AcDbEntity
  8
0
  6
Continuous
 62
     7
370
    25
100
AcDbLine
 10
78.6467355338
 20
89.7207184282
 30
0.0
 11
78.5866940292
 21
89.7207184282
 31
0.0
  0
LWPOLYLINE
  5
292
330
1F
100
AcDbEntity
  8
0
  6
Continuous
 62
     7
370
    25
100
AcDbPolyline
 90
        4
 70
   128
 43
0.0
 10
78.9048426388
 20
89.7207184282
 10
78.905830372
 20
89.720640614
 10
78.9122920094
 20
89.7163918103
 10
78.918733294
 20
89.7064278046
  0
LINE
  5
293
330
1F
100
AcDbEntity
  8
0
  6
Continuous
 62
     7
370
    25
100
AcDbLine
 10
78.918733294
 20
89.6047184282
 30
0.0
 11
78.918733294
 21
89.7064278046
 31
0.0
  0
LINE
  5
294
330
1F
100
AcDbEntity
  8
0
  6
Continuous
 62
     7
370
    25
100
AcDbLine
 10
78.918733294
 20
89.6047184282
 30
0.0
 11
78.9048426388
 21
89.6047184282
 31
0.0
  0
LINE
  5
295
330
1F
100
AcDbEntity
  8
0
  6
Continuous
 62
     7
370
    25
100
AcDbLine
 10
78.9048426388
 20
89.6047184282
 30
0.0
 11
78.8909519836
 21
89.6047184282
 31
0.0
  0
LINE
  5
296
330
1F
100
AcDbEntity
  8
0
  6
Continuous
 62
     7
370
    25
100
AcDbLine
 10
72.7466618906
 20
486.4207184282
 30
0.0
 11
72.7466618906
 21
486.3190090518
 31
0.0
  0
LWPOLYLINE
  5
297
330
1F
100
AcDbEntity
  8
0
  6
Continuous
 62
     7
370
    25
100
AcDbPolyline
 90
        3
 70
   128
 43
0.0
 10
72.7466618906
 20
486.3190090518
 10
72.7074676298
 20
486.3086407833
 10
72.6666618906
 20
486.3047184282
  0
ARC
  5
298
330
1F
100
AcDbEntity
  8
0
  6
Continuous
 62
     7
370
    25
100
AcDbCircle
 10
72.6687078536
 20
486.5472402451
 30
0.0
 40
0.2425304468581499
100
AcDbArc
 50
250.2271892892
 51
269.5166527103
  0
LINE
  5
299
330
1F
100
AcDbEntity
  8
0
  6
Continuous
 62
     7
370
    25
100
AcDbLine
 10
72.5866618906
 20
486.4207184282
 30
0.0
 11
72.5866618906
 21
486.3190090518
 31
0.0
  0
LINE
  5
29A
330
1F
100
AcDbEntity
  8
0
  6
Continuous
 62
     7
370
    25
100
AcDbLine
 10
72.5866618906
 20
486.4207184282
 30
0.0
 11
72.6666618906
 21
486.4207184282
 31
0.0
  0
LINE
  5
29B
330
1F
100
AcDbEntity
  8
0
  6
Continuous
 62
     7
370
    25
100
AcDbLine
 10
72.6666618906
 20
486.4207184282
 30
0.0
 11
72.7466618906
 21
486.4207184282
 31
0.0
  0
LINE
  5
29C
330
1F
100
AcDbEntity
  8
0
  6
Continuous
 62
     7
370
    25
100
AcDbLine
 10
72.6666618906
 20
486.3047184282
 30
0.0
 11
72.8266618906
 21
486.3047184282
 31
0.0
  0
ARC
  5
29D
330
1F
100
AcDbEntity
  8
0
  6
Continuous
 62
     7
370
    25
100
AcDbCircle
 10
72.8287078536
 20
486.5472402451
 30
0.0
 40
0.2425304468581454
100
AcDbArc
 50
250.2271892892
 51
269.5166527103
  0
LINE
  5
29E
330
1F
100
AcDbEntity
  8
0
  6
Continuous
 62
     7
370
    25
100
AcDbLine
 10
72.8266618906
 20
486.4207184282
 30
0.0
 11
72.9066618906
 21
486.4207184282
 31
0.0
  0
LINE
  5
29F
330
1F
100
AcDbEntity
  8
0
  6
Continuous
 62
     7
370
    25
100
AcDbLine
 10
72.9066618906
 20
486.4207184282
 30
0.0
 11
72.9066618906
 21
486.3190090518
 31
0.0
  0
LWPOLYLINE
  5
2A0
330
1F
100
AcDbEntity
  8
0
  6
Continuous
 62
     7
370
    25
100
AcDbPolyline
 90
        3
 70
   128
 43
0.0
 10
72.9066618906
 20
486.3190090518
 10
72.8674676298
 20
486.3086407833
 10
72.8266618906
 20
486.3047184282
  0
LINE
  5
2A1
330
1F
100
AcDbEntity
  8
0
  6
Continuous
 62
     7
370
    25
100
AcDbLine
 10
72.7466618906
 20
486.4207184282
 30
0.0
 11
72.8266618906
 21
486.4207184282
 31
0.0
  0
LINE
  5
2A2
330
1F
100
AcDbEntity
  8
0
  6
Continuous
 62
     7
370
    25
100
AcDbLine
 10
72.5866618906
 20
486.3190090518
 30
0.0
 11
72.5866618906
 21
486.3047184282
 31
0.0
  0
LINE
  5
2A3
330
1F
100
AcDbEntity
  8
0
  6
Continuous
 62
     7
370
    25
100
AcDbLine
 10
72.5866618906
 20
486.3047184282
 30
0.0
 11
72.6666618906
 21
486.3047184282
 31
0.0
  0
LINE
  5
2A4
330
1F
100
AcDbEntity
  8
0
  6
Continuous
 62
     7
370
    25
100
AcDbLine
 10
72.9066618906
 20
486.3047184282
 30
0.0
 11
72.9066618906
 21
486.3190090518
 31
0.0
  0
LINE
  5
2A5
330
1F
100
AcDbEntity
  8
0
  6
Continuous
 62
     7
370
    25
100
AcDbLine
 10
72.9066618906
 20
486.3047184282
 30
0.0
 11
72.8266618906
 21
486.3047184282
 31
0.0
  0
LINE
  5
2A6
330
1F
100
AcDbEntity
  8
0
  6
Continuous
 62
     7
370
    25
100
AcDbLine
 10
74.5265882475
 20
486.4207184282
 30
0.0
 11
74.598733294
 21
486.4207184282
 31
0.0
  0
LINE
  5
2A7
330
1F
100
AcDbEntity
  8
0
  6
Continuous
 62
     7
370
    25
100
AcDbLine
 10
74.598733294
 20
486.4207184282
 30
0.0
 11
74.598733294
 21
486.3190090518
 31
0.0
  0
LWPOLYLINE
  5
2A8
330
1F
100
AcDbEntity
  8
0
  6
Continuous
 62
     7
370
    25
100
AcDbPolyline
 90
        3
 70
   128
 43
0.0
 10
74.598733294
 20
486.3190090518
 10
74.5633873969
 20
486.3086407833
 10
74.5265882475
 20
486.3047184282
  0
ARC
  5
2A9
330
1F
100
AcDbEntity
  8
0
  6
Continuous
 62
     7
370
    25
100
AcDbCircle
 10
74.5285636762
 20
486.503945719
 30
0.0
 40
0.199237084155762
100
AcDbArc
 50
248.1596585981
 51
269.4319050563
  0
LINE
  5
2AA
330
1F
100
AcDbEntity
  8
0
  6
Continuous
 62
     7
370
    25
100
AcDbLine
 10
74.454443201
 20
486.4207184282
 30
0.0
 11
74.454443201
 21
486.3190090518
 31
0.0
  0
LINE
  5
2AB
330
1F
100
AcDbEntity
  8
0
  6
Continuous
 62
     7
370
    25
100
AcDbLine
 10
74.454443201
 20
486.4207184282
 30
0.0
 11
74.5265882475
 21
486.4207184282
 31
0.0
  0
LWPOLYLINE
  5
2AC
330
1F
100
AcDbEntity
  8
0
  6
Continuous
 62
     7
370
    25
100
AcDbPolyline
 90
        3
 70
   128
 43
0.0
 10
74.454443201
 20
486.3190090518
 10
74.3870939974
 20
486.3054418794
 10
74.3684074993
 20
486.3047184282
  0
LINE
  5
2AD
330
1F
100
AcDbEntity
  8
0
  6
Continuous
 62
     7
370
    25
100
AcDbLine
 10
74.3684074993
 20
486.3047184282
 30
0.0
 11
74.5265882475
 21
486.3047184282
 31
0.0
  0
LWPOLYLINE
  5
2AE
330
1F
100
AcDbEntity
  8
0
  6
Continuous
 62
     7
370
    25
100
AcDbPolyline
 90
        3
 70
   128
 43
0.0
 10
74.3684074993
 20
486.3047184282
 10
74.2982621474
 20
486.314440865
 10
74.2823717976
 20
486.3190090518
  0
LINE
  5
2AF
330
1F
100
AcDbEntity
  8
0
  6
Continuous
 62
     7
370
    25
100
AcDbLine
 10
74.2823717976
 20
486.4207184282
 30
0.0
 11
74.2823717976
 21
486.3190090518
 31
0.0
  0
LINE
  5
2B0
330
1F
100
AcDbEntity
  8
0
  6
Continuous
 62
     7
370
    25
100
AcDbLine
 10
74.2823717976
 20
486.4207184282
 30
0.0
 11
74.3684074993
 21
486.4207184282
 31
0.0
  0
LINE
  5
2B1
330
1F
100
AcDbEntity
  8
0
  6
Continuous
 62
     7
370
    25
100
AcDbLine
 10
74.3684074993
 20
486.4207184282
 30
0.0
 11
74.454443201
 21
486.4207184282
 31
0.0
  0
LWPOLYLINE
  5
2B2
330
1F
100
AcDbEntity
  8
0
  6
Continuous
 62
     7
370
    25
100
AcDbPolyline
 90
        3
 70
   128
 43
0.0
 10
74.2823717976
 20
486.3190090518
 10
74.2755663731
 20
486.3086407833
 10
74.2684811424
 20
486.3047184282
  0
LINE
  5
2B3
330
1F
100
AcDbEntity
  8
0
  6
Continuous
 62
     7
370
    25
100
AcDbLine
 10
74.2684811424
 20
486.3047184282
 30
0.0
 11
74.3684074993
 21
486.3047184282
 31
0.0
  0
LWPOLYLINE
  5
2B4
330
1F
100
AcDbEntity
  8
0
  6
Continuous
 62
     7
370
    25
100
AcDbPolyline
 90
        4
 70
   128
 43
0.0
 10
74.5848426388
 20
486.3047184282
 10
74.585830372
 20
486.3047962425
 10
74.5922920094
 20
486.3090450461
 10
74.598733294
 20
486.3190090518
  0
LINE
  5
2B5
330
1F
100
AcDbEntity
  8
0
  6
Continuous
 62
     7
370
    25
100
AcDbLine
 10
74.5265882475
 20
486.3047184282
 30
0.0
 11
74.5866297521
 21
486.3047184282
 31
0.0
  0
LWPOLYLINE
  5
2B6
330
1F
100
AcDbEntity
  8
0
  6
Continuous
 62
     7
370
    25
100
AcDbPolyline
 90
        4
 70
   128
 43
0.0
 10
74.2684811424
 20
486.3047184282
 10
74.2674934092
 20
486.3047962425
 10
74.2610317718
 20
486.3090450461
 10
74.2545904873
 20
486.3190090518
  0
LINE
  5
2B7
330
1F
100
AcDbEntity
  8
0
  6
Continuous
 62
     7
370
    25
100
AcDbLine
 10
74.2545904873
 20
486.4207184282
 30
0.0
 11
74.2545904873
 21
486.3190090518
 31
0.0
  0
LINE
  5
2B8
330
1F
100
AcDbEntity
  8
0
  6
Continuous
 62
     7
370
    25
100
AcDbLine
 10
74.2545904873
 20
486.4207184282
 30
0.0
 11
74.2684811424
 21
486.4207184282
 31
0.0
  0
LINE
  5
2B9
330
1F
100
AcDbEntity
  8
0
  6
Continuous
 62
     7
370
    25
100
AcDbLine
 10
74.2684811424
 20
486.4207184282
 30
0.0
 11
74.2823717976
 21
486.4207184282
 31
0.0
  0
LINE
  5
2BA
330
1F
100
AcDbEntity
  8
0
  6
Continuous
 62
     7
370
    25
100
AcDbLine
 10
80.7866618906
 20
86.4327184282
 30
0.0
 11
80.7866618906
 21
86.5127184282
 31
0.0
  0
LINE
  5
2BB
330
1F
100
AcDbEntity
  8
0
  6
Continuous
 62
     7
370
    25
100
AcDbLine
 10
80.7866618906
 20
86.4327184282
 30
0.0
 11
78.3866618906
 21
86.4327184282
 31
0.0
  0
LINE
  5
2BC
330
1F
100
AcDbEntity
  8
0
  6
Continuous
 62
     7
370
    25
100
AcDbLine
 10
78.3866618906
 20
86.4327184282
 30
0.0
 11
78.3866618906
 21
86.5127184282
 31
0.0
  0
LINE
  5
2BD
330
1F
100
AcDbEntity
  8
0
  6
Continuous
 62
     7
370
    25
100
AcDbLine
 10
144.3866618906
 20
489.5927184282
 30
0.0
 11
144.3866618906
 21
489.5127184282
 31
0.0
  0
LINE
  5
2BE
330
1F
100
AcDbEntity
  8
0
  6
Continuous
 62
     7
370
    25
100
AcDbLine
 10
146.7866618906
 20
489.5927184282
 30
0.0
 11
146.7866618906
 21
489.5127184282
 31
0.0
  0
LINE
  5
2BF
330
1F
100
AcDbEntity
  8
0
  6
Continuous
 62
     7
370
    25
100
AcDbLine
 10
144.3866618906
 20
489.5927184282
 30
0.0
 11
146.7866618906
 21
489.5927184282
 31
0.0
  0
LINE
  5
2C0
330
1F
100
AcDbEntity
  8
0
  6
Continuous
 62
     7
370
    25
100
AcDbLine
 10
74.7866618906
 20
486.4327184282
 30
0.0
 11
74.7866618906
 21
486.5127184282
 31
0.0
  0
LINE
  5
2C1
330
1F
100
AcDbEntity
  8
0
  6
Continuous
 62
     7
370
    25
100
AcDbLine
 10
74.7866618906
 20
486.4327184282
 30
0.0
 11
72.3866618906
 21
486.4327184282
 31
0.0
  0
LINE
  5
2C2
330
1F
100
AcDbEntity
  8
0
  6
Continuous
 62
     7
370
    25
100
AcDbLine
 10
72.3866618906
 20
486.4327184282
 30
0.0
 11
72.3866618906
 21
486.5127184282
 31
0.0
  0
LINE
  5
2C3
330
1F
100
AcDbEntity
  8
0
  6
Continuous
 62
     7
370
    25
100
AcDbLine
 10
78.3866618906
 20
89.5927184282
 30
0.0
 11
78.3866618906
 21
89.5127184282
 31
0.0
  0
LINE
  5
2C4
330
1F
100
AcDbEntity
  8
0
  6
Continuous
 62
     7
370
    25
100
AcDbLine
 10
78.3866618906
 20
89.5927184282
 30
0.0
 11
80.7866618906
 21
89.5927184282
 31
0.0
  0
LINE
  5
2C5
330
1F
100
AcDbEntity
  8
0
  6
Continuous
 62
     7
370
    25
100
AcDbLine
 10
80.7866618906
 20
89.5927184282
 30
0.0
 11
80.7866618906
 21
89.5127184282
 31
0.0
  0
LINE
  5
2C6
330
1F
100
AcDbEntity
  8
0
  6
Continuous
 62
     7
370
    25
100
AcDbLine
 10
72.3866618906
 20
489.5927184282
 30
0.0
 11
72.3866618906
 21
489.5127184282
 31
0.0
  0
LINE
  5
2C7
330
1F
100
AcDbEntity
  8
0
  6
Continuous
 62
     7
370
    25
100
AcDbLine
 10
72.3866618906
 20
489.5927184282
 30
0.0
 11
74.7866618906
 21
489.5927184282
 31
0.0
  0
LINE
  5
2C8
330
1F
100
AcDbEntity
  8
0
  6
Continuous
 62
     7
370
    25
100
AcDbLine
 10
74.7866618906
 20
489.5927184282
 30
0.0
 11
74.7866618906
 21
489.5127184282
 31
0.0
  0
LINE
  5
2C9
330
1F
100
AcDbEntity
  8
0
  6
Continuous
 62
     7
370
    25
100
AcDbLine
 10
146.7866618906
 20
486.4327184282
 30
0.0
 11
146.7866618906
 21
486.5127184282
 31
0.0
  0
LINE
  5
2CA
330
1F
100
AcDbEntity
  8
0
  6
Continuous
 62
     7
370
    25
100
AcDbLine
 10
146.7866618906
 20
486.4327184282
 30
0.0
 11
144.3866618906
 21
486.4327184282
 31
0.0
  0
LINE
  5
2CB
330
1F
100
AcDbEntity
  8
0
  6
Continuous
 62
     7
370
    25
100
AcDbLine
 10
144.3866618906
 20
486.4327184282
 30
0.0
 11
144.3866618906
 21
486.5127184282
 31
0.0
  0
LINE
  5
2CC
330
1F
100
AcDbEntity
  8
0
  6
Continuous
 62
     7
370
    25
100
AcDbLine
 10
138.3866618906
 20
86.4327184282
 30
0.0
 11
138.3866618906
 21
86.5127184282
 31
0.0
  0
LINE
  5
2CD
330
1F
100
AcDbEntity
  8
0
  6
Continuous
 62
     7
370
    25
100
AcDbLine
 10
140.7866618906
 20
86.4327184282
 30
0.0
 11
138.3866618906
 21
86.4327184282
 31
0.0
  0
LINE
  5
2CE
330
1F
100
AcDbEntity
  8
0
  6
Continuous
 62
     7
370
    25
100
AcDbLine
 10
140.7866618906
 20
86.4327184282
 30
0.0
 11
140.7866618906
 21
86.5127184282
 31
0.0
  0
LINE
  5
2CF
330
1F
100
AcDbEntity
  8
0
  6
Continuous
 62
     7
370
    25
100
AcDbLine
 10
138.3866618906
 20
89.5927184282
 30
0.0
 11
138.3866618906
 21
89.5127184282
 31
0.0
  0
LINE
  5
2D0
330
1F
100
AcDbEntity
  8
0
  6
Continuous
 62
     7
370
    25
100
AcDbLine
 10
138.3866618906
 20
89.5927184282
 30
0.0
 11
140.7866618906
 21
89.5927184282
 31
0.0
  0
LINE
  5
2D1
330
1F
100
AcDbEntity
  8
0
  6
Continuous
 62
     7
370
    25
100
AcDbLine
 10
140.7866618906
 20
89.5927184282
 30
0.0
 11
140.7866618906
 21
89.5127184282
 31
0.0
  0
LINE
  5
2D2
330
1F
100
AcDbEntity
  8
0
  6
Continuous
 62
     7
370
    25
100
AcDbLine
 10
116.0721194625
 20
129.1737502658
 30
0.0
 11
116.6490903286
 21
129.611598014
 31
0.0
  0
LWPOLYLINE
  5
2D3
330
1F
100
AcDbEntity
  8
0
  6
Continuous
 62
     7
370
    25
100
AcDbPolyline
 90
       22
 70
   128
 43
0.0
 10
102.2232988041
 20
131.2353941554
 10
102.4788991548
 20
130.9948066517
 10
102.7403512539
 20
130.7755569556
 10
103.0075067762
 20
130.5770158325
 10
103.2801304311
 20
130.3985857948
 10
103.557892331
 20
130.2396794041
 10
103.8403610753
 20
130.0996934574
 10
104.1270208908
 20
129.9779899859
 10
104.4464922952
 20
129.8643904933
 10
104.769515711
 20
129.7710253869
 10
105.095284184
 20
129.6967431864
 10
105.4230660714
 20
129.6402884533
 10
105.7522118956
 20
129.6003315556
 10
106.1021954395
 20
129.5744440586
 10
106.4526672644
 20
129.5639049456
 10
106.803240188
 20
129.5670528291
 10
107.1536024602
 20
129.5822593689
 10
107.5035630341
 20
129.6079491057
 10
107.8529425338
 20
129.6425558068
 10
108.4003902168
 20
129.7113381678
 10
108.945349189
 20
129.7927227953
 10
109.4010391103
 20
129.8671230066
  0
LWPOLYLINE
  5
2D4
330
1F
100
AcDbEntity
  8
0
  6
Continuous
 62
     7
370
    25
100
AcDbPolyline
 90
       21
 70
   128
 43
0.0
 10
109.6009711668
 20
129.900259331
 10
110.0003957832
 20
129.9672039989
 10
110.5091171279
 20
130.0501226248
 10
111.0122615613
 20
130.1253957225
 10
111.5087220342
 20
130.1886070849
 10
111.8933540287
 20
130.2270141899
 10
112.2725559009
 20
130.2533213528
 10
112.6457962362
 20
130.2655831342
 10
113.0126465111
 20
130.2619608899
 10
113.3186276613
 20
130.2450801716
 10
113.6196782507
 20
130.2143884497
 10
113.9158616276
 20
130.1688038014
 10
114.2073742675
 20
130.1071966336
 10
114.4945509928
 20
130.0283567744
 10
114.7778237864
 20
129.9309490499
 10
114.997952054
 20
129.8404290508
 10
115.2161585343
 20
129.7367618555
 10
115.4326061816
 20
129.6191221142
 10
115.6474008562
 20
129.4866554538
 10
115.8605805153
 20
129.3384903616
 10
116.0721194625
 20
129.1737502658
  0
LINE
  5
2D5
330
1F
100
AcDbEntity
  8
0
  6
Continuous
 62
     7
370
    25
100
AcDbLine
 10
102.1504511395
 20
122.4493907318
 30
0.0
 11
102.3842364661
 21
121.8449055103
 31
0.0
  0
LWPOLYLINE
  5
2D6
330
1F
100
AcDbEntity
  8
0
  6
Continuous
 62
     7
370
    25
100
AcDbPolyline
 90
       20
 70
   128
 43
0.0
 10
102.3842364661
 20
121.8449055103
 10
102.6523496402
 20
121.9014392988
 10
102.9192994083
 20
121.9420926291
 10
103.1857734703
 20
121.9681458875
 10
103.4524712224
 20
121.9808098836
 10
103.7199033705
 20
121.9812186042
 10
104.0718918363
 20
121.965087334
 10
104.4264275888
 20
121.9323804541
 10
104.7838641407
 20
121.8857142829
 10
105.267477378
 20
121.8061121399
 10
105.7570881873
 20
121.7133080132
 10
106.253166254
 20
121.6145086752
 10
106.7564321188
 20
121.5173012966
 10
107.1648101209
 20
121.445923938
 10
107.5789077317
 20
121.3847409581
 10
107.9992599314
 20
121.3380833518
 10
108.4243914816
 20
121.3102233709
 10
108.8482908024
 20
121.3014841331
 10
109.2626155579
 20
121.3086657299
 10
109.4182621643
 20
121.3162081969
  0
LWPOLYLINE
  5
2D7
330
1F
100
AcDbEntity
  8
0
  6
Continuous
 62
     7
370
    25
100
AcDbPolyline
 90
       21
 70
   128
 43
0.0
 10
109.6182277846
 20
121.3258983156
 10
109.6746758237
 20
121.3286337268
 10
110.084347315
 20
121.3586353747
 10
110.4915142159
 20
121.3960042442
 10
111.0059076407
 20
121.4500678404
 10
111.5157265359
 20
121.5065532401
 10
112.0205935093
 20
121.5603263184
 10
112.5200118143
 20
121.6064124844
 10
112.908239931
 20
121.6340675325
 10
113.2924928675
 20
121.6517206037
 10
113.672528384
 20
121.6571476814
 10
114.0482251244
 20
121.6482267933
 10
114.3456036695
 20
121.6293487403
 10
114.6402182713
 20
121.59888646
 10
114.9322289613
 20
121.5557776904
 10
115.2218758933
 20
121.4989282059
 10
115.5094883522
 20
121.4271901623
 10
115.7903646101
 20
121.3410569247
 10
116.070050887
 20
121.2381455248
 10
116.3489682694
 20
121.117109869
 10
116.6273559951
 20
120.9765999418
  0
LINE
  5
2D8
330
1F
100
AcDbEntity
  8
0
  6
Continuous
 62
     7
370
    25
100
AcDbLine
 10
116.6273559951
 20
120.9765999418
 30
0.0
 11
117.0797741497
 21
121.4978944689
 31
0.0
  0
LWPOLYLINE
  5
2D9
330
1F
100
AcDbEntity
  8
0
  6
Continuous
 62
     7
370
    25
100
AcDbPolyline
 90
       17
 70
   128
 43
0.0
 10
117.6256618906
 20
129.6438892333
 10
117.6218558673
 20
129.6590070686
 10
117.6110172297
 20
129.6718233506
 10
117.5947960622
 20
129.6803869164
 10
117.5756618906
 20
129.6833940408
 10
117.556527719
 20
129.6803869164
 10
117.5403065516
 20
129.6718233506
 10
117.529467914
 20
129.6590070686
 10
117.5256618906
 20
129.6438892333
 10
117.529467914
 20
129.6287713979
 10
117.5403065516
 20
129.615955116
 10
117.556527719
 20
129.6073915502
 10
117.5756618906
 20
129.6043844257
 10
117.5947960622
 20
129.6073915502
 10
117.6110172297
 20
129.615955116
 10
117.6218558673
 20
129.6287713979
 10
117.6256618906
 20
129.6438892333
  0
LWPOLYLINE
  5
2DA
330
1F
100
AcDbEntity
  8
0
  6
Continuous
 62
     7
370
    25
100
AcDbPolyline
 90
       17
 70
   128
 43
0.0
 10
117.6256618906
 20
120.1627354255
 10
117.6218558673
 20
120.1778532608
 10
117.6110172297
 20
120.1906695428
 10
117.5947960622
 20
120.1992331086
 10
117.5756618906
 20
120.202240233
 10
117.556527719
 20
120.1992331086
 10
117.5403065516
 20
120.1906695428
 10
117.529467914
 20
120.1778532608
 10
117.5256618906
 20
120.1627354255
 10
117.529467914
 20
120.1476175902
 10
117.5403065516
 20
120.1348013082
 10
117.556527719
 20
120.1262377424
 10
117.5756618906
 20
120.123230618
 10
117.5947960622
 20
120.1262377424
 10
117.6110172297
 20
120.1348013082
 10
117.6218558673
 20
120.1476175902
 10
117.6256618906
 20
120.1627354255
  0
LWPOLYLINE
  5
2DB
330
1F
100
AcDbEntity
  8
0
  6
Continuous
 62
     7
370
    25
100
AcDbPolyline
 90
       17
 70
   128
 43
0.0
 10
117.6256618906
 20
123.3231200281
 10
117.6218558673
 20
123.3382378634
 10
117.6110172297
 20
123.3510541454
 10
117.5947960622
 20
123.3596177112
 10
117.5756618906
 20
123.3626248356
 10
117.556527719
 20
123.3596177112
 10
117.5403065516
 20
123.3510541454
 10
117.529467914
 20
123.3382378634
 10
117.5256618906
 20
123.3231200281
 10
117.529467914
 20
123.3080021927
 10
117.5403065516
 20
123.2951859108
 10
117.556527719
 20
123.286622345
 10
117.5756618906
 20
123.2836152206
 10
117.5947960622
 20
123.286622345
 10
117.6110172297
 20
123.2951859108
 10
117.6218558673
 20
123.3080021927
 10
117.6256618906
 20
123.3231200281
  0
LWPOLYLINE
  5
2DC
330
1F
100
AcDbEntity
  8
0
  6
Continuous
 62
     7
370
    25
100
AcDbPolyline
 90
       17
 70
   128
 43
0.0
 10
117.6256618906
 20
126.4835046307
 10
117.6218558673
 20
126.498622466
 10
117.6110172297
 20
126.511438748
 10
117.5947960622
 20
126.5200023138
 10
117.5756618906
 20
126.5230094382
 10
117.556527719
 20
126.5200023138
 10
117.5403065516
 20
126.511438748
 10
117.529467914
 20
126.498622466
 10
117.5256618906
 20
126.4835046307
 10
117.529467914
 20
126.4683867953
 10
117.5403065516
 20
126.4555705134
 10
117.556527719
 20
126.4470069476
 10
117.5756618906
 20
126.4439998232
 10
117.5947960622
 20
126.4470069476
 10
117.6110172297
 20
126.4555705134
 10
117.6218558673
 20
126.4683867953
 10
117.6256618906
 20
126.4835046307
  0
LWPOLYLINE
  5
2DD
330
1F
100
AcDbEntity
  8
0
  6
Continuous
 62
     7
370
    25
100
AcDbPolyline
 90
       17
 70
   128
 43
0.0
 10
101.6256618906
 20
129.6438892333
 10
101.6218558673
 20
129.6590070686
 10
101.6110172297
 20
129.6718233506
 10
101.5947960622
 20
129.6803869164
 10
101.5756618906
 20
129.6833940408
 10
101.556527719
 20
129.6803869164
 10
101.5403065516
 20
129.6718233506
 10
101.529467914
 20
129.6590070686
 10
101.5256618906
 20
129.6438892333
 10
101.529467914
 20
129.6287713979
 10
101.5403065516
 20
129.615955116
 10
101.556527719
 20
129.6073915502
 10
101.5756618906
 20
129.6043844257
 10
101.5947960622
 20
129.6073915502
 10
101.6110172297
 20
129.615955116
 10
101.6218558673
 20
129.6287713979
 10
101.6256618906
 20
129.6438892333
  0
LWPOLYLINE
  5
2DE
330
1F
100
AcDbEntity
  8
0
  6
Continuous
 62
     7
370
    25
100
AcDbPolyline
 90
       17
 70
   128
 43
0.0
 10
101.6256618906
 20
126.4835046307
 10
101.6218558673
 20
126.498622466
 10
101.6110172297
 20
126.511438748
 10
101.5947960622
 20
126.5200023138
 10
101.5756618906
 20
126.5230094382
 10
101.556527719
 20
126.5200023138
 10
101.5403065516
 20
126.511438748
 10
101.529467914
 20
126.498622466
 10
101.5256618906
 20
126.4835046307
 10
101.529467914
 20
126.4683867953
 10
101.5403065516
 20
126.4555705134
 10
101.556527719
 20
126.4470069476
 10
101.5756618906
 20
126.4439998232
 10
101.5947960622
 20
126.4470069476
 10
101.6110172297
 20
126.4555705134
 10
101.6218558673
 20
126.4683867953
 10
101.6256618906
 20
126.4835046307
  0
LWPOLYLINE
  5
2DF
330
1F
100
AcDbEntity
  8
0
  6
Continuous
 62
     7
370
    25
100
AcDbPolyline
 90
       17
 70
   128
 43
0.0
 10
101.6256618906
 20
123.3231200281
 10
101.6218558673
 20
123.3382378634
 10
101.6110172297
 20
123.3510541454
 10
101.5947960622
 20
123.3596177112
 10
101.5756618906
 20
123.3626248356
 10
101.556527719
 20
123.3596177112
 10
101.5403065516
 20
123.3510541454
 10
101.529467914
 20
123.3382378634
 10
101.5256618906
 20
123.3231200281
 10
101.529467914
 20
123.3080021927
 10
101.5403065516
 20
123.2951859108
 10
101.556527719
 20
123.286622345
 10
101.5756618906
 20
123.2836152206
 10
101.5947960622
 20
123.286622345
 10
101.6110172297
 20
123.2951859108
 10
101.6218558673
 20
123.3080021927
 10
101.6256618906
 20
123.3231200281
  0
LWPOLYLINE
  5
2E0
330
1F
100
AcDbEntity
  8
0
  6
Continuous
 62
     7
370
    25
100
AcDbPolyline
 90
       17
 70
   128
 43
0.0
 10
101.6256618906
 20
120.1627354255
 10
101.6218558673
 20
120.1778532608
 10
101.6110172297
 20
120.1906695428
 10
101.5947960622
 20
120.1992331086
 10
101.5756618906
 20
120.202240233
 10
101.556527719
 20
120.1992331086
 10
101.5403065516
 20
120.1906695428
 10
101.529467914
 20
120.1778532608
 10
101.5256618906
 20
120.1627354255
 10
101.529467914
 20
120.1476175902
 10
101.5403065516
 20
120.1348013082
 10
101.556527719
 20
120.1262377424
 10
101.5756618906
 20
120.123230618
 10
101.5947960622
 20
120.1262377424
 10
101.6110172297
 20
120.1348013082
 10
101.6218558673
 20
120.1476175902
 10
101.6256618906
 20
120.1627354255
  0
LINE
  5
2E1
330
1F
100
AcDbEntity
  8
0
  6
Continuous
 62
     7
370
    25
100
AcDbLine
 10
100.6756618906
 20
132.1721969154
 30
0.0
 11
100.6756618906
 21
119.6184984045
 31
0.0
  0
LWPOLYLINE
  5
2E2
330
1F
100
AcDbEntity
  8
0
  6
Continuous
 62
     7
370
    25
100
AcDbPolyline
 90
       15
 70
   128
 43
0.0
 10
101.2756618906
 20
132.6462546057
 10
101.208483205
 20
132.6432738305
 10
101.1421493303
 20
132.6343689897
 10
101.0774944535
 20
132.6196520669
 10
101.0153316472
 20
132.599308136
 10
100.9564426447
 20
132.5735930336
 10
100.9015680095
 20
132.5428301422
 10
100.8513978219
 20
132.5074063229
 10
100.8065630011
 20
132.4677670508
 10
100.7676273711
 20
132.4244108128
 10
100.7350805699
 20
132.3778828386
 10
100.7093318924
 20
132.3287682446
 10
100.6907051433
 20
132.2776846754
 10
100.6794345647
 20
132.2252745363
 10
100.6756618906
 20
132.1721969154
  0
LINE
  5
2E3
330
1F
100
AcDbEntity
  8
0
  6
Continuous
 62
     7
370
    25
100
AcDbLine
 10
117.8756618906
 20
132.6462546057
 30
0.0
 11
109.5955341203
 21
132.6462546057
 31
0.0
  0
LINE
  5
2E4
330
1F
100
AcDbEntity
  8
0
  6
Continuous
 62
     7
370
    25
100
AcDbLine
 10
109.3955161616
 20
132.6462546057
 30
0.0
 11
101.2756618906
 21
132.6462546057
 31
0.0
  0
LWPOLYLINE
  5
2E5
330
1F
100
AcDbEntity
  8
0
  6
Continuous
 62
     7
370
    25
100
AcDbPolyline
 90
       15
 70
   128
 43
0.0
 10
118.4756618906
 20
132.1721969154
 10
118.4718892166
 20
132.2252745363
 10
118.4606186379
 20
132.2776846754
 10
118.4419918888
 20
132.3287682446
 10
118.4162432114
 20
132.3778828386
 10
118.3836964102
 20
132.4244108128
 10
118.3447607801
 20
132.4677670508
 10
118.2999259593
 20
132.5074063229
 10
118.2497557717
 20
132.5428301422
 10
118.1948811365
 20
132.5735930336
 10
118.1359921341
 20
132.599308136
 10
118.0738293278
 20
132.6196520669
 10
118.009174451
 20
132.6343689897
 10
117.9428405763
 20
132.6432738305
 10
117.8756618906
 20
132.6462546057
  0
LINE
  5
2E6
330
1F
100
AcDbEntity
  8
0
  6
Continuous
 62
     7
370
    25
100
AcDbLine
 10
118.4756618906
 20
119.6184984045
 30
0.0
 11
118.4756618906
 21
132.1721969154
 31
0.0
  0
LWPOLYLINE
  5
2E7
330
1F
100
AcDbEntity
  8
0
  6
Continuous
 62
     7
370
    25
100
AcDbPolyline
 90
       15
 70
   128
 43
0.0
 10
117.8756618906
 20
119.1444407141
 10
117.9428405763
 20
119.1474214893
 10
118.009174451
 20
119.1563263301
 10
118.0738293278
 20
119.1710432529
 10
118.1359921341
 20
119.1913871839
 10
118.1948811365
 20
119.2171022862
 10
118.2497557717
 20
119.2478651776
 10
118.2999259593
 20
119.2832889969
 10
118.3447607801
 20
119.322928269
 10
118.3836964102
 20
119.3662845071
 10
118.4162432114
 20
119.4128124812
 10
118.4419918888
 20
119.4619270752
 10
118.4606186379
 20
119.5130106445
 10
118.4718892166
 20
119.5654207835
 10
118.4756618906
 20
119.6184984045
  0
LINE
  5
2E8
330
1F
100
AcDbEntity
  8
0
  6
Continuous
 62
     7
370
    25
100
AcDbLine
 10
117.5756618906
 20
119.1444407141
 30
0.0
 11
117.8756618906
 21
119.1444407141
 31
0.0
  0
LWPOLYLINE
  5
2E9
330
1F
100
AcDbEntity
  8
0
  6
Continuous
 62
     7
370
    25
100
AcDbPolyline
 90
       11
 70
   128
 43
0.0
 10
116.8592914928
 20
118.8638032117
 10
116.9124092155
 20
118.9140131761
 10
116.9711441079
 20
118.9601523795
 10
117.0349987367
 20
119.0018300632
 10
117.1034323093
 20
119.0386932537
 10
117.1758652531
 20
119.0704297521
 10
117.2516841245
 20
119.0967707779
 10
117.330246804
 20
119.1174932458
 10
117.4108879345
 20
119.1324216547
 10
117.4929245561
 20
119.1414295738
 10
117.5756618906
 20
119.1444407141
  0
LINE
  5
2EA
330
1F
100
AcDbEntity
  8
0
  6
Continuous
 62
     7
370
    25
100
AcDbLine
 10
102.2920322884
 20
118.8638032117
 30
0.0
 11
109.4232756015
 21
118.8638032117
 31
0.0
  0
LINE
  5
2EB
330
1F
100
AcDbEntity
  8
0
  6
Continuous
 62
     7
370
    25
100
AcDbLine
 10
109.6232929823
 20
118.8638032117
 30
0.0
 11
116.8592914928
 21
118.8638032117
 31
0.0
  0
LWPOLYLINE
  5
2EC
330
1F
100
AcDbEntity
  8
0
  6
Continuous
 62
     7
370
    25
100
AcDbPolyline
 90
       11
 70
   128
 43
0.0
 10
101.5756618906
 20
119.1444407141
 10
101.6583992251
 20
119.1414295738
 10
101.7404358468
 20
119.1324216547
 10
101.8210769773
 20
119.1174932458
 10
101.8996396568
 20
119.0967707779
 10
101.9754585282
 20
119.0704297521
 10
102.047891472
 20
119.0386932537
 10
102.1163250445
 20
119.0018300632
 10
102.1801796734
 20
118.9601523795
 10
102.2389145657
 20
118.9140131761
 10
102.2920322884
 20
118.8638032117
  0
LINE
  5
2ED
330
1F
100
AcDbEntity
  8
0
  6
Continuous
 62
     7
370
    25
100
AcDbLine
 10
101.2756618906
 20
119.1444407141
 30
0.0
 11
101.5756618906
 21
119.1444407141
 31
0.0
  0
LWPOLYLINE
  5
2EE
330
1F
100
AcDbEntity
  8
0
  6
Continuous
 62
     7
370
    25
100
AcDbPolyline
 90
       15
 70
   128
 43
0.0
 10
100.6756618906
 20
119.6184984045
 10
100.6794345647
 20
119.5654207835
 10
100.6907051433
 20
119.5130106445
 10
100.7093318924
 20
119.4619270752
 10
100.7350805699
 20
119.4128124812
 10
100.7676273711
 20
119.3662845071
 10
100.8065630012
 20
119.322928269
 10
100.8513978219
 20
119.2832889969
 10
100.9015680095
 20
119.2478651776
 10
100.9564426447
 20
119.2171022862
 10
101.0153316472
 20
119.1913871839
 10
101.0774944535
 20
119.1710432529
 10
101.1421493303
 20
119.1563263301
 10
101.208483205
 20
119.1474214893
 10
101.2756618906
 20
119.1444407141
  0
LINE
  5
2EF
330
1F
100
AcDbEntity
  8
0
  6
Continuous
 62
     7
370
    25
100
AcDbLine
 10
101.427907547
 20
125.646122384
 30
0.0
 11
101.8443458997
 21
125.1064346026
 31
0.0
  0
LWPOLYLINE
  5
2F0
330
1F
100
AcDbEntity
  8
0
  6
Continuous
 62
     7
370
    25
100
AcDbPolyline
 90
       19
 70
   128
 43
0.0
 10
101.8443458997
 20
125.1064346026
 10
102.2066538359
 20
125.2698263248
 10
102.5804387342
 20
125.4169518619
 10
102.9646950233
 20
125.5480235552
 10
103.3581713168
 20
125.663152626
 10
103.7595297974
 20
125.7624158833
 10
104.1674814104
 20
125.8459208551
 10
104.5570206083
 20
125.9103326
 10
104.9501379921
 20
125.9609524773
 10
105.3456038346
 20
125.9978885158
 10
105.7423574209
 20
126.0212598485
 10
106.1396249282
 20
126.031204129
 10
106.6463928771
 20
126.0249964095
 10
107.1539734971
 20
125.9995643624
 10
107.6631136005
 20
125.9572498306
 10
108.1738733711
 20
125.9004189687
 10
108.6863335302
 20
125.8314798042
 10
109.2006745714
 20
125.7528857727
 10
109.409310023
 20
125.7182378921
  0
LWPOLYLINE
  5
2F1
330
1F
100
AcDbEntity
  8
0
  6
Continuous
 62
     7
370
    25
100
AcDbPolyline
 90
       15
 70
   128
 43
0.0
 10
109.6093947565
 20
125.6850100207
 10
109.7170428413
 20
125.667133011
 10
110.3222114157
 20
125.5614153523
 10
110.9305849184
 20
125.4534770308
 10
111.5424714417
 20
125.3474553487
 10
112.1582165949
 20
125.2475467316
 10
112.778200665
 20
125.1580162739
 10
113.4028106368
 20
125.0831965985
 10
113.8262615473
 20
125.0433078489
 10
114.2520719725
 20
125.0134589114
 10
114.6803207405
 20
124.9950321511
 10
115.1110405467
 20
124.9894193129
 10
115.544266901
 20
124.998028281
 10
115.9798822888
 20
125.0222527562
 10
116.4178968067
 20
125.0634985597
  0
LINE
  5
2F2
330
1F
100
AcDbEntity
  8
0
  6
Continuous
 62
     7
370
    25
100
AcDbLine
 10
116.8592914928
 20
118.8638032117
 30
0.0
 11
116.8592914928
 21
118.6308696982
 31
0.0
  0
LINE
  5
2F3
330
1F
100
AcDbEntity
  8
0
  6
Continuous
 62
     7
370
    25
100
AcDbLine
 10
117.5756618906
 20
119.1444407141
 30
0.0
 11
117.5756618906
 21
118.9115072006
 31
0.0
  0
LWPOLYLINE
  5
2F4
330
1F
100
AcDbEntity
  8
0
  6
Continuous
 62
     7
370
    25
100
AcDbPolyline
 90
       11
 70
   128
 43
0.0
 10
116.8592914928
 20
118.6308696982
 10
116.9124092155
 20
118.6810796626
 10
116.9711441079
 20
118.727218866
 10
117.0349987367
 20
118.7688965497
 10
117.1034323093
 20
118.8057597402
 10
117.1758652531
 20
118.8374962386
 10
117.2516841245
 20
118.8638372644
 10
117.330246804
 20
118.8845597324
 10
117.4108879345
 20
118.8994881412
 10
117.4929245561
 20
118.9084960603
 10
117.5756618906
 20
118.9115072006
  0
LINE
  5
2F5
330
1F
100
AcDbEntity
  8
0
  6
Continuous
 62
     7
370
    25
100
AcDbLine
 10
102.2920322884
 20
118.8638032117
 30
0.0
 11
102.2920322884
 21
118.6308696982
 31
0.0
  0
LINE
  5
2F6
330
1F
100
AcDbEntity
  8
0
  6
Continuous
 62
     7
370
    25
100
AcDbLine
 10
102.2920322884
 20
118.6308696982
 30
0.0
 11
109.4237601013
 21
118.6308696982
 31
0.0
  0
LINE
  5
2F7
330
1F
100
AcDbEntity
  8
0
  6
Continuous
 62
     7
370
    25
100
AcDbLine
 10
109.6237757809
 20
118.6308696982
 30
0.0
 11
116.8592914928
 21
118.6308696982
 31
0.0
  0
LINE
  5
2F8
330
1F
100
AcDbEntity
  8
0
  6
Continuous
 62
     7
370
    25
100
AcDbLine
 10
101.5756618906
 20
119.1444407141
 30
0.0
 11
101.5756618906
 21
118.9115072006
 31
0.0
  0
LWPOLYLINE
  5
2F9
330
1F
100
AcDbEntity
  8
0
  6
Continuous
 62
     7
370
    25
100
AcDbPolyline
 90
       11
 70
   128
 43
0.0
 10
101.5756618906
 20
118.9115072006
 10
101.6583992251
 20
118.9084960603
 10
101.7404358468
 20
118.8994881412
 10
101.8210769773
 20
118.8845597324
 10
101.8996396568
 20
118.8638372644
 10
101.9754585282
 20
118.8374962386
 10
102.047891472
 20
118.8057597402
 10
102.1163250445
 20
118.7688965497
 10
102.1801796734
 20
118.727218866
 10
102.2389145657
 20
118.6810796626
 10
102.2920322884
 20
118.6308696982
  0
LINE
  5
2FA
330
1F
100
AcDbEntity
  8
0
  6
Continuous
 62
     7
370
    25
100
AcDbLine
 10
117.8756618906
 20
119.1444407141
 30
0.0
 11
117.8756618906
 21
118.9115072006
 31
0.0
  0
LINE
  5
2FB
330
1F
100
AcDbEntity
  8
0
  6
Continuous
 62
     7
370
    25
100
AcDbLine
 10
117.5756618906
 20
118.9115072006
 30
0.0
 11
117.8756618906
 21
118.9115072006
 31
0.0
  0
LINE
  5
2FC
330
1F
100
AcDbEntity
  8
0
  6
Continuous
 62
     7
370
    25
100
AcDbLine
 10
118.4756618906
 20
119.6184984045
 30
0.0
 11
118.4756618906
 21
119.385564891
 31
0.0
  0
LWPOLYLINE
  5
2FD
330
1F
100
AcDbEntity
  8
0
  6
Continuous
 62
     7
370
    25
100
AcDbPolyline
 90
       15
 70
   128
 43
0.0
 10
117.8756618906
 20
118.9115072006
 10
117.9428405763
 20
118.9144879759
 10
118.009174451
 20
118.9233928167
 10
118.0738293278
 20
118.9381097394
 10
118.1359921341
 20
118.9584536704
 10
118.1948811365
 20
118.9841687727
 10
118.2497557717
 20
119.0149316641
 10
118.2999259593
 20
119.0503554835
 10
118.3447607801
 20
119.0899947556
 10
118.3836964102
 20
119.1333509936
 10
118.4162432114
 20
119.1798789677
 10
118.4419918888
 20
119.2289935617
 10
118.4606186379
 20
119.280077131
 10
118.4718892166
 20
119.3324872701
 10
118.4756618906
 20
119.385564891
  0
LINE
  5
2FE
330
1F
100
AcDbEntity
  8
0
  6
Continuous
 62
     7
370
    25
100
AcDbLine
 10
101.2756618906
 20
119.1444407141
 30
0.0
 11
101.2756618906
 21
118.9115072006
 31
0.0
  0
LINE
  5
2FF
330
1F
100
AcDbEntity
  8
0
  6
Continuous
 62
     7
370
    25
100
AcDbLine
 10
101.2756618906
 20
118.9115072006
 30
0.0
 11
101.5756618906
 21
118.9115072006
 31
0.0
  0
LINE
  5
300
330
1F
100
AcDbEntity
  8
0
  6
Continuous
 62
     7
370
    25
100
AcDbLine
 10
100.6756618906
 20
119.6184984045
 30
0.0
 11
100.6756618906
 21
119.385564891
 31
0.0
  0
LWPOLYLINE
  5
301
330
1F
100
AcDbEntity
  8
0
  6
Continuous
 62
     7
370
    25
100
AcDbPolyline
 90
       15
 70
   128
 43
0.0
 10
100.6756618906
 20
119.385564891
 10
100.6794345647
 20
119.3324872701
 10
100.6907051433
 20
119.280077131
 10
100.7093318924
 20
119.2289935617
 10
100.7350805699
 20
119.1798789677
 10
100.7676273711
 20
119.1333509936
 10
100.8065630012
 20
119.0899947555
 10
100.8513978219
 20
119.0503554835
 10
100.9015680095
 20
119.0149316641
 10
100.9564426447
 20
118.9841687727
 10
101.0153316472
 20
118.9584536704
 10
101.0774944535
 20
118.9381097394
 10
101.1421493303
 20
118.9233928167
 10
101.208483205
 20
118.9144879759
 10
101.2756618906
 20
118.9115072006
  0
LINE
  5
302
330
1F
100
AcDbEntity
  8
0
  6
Continuous
 62
     7
370
    25
100
AcDbLine
 10
116.6273559951
 20
121.2095334553
 30
0.0
 11
116.6273559951
 21
120.9765999418
 31
0.0
  0
LINE
  5
303
330
1F
100
AcDbEntity
  8
0
  6
Continuous
 62
     7
370
    25
100
AcDbLine
 10
116.6273559951
 20
121.2095334553
 30
0.0
 11
117.0797741497
 21
121.7308279824
 31
0.0
  0
LINE
  5
304
330
1F
100
AcDbEntity
  8
0
  6
Continuous
 62
     7
370
    25
100
AcDbLine
 10
117.0797741497
 20
121.7308279824
 30
0.0
 11
117.0797741497
 21
121.4978944689
 31
0.0
  0
LWPOLYLINE
  5
305
330
1F
100
AcDbEntity
  8
0
  6
Continuous
 62
     7
370
    25
100
AcDbPolyline
 90
       20
 70
   128
 43
0.0
 10
107.7886357769
 20
121.9193601909
 10
107.7851138976
 20
121.936035538
 10
107.77492991
 20
121.9509038524
 10
107.7591874072
 20
121.9623539217
 10
107.7395923335
 20
121.9691449531
 10
107.7182681194
 20
121.9705410331
 10
107.6975255743
 20
121.9663908746
 10
107.6796124747
 20
121.9571442119
 10
107.6664699831
 20
121.9438030641
 10
107.6595222922
 20
121.9278131518
 10
107.6595222922
 20
121.91090723
 10
107.6664699831
 20
121.8949173177
 10
107.6796124747
 20
121.88157617
 10
107.6975255743
 20
121.8723295072
 10
107.7182681194
 20
121.8681793488
 10
107.7395923335
 20
121.8695754287
 10
107.7591874072
 20
121.8763664601
 10
107.77492991
 20
121.8878165294
 10
107.7851138976
 20
121.9026848439
 10
107.7886357769
 20
121.9193601909
  0
LWPOLYLINE
  5
306
330
1F
100
AcDbEntity
  8
0
  6
Continuous
 62
     7
370
    25
100
AcDbPolyline
 90
       20
 70
   128
 43
0.0
 10
111.5420339241
 20
122.054321847
 10
111.5385120448
 20
122.070997194
 10
111.5283280572
 20
122.0858655085
 10
111.5125855544
 20
122.0973155778
 10
111.4929904807
 20
122.1041066092
 10
111.4716662666
 20
122.1055026891
 10
111.4509237215
 20
122.1013525307
 10
111.4330106219
 20
122.0921058679
 10
111.4198681303
 20
122.0787647202
 10
111.4129204394
 20
122.0627748079
 10
111.4129204394
 20
122.0458688861
 10
111.4198681303
 20
122.0298789738
 10
111.4330106219
 20
122.016537826
 10
111.4509237215
 20
122.0072911633
 10
111.4716662666
 20
122.0031410048
 10
111.4929904807
 20
122.0045370848
 10
111.5125855544
 20
122.0113281162
 10
111.5283280572
 20
122.0227781855
 10
111.5385120448
 20
122.0376464999
 10
111.5420339241
 20
122.054321847
  0
LWPOLYLINE
  5
307
330
1F
100
AcDbEntity
  8
0
  6
Continuous
 62
     7
370
    25
100
AcDbPolyline
 90
       20
 70
   128
 43
0.0
 10
116.254103327
 20
121.7772878058
 10
116.2505814477
 20
121.7939631528
 10
116.2403974601
 20
121.8088314673
 10
116.2246549573
 20
121.8202815366
 10
116.2050598836
 20
121.827072568
 10
116.1837356695
 20
121.828468648
 10
116.1629931244
 20
121.8243184895
 10
116.1450800248
 20
121.8150718267
 10
116.1319375331
 20
121.801730679
 10
116.1249898423
 20
121.7857407667
 10
116.1249898423
 20
121.7688348449
 10
116.1319375331
 20
121.7528449326
 10
116.1450800248
 20
121.7395037849
 10
116.1629931244
 20
121.7302571221
 10
116.1837356695
 20
121.7261069636
 10
116.2050598836
 20
121.7275030436
 10
116.2246549573
 20
121.734294075
 10
116.2403974601
 20
121.7457441443
 10
116.2505814477
 20
121.7606124588
 10
116.254103327
 20
121.7772878058
  0
LWPOLYLINE
  5
308
330
1F
100
AcDbEntity
  8
0
  6
Continuous
 62
     7
370
    25
100
AcDbPolyline
 90
       20
 70
   128
 43
0.0
 10
102.3842364661
 20
122.0778390238
 10
102.6523496402
 20
122.1343728123
 10
102.9192994083
 20
122.1750261426
 10
103.1857734703
 20
122.201079401
 10
103.4524712224
 20
122.2137433971
 10
103.7199033705
 20
122.2141521177
 10
104.0718918363
 20
122.1980208474
 10
104.4264275888
 20
122.1653139675
 10
104.7838641407
 20
122.1186477963
 10
105.267477378
 20
122.0390456534
 10
105.7570881873
 20
121.9462415266
 10
106.253166254
 20
121.8474421887
 10
106.7564321188
 20
121.7502348101
 10
107.1648101209
 20
121.6788574515
 10
107.5789077317
 20
121.6176744716
 10
107.9992599314
 20
121.5710168653
 10
108.4243914816
 20
121.5431568844
 10
108.8482908024
 20
121.5344176466
 10
109.2626155579
 20
121.5415992434
 10
109.4177885082
 20
121.5491187575
  0
LWPOLYLINE
  5
309
330
1F
100
AcDbEntity
  8
0
  6
Continuous
 62
     7
370
    25
100
AcDbPolyline
 90
       21
 70
   128
 43
0.0
 10
109.6177558292
 20
121.5588089586
 10
109.6746758237
 20
121.5615672403
 10
110.084347315
 20
121.5915688881
 10
110.4915142159
 20
121.6289377577
 10
111.0059076407
 20
121.6830013538
 10
111.5157265359
 20
121.7394867536
 10
112.0205935093
 20
121.7932598319
 10
112.5200118143
 20
121.8393459978
 10
112.908239931
 20
121.8670010459
 10
113.2924928675
 20
121.8846541172
 10
113.672528384
 20
121.8900811949
 10
114.0482251244
 20
121.8811603067
 10
114.3456036695
 20
121.8622822538
 10
114.6402182713
 20
121.8318199735
 10
114.9322289613
 20
121.7887112039
 10
115.2218758933
 20
121.7318617194
 10
115.5094883522
 20
121.6601236758
 10
115.7903646101
 20
121.5739904382
 10
116.070050887
 20
121.4710790383
 10
116.3489682694
 20
121.3500433825
 10
116.6273559951
 20
121.2095334553
  0
LINE
  5
30A
330
1F
100
AcDbEntity
  8
0
  6
Continuous
 62
     7
370
    25
100
AcDbLine
 10
102.1504511395
 20
122.6823242453
 30
0.0
 11
102.3842364661
 21
122.0778390238
 31
0.0
  0
LWPOLYLINE
  5
30B
330
1F
100
AcDbEntity
  8
0
  6
Continuous
 62
     7
370
    25
100
AcDbPolyline
 90
       20
 70
   128
 43
0.0
 10
117.0797741497
 20
121.7308279824
 10
116.7817765113
 20
121.8820494711
 10
116.4814024068
 20
122.0147416951
 10
116.1791400022
 20
122.1296466919
 10
115.8753922166
 20
122.2276258187
 10
115.5706357406
 20
122.3095776192
 10
115.2707734188
 20
122.3753937457
 10
114.9707711133
 20
122.4276402699
 10
114.6709746621
 20
122.4673200588
 10
114.3716787643
 20
122.4954638101
 10
113.9454471905
 20
122.5177386697
 10
113.5211910174
 20
122.5216550082
 10
113.0992247439
 20
122.510230684
 10
112.6797902801
 20
122.4864254912
 10
112.2630159825
 20
122.4531032828
 10
111.5746488284
 20
122.3840453318
 10
110.8947114231
 20
122.3089505737
 10
110.224162668
 20
122.2399735428
 10
109.8338907514
 20
122.206944948
 10
109.6164704519
 20
122.1931444747
  0
LWPOLYLINE
  5
30C
330
1F
100
AcDbEntity
  8
0
  6
Continuous
 62
     7
370
    25
100
AcDbPolyline
 90
       21
 70
   128
 43
0.0
 10
109.4165028677
 20
122.1813057901
 10
109.0654678917
 20
122.1686749739
 10
108.687810461
 20
122.1678725337
 10
108.3080317753
 20
122.1825410598
 10
107.9304444202
 20
122.2147928512
 10
107.5493261569
 20
122.263453705
 10
107.1642322151
 20
122.3252011937
 10
106.774915282
 20
122.3965434295
 10
106.2583788525
 20
122.4983377263
 10
105.7335938675
 20
122.6017401603
 10
105.1996313475
 20
122.6978326688
 10
104.8743799784
 20
122.748138542
 10
104.5451680308
 20
122.7904060579
 10
104.211770706
 20
122.8224848379
 10
103.8740327017
 20
122.8421733516
 10
103.5319191765
 20
122.8472164799
 10
103.2601166451
 20
122.8394237356
 10
102.9858200613
 20
122.8200871484
 10
102.7092528669
 20
122.7881364035
 10
102.4306707725
 20
122.7425353348
 10
102.1504511395
 20
122.6823242453
  0
LWPOLYLINE
  5
30D
330
1F
100
AcDbEntity
  8
0
  6
Continuous
 62
     7
370
    25
100
AcDbPolyline
 90
       20
 70
   128
 43
0.0
 10
103.1770576856
 20
122.5130015079
 10
103.1735358063
 20
122.5296768549
 10
103.1633518187
 20
122.5445451694
 10
103.1476093159
 20
122.5559952386
 10
103.1280142422
 20
122.5627862701
 10
103.1066900281
 20
122.56418235
 10
103.085947483
 20
122.5600321916
 10
103.0680343834
 20
122.5507855288
 10
103.0548918918
 20
122.5374443811
 10
103.0479442009
 20
122.5214544688
 10
103.0479442009
 20
122.504548547
 10
103.0548918918
 20
122.4885586347
 10
103.0680343834
 20
122.4752174869
 10
103.085947483
 20
122.4659708242
 10
103.1066900281
 20
122.4618206657
 10
103.1280142422
 20
122.4632167457
 10
103.1476093159
 20
122.4700077771
 10
103.1633518187
 20
122.4814578464
 10
103.1735358063
 20
122.4963261608
 10
103.1770576856
 20
122.5130015079
  0
LINE
  5
30E
330
1F
100
AcDbEntity
  8
0
  6
Continuous
 62
     7
370
    25
100
AcDbLine
 10
102.3842364661
 20
122.0778390238
 30
0.0
 11
102.3842364661
 21
121.8449055103
 31
0.0
  0
LINE
  5
30F
330
1F
100
AcDbEntity
  8
0
  6
Continuous
 62
     7
370
    25
100
AcDbLine
 10
102.1504511395
 20
122.6823242453
 30
0.0
 11
102.1504511395
 21
122.4493907318
 31
0.0
  0
LINE
  5
310
330
1F
100
AcDbEntity
  8
0
  6
Continuous
 62
     7
370
    25
100
AcDbLine
 10
101.8443458997
 20
125.3393681161
 30
0.0
 11
101.8443458997
 21
125.1064346026
 31
0.0
  0
LWPOLYLINE
  5
311
330
1F
100
AcDbEntity
  8
0
  6
Continuous
 62
     7
370
    25
100
AcDbPolyline
 90
       19
 70
   128
 43
0.0
 10
101.8443458997
 20
125.3393681161
 10
102.2066538359
 20
125.5027598382
 10
102.5804387342
 20
125.6498853754
 10
102.9646950233
 20
125.7809570686
 10
103.3581713168
 20
125.8960861395
 10
103.7595297974
 20
125.9953493968
 10
104.1674814104
 20
126.0788543686
 10
104.5570206083
 20
126.1432661134
 10
104.9501379921
 20
126.1938859908
 10
105.3456038346
 20
126.2308220293
 10
105.7423574209
 20
126.2541933619
 10
106.1396249282
 20
126.2641376424
 10
106.6463928771
 20
126.257929923
 10
107.1539734971
 20
126.2324978759
 10
107.6631136005
 20
126.190183344
 10
108.1738733711
 20
126.1333524822
 10
108.6863335302
 20
126.0644133177
 10
109.2006745714
 20
125.9858192862
 10
109.4088361602
 20
125.9512500995
  0
LWPOLYLINE
  5
312
330
1F
100
AcDbEntity
  8
0
  6
Continuous
 62
     7
370
    25
100
AcDbPolyline
 90
       15
 70
   128
 43
0.0
 10
109.6089225958
 20
125.9180219454
 10
109.7170428413
 20
125.9000665244
 10
110.3222114157
 20
125.7943488658
 10
110.9305849184
 20
125.6864105442
 10
111.5424714417
 20
125.5803888622
 10
112.1582165949
 20
125.4804802451
 10
112.778200665
 20
125.3909497874
 10
113.4028106368
 20
125.3161301119
 10
113.8262615473
 20
125.2762413624
 10
114.2520719725
 20
125.2463924249
 10
114.6803207405
 20
125.2279656645
 10
115.1110405467
 20
125.2223528264
 10
115.544266901
 20
125.2309617945
 10
115.9798822888
 20
125.2551862697
 10
116.4178968067
 20
125.2964320732
  0
LINE
  5
313
330
1F
100
AcDbEntity
  8
0
  6
Continuous
 62
     7
370
    25
100
AcDbLine
 10
116.4178968067
 20
125.2964320732
 30
0.0
 11
116.4178968067
 21
125.0634985597
 31
0.0
  0
LINE
  5
314
330
1F
100
AcDbEntity
  8
0
  6
Continuous
 62
     7
370
    25
100
AcDbLine
 10
116.4178968067
 20
125.2964320732
 30
0.0
 11
116.3033129844
 21
125.9219919404
 31
0.0
  0
LINE
  5
315
330
1F
100
AcDbEntity
  8
0
  6
Continuous
 62
     7
370
    25
100
AcDbLine
 10
101.427907547
 20
125.8790558975
 30
0.0
 11
101.8443458997
 21
125.3393681161
 31
0.0
  0
LWPOLYLINE
  5
316
330
1F
100
AcDbEntity
  8
0
  6
Continuous
 62
     7
370
    25
100
AcDbPolyline
 90
       15
 70
   128
 43
0.0
 10
116.3033129844
 20
125.9219919404
 10
115.8816678632
 20
125.8827786355
 10
115.4601360094
 20
125.8607025183
 10
115.0383596135
 20
125.854421526
 10
114.6161009365
 20
125.8626094584
 10
114.1931399447
 20
125.883936117
 10
113.7693314564
 20
125.9170570498
 10
113.2685827222
 20
125.9693885846
 10
112.7663189751
 20
126.0339570931
 10
112.2624090445
 20
126.1084673149
 10
111.756724498
 20
126.1905795528
 10
111.1522196169
 20
126.294957934
 10
110.5447526441
 20
126.4026896819
 10
109.9340295833
 20
126.5096542761
 10
109.6076139064
 20
126.5638619957
  0
LWPOLYLINE
  5
317
330
1F
100
AcDbEntity
  8
0
  6
Continuous
 62
     7
370
    25
100
AcDbPolyline
 90
       19
 70
   128
 43
0.0
 10
109.4075376268
 20
126.5970885826
 10
109.3197142553
 20
126.6116733744
 10
108.7014140447
 20
126.7045013741
 10
108.0787677402
 20
126.7838251279
 10
107.6087266276
 20
126.8318207111
 10
107.1358110923
 20
126.8678696994
 10
106.6598417588
 20
126.8900704586
 10
106.1811258487
 20
126.8964949932
 10
105.7003021139
 20
126.8853864312
 10
105.2190035869
 20
126.8560892201
 10
104.7391765768
 20
126.808361539
 10
104.262352732
 20
126.741948429
 10
103.8378750688
 20
126.6661730825
 10
103.4180114069
 20
126.5749141505
 10
103.0038885079
 20
126.4679603009
 10
102.5966622203
 20
126.3451093679
 10
102.1975145134
 20
126.2061672503
 10
101.8074889317
 20
126.0508654675
 10
101.427907547
 20
125.8790558975
  0
LWPOLYLINE
  5
318
330
1F
100
AcDbEntity
  8
0
  6
Continuous
 62
     7
370
    25
100
AcDbPolyline
 90
       20
 70
   128
 43
0.0
 10
115.659912884
 20
125.5494460498
 10
115.6563910047
 20
125.5661213969
 10
115.6462070171
 20
125.5809897113
 10
115.6304645142
 20
125.5924397806
 10
115.6108694406
 20
125.599230812
 10
115.5895452265
 20
125.600626892
 10
115.5688026814
 20
125.5964767335
 10
115.5508895818
 20
125.5872300707
 10
115.5377470901
 20
125.573888923
 10
115.5307993992
 20
125.5578990107
 10
115.5307993992
 20
125.5409930889
 10
115.5377470901
 20
125.5250031766
 10
115.5508895818
 20
125.5116620289
 10
115.5688026814
 20
125.5024153661
 10
115.5895452265
 20
125.4982652076
 10
115.6108694406
 20
125.4996612876
 10
115.6304645142
 20
125.506452319
 10
115.6462070171
 20
125.5179023883
 10
115.6563910047
 20
125.5327707028
 10
115.659912884
 20
125.5494460498
  0
LWPOLYLINE
  5
319
330
1F
100
AcDbEntity
  8
0
  6
Continuous
 62
     7
370
    25
100
AcDbPolyline
 90
       20
 70
   128
 43
0.0
 10
111.1218316099
 20
125.9879631266
 10
111.1183097306
 20
126.0046384736
 10
111.108125743
 20
126.0195067881
 10
111.0923832401
 20
126.0309568574
 10
111.0727881665
 20
126.0377478888
 10
111.0514639524
 20
126.0391439687
 10
111.0307214073
 20
126.0349938103
 10
111.0128083077
 20
126.0257471475
 10
110.999665816
 20
126.0124059998
 10
110.9927181251
 20
125.9964160875
 10
110.9927181251
 20
125.9795101657
 10
110.999665816
 20
125.9635202534
 10
111.0128083077
 20
125.9501791056
 10
111.0307214073
 20
125.9409324429
 10
111.0514639524
 20
125.9367822844
 10
111.0727881665
 20
125.9381783644
 10
111.0923832401
 20
125.9449693958
 10
111.108125743
 20
125.9564194651
 10
111.1183097306
 20
125.9712877795
 10
111.1218316099
 20
125.9879631266
  0
LWPOLYLINE
  5
31A
330
1F
100
AcDbEntity
  8
0
  6
Continuous
 62
     7
370
    25
100
AcDbPolyline
 90
       20
 70
   128
 43
0.0
 10
107.2789013784
 20
126.545629972
 10
107.2753794991
 20
126.562305319
 10
107.2651955115
 20
126.5771736335
 10
107.2494530086
 20
126.5886237027
 10
107.229857935
 20
126.5954147342
 10
107.2085337209
 20
126.5968108141
 10
107.1877911758
 20
126.5926606557
 10
107.1698780762
 20
126.5834139929
 10
107.1567355845
 20
126.5700728452
 10
107.1497878936
 20
126.5540829328
 10
107.1497878936
 20
126.5371770111
 10
107.1567355845
 20
126.5211870988
 10
107.1698780762
 20
126.507845951
 10
107.1877911758
 20
126.4985992882
 10
107.2085337209
 20
126.4944491298
 10
107.229857935
 20
126.4958452097
 10
107.2494530086
 20
126.5026362412
 10
107.2651955115
 20
126.5140863105
 10
107.2753794991
 20
126.5289546249
 10
107.2789013784
 20
126.545629972
  0
LWPOLYLINE
  5
31B
330
1F
100
AcDbEntity
  8
0
  6
Continuous
 62
     7
370
    25
100
AcDbPolyline
 90
       20
 70
   128
 43
0.0
 10
102.6015988407
 20
125.9812249941
 10
102.5980769614
 20
125.9979003411
 10
102.5878929738
 20
126.0127686556
 10
102.5721504709
 20
126.0242187249
 10
102.5525553973
 20
126.0310097563
 10
102.5312311832
 20
126.0324058362
 10
102.5104886381
 20
126.0282556778
 10
102.4925755385
 20
126.019009015
 10
102.4794330468
 20
126.0056678673
 10
102.4724853559
 20
125.989677955
 10
102.4724853559
 20
125.9727720332
 10
102.4794330468
 20
125.9567821209
 10
102.4925755385
 20
125.9434409731
 10
102.5104886381
 20
125.9341943104
 10
102.5312311832
 20
125.9300441519
 10
102.5525553973
 20
125.9314402319
 10
102.5721504709
 20
125.9382312633
 10
102.5878929738
 20
125.9496813326
 10
102.5980769614
 20
125.964549647
 10
102.6015988407
 20
125.9812249941
  0
LINE
  5
31C
330
1F
100
AcDbEntity
  8
0
  6
Continuous
 62
     7
370
    25
100
AcDbLine
 10
101.427907547
 20
125.8790558975
 30
0.0
 11
101.427907547
 21
125.646122384
 31
0.0
  0
LINE
  5
31D
330
1F
100
AcDbEntity
  8
0
  6
Continuous
 62
     7
370
    25
100
AcDbLine
 10
116.0721194625
 20
129.4066837793
 30
0.0
 11
116.0721194625
 21
129.1737502658
 31
0.0
  0
LINE
  5
31E
330
1F
100
AcDbEntity
  8
0
  6
Continuous
 62
     7
370
    25
100
AcDbLine
 10
116.0721194625
 20
129.4066837793
 30
0.0
 11
116.6490903286
 21
129.8445315275
 31
0.0
  0
LINE
  5
31F
330
1F
100
AcDbEntity
  8
0
  6
Continuous
 62
     7
370
    25
100
AcDbLine
 10
116.6490903286
 20
129.8445315275
 30
0.0
 11
116.6490903286
 21
129.611598014
 31
0.0
  0
LWPOLYLINE
  5
320
330
1F
100
AcDbEntity
  8
0
  6
Continuous
 62
     7
370
    25
100
AcDbPolyline
 90
       20
 70
   128
 43
0.0
 10
103.0747422497
 20
131.2426233529
 10
103.0712203704
 20
131.2592987
 10
103.0610363828
 20
131.2741670144
 10
103.0452938799
 20
131.2856170837
 10
103.0256988063
 20
131.2924081151
 10
103.0043745922
 20
131.2938041951
 10
102.9836320471
 20
131.2896540366
 10
102.9657189475
 20
131.2804073739
 10
102.9525764558
 20
131.2670662261
 10
102.945628765
 20
131.2510763138
 10
102.945628765
 20
131.234170392
 10
102.9525764558
 20
131.2181804797
 10
102.9657189475
 20
131.204839332
 10
102.9836320471
 20
131.1955926692
 10
103.0043745922
 20
131.1914425108
 10
103.0256988063
 20
131.1928385907
 10
103.0452938799
 20
131.1996296222
 10
103.0610363828
 20
131.2110796914
 10
103.0712203704
 20
131.2259480059
 10
103.0747422497
 20
131.2426233529
  0
LWPOLYLINE
  5
321
330
1F
100
AcDbEntity
  8
0
  6
Continuous
 62
     7
370
    25
100
AcDbPolyline
 90
       20
 70
   128
 43
0.0
 10
106.7076848587
 20
130.1130199868
 10
106.7041629794
 20
130.1296953338
 10
106.6939789918
 20
130.1445636483
 10
106.678236489
 20
130.1560137176
 10
106.6586414153
 20
130.162804749
 10
106.6373172012
 20
130.164200829
 10
106.6165746561
 20
130.1600506705
 10
106.5986615565
 20
130.1508040077
 10
106.5855190649
 20
130.13746286
 10
106.578571374
 20
130.1214729477
 10
106.578571374
 20
130.1045670259
 10
106.5855190649
 20
130.0885771136
 10
106.5986615565
 20
130.0752359659
 10
106.6165746561
 20
130.0659893031
 10
106.6373172012
 20
130.0618391446
 10
106.6586414153
 20
130.0632352246
 10
106.678236489
 20
130.070026256
 10
106.6939789918
 20
130.0814763253
 10
106.7041629794
 20
130.0963446397
 10
106.7076848587
 20
130.1130199868
  0
LWPOLYLINE
  5
322
330
1F
100
AcDbEntity
  8
0
  6
Continuous
 62
     7
370
    25
100
AcDbPolyline
 90
       20
 70
   128
 43
0.0
 10
112.2003608658
 20
130.7952748149
 10
112.1968389865
 20
130.8119501619
 10
112.1866549989
 20
130.8268184763
 10
112.170912496
 20
130.8382685456
 10
112.1513174224
 20
130.8450595771
 10
112.1299932083
 20
130.846455657
 10
112.1092506632
 20
130.8423054986
 10
112.0913375636
 20
130.8330588358
 10
112.0781950719
 20
130.8197176881
 10
112.071247381
 20
130.8037277757
 10
112.071247381
 20
130.786821854
 10
112.0781950719
 20
130.7708319416
 10
112.0913375636
 20
130.7574907939
 10
112.1092506632
 20
130.7482441311
 10
112.1299932083
 20
130.7440939727
 10
112.1513174224
 20
130.7454900526
 10
112.170912496
 20
130.7522810841
 10
112.1866549989
 20
130.7637311534
 10
112.1968389865
 20
130.7785994678
 10
112.2003608658
 20
130.7952748149
  0
LWPOLYLINE
  5
323
330
1F
100
AcDbEntity
  8
0
  6
Continuous
 62
     7
370
    25
100
AcDbPolyline
 90
       20
 70
   128
 43
0.0
 10
115.9429927284
 20
129.97896767
 10
115.9394708491
 20
129.995643017
 10
115.9292868615
 20
130.0105113315
 10
115.9135443587
 20
130.0219614008
 10
115.8939492851
 20
130.0287524322
 10
115.872625071
 20
130.0301485122
 10
115.8518825258
 20
130.0259983537
 10
115.8339694263
 20
130.0167516909
 10
115.8208269346
 20
130.0034105432
 10
115.8138792437
 20
129.9874206309
 10
115.8138792437
 20
129.9705147091
 10
115.8208269346
 20
129.9545247968
 10
115.8339694263
 20
129.9411836491
 10
115.8518825258
 20
129.9319369863
 10
115.872625071
 20
129.9277868278
 10
115.8939492851
 20
129.9291829078
 10
115.9135443587
 20
129.9359739392
 10
115.9292868615
 20
129.9474240085
 10
115.9394708491
 20
129.9622923229
 10
115.9429927284
 20
129.97896767
  0
LINE
  5
324
330
1F
100
AcDbEntity
  8
0
  6
Continuous
 62
     7
370
    25
100
AcDbLine
 10
102.8498959624
 20
131.861297064
 30
0.0
 11
102.2232988041
 21
131.4683276688
 31
0.0
  0
LWPOLYLINE
  5
325
330
1F
100
AcDbEntity
  8
0
  6
Continuous
 62
     7
370
    25
100
AcDbPolyline
 90
       21
 70
   128
 43
0.0
 10
116.6490903286
 20
129.8445315275
 10
116.3835592375
 20
130.0502572496
 10
116.1124340218
 20
130.2357060179
 10
115.8361023014
 20
130.4013935266
 10
115.5549109678
 20
130.5479508499
 10
115.2693650629
 20
130.6759958229
 10
114.9800149581
 20
130.7862090917
 10
114.6874718627
 20
130.879336515
 10
114.3627101934
 20
130.9630356713
 10
114.0355996125
 20
131.0282682044
 10
113.7068567629
 20
131.0763252612
 10
113.3770157836
 20
131.108572944
 10
113.0465395666
 20
131.1264038101
 10
112.625656252
 20
131.1304334339
 10
112.2049162177
 20
131.1161730511
 10
111.7847310423
 20
131.0864150078
 10
111.3654206292
 20
131.0438311988
 10
110.9472609179
 20
130.9910309495
 10
110.4019051
 20
130.9106659825
 10
109.8597424549
 20
130.8226862767
 10
109.5992312025
 20
130.77903308
  0
LWPOLYLINE
  5
326
330
1F
100
AcDbEntity
  8
0
  6
Continuous
 62
     7
370
    25
100
AcDbPolyline
 90
       23
 70
   128
 43
0.0
 10
109.3992934582
 20
130.7455300294
 10
109.3216280162
 20
130.7325158322
 10
108.8126468682
 20
130.6492921598
 10
108.3092450548
 20
130.5734466002
 10
107.8125052528
 20
130.5094119272
 10
107.3236056599
 20
130.4614796356
 10
106.9457296749
 20
130.4378111204
 10
106.5739590276
 20
130.4285461697
 10
106.2087272132
 20
130.4355446689
 10
105.8502624762
 20
130.4605765767
 10
105.5938971482
 20
130.491115312
 10
105.3411066701
 20
130.5328121598
 10
105.0917368937
 20
130.5863847884
 10
104.8455762794
 20
130.6525969546
 10
104.6023541756
 20
130.7322847619
 10
104.3617805773
 20
130.8263545055
 10
104.1235739726
 20
130.9357934741
 10
103.9071067128
 20
131.0505164378
 10
103.6923152884
 20
131.1798905349
 10
103.4791494412
 20
131.3247878045
 10
103.267626536
 20
131.4860816802
 10
103.0578305192
 20
131.6646354783
 10
102.8498959624
 20
131.861297064
  0
LWPOLYLINE
  5
327
330
1F
100
AcDbEntity
  8
0
  6
Continuous
 62
     7
370
    25
100
AcDbPolyline
 90
       22
 70
   128
 43
0.0
 10
102.2232988041
 20
131.4683276688
 10
102.4788991548
 20
131.2277401652
 10
102.7403512539
 20
131.0084904691
 10
103.0075067762
 20
130.809949346
 10
103.2801304311
 20
130.6315193083
 10
103.557892331
 20
130.4726129176
 10
103.8403610753
 20
130.3326269709
 10
104.1270208908
 20
130.2109234994
 10
104.4464922952
 20
130.0973240068
 10
104.769515711
 20
130.0039589004
 10
105.095284184
 20
129.9296766999
 10
105.4230660714
 20
129.8732219668
 10
105.7522118956
 20
129.8332650691
 10
106.1021954395
 20
129.8073775721
 10
106.4526672644
 20
129.7968384591
 10
106.803240188
 20
129.7999863426
 10
107.1536024602
 20
129.8151928824
 10
107.5035630341
 20
129.8408826192
 10
107.8529425338
 20
129.8754893203
 10
108.4003902168
 20
129.9442716812
 10
108.945349189
 20
130.0256563088
 10
109.4005763533
 20
130.099980966
  0
LWPOLYLINE
  5
328
330
1F
100
AcDbEntity
  8
0
  6
Continuous
 62
     7
370
    25
100
AcDbPolyline
 90
       21
 70
   128
 43
0.0
 10
109.6005101135
 20
130.1331155707
 10
110.0003957832
 20
130.2001375124
 10
110.5091171279
 20
130.2830561383
 10
111.0122615613
 20
130.358329236
 10
111.5087220342
 20
130.4215405984
 10
111.8933540287
 20
130.4599477034
 10
112.2725559009
 20
130.4862548663
 10
112.6457962362
 20
130.4985166476
 10
113.0126465111
 20
130.4948944034
 10
113.3186276613
 20
130.4780136851
 10
113.6196782507
 20
130.4473219632
 10
113.9158616276
 20
130.4017373149
 10
114.2073742675
 20
130.3401301471
 10
114.4945509928
 20
130.2612902879
 10
114.7778237864
 20
130.1638825634
 10
114.997952054
 20
130.0733625643
 10
115.2161585343
 20
129.969695369
 10
115.4326061816
 20
129.8520556277
 10
115.6474008562
 20
129.7195889673
 10
115.8605805153
 20
129.5714238751
 10
116.0721194625
 20
129.4066837793
  0
LINE
  5
329
330
1F
100
AcDbEntity
  8
0
  6
Continuous
 62
     7
370
    25
100
AcDbLine
 10
102.2232988041
 20
131.4683276688
 30
0.0
 11
102.2232988041
 21
131.2353941554
 31
0.0
  0
ARC
  5
32A
330
1F
100
AcDbEntity
  8
0
  6
Continuous
 62
     7
370
    25
100
AcDbCircle
 10
117.5866618906
 20
118.0127184282
 30
0.0
 40
0.9890000000000043
100
AcDbArc
 50
180.0
 51
250.0775331351
  0
LINE
  5
32B
330
1F
100
AcDbEntity
  8
0
  6
Continuous
 62
     7
370
    25
100
AcDbLine
 10
117.9236618906
 20
117.0237184282
 30
0.0
 11
118.1756618906
 21
117.0237184282
 31
0.0
  0
ARC
  5
32C
330
1F
100
AcDbEntity
  8
0
  6
Continuous
 62
     7
370
    25
100
AcDbCircle
 10
118.1756618906
 20
116.7237184282
 30
0.0
 40
0.3000000000000114
100
AcDbArc
 50
0.0
 51
90.0
  0
ARC
  5
32D
330
1F
100
AcDbEntity
  8
0
  6
Continuous
 62
     7
370
    25
100
AcDbCircle
 10
118.1756618906
 20
103.3017184282
 30
0.0
 40
0.3000000000000114
100
AcDbArc
 50
270.0
 51
0.0
  0
LINE
  5
32E
330
1F
100
AcDbEntity
  8
0
  6
Continuous
 62
     7
370
    25
100
AcDbLine
 10
116.5976618906
 20
101.6757184282
 30
0.0
 11
116.5976618906
 21
101.4237184282
 31
0.0
  0
ARC
  5
32F
330
1F
100
AcDbEntity
  8
0
  6
Continuous
 62
     7
370
    25
100
AcDbCircle
 10
116.2976618906
 20
101.4237184282
 30
0.0
 40
0.3000000000000114
100
AcDbArc
 50
270.0
 51
0.0000000006
  0
LINE
  5
330
330
1F
100
AcDbEntity
  8
0
  6
Continuous
 62
     7
370
    25
100
AcDbLine
 10
102.8756618906
 20
101.1237184282
 30
0.0
 11
109.4609195392
 21
101.1237184282
 31
0.0
  0
LINE
  5
331
330
1F
100
AcDbEntity
  8
0
  6
Continuous
 62
     7
370
    25
100
AcDbLine
 10
109.660907417
 20
101.1237184282
 30
0.0
 11
116.2976618906
 21
101.1237184282
 31
0.0
  0
ARC
  5
332
330
1F
100
AcDbEntity
  8
0
  6
Continuous
 62
     7
370
    25
100
AcDbCircle
 10
102.8756618906
 20
101.4237184282
 30
0.0
 40
0.2999999999999972
100
AcDbArc
 50
180.0
 51
270.0
  0
LINE
  5
333
330
1F
100
AcDbEntity
  8
0
  6
Continuous
 62
     7
370
    25
100
AcDbLine
 10
102.5756618906
 20
101.6757184282
 30
0.0
 11
102.5756618906
 21
101.4237184282
 31
0.0
  0
ARC
  5
334
330
1F
100
AcDbEntity
  8
0
  6
Continuous
 62
     7
370
    25
100
AcDbCircle
 10
101.5866618906
 20
102.0127184282
 30
0.0
 40
0.9889999999999973
100
AcDbArc
 50
19.922466865
 51
70.077533135
  0
LINE
  5
335
330
1F
100
AcDbEntity
  8
0
  6
Continuous
 62
     7
370
    25
100
AcDbLine
 10
101.2496618906
 20
103.0017184282
 30
0.0
 11
100.9976618906
 21
103.0017184282
 31
0.0
  0
ARC
  5
336
330
1F
100
AcDbEntity
  8
0
  6
Continuous
 62
     7
370
    25
100
AcDbCircle
 10
100.9976618906
 20
103.3017184282
 30
0.0
 40
0.2999999999999829
100
AcDbArc
 50
180.0
 51
270.0
  0
LINE
  5
337
330
1F
100
AcDbEntity
  8
0
  6
Continuous
 62
     7
370
    25
100
AcDbLine
 10
100.6976618906
 20
103.3017184282
 30
0.0
 11
100.6976618906
 21
116.7237184282
 31
0.0
  0
ARC
  5
338
330
1F
100
AcDbEntity
  8
0
  6
Continuous
 62
     7
370
    25
100
AcDbCircle
 10
100.9976618906
 20
116.7237184282
 30
0.0
 40
0.3000000000000256
100
AcDbArc
 50
90.0
 51
180.0
  0
LINE
  5
339
330
1F
100
AcDbEntity
  8
0
  6
Continuous
 62
     7
370
    25
100
AcDbLine
 10
101.2496618906
 20
117.0237184282
 30
0.0
 11
100.9976618906
 21
117.0237184282
 31
0.0
  0
ARC
  5
33A
330
1F
100
AcDbEntity
  8
0
  6
Continuous
 62
     7
370
    25
100
AcDbCircle
 10
101.5866618906
 20
118.0127184282
 30
0.0
 40
0.9890000000000129
100
AcDbArc
 50
289.9224668651
 51
0.0
  0
LINE
  5
33B
330
1F
100
AcDbEntity
  8
0
  6
Continuous
 62
     7
370
    25
100
AcDbLine
 10
102.5756618906
 20
118.0127184282
 30
0.0
 11
102.5756618906
 21
118.1627184282
 31
0.0
  0
ARC
  5
33C
330
1F
100
AcDbEntity
  8
0
  6
Continuous
 62
     7
370
    25
100
AcDbCircle
 10
102.7756618906
 20
118.1627184282
 30
0.0
 40
0.2000000000000028
100
AcDbArc
 50
90.0
 51
180.0
  0
LINE
  5
33D
330
1F
100
AcDbEntity
  8
0
  6
Continuous
 62
     7
370
    25
100
AcDbLine
 10
102.7756618906
 20
118.3627184282
 30
0.0
 11
109.4243178539
 21
118.3627184282
 31
0.0
  0
LINE
  5
33E
330
1F
100
AcDbEntity
  8
0
  6
Continuous
 62
     7
370
    25
100
AcDbLine
 10
109.624331575
 20
118.3627184282
 30
0.0
 11
116.3976618906
 21
118.3627184282
 31
0.0
  0
ARC
  5
33F
330
1F
100
AcDbEntity
  8
0
  6
Continuous
 62
     7
370
    25
100
AcDbCircle
 10
116.3976618906
 20
118.1627184282
 30
0.0
 40
0.2000000000000171
100
AcDbArc
 50
0.0
 51
90.0
  0
LINE
  5
340
330
1F
100
AcDbEntity
  8
0
  6
Continuous
 62
     7
370
    25
100
AcDbLine
 10
116.5976618906
 20
118.0127184282
 30
0.0
 11
116.5976618906
 21
118.1627184282
 31
0.0
  0
CIRCLE
  5
341
330
1F
100
AcDbEntity
  8
0
  6
Continuous
 62
     7
370
    25
100
AcDbCircle
 10
104.1866618906
 20
118.0127184282
 30
0.0
 40
0.0499999999999972
  0
CIRCLE
  5
342
330
1F
100
AcDbEntity
  8
0
  6
Continuous
 62
     7
370
    25
100
AcDbCircle
 10
114.9866618906
 20
118.0127184282
 30
0.0
 40
0.0499999999999972
  0
LWPOLYLINE
  5
343
330
1F
100
AcDbEntity
  8
0
  6
Continuous
 62
     7
370
    25
100
AcDbPolyline
 90
        3
 70
   128
 43
0.0
 10
109.6366618906
 20
118.0127184282
 10
109.6328558673
 20
118.0318525998
 10
109.6256926962
 20
118.0439689677
  0
LWPOLYLINE
  5
344
330
1F
100
AcDbEntity
  8
0
  6
Continuous
 62
     7
370
    25
100
AcDbPolyline
 90
        3
 70
   128
 43
0.0
 10
109.6252284425
 20
117.9808967206
 10
109.6328558673
 20
117.9935842566
 10
109.6366618906
 20
118.0127184282
  0
LINE
  5
345
330
1F
100
AcDbEntity
  8
0
  6
Continuous
 62
     7
370
    25
100
AcDbLine
 10
118.4756618906
 20
103.3017184282
 30
0.0
 11
118.4756618906
 21
116.7237184282
 31
0.0
  0
LINE
  5
346
330
1F
100
AcDbEntity
  8
0
  6
Continuous
 62
     7
370
    25
100
AcDbLine
 10
117.9236618906
 20
103.0017184282
 30
0.0
 11
118.1756618906
 21
103.0017184282
 31
0.0
  0
ARC
  5
347
330
1F
100
AcDbEntity
  8
0
  6
Continuous
 62
     7
370
    25
100
AcDbCircle
 10
117.5866618906
 20
102.0127184282
 30
0.0
 40
0.9890000000000144
100
AcDbArc
 50
109.922466865
 51
160.0775331351
  0
LINE
  5
348
330
1F
100
AcDbEntity
  8
0
  6
Continuous
 62
     7
370
    25
100
AcDbLine
 10
117.9366618906
 20
118.9139635208
 30
0.0
 11
117.9366618906
 21
118.8299215853
 31
0.0
  0
LINE
  5
349
330
1F
100
AcDbEntity
  8
0
  6
Continuous
 62
     7
370
    25
100
AcDbLine
 10
117.2366618906
 20
118.8591348712
 30
0.0
 11
117.2366618906
 21
118.8299215853
 31
0.0
  0
LINE
  5
34A
330
1F
100
AcDbEntity
  8
0
  6
Continuous
 62
     7
370
    25
100
AcDbLine
 10
101.9366618906
 20
117.1955152711
 30
0.0
 11
101.9366618906
 21
117.0877205904
 31
0.0
  0
LINE
  5
34B
330
1F
100
AcDbEntity
  8
0
  6
Continuous
 62
     7
370
    25
100
AcDbLine
 10
101.9366618906
 20
102.937716266
 30
0.0
 11
101.9366618906
 21
102.8299215853
 31
0.0
  0
LINE
  5
34C
330
1F
100
AcDbEntity
  8
0
  6
Continuous
 62
     7
370
    25
100
AcDbLine
 10
101.2366618906
 20
117.1955152711
 30
0.0
 11
101.2366618906
 21
117.0237184282
 31
0.0
  0
LINE
  5
34D
330
1F
100
AcDbEntity
  8
0
  6
Continuous
 62
     7
370
    25
100
AcDbLine
 10
101.2366618906
 20
103.0017184282
 30
0.0
 11
101.2366618906
 21
102.8299215853
 31
0.0
  0
LINE
  5
34E
330
1F
100
AcDbEntity
  8
0
  6
Continuous
 62
     7
370
    25
100
AcDbLine
 10
101.9366618906
 20
118.8517968433
 30
0.0
 11
101.9366618906
 21
118.8299215853
 31
0.0
  0
LINE
  5
34F
330
1F
100
AcDbEntity
  8
0
  6
Continuous
 62
     7
370
    25
100
AcDbLine
 10
101.2366618906
 20
118.9125097075
 30
0.0
 11
101.2366618906
 21
118.8299215853
 31
0.0
  0
CIRCLE
  5
350
330
1F
100
AcDbEntity
  8
0
  6
Continuous
 62
     7
370
    25
100
AcDbCircle
 10
101.5867172738
 20
102.0127254411
 30
0.0
 40
0.0049932942171663
  0
CIRCLE
  5
351
330
1F
100
AcDbEntity
  8
0
  6
Continuous
 62
     7
370
    25
100
AcDbCircle
 10
101.586717738
 20
102.0127208688
 30
0.0
 40
0.8849975611388557
  0
CIRCLE
  5
352
330
1F
100
AcDbEntity
  8
0
  6
Continuous
 62
     7
370
    25
100
AcDbCircle
 10
101.5867172738
 20
118.0127254411
 30
0.0
 40
0.0049932942171804
  0
CIRCLE
  5
353
330
1F
100
AcDbEntity
  8
0
  6
Continuous
 62
     7
370
    25
100
AcDbCircle
 10
101.586717738
 20
118.0127208688
 30
0.0
 40
0.8849975611390829
  0
CIRCLE
  5
354
330
1F
100
AcDbEntity
  8
0
  6
Continuous
 62
     7
370
    25
100
AcDbCircle
 10
101.5866618906
 20
102.0127184282
 30
0.0
 40
0.8889999999999674
  0
LINE
  5
355
330
1F
100
AcDbEntity
  8
0
  6
Continuous
 62
     7
370
    25
100
AcDbLine
 10
116.7694587335
 20
117.6627184282
 30
0.0
 11
116.6616640528
 21
117.6627184282
 31
0.0
  0
LINE
  5
356
330
1F
100
AcDbEntity
  8
0
  6
Continuous
 62
     7
370
    25
100
AcDbLine
 10
102.5116597285
 20
117.6627184282
 30
0.0
 11
102.4038650477
 21
117.6627184282
 31
0.0
  0
LINE
  5
357
330
1F
100
AcDbEntity
  8
0
  6
Continuous
 62
     7
370
    25
100
AcDbLine
 10
116.7694587335
 20
118.3627184282
 30
0.0
 11
116.3976618906
 21
118.3627184282
 31
0.0
  0
LINE
  5
358
330
1F
100
AcDbEntity
  8
0
  6
Continuous
 62
     7
370
    25
100
AcDbLine
 10
102.7756618906
 20
118.3627184282
 30
0.0
 11
102.4038650477
 21
118.3627184282
 31
0.0
  0
CIRCLE
  5
359
330
1F
100
AcDbEntity
  8
0
  6
Continuous
 62
     7
370
    25
100
AcDbCircle
 10
117.5866618906
 20
118.0127184282
 30
0.0
 40
0.8890000000000242
  0
CIRCLE
  5
35A
330
1F
100
AcDbEntity
  8
0
  6
Continuous
 62
     7
370
    25
100
AcDbCircle
 10
117.5867172738
 20
102.0127254411
 30
0.0
 40
0.0049932942171663
  0
CIRCLE
  5
35B
330
1F
100
AcDbEntity
  8
0
  6
Continuous
 62
     7
370
    25
100
AcDbCircle
 10
117.586717738
 20
102.0127208688
 30
0.0
 40
0.8849975611388983
  0
ARC
  5
35C
330
1F
100
AcDbEntity
  8
0
  6
Continuous
 62
     7
370
    25
100
AcDbCircle
 10
101.6224829261
 20
102.0990431067
 30
0.0
 40
0.7955515393113636
100
AcDbArc
 50
67.7756936698
 51
69.8509163602
  0
CIRCLE
  5
35D
330
1F
100
AcDbEntity
  8
0
  6
Continuous
 62
     7
370
    25
100
AcDbCircle
 10
117.5866618906
 20
102.0127184282
 30
0.0
 40
0.8889999999999674
  0
CIRCLE
  5
35E
330
1F
100
AcDbEntity
  8
0
  6
Continuous
 62
     7
370
    25
100
AcDbCircle
 10
101.5866618906
 20
118.0127184282
 30
0.0
 40
0.8890000000000242
  0
CIRCLE
  5
35F
330
1F
100
AcDbEntity
  8
0
  6
Continuous
 62
     7
370
    25
100
AcDbCircle
 10
117.5867172738
 20
118.0127254411
 30
0.0
 40
0.0049932942171791
  0
CIRCLE
  5
360
330
1F
100
AcDbEntity
  8
0
  6
Continuous
 62
     7
370
    25
100
AcDbCircle
 10
117.586717738
 20
118.0127208688
 30
0.0
 40
0.884997561139097
  0
LINE
  5
361
330
1F
100
AcDbEntity
  8
0
  6
Continuous
 62
     7
370
    25
100
AcDbLine
 10
102.4038650477
 20
101.6627184282
 30
0.0
 11
102.5756618906
 21
101.6627184282
 31
0.0
  0
LINE
  5
362
330
1F
100
AcDbEntity
  8
0
  6
Continuous
 62
     7
370
    25
100
AcDbLine
 10
116.5976618906
 20
101.6627184282
 30
0.0
 11
116.7694587335
 21
101.6627184282
 31
0.0
  0
LINE
  5
363
330
1F
100
AcDbEntity
  8
0
  6
Continuous
 62
     7
370
    25
100
AcDbLine
 10
102.4038650477
 20
102.3627184282
 30
0.0
 11
102.5116597285
 21
102.3627184282
 31
0.0
  0
LINE
  5
364
330
1F
100
AcDbEntity
  8
0
  6
Continuous
 62
     7
370
    25
100
AcDbLine
 10
116.6616640528
 20
102.3627184282
 30
0.0
 11
116.7694587335
 21
102.3627184282
 31
0.0
  0
LINE
  5
365
330
1F
100
AcDbEntity
  8
0
  6
Continuous
 62
     7
370
    25
100
AcDbLine
 10
117.2366618906
 20
102.8299215853
 30
0.0
 11
117.2366618906
 21
102.937716266
 31
0.0
  0
LINE
  5
366
330
1F
100
AcDbEntity
  8
0
  6
Continuous
 62
     7
370
    25
100
AcDbLine
 10
117.2366618906
 20
117.0877205904
 30
0.0
 11
117.2366618906
 21
117.1955152711
 31
0.0
  0
LINE
  5
367
330
1F
100
AcDbEntity
  8
0
  6
Continuous
 62
     7
370
    25
100
AcDbLine
 10
117.9366618906
 20
102.8299215853
 30
0.0
 11
117.9366618906
 21
103.0017184282
 31
0.0
  0
LINE
  5
368
330
1F
100
AcDbEntity
  8
0
  6
Continuous
 62
     7
370
    25
100
AcDbLine
 10
117.9366618906
 20
117.0237184282
 30
0.0
 11
117.9366618906
 21
117.1955152711
 31
0.0
  0
LINE
  5
369
330
1F
100
AcDbEntity
  8
0
  6
Continuous
 62
     7
370
    25
100
AcDbLine
 10
143.5866618906
 20
89.5127184282
 30
0.0
 11
75.5866618906
 21
89.5127184282
 31
0.0
  0
LINE
  5
36A
330
1F
100
AcDbEntity
  8
0
  6
Continuous
 62
     7
370
    25
100
AcDbLine
 10
143.5866618906
 20
89.5127184282
 30
0.0
 11
143.5866618906
 21
89.5047184282
 31
0.0
  0
LINE
  5
36B
330
1F
100
AcDbEntity
  8
0
  6
Continuous
 62
     7
370
    25
100
AcDbLine
 10
143.5866618906
 20
89.4047184282
 30
0.0
 11
143.5866618906
 21
89.3527184282
 31
0.0
  0
LINE
  5
36C
330
1F
100
AcDbEntity
  8
0
  6
Continuous
 62
     7
370
    25
100
AcDbLine
 10
143.5866618906
 20
89.3527184282
 30
0.0
 11
75.5866618906
 21
89.3527184282
 31
0.0
  0
LINE
  5
36D
330
1F
100
AcDbEntity
  8
0
  6
Continuous
 62
     7
370
    25
100
AcDbLine
 10
75.5866618906
 20
89.5127184282
 30
0.0
 11
75.5866618906
 21
89.5047184282
 31
0.0
  0
LINE
  5
36E
330
1F
100
AcDbEntity
  8
0
  6
Continuous
 62
     7
370
    25
100
AcDbLine
 10
75.5866618906
 20
89.4026784122
 30
0.0
 11
75.5866618906
 21
89.3527184282
 31
0.0
  0
LINE
  5
36F
330
1F
100
AcDbEntity
  8
0
  6
Continuous
 62
     7
370
    25
100
AcDbLine
 10
143.5866618906
 20
89.3527184282
 30
0.0
 11
143.5866618906
 21
86.6727184282
 31
0.0
  0
LINE
  5
370
330
1F
100
AcDbEntity
  8
0
  6
Continuous
 62
     7
370
    25
100
AcDbLine
 10
143.5866618906
 20
86.6727184282
 30
0.0
 11
75.5866618906
 21
86.6727184282
 31
0.0
  0
LINE
  5
371
330
1F
100
AcDbEntity
  8
0
  6
Continuous
 62
     7
370
    25
100
AcDbLine
 10
75.5866618906
 20
89.3527184282
 30
0.0
 11
75.5866618906
 21
86.6727184282
 31
0.0
  0
LINE
  5
372
330
1F
100
AcDbEntity
  8
0
  6
Continuous
 62
     7
370
    25
100
AcDbLine
 10
143.5866618906
 20
86.6727184282
 30
0.0
 11
143.5866618906
 21
86.6207184282
 31
0.0
  0
LINE
  5
373
330
1F
100
AcDbEntity
  8
0
  6
Continuous
 62
     7
370
    25
100
AcDbLine
 10
143.5866618906
 20
86.5207184282
 30
0.0
 11
143.5866618906
 21
86.5127184282
 31
0.0
  0
LINE
  5
374
330
1F
100
AcDbEntity
  8
0
  6
Continuous
 62
     7
370
    25
100
AcDbLine
 10
143.5866618906
 20
86.5127184282
 30
0.0
 11
75.5866618906
 21
86.5127184282
 31
0.0
  0
LINE
  5
375
330
1F
100
AcDbEntity
  8
0
  6
Continuous
 62
     7
370
    25
100
AcDbLine
 10
75.5866618906
 20
86.6727184282
 30
0.0
 11
75.5866618906
 21
86.6207184282
 31
0.0
  0
LINE
  5
376
330
1F
100
AcDbEntity
  8
0
  6
Continuous
 62
     7
370
    25
100
AcDbLine
 10
75.5866618906
 20
86.5207184282
 30
0.0
 11
75.5866618906
 21
86.5127184282
 31
0.0
  0
LINE
  5
377
330
1F
100
AcDbEntity
  8
0
  6
Continuous
 62
     7
370
    25
100
AcDbLine
 10
75.5466618906
 20
86.6207184282
 30
0.0
 11
75.5866618906
 21
86.6207184282
 31
0.0
  0
LINE
  5
378
330
1F
100
AcDbEntity
  8
0
  6
Continuous
 62
     7
370
    25
100
AcDbLine
 10
75.5466618906
 20
89.4047184282
 30
0.0
 11
75.5866618906
 21
89.4047184282
 31
0.0
  0
LINE
  5
379
330
1F
100
AcDbEntity
  8
0
  6
Continuous
 62
     7
370
    25
100
AcDbLine
 10
75.5866618906
 20
86.6207184282
 30
0.0
 11
75.5866618906
 21
86.6227584442
 31
0.0
  0
LINE
  5
37A
330
1F
100
AcDbEntity
  8
0
  6
Continuous
 62
     7
370
    25
100
AcDbLine
 10
75.5866618906
 20
89.4026784122
 30
0.0
 11
75.5866618906
 21
89.4047184282
 31
0.0
  0
LINE
  5
37B
330
1F
100
AcDbEntity
  8
0
  6
Continuous
 62
     7
370
    25
100
AcDbLine
 10
75.5466618906
 20
86.6207184282
 30
0.0
 11
75.5466618906
 21
89.4047184282
 31
0.0
  0
LINE
  5
37C
330
1F
100
AcDbEntity
  8
0
  6
Continuous
 62
     7
370
    25
100
AcDbLine
 10
75.5466618906
 20
89.5047184282
 30
0.0
 11
75.5866618906
 21
89.5047184282
 31
0.0
  0
LINE
  5
37D
330
1F
100
AcDbEntity
  8
0
  6
Continuous
 62
     7
370
    25
100
AcDbLine
 10
75.5866618906
 20
89.4047184282
 30
0.0
 11
75.5866618906
 21
89.5047184282
 31
0.0
  0
LINE
  5
37E
330
1F
100
AcDbEntity
  8
0
  6
Continuous
 62
     7
370
    25
100
AcDbLine
 10
75.5466618906
 20
89.4047184282
 30
0.0
 11
75.5466618906
 21
89.5047184282
 31
0.0
  0
LINE
  5
37F
330
1F
100
AcDbEntity
  8
0
  6
Continuous
 62
     7
370
    25
100
AcDbLine
 10
75.5466618906
 20
86.5207184282
 30
0.0
 11
75.5866618906
 21
86.5207184282
 31
0.0
  0
LINE
  5
380
330
1F
100
AcDbEntity
  8
0
  6
Continuous
 62
     7
370
    25
100
AcDbLine
 10
75.5866618906
 20
86.5207184282
 30
0.0
 11
75.5866618906
 21
86.6207184282
 31
0.0
  0
LINE
  5
381
330
1F
100
AcDbEntity
  8
0
  6
Continuous
 62
     7
370
    25
100
AcDbLine
 10
75.5466618906
 20
86.5207184282
 30
0.0
 11
75.5466618906
 21
86.6207184282
 31
0.0
  0
LINE
  5
382
330
1F
100
AcDbEntity
  8
0
  6
Continuous
 62
     7
370
    25
100
AcDbLine
 10
143.6266618906
 20
89.4047184282
 30
0.0
 11
143.5866618906
 21
89.4047184282
 31
0.0
  0
LINE
  5
383
330
1F
100
AcDbEntity
  8
0
  6
Continuous
 62
     7
370
    25
100
AcDbLine
 10
143.6266618906
 20
89.4047184282
 30
0.0
 11
143.6266618906
 21
86.6207184282
 31
0.0
  0
LINE
  5
384
330
1F
100
AcDbEntity
  8
0
  6
Continuous
 62
     7
370
    25
100
AcDbLine
 10
143.6266618906
 20
86.6207184282
 30
0.0
 11
143.5866618906
 21
86.6207184282
 31
0.0
  0
LINE
  5
385
330
1F
100
AcDbEntity
  8
0
  6
Continuous
 62
     7
370
    25
100
AcDbLine
 10
143.5866618906
 20
89.4047184282
 30
0.0
 11
143.5866618906
 21
89.4026784122
 31
0.0
  0
LINE
  5
386
330
1F
100
AcDbEntity
  8
0
  6
Continuous
 62
     7
370
    25
100
AcDbLine
 10
143.5866618906
 20
86.6227584442
 30
0.0
 11
143.5866618906
 21
86.6207184282
 31
0.0
  0
LINE
  5
387
330
1F
100
AcDbEntity
  8
0
  6
Continuous
 62
     7
370
    25
100
AcDbLine
 10
143.6266618906
 20
89.5047184282
 30
0.0
 11
143.5866618906
 21
89.5047184282
 31
0.0
  0
LINE
  5
388
330
1F
100
AcDbEntity
  8
0
  6
Continuous
 62
     7
370
    25
100
AcDbLine
 10
143.6266618906
 20
89.5047184282
 30
0.0
 11
143.6266618906
 21
89.4047184282
 31
0.0
  0
LINE
  5
389
330
1F
100
AcDbEntity
  8
0
  6
Continuous
 62
     7
370
    25
100
AcDbLine
 10
143.5866618906
 20
89.5047184282
 30
0.0
 11
143.5866618906
 21
89.4047184282
 31
0.0
  0
LINE
  5
38A
330
1F
100
AcDbEntity
  8
0
  6
Continuous
 62
     7
370
    25
100
AcDbLine
 10
143.6266618906
 20
86.5207184282
 30
0.0
 11
143.5866618906
 21
86.5207184282
 31
0.0
  0
LINE
  5
38B
330
1F
100
AcDbEntity
  8
0
  6
Continuous
 62
     7
370
    25
100
AcDbLine
 10
143.6266618906
 20
86.6207184282
 30
0.0
 11
143.6266618906
 21
86.5207184282
 31
0.0
  0
LINE
  5
38C
330
1F
100
AcDbEntity
  8
0
  6
Continuous
 62
     7
370
    25
100
AcDbLine
 10
143.5866618906
 20
86.6207184282
 30
0.0
 11
143.5866618906
 21
86.5207184282
 31
0.0
  0
ELLIPSE
  5
38D
330
1F
100
AcDbEntity
  8
0
  6
Continuous
 62
     7
370
    25
100
AcDbEllipse
 10
139.5866618906
 20
58.0127184282
 30
0.0
 11
0.0
 21
0.9661640002784324
 31
0.0
210
0.0
220
0.0
230
1.0
 40
0.9201336416
 41
1.570796326794897
 42
4.712388980384702
  0
ELLIPSE
  5
38E
330
1F
100
AcDbEntity
  8
0
  6
Continuous
 62
     7
370
    25
100
AcDbEllipse
 10
139.5866618906
 20
118.0127184282
 30
0.0
 11
0.0
 21
-0.9661640002784395
 31
0.0
210
0.0
220
0.0
230
1.0
 40
0.9201336416
 41
1.570796326794897
 42
4.712388980384702
  0
ELLIPSE
  5
38F
330
1F
100
AcDbEntity
  8
0
  6
Continuous
 62
     7
370
    25
100
AcDbEllipse
 10
79.5866618906
 20
58.0127184282
 30
0.0
 11
0.0
 21
0.9661640002784607
 31
0.0
210
0.0
220
0.0
230
1.0
 40
0.9201336416
 41
1.570796326794897
 42
4.712388980384702
  0
ELLIPSE
  5
390
330
1F
100
AcDbEntity
  8
0
  6
Continuous
 62
     7
370
    25
100
AcDbEllipse
 10
79.5866618906
 20
118.0127184282
 30
0.0
 11
0.0
 21
-0.9661640002784395
 31
0.0
210
0.0
220
0.0
230
1.0
 40
0.9201336416
 41
1.570796326794897
 42
4.712388980384702
  0
LINE
  5
391
330
1F
100
AcDbEntity
  8
0
  6
Continuous
 62
     7
370
    25
100
AcDbLine
 10
69.5866618906
 20
486.5127184282
 30
0.0
 11
149.5866618906
 21
486.5127184282
 31
0.0
  0
LINE
  5
392
330
1F
100
AcDbEntity
  8
0
  6
Continuous
 62
     7
370
    25
100
AcDbLine
 10
69.5866618906
 20
486.5127184282
 30
0.0
 11
69.5866618906
 21
486.5207184282
 31
0.0
  0
LINE
  5
393
330
1F
100
AcDbEntity
  8
0
  6
Continuous
 62
     7
370
    25
100
AcDbLine
 10
69.5866618906
 20
486.6207184282
 30
0.0
 11
69.5866618906
 21
486.6727184282
 31
0.0
  0
LINE
  5
394
330
1F
100
AcDbEntity
  8
0
  6
Continuous
 62
     7
370
    25
100
AcDbLine
 10
69.5866618906
 20
486.6727184282
 30
0.0
 11
149.5866618906
 21
486.6727184282
 31
0.0
  0
LINE
  5
395
330
1F
100
AcDbEntity
  8
0
  6
Continuous
 62
     7
370
    25
100
AcDbLine
 10
149.5866618906
 20
486.5127184282
 30
0.0
 11
149.5866618906
 21
486.5207184282
 31
0.0
  0
LINE
  5
396
330
1F
100
AcDbEntity
  8
0
  6
Continuous
 62
     7
370
    25
100
AcDbLine
 10
149.5866618906
 20
486.6207184282
 30
0.0
 11
149.5866618906
 21
486.6727184282
 31
0.0
  0
LINE
  5
397
330
1F
100
AcDbEntity
  8
0
  6
Continuous
 62
     7
370
    25
100
AcDbLine
 10
69.5866618906
 20
486.6727184282
 30
0.0
 11
69.5866618906
 21
489.3527184282
 31
0.0
  0
LINE
  5
398
330
1F
100
AcDbEntity
  8
0
  6
Continuous
 62
     7
370
    25
100
AcDbLine
 10
69.5866618906
 20
489.3527184282
 30
0.0
 11
149.5866618906
 21
489.3527184282
 31
0.0
  0
LINE
  5
399
330
1F
100
AcDbEntity
  8
0
  6
Continuous
 62
     7
370
    25
100
AcDbLine
 10
149.5866618906
 20
486.6727184282
 30
0.0
 11
149.5866618906
 21
489.3527184282
 31
0.0
  0
LINE
  5
39A
330
1F
100
AcDbEntity
  8
0
  6
Continuous
 62
     7
370
    25
100
AcDbLine
 10
69.5866618906
 20
489.3527184282
 30
0.0
 11
69.5866618906
 21
489.4026784122
 31
0.0
  0
LINE
  5
39B
330
1F
100
AcDbEntity
  8
0
  6
Continuous
 62
     7
370
    25
100
AcDbLine
 10
69.5866618906
 20
489.5047184282
 30
0.0
 11
69.5866618906
 21
489.5127184282
 31
0.0
  0
LINE
  5
39C
330
1F
100
AcDbEntity
  8
0
  6
Continuous
 62
     7
370
    25
100
AcDbLine
 10
69.5866618906
 20
489.5127184282
 30
0.0
 11
149.5866618906
 21
489.5127184282
 31
0.0
  0
LINE
  5
39D
330
1F
100
AcDbEntity
  8
0
  6
Continuous
 62
     7
370
    25
100
AcDbLine
 10
149.5866618906
 20
489.3527184282
 30
0.0
 11
149.5866618906
 21
489.4047184282
 31
0.0
  0
LINE
  5
39E
330
1F
100
AcDbEntity
  8
0
  6
Continuous
 62
     7
370
    25
100
AcDbLine
 10
149.5866618906
 20
489.5047184282
 30
0.0
 11
149.5866618906
 21
489.5127184282
 31
0.0
  0
LINE
  5
39F
330
1F
100
AcDbEntity
  8
0
  6
Continuous
 62
     7
370
    25
100
AcDbLine
 10
149.6266618906
 20
489.4047184282
 30
0.0
 11
149.5866618906
 21
489.4047184282
 31
0.0
  0
LINE
  5
3A0
330
1F
100
AcDbEntity
  8
0
  6
Continuous
 62
     7
370
    25
100
AcDbLine
 10
149.6266618906
 20
489.4047184282
 30
0.0
 11
149.6266618906
 21
486.6207184282
 31
0.0
  0
LINE
  5
3A1
330
1F
100
AcDbEntity
  8
0
  6
Continuous
 62
     7
370
    25
100
AcDbLine
 10
149.6266618906
 20
486.6207184282
 30
0.0
 11
149.5866618906
 21
486.6207184282
 31
0.0
  0
LINE
  5
3A2
330
1F
100
AcDbEntity
  8
0
  6
Continuous
 62
     7
370
    25
100
AcDbLine
 10
149.5866618906
 20
489.4047184282
 30
0.0
 11
149.5866618906
 21
489.4026784122
 31
0.0
  0
LINE
  5
3A3
330
1F
100
AcDbEntity
  8
0
  6
Continuous
 62
     7
370
    25
100
AcDbLine
 10
149.5866618906
 20
486.6227584442
 30
0.0
 11
149.5866618906
 21
486.6207184282
 31
0.0
  0
LINE
  5
3A4
330
1F
100
AcDbEntity
  8
0
  6
Continuous
 62
     7
370
    25
100
AcDbLine
 10
149.6266618906
 20
486.6207184282
 30
0.0
 11
149.6266618906
 21
486.5207184282
 31
0.0
  0
LINE
  5
3A5
330
1F
100
AcDbEntity
  8
0
  6
Continuous
 62
     7
370
    25
100
AcDbLine
 10
149.6266618906
 20
486.5207184282
 30
0.0
 11
149.5866618906
 21
486.5207184282
 31
0.0
  0
LINE
  5
3A6
330
1F
100
AcDbEntity
  8
0
  6
Continuous
 62
     7
370
    25
100
AcDbLine
 10
149.5866618906
 20
486.6207184282
 30
0.0
 11
149.5866618906
 21
486.5207184282
 31
0.0
  0
LINE
  5
3A7
330
1F
100
AcDbEntity
  8
0
  6
Continuous
 62
     7
370
    25
100
AcDbLine
 10
149.6266618906
 20
489.5047184282
 30
0.0
 11
149.5866618906
 21
489.5047184282
 31
0.0
  0
LINE
  5
3A8
330
1F
100
AcDbEntity
  8
0
  6
Continuous
 62
     7
370
    25
100
AcDbLine
 10
149.6266618906
 20
489.5047184282
 30
0.0
 11
149.6266618906
 21
489.4047184282
 31
0.0
  0
LINE
  5
3A9
330
1F
100
AcDbEntity
  8
0
  6
Continuous
 62
     7
370
    25
100
AcDbLine
 10
149.5866618906
 20
489.5047184282
 30
0.0
 11
149.5866618906
 21
489.4047184282
 31
0.0
  0
LINE
  5
3AA
330
1F
100
AcDbEntity
  8
0
  6
Continuous
 62
     7
370
    25
100
AcDbLine
 10
69.5466618906
 20
486.6207184282
 30
0.0
 11
69.5866618906
 21
486.6207184282
 31
0.0
  0
LINE
  5
3AB
330
1F
100
AcDbEntity
  8
0
  6
Continuous
 62
     7
370
    25
100
AcDbLine
 10
69.5466618906
 20
489.4047184282
 30
0.0
 11
69.5866618906
 21
489.4047184282
 31
0.0
  0
LINE
  5
3AC
330
1F
100
AcDbEntity
  8
0
  6
Continuous
 62
     7
370
    25
100
AcDbLine
 10
69.5866618906
 20
486.6207184282
 30
0.0
 11
69.5866618906
 21
486.6227584442
 31
0.0
  0
LINE
  5
3AD
330
1F
100
AcDbEntity
  8
0
  6
Continuous
 62
     7
370
    25
100
AcDbLine
 10
69.5866618906
 20
489.4026784122
 30
0.0
 11
69.5866618906
 21
489.4047184282
 31
0.0
  0
LINE
  5
3AE
330
1F
100
AcDbEntity
  8
0
  6
Continuous
 62
     7
370
    25
100
AcDbLine
 10
69.5466618906
 20
486.6207184282
 30
0.0
 11
69.5466618906
 21
489.4047184282
 31
0.0
  0
LINE
  5
3AF
330
1F
100
AcDbEntity
  8
0
  6
Continuous
 62
     7
370
    25
100
AcDbLine
 10
69.5466618906
 20
486.5207184282
 30
0.0
 11
69.5866618906
 21
486.5207184282
 31
0.0
  0
LINE
  5
3B0
330
1F
100
AcDbEntity
  8
0
  6
Continuous
 62
     7
370
    25
100
AcDbLine
 10
69.5866618906
 20
486.5207184282
 30
0.0
 11
69.5866618906
 21
486.6207184282
 31
0.0
  0
LINE
  5
3B1
330
1F
100
AcDbEntity
  8
0
  6
Continuous
 62
     7
370
    25
100
AcDbLine
 10
69.5466618906
 20
486.5207184282
 30
0.0
 11
69.5466618906
 21
486.6207184282
 31
0.0
  0
LINE
  5
3B2
330
1F
100
AcDbEntity
  8
0
  6
Continuous
 62
     7
370
    25
100
AcDbLine
 10
69.5466618906
 20
489.5047184282
 30
0.0
 11
69.5866618906
 21
489.5047184282
 31
0.0
  0
LINE
  5
3B3
330
1F
100
AcDbEntity
  8
0
  6
Continuous
 62
     7
370
    25
100
AcDbLine
 10
69.5866618906
 20
489.4047184282
 30
0.0
 11
69.5866618906
 21
489.5047184282
 31
0.0
  0
LINE
  5
3B4
330
1F
100
AcDbEntity
  8
0
  6
Continuous
 62
     7
370
    25
100
AcDbLine
 10
69.5466618906
 20
489.4047184282
 30
0.0
 11
69.5466618906
 21
489.5047184282
 31
0.0
  0
ELLIPSE
  5
3B5
330
1F
100
AcDbEntity
  8
0
  6
Continuous
 62
     7
370
    25
100
AcDbEllipse
 10
73.5866618906
 20
518.0490743604
 30
0.0
 11
0.0
 21
-1.039466394894021
 31
0.0
210
0.0
220
0.0
230
1.0
 40
0.8552465038
 41
2.469076655005956
 42
3.81410865217362
  0
ELLIPSE
  5
3B6
330
1F
100
AcDbEntity
  8
0
  6
Continuous
 62
     7
370
    25
100
AcDbEllipse
 10
145.5866618906
 20
518.0490743604
 30
0.0
 11
0.0
 21
-1.039466394894134
 31
0.0
210
0.0
220
0.0
230
1.0
 40
0.8552465038
 41
2.469076655005998
 42
3.814108652173628
  0
LINE
  5
3B7
330
1F
100
AcDbEntity
  8
0
  6
Continuous
 62
     7
370
    25
100
AcDbLine
 10
108.0866618906
 20
489.5927184282
 30
0.0
 11
111.0866618906
 21
489.5927184282
 31
0.0
  0
LINE
  5
3B8
330
1F
100
AcDbEntity
  8
0
  6
Continuous
 62
     7
370
    25
100
AcDbLine
 10
108.0866618906
 20
489.5927184282
 30
0.0
 11
108.0866618906
 21
489.5127184282
 31
0.0
  0
LINE
  5
3B9
330
1F
100
AcDbEntity
  8
0
  6
Continuous
 62
     7
370
    25
100
AcDbLine
 10
111.0866618906
 20
489.5927184282
 30
0.0
 11
111.0866618906
 21
489.5127184282
 31
0.0
  0
LINE
  5
3BA
330
1F
100
AcDbEntity
  8
0
  6
Continuous
 62
     7
370
    25
100
AcDbLine
 10
110.0066618906
 20
491.6947184282
 30
0.0
 11
110.0066618906
 21
489.5927184282
 31
0.0
  0
LINE
  5
3BB
330
1F
100
AcDbEntity
  8
0
  6
Continuous
 62
     7
370
    25
100
AcDbLine
 10
109.8466618906
 20
491.6947184282
 30
0.0
 11
109.8466618906
 21
489.5927184282
 31
0.0
  0
LINE
  5
3BC
330
1F
100
AcDbEntity
  8
0
  6
Continuous
 62
     7
370
    25
100
AcDbLine
 10
109.8466618906
 20
491.6947184282
 30
0.0
 11
110.0066618906
 21
491.6947184282
 31
0.0
  0
LINE
  5
3BD
330
1F
100
AcDbEntity
  8
0
  6
Continuous
 62
     7
370
    25
100
AcDbLine
 10
109.8466618906
 20
491.7927184282
 30
0.0
 11
110.0066618906
 21
491.7927184282
 31
0.0
  0
LINE
  5
3BE
330
1F
100
AcDbEntity
  8
0
  6
Continuous
 62
     7
370
    25
100
AcDbLine
 10
109.8466618906
 20
491.7927184282
 30
0.0
 11
109.8466618906
 21
491.6947184282
 31
0.0
  0
LINE
  5
3BF
330
1F
100
AcDbEntity
  8
0
  6
Continuous
 62
     7
370
    25
100
AcDbLine
 10
110.0066618906
 20
491.7927184282
 30
0.0
 11
110.0066618906
 21
491.6947184282
 31
0.0
  0
LINE
  5
3C0
330
1F
100
AcDbEntity
  8
0
  6
Continuous
 62
     7
370
    25
100
AcDbLine
 10
109.1666618906
 20
491.6947184282
 30
0.0
 11
109.3266618906
 21
491.6947184282
 31
0.0
  0
LINE
  5
3C1
330
1F
100
AcDbEntity
  8
0
  6
Continuous
 62
     7
370
    25
100
AcDbLine
 10
109.1666618906
 20
491.7927184282
 30
0.0
 11
109.3266618906
 21
491.7927184282
 31
0.0
  0
LINE
  5
3C2
330
1F
100
AcDbEntity
  8
0
  6
Continuous
 62
     7
370
    25
100
AcDbLine
 10
109.3266618906
 20
491.6947184282
 30
0.0
 11
109.3266618906
 21
491.7927184282
 31
0.0
  0
LINE
  5
3C3
330
1F
100
AcDbEntity
  8
0
  6
Continuous
 62
     7
370
    25
100
AcDbLine
 10
109.1666618906
 20
491.7927184282
 30
0.0
 11
109.1666618906
 21
491.6947184282
 31
0.0
  0
LINE
  5
3C4
330
1F
100
AcDbEntity
  8
0
  6
Continuous
 62
     7
370
    25
100
AcDbLine
 10
109.3266618906
 20
491.6947184282
 30
0.0
 11
109.3266618906
 21
489.5927184282
 31
0.0
  0
LINE
  5
3C5
330
1F
100
AcDbEntity
  8
0
  6
Continuous
 62
     7
370
    25
100
AcDbLine
 10
109.1666618906
 20
491.6947184282
 30
0.0
 11
109.1666618906
 21
489.5927184282
 31
0.0
  0
LWPOLYLINE
  5
3C6
330
1F
100
AcDbEntity
  8
0
  6
Continuous
 62
     7
370
    25
100
AcDbPolyline
 90
        3
 70
   128
 43
0.0
 10
110.028097826
 20
491.2927184282
 10
110.0125454233
 20
491.3515098194
 10
110.0066618906
 20
491.4127184282
  0
ARC
  5
3C7
330
1F
100
AcDbEntity
  8
0
  6
Continuous
 62
     7
370
    25
100
AcDbCircle
 10
110.3704451574
 20
491.169649387
 30
0.0
 40
0.3637962124299603
100
AcDbArc
 50
160.2272037995
 51
179.5166382001
  0
LWPOLYLINE
  5
3C8
330
1F
100
AcDbEntity
  8
0
  6
Continuous
 62
     7
370
    25
100
AcDbPolyline
 90
        3
 70
   128
 43
0.0
 10
110.028097826
 20
491.0527184282
 10
110.0125454233
 20
491.1115098194
 10
110.0066618906
 20
491.1727184282
  0
LINE
  5
3C9
330
1F
100
AcDbEntity
  8
0
  6
Continuous
 62
     7
370
    25
100
AcDbLine
 10
110.028097826
 20
491.2927184282
 30
0.0
 11
110.1336259552
 21
491.2927184282
 31
0.0
  0
ARC
  5
3CA
330
1F
100
AcDbEntity
  8
0
  6
Continuous
 62
     7
370
    25
100
AcDbCircle
 10
109.7912786239
 20
491.169649387
 30
0.0
 40
0.3637962124298177
100
AcDbArc
 50
0.4833617999
 51
19.7727962005
  0
LWPOLYLINE
  5
3CB
330
1F
100
AcDbEntity
  8
0
  6
Continuous
 62
     7
370
    25
100
AcDbPolyline
 90
        3
 70
   128
 43
0.0
 10
110.1336259552
 20
491.0527184282
 10
110.149178358
 20
491.1115098194
 10
110.1550618906
 20
491.1727184282
  0
LINE
  5
3CC
330
1F
100
AcDbEntity
  8
0
  6
Continuous
 62
     7
370
    25
100
AcDbLine
 10
110.028097826
 20
491.0527184282
 30
0.0
 11
110.1336259552
 21
491.0527184282
 31
0.0
  0
ARC
  5
3CD
330
1F
100
AcDbEntity
  8
0
  6
Continuous
 62
     7
370
    25
100
AcDbCircle
 10
110.3704451574
 20
491.409649387
 30
0.0
 40
0.3637962124299887
100
AcDbArc
 50
160.2272037995
 51
179.5166382001
  0
LINE
  5
3CE
330
1F
100
AcDbEntity
  8
0
  6
Continuous
 62
     7
370
    25
100
AcDbLine
 10
110.028097826
 20
491.5327184282
 30
0.0
 11
110.1336259552
 21
491.5327184282
 31
0.0
  0
ARC
  5
3CF
330
1F
100
AcDbEntity
  8
0
  6
Continuous
 62
     7
370
    25
100
AcDbCircle
 10
109.7912786239
 20
491.409649387
 30
0.0
 40
0.3637962124280812
100
AcDbArc
 50
0.4833617998
 51
19.7727962005
  0
LWPOLYLINE
  5
3D0
330
1F
100
AcDbEntity
  8
0
  6
Continuous
 62
     7
370
    25
100
AcDbPolyline
 90
        3
 70
   128
 43
0.0
 10
110.1336259552
 20
491.2927184282
 10
110.149178358
 20
491.3515098194
 10
110.1550618906
 20
491.4127184282
  0
LINE
  5
3D1
330
1F
100
AcDbEntity
  8
0
  6
Continuous
 62
     7
370
    25
100
AcDbLine
 10
110.1550618906
 20
491.1727184282
 30
0.0
 11
110.1550618906
 21
491.4127184282
 31
0.0
  0
LINE
  5
3D2
330
1F
100
AcDbEntity
  8
0
  6
Continuous
 62
     7
370
    25
100
AcDbLine
 10
110.1550618906
 20
491.0527184282
 30
0.0
 11
110.1550618906
 21
491.1727184282
 31
0.0
  0
LINE
  5
3D3
330
1F
100
AcDbEntity
  8
0
  6
Continuous
 62
     7
370
    25
100
AcDbLine
 10
110.1550618906
 20
491.5327184282
 30
0.0
 11
110.1550618906
 21
491.4127184282
 31
0.0
  0
LINE
  5
3D4
330
1F
100
AcDbEntity
  8
0
  6
Continuous
 62
     7
370
    25
100
AcDbLine
 10
110.2550618906
 20
491.4993850949
 30
0.0
 11
110.2550618906
 21
491.0860517615
 31
0.0
  0
LINE
  5
3D5
330
1F
100
AcDbEntity
  8
0
  6
Continuous
 62
     7
370
    25
100
AcDbLine
 10
110.0066618906
 20
491.5327184282
 30
0.0
 11
110.028097826
 21
491.5327184282
 31
0.0
  0
LINE
  5
3D6
330
1F
100
AcDbEntity
  8
0
  6
Continuous
 62
     7
370
    25
100
AcDbLine
 10
110.1550618906
 20
491.0527184282
 30
0.0
 11
110.1336259552
 21
491.0527184282
 31
0.0
  0
LINE
  5
3D7
330
1F
100
AcDbEntity
  8
0
  6
Continuous
 62
     7
370
    25
100
AcDbLine
 10
110.1550618906
 20
491.5327184282
 30
0.0
 11
110.1336259552
 21
491.5327184282
 31
0.0
  0
LINE
  5
3D8
330
1F
100
AcDbEntity
  8
0
  6
Continuous
 62
     7
370
    25
100
AcDbLine
 10
110.0066618906
 20
491.0527184282
 30
0.0
 11
110.028097826
 21
491.0527184282
 31
0.0
  0
ARC
  5
3D9
330
1F
100
AcDbEntity
  8
0
  6
Continuous
 62
     1
370
    25
100
AcDbCircle
 10
108.8690479381
 20
292.1225312355
 30
0.0
 40
0.5617425128739856
100
AcDbArc
 50
98.0140306851
 51
264.7455454755
  0
ARC
  5
3DA
330
1F
100
AcDbEntity
  8
0
  6
Continuous
 62
     1
370
    25
100
AcDbCircle
 10
108.8680052349
 20
292.1188119327
 30
0.0
 40
0.6582157216506822
100
AcDbArc
 50
95.7062286729
 51
265.9002145148
  0
ARC
  5
3DB
330
1F
100
AcDbEntity
  8
0
  6
Continuous
 62
     1
370
    25
100
AcDbCircle
 10
108.8622824085
 20
292.0960828186
 30
0.0
 40
0.7792006430786579
100
AcDbArc
 50
94.4866250593
 51
274.3029955433
  0
ARC
  5
3DC
330
1F
100
AcDbEntity
  8
0
  6
Continuous
 62
     1
370
    25
100
AcDbCircle
 10
108.8598321945
 20
292.0921678265
 30
0.0
 40
2.696842004822126
100
AcDbArc
 50
91.4498356258
 51
276.6080904831
  0
ARC
  5
3DD
330
1F
100
AcDbEntity
  8
0
  6
Continuous
 62
     1
370
    25
100
AcDbCircle
 10
108.8660393389
 20
292.0916138356
 30
0.0
 40
2.695487297984523
100
AcDbArc
 50
280.7893585798
 51
64.0864830296
  0
ARC
  5
3DE
330
1F
100
AcDbEntity
  8
0
  6
Continuous
 62
     1
370
    25
100
AcDbCircle
 10
108.864701792
 20
292.0873497904
 30
0.0
 40
2.79613340423605
100
AcDbArc
 50
280.4289955085
 51
345.7734675102
  0
ARC
  5
3DF
330
1F
100
AcDbEntity
  8
0
  6
Continuous
 62
     1
370
    25
100
AcDbCircle
 10
108.8608273413
 20
292.0901420776
 30
0.0
 40
2.799426765254146
100
AcDbArc
 50
165.8473324731
 51
276.3515691271
  0
ARC
  5
3E0
330
1F
100
AcDbEntity
  8
0
  6
Continuous
 62
     1
370
    25
100
AcDbCircle
 10
108.8615536222
 20
292.0921811552
 30
0.0
 40
0.8758765483495641
100
AcDbArc
 50
94.0185566683
 51
290.5962171339
  0
ARC
  5
3E1
330
1F
100
AcDbEntity
  8
0
  6
Continuous
 62
     1
370
    25
100
AcDbCircle
 10
109.8632654502
 20
292.1538804663
 30
0.0
 40
0.1909380219950665
100
AcDbArc
 50
267.4777552743
 51
355.7852583851
  0
ARC
  5
3E2
330
1F
100
AcDbEntity
  8
0
  6
Continuous
 62
     1
370
    25
100
AcDbCircle
 10
109.8471970328
 20
291.5783861031
 30
0.0
 40
0.1909380219951146
100
AcDbArc
 50
267.4777552744
 51
355.7852583851
  0
ARC
  5
3E3
330
1F
100
AcDbEntity
  8
0
  6
Continuous
 62
     1
370
    25
100
AcDbCircle
 10
109.8554426156
 20
296.6933672247
 30
0.0
 40
0.1943832252205957
100
AcDbArc
 50
3.6375512519
 51
91.5053488503
  0
ARC
  5
3E4
330
1F
100
AcDbEntity
  8
0
  6
Continuous
 62
     1
370
    25
100
AcDbCircle
 10
109.8384362864
 20
297.1382239311
 30
0.0
 40
0.194383225220563
100
AcDbArc
 50
3.637551252
 51
91.5053488503
  0
ARC
  5
3E5
330
1F
100
AcDbEntity
  8
0
  6
Continuous
 62
     1
370
    25
100
AcDbCircle
 10
109.8379468517
 20
291.5699470819
 30
0.0
 40
0.1997603298875461
100
AcDbArc
 50
269.9808841911
 51
345.7715181651
  0
LINE
  5
3E6
330
1F
100
AcDbEntity
  8
0
  6
Continuous
 62
     1
370
    25
100
AcDbLine
 10
109.8186029827
 20
291.2940461606
 30
0.0
 11
109.3684238389
 21
291.2939199165
 31
0.0
  0
LINE
  5
3E7
330
1F
100
AcDbEntity
  8
0
  6
Continuous
 62
     1
370
    25
100
AcDbLine
 10
109.1684232148
 20
291.2938638301
 30
0.0
 11
109.0186677827
 21
291.2938218341
 31
0.0
  0
ARC
  5
3E8
330
1F
100
AcDbEntity
  8
0
  6
Continuous
 62
     1
370
    25
100
AcDbCircle
 10
109.8186696295
 20
291.4938064794
 30
0.0
 40
0.1997603298878357
100
AcDbArc
 50
269.9808841912
 51
345.7715181651
  0
LWPOLYLINE
  5
3E9
330
1F
100
AcDbEntity
  8
0
  6
Continuous
 62
     1
370
    25
100
AcDbPolyline
 90
        3
 70
   128
 43
0.0
 10
108.8387560876
 20
297.1917790507
 10
108.8364616959
 20
297.1816059775
 10
108.8326548838
 20
297.1426359148
  0
ARC
  5
3EA
330
1F
100
AcDbEntity
  8
0
  6
Continuous
 62
     1
370
    25
100
AcDbCircle
 10
108.9710022488
 20
297.3326531501
 30
0.0
 40
0.0623932498651159
100
AcDbArc
 50
359.6901578528
 51
9.2589202627
  0
ARC
  5
3EB
330
1F
100
AcDbEntity
  8
0
  6
Continuous
 62
     1
370
    25
100
AcDbCircle
 10
109.7895785366
 20
297.3343362273
 30
0.0
 40
0.0437881038061318
100
AcDbArc
 50
357.6491079228
 51
11.2999701922
  0
LWPOLYLINE
  5
3EC
330
1F
100
AcDbEntity
  8
0
  6
Continuous
 62
     1
370
    25
100
AcDbPolyline
 90
        3
 70
   128
 43
0.0
 10
108.8194788653
 20
297.1156384481
 10
108.8171844737
 20
297.1054653749
 10
108.8133776615
 20
297.0664953122
  0
LINE
  5
3ED
330
1F
100
AcDbEntity
  8
0
  6
Continuous
 62
     1
370
    25
100
AcDbLine
 10
109.0186677827
 20
291.2938218341
 30
0.0
 11
109.0185402592
 21
291.2935702696
 31
0.0
  0
LINE
  5
3EE
330
1F
100
AcDbEntity
  8
0
  6
Continuous
 62
     1
370
    25
100
AcDbLine
 10
109.8184754591
 20
291.2937945961
 30
0.0
 11
109.8186029827
 21
291.2940461606
 31
0.0
  0
LINE
  5
3EF
330
1F
100
AcDbEntity
  8
0
  6
Continuous
 62
     1
370
    25
100
AcDbLine
 10
117.8766618906
 20
118.911507859
 30
0.0
 11
117.8766618906
 21
118.8530879898
 31
0.0
  0
LINE
  5
3F0
330
1F
100
AcDbEntity
  8
0
  6
Continuous
 62
     1
370
    25
100
AcDbLine
 10
117.2966618906
 20
118.8764766293
 30
0.0
 11
117.2966618906
 21
118.8530879898
 31
0.0
  0
LINE
  5
3F1
330
1F
100
AcDbEntity
  8
0
  6
Continuous
 62
     1
370
    25
100
AcDbLine
 10
101.8766618906
 20
118.870559615
 30
0.0
 11
101.8766618906
 21
118.8530879898
 31
0.0
  0
LINE
  5
3F2
330
1F
100
AcDbEntity
  8
0
  6
Continuous
 62
     1
370
    25
100
AcDbLine
 10
101.2966618906
 20
118.9115072006
 30
0.0
 11
101.2966618906
 21
118.8530879898
 31
0.0
  0
LINE
  5
3F3
330
1F
100
AcDbEntity
  8
0
  6
Continuous
 62
     1
370
    25
100
AcDbLine
 10
116.7462923291
 20
117.7227184282
 30
0.0
 11
116.6411350534
 21
117.7227184282
 31
0.0
  0
LINE
  5
3F4
330
1F
100
AcDbEntity
  8
0
  6
Continuous
 62
     1
370
    25
100
AcDbLine
 10
102.5321887279
 20
117.7227184282
 30
0.0
 11
102.4270314522
 21
117.7227184282
 31
0.0
  0
LINE
  5
3F5
330
1F
100
AcDbEntity
  8
0
  6
Continuous
 62
     1
370
    25
100
AcDbLine
 10
116.7462923291
 20
118.3027184282
 30
0.0
 11
116.5404904592
 21
118.3027184282
 31
0.0
  0
LINE
  5
3F6
330
1F
100
AcDbEntity
  8
0
  6
Continuous
 62
     1
370
    25
100
AcDbLine
 10
102.6328333221
 20
118.3027184282
 30
0.0
 11
102.4270314522
 21
118.3027184282
 31
0.0
  0
LINE
  5
3F7
330
1F
100
AcDbEntity
  8
0
  6
Continuous
 62
     1
370
    25
100
AcDbLine
 10
110.2217285573
 20
491.5327184282
 30
0.0
 11
110.2217285573
 21
491.0527184282
 31
0.0
  0
ENDSEC
  0
SECTION
  2
OBJECTS
  0
DICTIONARY
  5
C
330
0
100
AcDbDictionary
281
     1
  3
ACAD_DETAILVIEWSTYLE
350
400
  3
ACAD_GROUP
350
D
  3
ACAD_LAYOUT
350
1A
  3
ACAD_MATERIAL
350
43
  3
ACAD_MLEADERSTYLE
350
6B
  3
ACAD_MLINESTYLE
350
17
  3
ACAD_PLOTSETTINGS
350
19
  3
ACAD_PLOTSTYLENAME
350
E
  3
ACAD_SCALELIST
350
47
  3
ACAD_SECTIONVIEWSTYLE
350
401
  3
ACAD_TABLESTYLE
350
69
  3
ACAD_VISUALSTYLE
350
2A
  3
ACDB_RECOMPOSE_DATA
350
3FD
  3
AcDbVariableDictionary
350
3F8
  0
SUN
  5
6D
330
29
100
AcDbSun
 90
        1
290
     0
 63
     7
421
 16777215
 40
1.0
291
     1
 91
  2455826
 92
 54000000
292
     0
 70
     2
 71
   256
280
     1
  0
DICTIONARY
  5
400
102
{ACAD_REACTORS
330
C
102
}
330
C
100
AcDbDictionary
281
     1
  0
DICTIONARY
  5
D
102
{ACAD_REACTORS
330
C
102
}
330
C
100
AcDbDictionary
281
     1
  0
DICTIONARY
  5
1A
102
{ACAD_REACTORS
330
C
102
}
330
C
100
AcDbDictionary
281
     1
  3
Layout1
350
1E
  3
Layout2
350
26
  3
Model
350
22
  0
DICTIONARY
  5
43
102
{ACAD_REACTORS
330
C
102
}
330
C
100
AcDbDictionary
281
     1
  3
ByBlock
350
45
  3
ByLayer
350
44
  3
Global
350
46
  0
DICTIONARY
  5
6B
102
{ACAD_REACTORS
330
C
102
}
330
C
100
AcDbDictionary
281
     1
  3
Standard
350
6C
  0
DICTIONARY
  5
17
102
{ACAD_REACTORS
330
C
102
}
330
C
100
AcDbDictionary
281
     1
  3
Standard
350
18
  0
DICTIONARY
  5
19
102
{ACAD_REACTORS
330
C
102
}
330
C
100
AcDbDictionary
281
     1
  0
ACDBDICTIONARYWDFLT
  5
E
102
{ACAD_REACTORS
330
C
102
}
330
C
100
AcDbDictionary
281
     1
  3
Normal
350
F
100
AcDbDictionaryWithDefault
340
F
  0
DICTIONARY
  5
47
102
{ACAD_REACTORS
330
C
102
}
330
C
100
AcDbDictionary
281
     1
  3
A0
350
48
  3
A1
350
49
  3
A2
350
4A
  3
A3
350
4B
  3
A4
350
4C
  3
A5
350
4D
  3
A6
350
4E
  3
A7
350
4F
  3
A8
350
50
  3
A9
350
51
  3
B0
350
52
  3
B1
350
53
  3
B2
350
54
  3
B3
350
55
  3
B4
350
56
  3
B5
350
57
  3
B6
350
58
  3
B7
350
59
  3
B8
350
5A
  3
B9
350
5B
  3
C0
350
5C
  3
C1
350
5D
  3
C2
350
5E
  3
C3
350
5F
  3
C4
350
60
  3
C5
350
61
  3
C6
350
62
  3
C7
350
63
  3
C8
350
64
  3
C9
350
65
  3
D0
350
66
  3
D1
350
67
  3
D2
350
68
  0
DICTIONARY
  5
401
102
{ACAD_REACTORS
330
C
102
}
330
C
100
AcDbDictionary
281
     1
  0
DICTIONARY
  5
69
102
{ACAD_REACTORS
330
C
102
}
330
C
100
AcDbDictionary
281
     1
  3
Standard
350
6A
  0
DICTIONARY
  5
2A
102
{ACAD_REACTORS
330
C
102
}
330
C
100
AcDbDictionary
281
     1
  3
2dWireframe
350
2F
  3
Basic
350
32
  3
Brighten
350
36
  3
ColorChange
350
3A
  3
Conceptual
350
34
  3
Dim
350
35
  3
EdgeColorOff
350
3D
  3
Facepattern
350
39
  3
Flat
350
2B
  3
FlatWithEdges
350
2C
  3
Gouraud
350
2D
  3
GouraudWithEdges
350
2E
  3
Hidden
350
31
  3
JitterOff
350
3B
  3
Linepattern
350
38
  3
OverhangOff
350
3C
  3
Realistic
350
33
  3
Shaded
350
42
  3
Shaded with edges
350
41
  3
Shades of Gray
350
3E
  3
Sketchy
350
3F
  3
Thicken
350
37
  3
Wireframe
350
30
  3
X-Ray
350
40
  0
XRECORD
  5
3FD
102
{ACAD_REACTORS
330
C
102
}
330
C
100
AcDbXrecord
280
     1
 90
        1
330
6A
  0
DICTIONARY
  5
3F8
102
{ACAD_REACTORS
330
C
102
}
330
C
100
AcDbDictionary
281
     1
  3
CANNOSCALE
350
3F9
  3
CMLEADERSTYLE
350
3FF
  3
CTABLESTYLE
350
3FE
  0
LAYOUT
  5
1E
102
{ACAD_REACTORS
330
1A
102
}
330
1A
100
AcDbPlotSettings
  1

  2
none_device
  4

  6

 40
0.0
 41
0.0
 42
0.0
 43
0.0
 44
0.0
 45
0.0
 46
0.0
 47
0.0
 48
0.0
 49
0.0
140
0.0
141
0.0
142
1.0
143
1.0
 70
   688
 72
     1
 73
     0
 74
     5
  7

 75
    16
 76
     0
 77
     2
 78
   300
147
1.0
148
0.0
149
0.0
100
AcDbLayout
  1
Layout1
 70
     1
 71
     1
 10
0.0
 20
0.0
 11
420.0
 21
297.0
 12
0.0
 22
0.0
 32
0.0
 14
1.0000000000E+20
 24
1.0000000000E+20
 34
1.0000000000E+20
 15
-1.0000000000E+20
 25
-1.0000000000E+20
 35
-1.0000000000E+20
146
0.0
 13
0.0
 23
0.0
 33
0.0
 16
1.0
 26
0.0
 36
0.0
 17
0.0
 27
1.0
 37
0.0
 76
     0
330
1B
  0
LAYOUT
  5
26
102
{ACAD_REACTORS
330
1A
102
}
330
1A
100
AcDbPlotSettings
  1

  2
none_device
  4

  6

 40
0.0
 41
0.0
 42
0.0
 43
0.0
 44
0.0
 45
0.0
 46
0.0
 47
0.0
 48
0.0
 49
0.0
140
0.0
141
0.0
142
1.0
143
1.0
 70
   688
 72
     1
 73
     0
 74
     5
  7

 75
    16
 76
     0
 77
     2
 78
   300
147
1.0
148
0.0
149
0.0
100
AcDbLayout
  1
Layout2
 70
     1
 71
     2
 10
0.0
 20
0.0
 11
0.0
 21
0.0
 12
0.0
 22
0.0
 32
0.0
 14
0.0
 24
0.0
 34
0.0
 15
0.0
 25
0.0
 35
0.0
146
0.0
 13
0.0
 23
0.0
 33
0.0
 16
1.0
 26
0.0
 36
0.0
 17
0.0
 27
1.0
 37
0.0
 76
     0
330
23
  0
LAYOUT
  5
22
102
{ACAD_REACTORS
330
1A
102
}
330
1A
100
AcDbPlotSettings
  1

  2
none_device
  4
Letter_(8.50_x_11.00_Inches)
  6

 40
6.35
 41
6.35
 42
6.35000508
 43
6.35000508
 44
215.9
 45
279.4
 46
0.0
 47
0.0
 48
0.0
 49
0.0
140
0.0
141
0.0
142
1.0
143
1.0
 70
  1712
 72
     1
 73
     0
 74
     0
  7

 75
     0
 76
     0
 77
     2
 78
   300
147
1.0
148
0.0
149
0.0
100
AcDbLayout
  1
Model
 70
     1
 71
     0
 10
0.0
 20
0.0
 11
210.0
 21
600.0
 12
0.0
 22
0.0
 32
0.0
 14
0.0
 24
0.0
 34
0.0
 15
210.0
 25
600.0
 35
0.0
146
0.0
 13
0.0
 23
0.0
 33
0.0
 16
1.0
 26
0.0
 36
0.0
 17
0.0
 27
1.0
 37
0.0
 76
     0
330
1F
331
29
  0
MATERIAL
  5
45
102
{ACAD_REACTORS
330
43
102
}
330
43
100
AcDbMaterial
  1
ByBlock
 72
     1
 94
      127
  0
MATERIAL
  5
44
102
{ACAD_REACTORS
330
43
102
}
330
43
100
AcDbMaterial
  1
ByLayer
 72
     1
 94
      127
  0
MATERIAL
  5
46
102
{ACAD_REACTORS
330
43
102
}
330
43
100
AcDbMaterial
  1
Global
 72
     1
 94
      127
  0
MLEADERSTYLE
  5
6C
102
{ACAD_REACTORS
330
6B
102
}
330
6B
100
AcDbMLeaderStyle
170
     2
171
     1
172
     0
 90
        2
 40
0.0
 41
0.0
173
     1
 91
-1056964608
340
14
 92
       -2
290
     1
 42
2.0
291
     1
 43
8.0
  3
Standard
341
0
 44
4.0
300

342
11
174
     1
178
     6
175
     1
176
     0
 93
-1056964608
 45
4.0
292
     0
297
     0
 46
4.0
343
0
 94
-1056964608
 47
1.0
 49
1.0
140
1.0
293
     1
141
0.0
294
     1
177
     0
142
1.0
295
     0
296
     0
143
3.75
1001
ACAD_MLEADERVER
1070
     2
  0
MLINESTYLE
  5
18
102
{ACAD_REACTORS
330
17
102
}
330
17
100
AcDbMlineStyle
  2
Standard
 70
     0
  3

 62
   256
 51
90.0
 52
90.0
 71
     2
 49
0.5
 62
   256
  6
BYLAYER
 49
-0.5
 62
   256
  6
BYLAYER
  0
ACDBPLACEHOLDER
  5
F
102
{ACAD_REACTORS
330
E
102
}
330
E
  0
SCALE
  5
48
102
{ACAD_REACTORS
330
47
102
}
330
47
100
AcDbScale
 70
     0
300
1:1
140
1.0
141
1.0
290
     1
  0
SCALE
  5
49
102
{ACAD_REACTORS
330
47
102
}
330
47
100
AcDbScale
 70
     0
300
1:2
140
1.0
141
2.0
290
     0
  0
SCALE
  5
4A
102
{ACAD_REACTORS
330
47
102
}
330
47
100
AcDbScale
 70
     0
300
1:4
140
1.0
141
4.0
290
     0
  0
SCALE
  5
4B
102
{ACAD_REACTORS
330
47
102
}
330
47
100
AcDbScale
 70
     0
300
1:5
140
1.0
141
5.0
290
     0
  0
SCALE
  5
4C
102
{ACAD_REACTORS
330
47
102
}
330
47
100
AcDbScale
 70
     0
300
1:8
140
1.0
141
8.0
290
     0
  0
SCALE
  5
4D
102
{ACAD_REACTORS
330
47
102
}
330
47
100
AcDbScale
 70
     0
300
1:10
140
1.0
141
10.0
290
     0
  0
SCALE
  5
4E
102
{ACAD_REACTORS
330
47
102
}
330
47
100
AcDbScale
 70
     0
300
1:16
140
1.0
141
16.0
290
     0
  0
SCALE
  5
4F
102
{ACAD_REACTORS
330
47
102
}
330
47
100
AcDbScale
 70
     0
300
1:20
140
1.0
141
20.0
290
     0
  0
SCALE
  5
50
102
{ACAD_REACTORS
330
47
102
}
330
47
100
AcDbScale
 70
     0
300
1:30
140
1.0
141
30.0
290
     0
  0
SCALE
  5
51
102
{ACAD_REACTORS
330
47
102
}
330
47
100
AcDbScale
 70
     0
300
1:40
140
1.0
141
40.0
290
     0
  0
SCALE
  5
52
102
{ACAD_REACTORS
330
47
102
}
330
47
100
AcDbScale
 70
     0
300
1:50
140
1.0
141
50.0
290
     0
  0
SCALE
  5
53
102
{ACAD_REACTORS
330
47
102
}
330
47
100
AcDbScale
 70
     0
300
1:100
140
1.0
141
100.0
290
     0
  0
SCALE
  5
54
102
{ACAD_REACTORS
330
47
102
}
330
47
100
AcDbScale
 70
     0
300
2:1
140
2.0
141
1.0
290
     0
  0
SCALE
  5
55
102
{ACAD_REACTORS
330
47
102
}
330
47
100
AcDbScale
 70
     0
300
4:1
140
4.0
141
1.0
290
     0
  0
SCALE
  5
56
102
{ACAD_REACTORS
330
47
102
}
330
47
100
AcDbScale
 70
     0
300
8:1
140
8.0
141
1.0
290
     0
  0
SCALE
  5
57
102
{ACAD_REACTORS
330
47
102
}
330
47
100
AcDbScale
 70
     0
300
10:1
140
10.0
141
1.0
290
     0
  0
SCALE
  5
58
102
{ACAD_REACTORS
330
47
102
}
330
47
100
AcDbScale
 70
     0
300
100:1
140
100.0
141
1.0
290
     0
  0
SCALE
  5
59
102
{ACAD_REACTORS
330
47
102
}
330
47
100
AcDbScale
 70
     0
300
1/128" = 1'-0"
140
0.0078125
141
12.0
290
     0
  0
SCALE
  5
5A
102
{ACAD_REACTORS
330
47
102
}
330
47
100
AcDbScale
 70
     0
300
1/64" = 1'-0"
140
0.015625
141
12.0
290
     0
  0
SCALE
  5
5B
102
{ACAD_REACTORS
330
47
102
}
330
47
100
AcDbScale
 70
     0
300
1/32" = 1'-0"
140
0.03125
141
12.0
290
     0
  0
SCALE
  5
5C
102
{ACAD_REACTORS
330
47
102
}
330
47
100
AcDbScale
 70
     0
300
1/16" = 1'-0"
140
0.0625
141
12.0
290
     0
  0
SCALE
  5
5D
102
{ACAD_REACTORS
330
47
102
}
330
47
100
AcDbScale
 70
     0
300
3/32" = 1'-0"
140
0.09375
141
12.0
290
     0
  0
SCALE
  5
5E
102
{ACAD_REACTORS
330
47
102
}
330
47
100
AcDbScale
 70
     0
300
1/8" = 1'-0"
140
0.125
141
12.0
290
     0
  0
SCALE
  5
5F
102
{ACAD_REACTORS
330
47
102
}
330
47
100
AcDbScale
 70
     0
300
3/16" = 1'-0"
140
0.1875
141
12.0
290
     0
  0
SCALE
  5
60
102
{ACAD_REACTORS
330
47
102
}
330
47
100
AcDbScale
 70
     0
300
1/4" = 1'-0"
140
0.25
141
12.0
290
     0
  0
SCALE
  5
61
102
{ACAD_REACTORS
330
47
102
}
330
47
100
AcDbScale
 70
     0
300
3/8" = 1'-0"
140
0.375
141
12.0
290
     0
  0
SCALE
  5
62
102
{ACAD_REACTORS
330
47
102
}
330
47
100
AcDbScale
 70
     0
300
1/2" = 1'-0"
140
0.5
141
12.0
290
     0
  0
SCALE
  5
63
102
{ACAD_REACTORS
330
47
102
}
330
47
100
AcDbScale
 70
     0
300
3/4" = 1'-0"
140
0.75
141
12.0
290
     0
  0
SCALE
  5
64
102
{ACAD_REACTORS
330
47
102
}
330
47
100
AcDbScale
 70
     0
300
1" = 1'-0"
140
1.0
141
12.0
290
     0
  0
SCALE
  5
65
102
{ACAD_REACTORS
330
47
102
}
330
47
100
AcDbScale
 70
     0
300
1-1/2" = 1'-0"
140
1.5
141
12.0
290
     0
  0
SCALE
  5
66
102
{ACAD_REACTORS
330
47
102
}
330
47
100
AcDbScale
 70
     0
300
3" = 1'-0"
140
3.0
141
12.0
290
     0
  0
SCALE
  5
67
102
{ACAD_REACTORS
330
47
102
}
330
47
100
AcDbScale
 70
     0
300
6" = 1'-0"
140
6.0
141
12.0
290
     0
  0
SCALE
  5
68
102
{ACAD_REACTORS
330
47
102
}
330
47
100
AcDbScale
 70
     0
300
1'-0" = 1'-0"
140
12.0
141
12.0
290
     0
  0
TABLESTYLE
  5
6A
102
{ACAD_REACTORS
330
69
102
}
102
{ACAD_XDICTIONARY
360
3FA
102
}
330
69
100
AcDbTableStyle
  3
Standard
 70
     0
 71
     0
 40
0.06
 41
0.06
280
     0
281
     0
  7
Standard
140
4.5
170
     2
 62
     0
 63
   257
283
     0
 90
        4
 91
        0
  1

274
    -2
284
     1
 64
     0
275
    -2
285
     1
 65
     0
276
    -2
286
     1
 66
     0
277
    -2
287
     1
 67
     0
278
    -2
288
     1
 68
     0
279
    -2
289
     1
 69
     0
  7
Standard
140
6.0
170
     5
 62
     0
 63
   257
283
     0
 90
        4
 91
        0
  1

274
    -2
284
     1
 64
     0
275
    -2
285
     1
 65
     0
276
    -2
286
     1
 66
     0
277
    -2
287
     1
 67
     0
278
    -2
288
     1
 68
     0
279
    -2
289
     1
 69
     0
  7
Standard
140
4.5
170
     5
 62
     0
 63
   257
283
     0
 90
        4
 91
        0
  1

274
    -2
284
     1
 64
     0
275
    -2
285
     1
 65
     0
276
    -2
286
     1
 66
     0
277
    -2
287
     1
 67
     0
278
    -2
288
     1
 68
     0
279
    -2
289
     1
 69
     0
  0
VISUALSTYLE
  5
2F
102
{ACAD_REACTORS
330
2A
102
}
330
2A
100
AcDbVisualStyle
  2
2dWireframe
 70
     4
 71
     0
 72
     2
 73
     0
 90
        0
 40
0.6
 41
30.0
 62
     5
 63
     7
421
 16777215
 74
     1
 91
        4
 64
     7
 65
   257
 75
     1
175
     1
 42
1.0
 92
        0
 66
   257
 43
1.0
 76
     1
 77
     6
 78
     2
 67
     7
 79
     5
170
     0
171
     0
290
     0
174
     0
 93
        1
 44
0.0
173
     0
291
     0
 45
0.0
  0
VISUALSTYLE
  5
32
102
{ACAD_REACTORS
330
2A
102
}
330
2A
100
AcDbVisualStyle
  2
Basic
 70
     7
 71
     1
 72
     0
 73
     1
 90
        0
 40
0.6
 41
30.0
 62
     5
 63
     7
421
 16777215
 74
     0
 91
        4
 64
     7
 65
   257
 75
     1
175
     1
 42
1.0
 92
        8
 66
     7
 43
1.0
 76
     1
 77
     6
 78
     2
 67
     7
 79
     5
170
     0
171
     0
290
     0
174
     0
 93
        1
 44
0.0
173
     0
291
     1
 45
0.0
  0
VISUALSTYLE
  5
36
102
{ACAD_REACTORS
330
2A
102
}
330
2A
100
AcDbVisualStyle
  2
Brighten
 70
    12
 71
     2
 72
     2
 73
     0
 90
        0
 40
0.6
 41
30.0
 62
     5
 63
     7
421
 16777215
 74
     1
 91
        4
 64
     7
 65
   257
 75
     1
175
     1
 42
1.0
 92
        8
 66
     7
 43
1.0
 76
     1
 77
     6
 78
     2
 67
     7
 79
     5
170
     0
171
     0
290
     0
174
     0
 93
        1
 44
50.0
173
     0
291
     1
 45
0.0
  0
VISUALSTYLE
  5
3A
102
{ACAD_REACTORS
330
2A
102
}
330
2A
100
AcDbVisualStyle
  2
ColorChange
 70
    16
 71
     2
 72
     2
 73
     3
 90
        0
 40
0.6
 41
30.0
 62
     5
 63
     8
421
  8421504
 74
     1
 91
        4
 64
     7
 65
   257
 75
     1
175
     1
 42
1.0
 92
        8
 66
     8
424
  8421504
 43
1.0
 76
     1
 77
     6
 78
     2
 67
     7
 79
     5
170
     0
171
     0
290
     0
174
     0
 93
        1
 44
0.0
173
     0
291
     1
 45
0.0
  0
VISUALSTYLE
  5
34
102
{ACAD_REACTORS
330
2A
102
}
330
2A
100
AcDbVisualStyle
  2
Conceptual
 70
     9
 71
     3
 72
     2
 73
     0
 90
        0
 40
0.6
 41
30.0
 62
     5
 63
     7
421
 16777215
 74
     2
 91
        2
 64
     7
 65
   257
 75
     1
175
     1
 42
179.0
 92
        8
 66
     7
 43
1.0
 76
     1
 77
     6
 78
     2
 67
     7
 79
     3
170
     0
171
     0
290
     0
174
     0
 93
        1
 44
0.0
173
     0
291
     0
 45
0.0
  0
VISUALSTYLE
  5
35
102
{ACAD_REACTORS
330
2A
102
}
330
2A
100
AcDbVisualStyle
  2
Dim
 70
    11
 71
     2
 72
     2
 73
     0
 90
        0
 40
0.6
 41
30.0
 62
     5
 63
     7
421
 16777215
 74
     1
 91
        4
 64
     7
 65
   257
 75
     1
175
     1
 42
1.0
 92
        8
 66
     7
 43
1.0
 76
     1
 77
     6
 78
     2
 67
     7
 79
     5
170
     0
171
     0
290
     0
174
     0
 93
        1
 44
-50.0
173
     0
291
     1
 45
0.0
  0
VISUALSTYLE
  5
3D
102
{ACAD_REACTORS
330
2A
102
}
330
2A
100
AcDbVisualStyle
  2
EdgeColorOff
 70
    22
 71
     2
 72
     2
 73
     0
 90
        0
 40
0.6
 41
30.0
 62
     5
 63
     7
421
 16777215
 74
     1
 91
        4
 64
     7
 65
   257
 75
     1
175
     1
 42
1.0
 92
        8
 66
     7
 43
1.0
 76
     1
 77
     6
 78
     2
 67
     7
 79
     5
170
     0
171
     0
290
     0
174
     0
 93
        1
 44
0.0
173
     0
291
     1
 45
0.0
  0
VISUALSTYLE
  5
39
102
{ACAD_REACTORS
330
2A
102
}
330
2A
100
AcDbVisualStyle
  2
Facepattern
 70
    15
 71
     2
 72
     2
 73
     0
 90
        0
 40
0.6
 41
30.0
 62
     5
 63
     7
421
 16777215
 74
     1
 91
        4
 64
     7
 65
   257
 75
     1
175
     1
 42
1.0
 92
        8
 66
     7
 43
1.0
 76
     1
 77
     6
 78
     2
 67
     7
 79
     5
170
     0
171
     0
290
     0
174
     0
 93
        1
 44
0.0
173
     0
291
     1
 45
0.0
  0
VISUALSTYLE
  5
2B
102
{ACAD_REACTORS
330
2A
102
}
330
2A
100
AcDbVisualStyle
  2
Flat
 70
     0
 71
     2
 72
     1
 73
     1
 90
        2
 40
0.6
 41
30.0
 62
     5
 63
     7
421
 16777215
 74
     0
 91
        0
 64
     7
 65
   257
 75
     1
175
     1
 42
1.0
 92
        8
 66
     7
 43
1.0
 76
     1
 77
     6
 78
     2
 67
     7
 79
     5
170
     0
171
     0
290
     0
174
     0
 93
       13
 44
0.0
173
     0
291
     1
 45
0.0
  0
VISUALSTYLE
  5
2C
102
{ACAD_REACTORS
330
2A
102
}
330
2A
100
AcDbVisualStyle
  2
FlatWithEdges
 70
     1
 71
     2
 72
     1
 73
     1
 90
        2
 40
0.6
 41
30.0
 62
     5
 63
     7
421
 16777215
 74
     1
 91
        0
 64
     7
 65
   257
 75
     1
175
     1
 42
1.0
 92
        0
 66
   257
 43
1.0
 76
     1
 77
     6
 78
     2
 67
     7
 79
     5
170
     0
171
     0
290
     0
174
     0
 93
       13
 44
0.0
173
     0
291
     1
 45
0.0
  0
VISUALSTYLE
  5
2D
102
{ACAD_REACTORS
330
2A
102
}
330
2A
100
AcDbVisualStyle
  2
Gouraud
 70
     2
 71
     2
 72
     2
 73
     1
 90
        2
 40
0.6
 41
30.0
 62
     5
 63
     7
421
 16777215
 74
     0
 91
        0
 64
     7
 65
   257
 75
     1
175
     1
 42
1.0
 92
        0
 66
     7
 43
1.0
 76
     1
 77
     6
 78
     2
 67
     7
 79
     5
170
     0
171
     0
290
     0
174
     0
 93
       13
 44
0.0
173
     0
291
     1
 45
0.0
  0
VISUALSTYLE
  5
2E
102
{ACAD_REACTORS
330
2A
102
}
330
2A
100
AcDbVisualStyle
  2
GouraudWithEdges
 70
     3
 71
     2
 72
     2
 73
     1
 90
        2
 40
0.6
 41
30.0
 62
     5
 63
     7
421
 16777215
 74
     1
 91
        0
 64
     7
 65
   257
 75
     1
175
     1
 42
1.0
 92
        0
 66
   257
 43
1.0
 76
     1
 77
     6
 78
     2
 67
     7
 79
     5
170
     0
171
     0
290
     0
174
     0
 93
       13
 44
0.0
173
     0
291
     1
 45
0.0
  0
VISUALSTYLE
  5
31
102
{ACAD_REACTORS
330
2A
102
}
330
2A
100
AcDbVisualStyle
  2
Hidden
 70
     6
 71
     1
 72
     2
 73
     2
 90
        0
 40
0.6
 41
30.0
 62
     5
 63
     7
421
 16777215
 74
     2
 91
        2
 64
     7
 65
   257
 75
     2
175
     1
 42
40.0
 92
        0
 66
   257
 43
1.0
 76
     1
 77
     6
 78
     2
 67
     7
 79
     3
170
     0
171
     0
290
     0
174
     0
 93
        1
 44
0.0
173
     0
291
     0
 45
0.0
  0
VISUALSTYLE
  5
3B
102
{ACAD_REACTORS
330
2A
102
}
330
2A
100
AcDbVisualStyle
  2
JitterOff
 70
    20
 71
     2
 72
     2
 73
     0
 90
        0
 40
0.6
 41
30.0
 62
     5
 63
     7
421
 16777215
 74
     1
 91
        4
 64
     7
 65
   257
 75
     1
175
     1
 42
1.0
 92
       10
 66
     7
 43
1.0
 76
     1
 77
     6
 78
     2
 67
     7
 79
     5
170
     0
171
     0
290
     0
174
     0
 93
        1
 44
0.0
173
     0
291
     1
 45
0.0
  0
VISUALSTYLE
  5
38
102
{ACAD_REACTORS
330
2A
102
}
330
2A
100
AcDbVisualStyle
  2
Linepattern
 70
    14
 71
     2
 72
     2
 73
     0
 90
        0
 40
0.6
 41
30.0
 62
     5
 63
     7
421
 16777215
 74
     1
 91
        4
 64
     7
 65
   257
 75
     7
175
     7
 42
1.0
 92
        8
 66
     7
 43
1.0
 76
     1
 77
     6
 78
     2
 67
     7
 79
     5
170
     0
171
     0
290
     0
174
     0
 93
        1
 44
0.0
173
     0
291
     1
 45
0.0
  0
VISUALSTYLE
  5
3C
102
{ACAD_REACTORS
330
2A
102
}
330
2A
100
AcDbVisualStyle
  2
OverhangOff
 70
    21
 71
     2
 72
     2
 73
     0
 90
        0
 40
0.6
 41
30.0
 62
     5
 63
     7
421
 16777215
 74
     1
 91
        4
 64
     7
 65
   257
 75
     1
175
     1
 42
1.0
 92
        9
 66
     7
 43
1.0
 76
     1
 77
     6
 78
     2
 67
     7
 79
     5
170
     0
171
     0
290
     0
174
     0
 93
        1
 44
0.0
173
     0
291
     1
 45
0.0
  0
VISUALSTYLE
  5
33
102
{ACAD_REACTORS
330
2A
102
}
330
2A
100
AcDbVisualStyle
  2
Realistic
 70
     8
 71
     2
 72
     3
 73
     0
 90
        2
 40
0.6
 41
30.0
 62
     5
 63
     7
421
 16777215
 74
     0
 91
        0
 64
     7
 65
   257
 75
     1
175
     1
 42
1.0
 92
        8
 66
   257
 43
1.0
 76
     1
 77
     6
 78
     2
 67
     7
 79
     3
170
     0
171
     0
290
     0
174
     0
 93
       13
 44
0.0
173
     0
291
     0
 45
0.0
  0
VISUALSTYLE
  5
42
102
{ACAD_REACTORS
330
2A
102
}
330
2A
100
AcDbVisualStyle
  2
Shaded
 70
    27
 71
     2
 72
     2
 73
     1
 90
        2
 40
0.6
 41
30.0
 62
     5
 63
     7
421
 16777215
 74
     0
 91
        4
 64
     7
 65
   257
 75
     1
175
     1
 42
1.0
 92
        8
 66
   257
 43
1.0
 76
     1
 77
     6
 78
     2
 67
     8
425
  7895160
 79
     3
170
     0
171
     0
290
     0
174
     0
 93
        5
 44
0.0
173
     0
291
     0
 45
0.0
  0
VISUALSTYLE
  5
41
102
{ACAD_REACTORS
330
2A
102
}
330
2A
100
AcDbVisualStyle
  2
Shaded with edges
 70
    26
 71
     2
 72
     2
 73
     1
 90
        2
 40
0.6
 41
30.0
 62
     5
 63
     7
421
 16777215
 74
     1
 91
       10
 64
     7
 65
   257
 75
     2
175
     1
 42
1.0
 92
        8
 66
   257
 43
1.0
 76
     1
 77
     6
 78
     2
 67
     7
 79
     3
170
     0
171
     0
290
     0
174
     0
 93
        5
 44
0.0
173
     0
291
     0
 45
0.0
  0
VISUALSTYLE
  5
3E
102
{ACAD_REACTORS
330
2A
102
}
330
2A
100
AcDbVisualStyle
  2
Shades of Gray
 70
    23
 71
     2
 72
     2
 73
     3
 90
        0
 40
0.6
 41
30.0
 62
     5
 63
     7
421
 16777215
 74
     2
 91
        2
 64
     7
 65
     7
 75
     1
175
     1
 42
40.0
 92
        8
 66
     7
 43
1.0
 76
     1
 77
     6
 78
     2
 67
     7
 79
     3
170
     0
171
     0
290
     0
174
     0
 93
        1
 44
0.0
173
     0
291
     0
 45
0.0
  0
VISUALSTYLE
  5
3F
102
{ACAD_REACTORS
330
2A
102
}
330
2A
100
AcDbVisualStyle
  2
Sketchy
 70
    24
 71
     1
 72
     2
 73
     2
 90
        0
 40
0.6
 41
30.0
 62
     5
 63
     7
421
 16777215
 74
     2
 91
        2
 64
     7
 65
     7
 75
     1
175
     1
 42
40.0
 92
       11
 66
     7
 43
1.0
 76
     1
 77
     6
 78
     2
 67
     7
 79
     6
170
     0
171
     0
290
     0
174
     0
 93
        1
 44
0.0
173
     0
291
     0
 45
0.0
  0
VISUALSTYLE
  5
37
102
{ACAD_REACTORS
330
2A
102
}
330
2A
100
AcDbVisualStyle
  2
Thicken
 70
    13
 71
     2
 72
     2
 73
     0
 90
        0
 40
0.6
 41
30.0
 62
     5
 63
     7
421
 16777215
 74
     1
 91
        4
 64
     7
 65
   257
 75
     1
175
     1
 42
1.0
 92
       12
 66
     7
 43
1.0
 76
     1
 77
     6
 78
     2
 67
     7
 79
     5
170
     0
171
     0
290
     0
174
     0
 93
        1
 44
0.0
173
     0
291
     1
 45
0.0
  0
VISUALSTYLE
  5
30
102
{ACAD_REACTORS
330
2A
102
}
330
2A
100
AcDbVisualStyle
  2
Wireframe
 70
     5
 71
     0
 72
     2
 73
     0
 90
        0
 40
0.6
 41
30.0
 62
     5
 63
     7
421
 16777215
 74
     1
 91
        4
 64
     7
 65
   257
 75
     1
175
     1
 42
1.0
 92
        0
 66
   257
 43
1.0
 76
     1
 77
     6
 78
     2
 67
     7
 79
     3
170
     0
171
     0
290
     0
174
     0
 93
        1
 44
0.0
173
     0
291
     0
 45
0.0
  0
VISUALSTYLE
  5
40
102
{ACAD_REACTORS
330
2A
102
}
330
2A
100
AcDbVisualStyle
  2
X-Ray
 70
    25
 71
     2
 72
     2
 73
     1
 90
        1
 40
0.5
 41
30.0
 62
     5
 63
     7
421
 16777215
 74
     1
 91
        0
 64
     7
 65
   257
 75
     1
175
     1
 42
1.0
 92
        8
 66
     7
 43
1.0
 76
     1
 77
     6
 78
     2
 67
     7
 79
     3
170
     0
171
     0
290
     0
174
     0
 93
       13
 44
0.0
173
     0
291
     0
 45
0.0
  0
DICTIONARYVAR
  5
3F9
102
{ACAD_REACTORS
330
3F8
102
}
330
3F8
100
DictionaryVariables
280
     0
  1
1:1
  0
DICTIONARYVAR
  5
3FF
102
{ACAD_REACTORS
330
3F8
102
}
330
3F8
100
DictionaryVariables
280
     0
  1
Standard
  0
DICTIONARYVAR
  5
3FE
102
{ACAD_REACTORS
330
3F8
102
}
330
3F8
100
DictionaryVariables
280
     0
  1
Standard
  0
DICTIONARY
  5
3FA
330
6A
100
AcDbDictionary
280
     1
281
     1
  3
ACAD_ROUNDTRIP_2008_TABLESTYLE_CELLSTYLEMAP
360
3FB
  0
CELLSTYLEMAP
  5
3FB
102
{ACAD_REACTORS
330
3FA
102
}
330
3FA
100
AcDbCellStyleMap
 90
        3
300
CELLSTYLE
  1
TABLEFORMAT_BEGIN
 90
        5
170
     1
 91
        0
 92
    32768
 62
   257
 93
        1
300
CONTENTFORMAT
  1
CONTENTFORMAT_BEGIN
 90
        0
 91
        0
 92
        4
 93
        0
300

 40
0.0
140
1.0
 94
        5
 62
     0
340
11
144
6.0
309
CONTENTFORMAT_END
171
     1
301
MARGIN
  1
CELLMARGIN_BEGIN
 40
1.5
 40
1.5
 40
1.5
 40
1.5
 40
1.5
 40
1.5
309
CELLMARGIN_END
 94
        6
 95
        1
302
GRIDFORMAT
  1
GRIDFORMAT_BEGIN
 90
        0
 91
        1
 62
     0
 92
       -2
340
14
 93
        0
 40
0.045
309
GRIDFORMAT_END
 95
        2
302
GRIDFORMAT
  1
GRIDFORMAT_BEGIN
 90
        0
 91
        1
 62
     0
 92
       -2
340
14
 93
        0
 40
0.045
309
GRIDFORMAT_END
 95
        4
302
GRIDFORMAT
  1
GRIDFORMAT_BEGIN
 90
        0
 91
        1
 62
     0
 92
       -2
340
14
 93
        0
 40
0.045
309
GRIDFORMAT_END
 95
        8
302
GRIDFORMAT
  1
GRIDFORMAT_BEGIN
 90
        0
 91
        1
 62
     0
 92
       -2
340
14
 93
        0
 40
0.045
309
GRIDFORMAT_END
 95
       16
302
GRIDFORMAT
  1
GRIDFORMAT_BEGIN
 90
        0
 91
        1
 62
     0
 92
       -2
340
14
 93
        0
 40
0.045
309
GRIDFORMAT_END
 95
       32
302
GRIDFORMAT
  1
GRIDFORMAT_BEGIN
 90
        0
 91
        1
 62
     0
 92
       -2
340
14
 93
        0
 40
0.045
309
GRIDFORMAT_END
309
TABLEFORMAT_END
  1
CELLSTYLE_BEGIN
 90
        1
 91
        1
300
_TITLE
309
CELLSTYLE_END
300
CELLSTYLE
  1
TABLEFORMAT_BEGIN
 90
        5
170
     1
 91
        0
 92
        0
 62
   257
 93
        1
300
CONTENTFORMAT
  1
CONTENTFORMAT_BEGIN
 90
        0
 91
        0
 92
        4
 93
        0
300

 40
0.0
140
1.0
 94
        5
 62
     0
340
11
144
4.5
309
CONTENTFORMAT_END
171
     1
301
MARGIN
  1
CELLMARGIN_BEGIN
 40
1.5
 40
1.5
 40
1.5
 40
1.5
 40
1.5
 40
1.5
309
CELLMARGIN_END
 94
        6
 95
        1
302
GRIDFORMAT
  1
GRIDFORMAT_BEGIN
 90
        0
 91
        1
 62
     0
 92
       -2
340
14
 93
        0
 40
0.045
309
GRIDFORMAT_END
 95
        2
302
GRIDFORMAT
  1
GRIDFORMAT_BEGIN
 90
        0
 91
        1
 62
     0
 92
       -2
340
14
 93
        0
 40
0.045
309
GRIDFORMAT_END
 95
        4
302
GRIDFORMAT
  1
GRIDFORMAT_BEGIN
 90
        0
 91
        1
 62
     0
 92
       -2
340
14
 93
        0
 40
0.045
309
GRIDFORMAT_END
 95
        8
302
GRIDFORMAT
  1
GRIDFORMAT_BEGIN
 90
        0
 91
        1
 62
     0
 92
       -2
340
14
 93
        0
 40
0.045
309
GRIDFORMAT_END
 95
       16
302
GRIDFORMAT
  1
GRIDFORMAT_BEGIN
 90
        0
 91
        1
 62
     0
 92
       -2
340
14
 93
        0
 40
0.045
309
GRIDFORMAT_END
 95
       32
302
GRIDFORMAT
  1
GRIDFORMAT_BEGIN
 90
        0
 91
        1
 62
     0
 92
       -2
340
14
 93
        0
 40
0.045
309
GRIDFORMAT_END
309
TABLEFORMAT_END
  1
CELLSTYLE_BEGIN
 90
        2
 91
        1
300
_HEADER
309
CELLSTYLE_END
300
CELLSTYLE
  1
TABLEFORMAT_BEGIN
 90
        5
170
     1
 91
        0
 92
        0
 62
   257
 93
        1
300
CONTENTFORMAT
  1
CONTENTFORMAT_BEGIN
 90
        0
 91
        0
 92
        4
 93
        0
300

 40
0.0
140
1.0
 94
        2
 62
     0
340
11
144
4.5
309
CONTENTFORMAT_END
171
     1
301
MARGIN
  1
CELLMARGIN_BEGIN
 40
1.5
 40
1.5
 40
1.5
 40
1.5
 40
1.5
 40
1.5
309
CELLMARGIN_END
 94
        6
 95
        1
302
GRIDFORMAT
  1
GRIDFORMAT_BEGIN
 90
        0
 91
        1
 62
     0
 92
       -2
340
14
 93
        0
 40
0.045
309
GRIDFORMAT_END
 95
        2
302
GRIDFORMAT
  1
GRIDFORMAT_BEGIN
 90
        0
 91
        1
 62
     0
 92
       -2
340
14
 93
        0
 40
0.045
309
GRIDFORMAT_END
 95
        4
302
GRIDFORMAT
  1
GRIDFORMAT_BEGIN
 90
        0
 91
        1
 62
     0
 92
       -2
340
14
 93
        0
 40
0.045
309
GRIDFORMAT_END
 95
        8
302
GRIDFORMAT
  1
GRIDFORMAT_BEGIN
 90
        0
 91
        1
 62
     0
 92
       -2
340
14
 93
        0
 40
0.045
309
GRIDFORMAT_END
 95
       16
302
GRIDFORMAT
  1
GRIDFORMAT_BEGIN
 90
        0
 91
        1
 62
     0
 92
       -2
340
14
 93
        0
 40
0.045
309
GRIDFORMAT_END
 95
       32
302
GRIDFORMAT
  1
GRIDFORMAT_BEGIN
 90
        0
 91
        1
 62
     0
 92
       -2
340
14
 93
        0
 40
0.045
309
GRIDFORMAT_END
309
TABLEFORMAT_END
  1
CELLSTYLE_BEGIN
 90
        3
 91
        2
300
_DATA
309
CELLSTYLE_END
  0
ENDSEC
  0
EOF
