  0
SECTION
  2
HEADER
  9
$ACADVER
  1
AC1015
  9
$ACADMAINTVER
 70
     6
  9
$DWGCODEPAGE
  3
ANSI_1250
  9
$INSBASE
 10
0.0
 20
0.0
 30
0.0
  9
$EXTMIN
 10
0.0
 20
0.0
 30
0.0
  9
$EXTMAX
 10
0.4318
 20
0.2794
 30
0.0
  9
$LIMMIN
 10
0.0
 20
0.0
  9
$LIMMAX
 10
0.4318
 20
0.2794
  9
$ORTHOMODE
 70
     0
  9
$REGENMODE
 70
     1
  9
$FILLMODE
 70
     1
  9
$QTEXTMODE
 70
     0
  9
$MIRRTEXT
 70
     1
  9
$LTSCALE
 40
1.0
  9
$ATTMODE
 70
     1
  9
$TEXTSIZE
 40
0.0035
  9
$TRACEWID
 40
1.0
  9
$TEXTSTYLE
  7
Standard
  9
$CLAYER
  8
0
  9
$CELTYPE
  6
ByLayer
  9
$CECOLOR
 62
   256
  9
$CELTSCALE
 40
1.0
  9
$DISPSILH
 70
     0
  9
$DIMSCALE
 40
1.0
  9
$DIMASZ
 40
0.003302
  9
$DIMEXO
 40
0.001
  9
$DIMDLI
 40
3.75
  9
$DIMRND
 40
0.0
  9
$DIMDLE
 40
0.0
  9
$DIMEXE
 40
0.001
  9
$DIMTP
 40
0.0
  9
$DIMTM
 40
0.0
  9
$DIMTXT
 40
0.0035
  9
$DIMCEN
 40
2.5
  9
$DIMTSZ
 40
0.0
  9
$DIMTOL
 70
     0
  9
$DIMLIM
 70
     0
  9
$DIMTIH
 70
     1
  9
$DIMTOH
 70
     1
  9
$DIMSE1
 70
     0
  9
$DIMSE2
 70
     0
  9
$DIMTAD
 70
     1
  9
$DIMZIN
 70
     0
  9
$DIMBLK
  1

  9
$DIMASO
 70
     1
  9
$DIMSHO
 70
     1
  9
$DIMPOST
  1

  9
$DIMAPOST
  1

  9
$DIMALT
 70
     0
  9
$DIMALTD
 70
     3
  9
$DIMALTF
 40
39.3700787402
  9
$DIMLFAC
 40
1.0
  9
$DIMTOFL
 70
     1
  9
$DIMTVP
 40
0.0
  9
$DIMTIX
 70
     0
  9
$DIMSOXD
 70
     0
  9
$DIMSAH
 70
     0
  9
$DIMBLK1
  1

  9
$DIMBLK2
  1

  9
$DIMSTYLE
  2
ISO-25
  9
$DIMCLRD
 70
     0
  9
$DIMCLRE
 70
     0
  9
$DIMCLRT
 70
     0
  9
$DIMTFAC
 40
1.0
  9
$DIMGAP
 40
0.001524
  9
$DIMJUST
 70
     0
  9
$DIMSD1
 70
     0
  9
$DIMSD2
 70
     0
  9
$DIMTOLJ
 70
     0
  9
$DIMTZIN
 70
     0
  9
$DIMALTZ
 70
     0
  9
$DIMALTTZ
 70
     0
  9
$DIMUPT
 70
     0
  9
$DIMDEC
 70
     2
  9
$DIMTDEC
 70
     2
  9
$DIMALTU
 70
     2
  9
$DIMALTTD
 70
     3
  9
$DIMTXSTY
  7
Standard
  9
$DIMAUNIT
 70
     0
  9
$DIMADEC
 70
     2
  9
$DIMALTRND
 40
0.0
  9
$DIMAZIN
 70
     0
  9
$DIMDSEP
 70
    44
  9
$DIMATFIT
 70
     3
  9
$DIMFRAC
 70
     0
  9
$DIMLDRBLK
  1

  9
$DIMLUNIT
 70
     2
  9
$DIMLWD
 70
    -2
  9
$DIMLWE
 70
    -2
  9
$DIMTMOVE
 70
     0
  9
$LUNITS
 70
     2
  9
$LUPREC
 70
     2
  9
$SKETCHINC
 40
1.0
  9
$FILLETRAD
 40
10.0
  9
$AUNITS
 70
     0
  9
$AUPREC
 70
     2
  9
$MENU
  1
.
  9
$ELEVATION
 40
0.0
  9
$PELEVATION
 40
0.0
  9
$THICKNESS
 40
0.0
  9
$LIMCHECK
 70
     0
  9
$CHAMFERA
 40
0.0
  9
$CHAMFERB
 40
0.0
  9
$CHAMFERC
 40
0.0
  9
$CHAMFERD
 40
0.0
  9
$SKPOLY
 70
     0
  9
$TDCREATE
 40
2458715.571787106
  9
$TDUCREATE
 40
2458715.488453773
  9
$TDUPDATE
 40
2458715.571787292
  9
$TDUUPDATE
 40
2458715.488453958
  9
$TDINDWG
 40
0.0000000116
  9
$TDUSRTIMER
 40
0.0000000116
  9
$USRTIMER
 70
     1
  9
$ANGBASE
 50
0.0
  9
$ANGDIR
 70
     0
  9
$PDMODE
 70
     0
  9
$PDSIZE
 40
-1.0
  9
$PLINEWID
 40
0.0
  9
$SPLFRAME
 70
     0
  9
$SPLINETYPE
 70
     6
  9
$SPLINESEGS
 70
     8
  9
$HANDSEED
  5
CA
  9
$SURFTAB1
 70
     6
  9
$SURFTAB2
 70
     6
  9
$SURFTYPE
 70
     6
  9
$SURFU
 70
     6
  9
$SURFV
 70
     6
  9
$UCSBASE
  2

  9
$UCSNAME
  2

  9
$UCSORG
 10
0.0
 20
0.0
 30
0.0
  9
$UCSXDIR
 10
1.0
 20
0.0
 30
0.0
  9
$UCSYDIR
 10
0.0
 20
1.0
 30
0.0
  9
$UCSORTHOREF
  2

  9
$UCSORTHOVIEW
 70
     0
  9
$UCSORGTOP
 10
0.0
 20
0.0
 30
0.0
  9
$UCSORGBOTTOM
 10
0.0
 20
0.0
 30
0.0
  9
$UCSORGLEFT
 10
0.0
 20
0.0
 30
0.0
  9
$UCSORGRIGHT
 10
0.0
 20
0.0
 30
0.0
  9
$UCSORGFRONT
 10
0.0
 20
0.0
 30
0.0
  9
$UCSORGBACK
 10
0.0
 20
0.0
 30
0.0
  9
$PUCSBASE
  2

  9
$PUCSNAME
  2

  9
$PUCSORG
 10
0.0
 20
0.0
 30
0.0
  9
$PUCSXDIR
 10
1.0
 20
0.0
 30
0.0
  9
$PUCSYDIR
 10
0.0
 20
1.0
 30
0.0
  9
$PUCSORTHOREF
  2

  9
$PUCSORTHOVIEW
 70
     0
  9
$PUCSORGTOP
 10
0.0
 20
0.0
 30
0.0
  9
$PUCSORGBOTTOM
 10
0.0
 20
0.0
 30
0.0
  9
$PUCSORGLEFT
 10
0.0
 20
0.0
 30
0.0
  9
$PUCSORGRIGHT
 10
0.0
 20
0.0
 30
0.0
  9
$PUCSORGFRONT
 10
0.0
 20
0.0
 30
0.0
  9
$PUCSORGBACK
 10
0.0
 20
0.0
 30
0.0
  9
$USERI1
 70
     0
  9
$USERI2
 70
     0
  9
$USERI3
 70
     0
  9
$USERI4
 70
     0
  9
$USERI5
 70
     0
  9
$USERR1
 40
0.0
  9
$USERR2
 40
0.0
  9
$USERR3
 40
0.0
  9
$USERR4
 40
0.0
  9
$USERR5
 40
0.0
  9
$WORLDVIEW
 70
     1
  9
$SHADEDGE
 70
     3
  9
$SHADEDIF
 70
    70
  9
$TILEMODE
 70
     1
  9
$MAXACTVP
 70
    64
  9
$PINSBASE
 10
0.0
 20
0.0
 30
0.0
  9
$PLIMCHECK
 70
     0
  9
$PEXTMIN
 10
1.0000000000E+20
 20
1.0000000000E+20
 30
1.0000000000E+20
  9
$PEXTMAX
 10
-1.0000000000E+20
 20
-1.0000000000E+20
 30
-1.0000000000E+20
  9
$PLIMMIN
 10
0.0
 20
0.0
  9
$PLIMMAX
 10
420.0
 20
297.0
  9
$UNITMODE
 70
     0
  9
$VISRETAIN
 70
     1
  9
$PLINEGEN
 70
     0
  9
$PSLTSCALE
 70
     1
  9
$TREEDEPTH
 70
  3020
  9
$CMLSTYLE
  2
Standard
  9
$CMLJUST
 70
     0
  9
$CMLSCALE
 40
20.0
  9
$PROXYGRAPHICS
 70
     1
  9
$MEASUREMENT
 70
     1
  9
$CELWEIGHT
370
    -1
  9
$ENDCAPS
280
     0
  9
$JOINSTYLE
280
     0
  9
$LWDISPLAY
290
     1
  9
$INSUNITS
 70
     4
  9
$HYPERLINKBASE
  1

  9
$STYLESHEET
  1

  9
$XEDIT
290
     1
  9
$CEPSNTYPE
380
     0
  9
$PSTYLEMODE
290
     1
  9
$FINGERPRINTGUID
  2
{F08FEAE2-EB5F-4EFD-AB45-E9B3C4133733}
  9
$VERSIONGUID
  2
{FAEB1C32-E019-11D5-929B-00C0DF256EC4}
  9
$EXTNAMES
290
     1
  9
$PSVPSCALE
 40
0.0
  9
$OLESTARTUP
290
     0
  0
ENDSEC
  0
SECTION
  2
CLASSES
  0
CLASS
  1
ACDBDICTIONARYWDFLT
  2
AcDbDictionaryWithDefault
  3
ObjectDBX Classes
 90
        0
280
     0
281
     0
  0
CLASS
  1
VISUALSTYLE
  2
AcDbVisualStyle
  3
ObjectDBX Classes
 90
     4095
280
     0
281
     0
  0
CLASS
  1
MATERIAL
  2
AcDbMaterial
  3
ObjectDBX Classes
 90
     1153
280
     0
281
     0
  0
CLASS
  1
SCALE
  2
AcDbScale
  3
ObjectDBX Classes
 90
     1153
280
     0
281
     0
  0
CLASS
  1
TABLESTYLE
  2
AcDbTableStyle
  3
ObjectDBX Classes
 90
     4095
280
     0
281
     0
  0
CLASS
  1
MLEADERSTYLE
  2
AcDbMLeaderStyle
  3
ACDB_MLEADERSTYLE_CLASS
 90
     4095
280
     0
281
     0
  0
CLASS
  1
SUN
  2
AcDbSun
  3
SCENEOE
 90
     1153
280
     0
281
     0
  0
CLASS
  1
ACDBPLACEHOLDER
  2
AcDbPlaceHolder
  3
ObjectDBX Classes
 90
        0
280
     0
281
     0
  0
CLASS
  1
LAYOUT
  2
AcDbLayout
  3
ObjectDBX Classes
 90
        0
280
     0
281
     0
  0
ENDSEC
  0
SECTION
  2
TABLES
  0
TABLE
  2
VPORT
  5
8
330
0
100
AcDbSymbolTable
 70
     1
  0
VPORT
  5
29
330
8
100
AcDbSymbolTableRecord
100
AcDbViewportTableRecord
  2
*Active
 70
     0
 10
0.0
 20
0.0
 11
1.0
 21
1.0
 12
0.2159
 22
0.1397
 13
0.0
 23
0.0
 14
10.0
 24
10.0
 15
10.0
 25
10.0
 16
0.0
 26
0.0
 36
1.0
 17
0.0
 27
0.0
 37
0.0
 40
0.2794
 41
1.5454545455
 42
50.0
 43
0.0
 44
0.0
 50
0.0
 51
0.0
 71
     0
 72
  2000
 73
     1
 74
     3
 75
     0
 76
     0
 77
     0
 78
     0
281
     0
 65
     1
110
0.0
120
0.0
130
0.0
111
1.0
121
0.0
131
0.0
112
0.0
122
1.0
132
0.0
 79
     0
146
0.0
  0
ENDTAB
  0
TABLE
  2
LTYPE
  5
5
330
0
100
AcDbSymbolTable
 70
     6
  0
LTYPE
  5
14
330
5
100
AcDbSymbolTableRecord
100
AcDbLinetypeTableRecord
  2
ByBlock
 70
     0
  3

 72
    65
 73
     0
 40
0.0
  0
LTYPE
  5
15
330
5
100
AcDbSymbolTableRecord
100
AcDbLinetypeTableRecord
  2
ByLayer
 70
     0
  3

 72
    65
 73
     0
 40
0.0
  0
LTYPE
  5
16
330
5
100
AcDbSymbolTableRecord
100
AcDbLinetypeTableRecord
  2
Continuous
 70
     0
  3
Solid line
 72
    65
 73
     0
 40
0.0
  0
LTYPE
  5
6E
330
5
100
AcDbSymbolTableRecord
100
AcDbLinetypeTableRecord
  2
HIDDEN
 70
     0
  3
Hidden __ __ __ __ __ __ __ __ __ __ __ __ __ __
 72
    65
 73
     2
 40
0.001905
 49
0.00127
 74
     0
 49
-0.000635
 74
     0
  0
LTYPE
  5
6F
330
5
100
AcDbSymbolTableRecord
100
AcDbLinetypeTableRecord
  2
PHANTOM
 70
     0
  3
Phantom ______  __  __  ______  __  __  ______
 72
    65
 73
     6
 40
0.0127
 49
0.00635
 74
     0
 49
-0.00127
 74
     0
 49
0.00127
 74
     0
 49
-0.00127
 74
     0
 49
0.00127
 74
     0
 49
-0.00127
 74
     0
  0
LTYPE
  5
70
330
5
100
AcDbSymbolTableRecord
100
AcDbLinetypeTableRecord
  2
CENTER
 70
     0
  3
Center ____ _ ____ _ ____ _ ____ _ ____ _ ____
 72
    65
 73
     4
 40
0.01016
 49
0.00635
 74
     0
 49
-0.00127
 74
     0
 49
0.00127
 74
     0
 49
-0.00127
 74
     0
  0
LTYPE
  5
71
330
5
100
AcDbSymbolTableRecord
100
AcDbLinetypeTableRecord
  2
CENTERX2
 70
     0
  3
Center (2x) ________  __  ________  __  _____
 72
    65
 73
     4
 40
0.02032
 49
0.0127
 74
     0
 49
-0.00254
 74
     0
 49
0.00254
 74
     0
 49
-0.00254
 74
     0
  0
LTYPE
  5
72
330
5
100
AcDbSymbolTableRecord
100
AcDbLinetypeTableRecord
  2
DOT2
 70
     0
  3
Dot (.5x) ........................................
 72
    65
 73
     2
 40
0.000635
 49
0.0
 74
     0
 49
-0.000635
 74
     0
  0
ENDTAB
  0
TABLE
  2
LAYER
  5
2
330
0
100
AcDbSymbolTable
 70
     1
  0
LAYER
  5
10
330
2
100
AcDbSymbolTableRecord
100
AcDbLayerTableRecord
  2
0
 70
     0
 62
     7
  6
Continuous
370
    -3
390
F
  0
ENDTAB
  0
TABLE
  2
STYLE
  5
3
330
0
100
AcDbSymbolTable
 70
     1
  0
STYLE
  5
11
330
3
100
AcDbSymbolTableRecord
100
AcDbTextStyleTableRecord
  2
Standard
 70
     0
 40
0.0
 41
1.0
 50
0.0
 71
     0
 42
0.0035
  3
txt
  4

  0
ENDTAB
  0
TABLE
  2
VIEW
  5
6
330
0
100
AcDbSymbolTable
 70
     0
  0
ENDTAB
  0
TABLE
  2
UCS
  5
7
330
0
100
AcDbSymbolTable
 70
     0
  0
ENDTAB
  0
TABLE
  2
APPID
  5
9
330
0
100
AcDbSymbolTable
 70
     1
  0
APPID
  5
12
330
9
100
AcDbSymbolTableRecord
100
AcDbRegAppTableRecord
  2
ACAD
 70
     0
  0
ENDTAB
  0
TABLE
  2
DIMSTYLE
  5
A
330
0
100
AcDbSymbolTable
 70
     1
100
AcDbDimStyleTable
  0
DIMSTYLE
105
27
330
A
100
AcDbSymbolTableRecord
100
AcDbDimStyleTableRecord
  2
ISO-25
 70
     0
 41
2.5
 42
0.625
 43
3.75
 44
1.25
 73
     0
 74
     0
 77
     1
 78
     8
140
2.5
141
2.5
143
0.0393700787
147
0.625
171
     3
172
     1
178
     0
271
     2
272
     2
274
     3
278
    44
283
     0
284
     8
340
11
  0
ENDTAB
  0
TABLE
  2
BLOCK_RECORD
  5
1
330
0
100
AcDbSymbolTable
 70
     1
  0
BLOCK_RECORD
  5
1F
330
1
100
AcDbSymbolTableRecord
100
AcDbBlockTableRecord
  2
*Model_Space
340
22
  0
BLOCK_RECORD
  5
1B
330
1
100
AcDbSymbolTableRecord
100
AcDbBlockTableRecord
  2
*Paper_Space
340
1E
  0
BLOCK_RECORD
  5
23
330
1
100
AcDbSymbolTableRecord
100
AcDbBlockTableRecord
  2
*Paper_Space0
340
26
  0
ENDTAB
  0
ENDSEC
  0
SECTION
  2
BLOCKS
  0
BLOCK
  5
20
330
1F
100
AcDbEntity
  8
0
100
AcDbBlockBegin
  2
*Model_Space
 70
     0
 10
0.0
 20
0.0
 30
0.0
  3
*Model_Space
  1

  0
ENDBLK
  5
21
330
1F
100
AcDbEntity
  8
0
100
AcDbBlockEnd
  0
BLOCK
  5
1C
330
1B
100
AcDbEntity
 67
     1
  8
0
100
AcDbBlockBegin
  2
*Paper_Space
 70
     0
 10
0.0
 20
0.0
 30
0.0
  3
*Paper_Space
  1

  0
ENDBLK
  5
1D
330
1B
100
AcDbEntity
 67
     1
  8
0
100
AcDbBlockEnd
  0
BLOCK
  5
24
330
23
100
AcDbEntity
  8
0
100
AcDbBlockBegin
  2
*Paper_Space0
 70
     0
 10
0.0
 20
0.0
 30
0.0
  3
*Paper_Space0
  1

  0
ENDBLK
  5
25
330
23
100
AcDbEntity
  8
0
100
AcDbBlockEnd
  0
ENDSEC
  0
SECTION
  2
ENTITIES
  0
CIRCLE
  5
73
330
1F
100
AcDbEntity
  8
0
  6
Continuous
 62
     7
370
    25
100
AcDbCircle
 10
0.2091879737
 20
0.1598836605
 30
0.0
 40
1.735
  0
LINE
  5
74
330
1F
100
AcDbEntity
  8
0
  6
Continuous
 62
     7
370
    25
100
AcDbLine
 10
0.1607583765
 20
0.1072526995
 30
0.0
 11
0.1578600783
 21
0.1072526995
 31
0.0
  0
LINE
  5
75
330
1F
100
AcDbEntity
  8
0
  6
Continuous
 62
     7
370
    25
100
AcDbLine
 10
0.1607583765
 20
0.1122726996
 30
0.0
 11
0.1622075256
 21
0.1097626995
 31
0.0
  0
LINE
  5
76
330
1F
100
AcDbEntity
  8
0
  6
Continuous
 62
     7
370
    25
100
AcDbLine
 10
0.1564109292
 20
0.1097626995
 30
0.0
 11
0.1578600783
 21
0.1122726996
 31
0.0
  0
LINE
  5
77
330
1F
100
AcDbEntity
  8
0
  6
Continuous
 62
     7
370
    25
100
AcDbLine
 10
0.1578600783
 20
0.1072526995
 30
0.0
 11
0.1564109292
 21
0.1097626995
 31
0.0
  0
CIRCLE
  5
78
330
1F
100
AcDbEntity
  8
0
  6
Continuous
 62
     7
370
    25
100
AcDbCircle
 10
0.1593092278
 20
0.1097626997
 30
0.0
 40
0.007785
  0
LINE
  5
79
330
1F
100
AcDbEntity
  8
0
  6
Continuous
 62
     7
370
    25
100
AcDbLine
 10
0.1578600783
 20
0.1122726996
 30
0.0
 11
0.1607583765
 21
0.1122726996
 31
0.0
  0
LINE
  5
7A
330
1F
100
AcDbEntity
  8
0
  6
Continuous
 62
     7
370
    25
100
AcDbLine
 10
0.1622075256
 20
0.1097626995
 30
0.0
 11
0.1607583765
 21
0.1072526995
 31
0.0
  0
ARC
  5
7B
330
1F
100
AcDbEntity
  8
0
  6
Continuous
 62
     7
370
    25
100
AcDbCircle
 10
0.1593092278
 20
0.1097626997
 30
0.0
 40
0.00251
100
AcDbArc
 50
30.0
 51
90.0
  0
ARC
  5
7C
330
1F
100
AcDbEntity
  8
0
  6
Continuous
 62
     7
370
    25
100
AcDbCircle
 10
0.1593092278
 20
0.1097626997
 30
0.0
 40
0.00251
100
AcDbArc
 50
270.0
 51
330.0
  0
ARC
  5
7D
330
1F
100
AcDbEntity
  8
0
  6
Continuous
 62
     7
370
    25
100
AcDbCircle
 10
0.1593092278
 20
0.1097626997
 30
0.0
 40
0.00251
100
AcDbArc
 50
210.0
 51
270.0
  0
ARC
  5
7E
330
1F
100
AcDbEntity
  8
0
  6
Continuous
 62
     7
370
    25
100
AcDbCircle
 10
0.1593092278
 20
0.1097626997
 30
0.0
 40
0.00251
100
AcDbArc
 50
150.0
 51
210.0
  0
ARC
  5
7F
330
1F
100
AcDbEntity
  8
0
  6
Continuous
 62
     7
370
    25
100
AcDbCircle
 10
0.1593092278
 20
0.1097626997
 30
0.0
 40
0.00251
100
AcDbArc
 50
90.0
 51
150.0
  0
ARC
  5
80
330
1F
100
AcDbEntity
  8
0
  6
Continuous
 62
     7
370
    25
100
AcDbCircle
 10
0.1593092278
 20
0.1097626997
 30
0.0
 40
0.00251
100
AcDbArc
 50
330.0
 51
30.0
  0
LINE
  5
81
330
1F
100
AcDbEntity
  8
0
  6
Continuous
 62
     7
370
    25
100
AcDbLine
 10
0.2567989346
 20
0.1085557651
 30
0.0
 11
0.2567989346
 21
0.1114540633
 31
0.0
  0
LINE
  5
82
330
1F
100
AcDbEntity
  8
0
  6
Continuous
 62
     7
370
    25
100
AcDbLine
 10
0.2618189346
 20
0.1114540633
 30
0.0
 11
0.2618189346
 21
0.1085557651
 31
0.0
  0
LINE
  5
83
330
1F
100
AcDbEntity
  8
0
  6
Continuous
 62
     7
370
    25
100
AcDbLine
 10
0.2593089346
 20
0.1129032124
 30
0.0
 11
0.2618189346
 21
0.1114540633
 31
0.0
  0
LINE
  5
84
330
1F
100
AcDbEntity
  8
0
  6
Continuous
 62
     7
370
    25
100
AcDbLine
 10
0.2567989346
 20
0.1114540633
 30
0.0
 11
0.2593089346
 21
0.1129032124
 31
0.0
  0
LINE
  5
85
330
1F
100
AcDbEntity
  8
0
  6
Continuous
 62
     7
370
    25
100
AcDbLine
 10
0.2593089346
 20
0.107106616
 30
0.0
 11
0.2567989346
 21
0.1085557651
 31
0.0
  0
CIRCLE
  5
86
330
1F
100
AcDbEntity
  8
0
  6
Continuous
 62
     7
370
    25
100
AcDbCircle
 10
0.2593089344
 20
0.1100049146
 30
0.0
 40
0.007785
  0
LINE
  5
87
330
1F
100
AcDbEntity
  8
0
  6
Continuous
 62
     7
370
    25
100
AcDbLine
 10
0.2618189346
 20
0.1085557651
 30
0.0
 11
0.2593089346
 21
0.107106616
 31
0.0
  0
ARC
  5
88
330
1F
100
AcDbEntity
  8
0
  6
Continuous
 62
     7
370
    25
100
AcDbCircle
 10
0.2593089344
 20
0.1100049146
 30
0.0
 40
0.00251
100
AcDbArc
 50
240.0
 51
300.0
  0
ARC
  5
89
330
1F
100
AcDbEntity
  8
0
  6
Continuous
 62
     7
370
    25
100
AcDbCircle
 10
0.2593089344
 20
0.1100049146
 30
0.0
 40
0.00251
100
AcDbArc
 50
300.0
 51
0.0
  0
ARC
  5
8A
330
1F
100
AcDbEntity
  8
0
  6
Continuous
 62
     7
370
    25
100
AcDbCircle
 10
0.2593089344
 20
0.1100049146
 30
0.0
 40
0.00251
100
AcDbArc
 50
180.0
 51
240.0
  0
ARC
  5
8B
330
1F
100
AcDbEntity
  8
0
  6
Continuous
 62
     7
370
    25
100
AcDbCircle
 10
0.2593089344
 20
0.1100049146
 30
0.0
 40
0.00251
100
AcDbArc
 50
120.0
 51
180.0
  0
ARC
  5
8C
330
1F
100
AcDbEntity
  8
0
  6
Continuous
 62
     7
370
    25
100
AcDbCircle
 10
0.2593089344
 20
0.1100049146
 30
0.0
 40
0.00251
100
AcDbArc
 50
60.0
 51
120.0
  0
ARC
  5
8D
330
1F
100
AcDbEntity
  8
0
  6
Continuous
 62
     7
370
    25
100
AcDbCircle
 10
0.2593089344
 20
0.1100049146
 30
0.0
 40
0.00251
100
AcDbArc
 50
0.0
 51
60.0
  0
LINE
  5
8E
330
1F
100
AcDbEntity
  8
0
  6
Continuous
 62
     7
370
    25
100
AcDbLine
 10
0.1590670128
 20
0.2068641085
 30
0.0
 11
0.1565570127
 21
0.2083132576
 31
0.0
  0
LINE
  5
8F
330
1F
100
AcDbEntity
  8
0
  6
Continuous
 62
     7
370
    25
100
AcDbLine
 10
0.1565570127
 20
0.2112115558
 30
0.0
 11
0.1590670128
 21
0.2126607049
 31
0.0
  0
CIRCLE
  5
90
330
1F
100
AcDbEntity
  8
0
  6
Continuous
 62
     7
370
    25
100
AcDbCircle
 10
0.1590670129
 20
0.2097624064
 30
0.0
 40
0.007785
  0
LINE
  5
91
330
1F
100
AcDbEntity
  8
0
  6
Continuous
 62
     7
370
    25
100
AcDbLine
 10
0.1565570127
 20
0.2083132576
 30
0.0
 11
0.1565570127
 21
0.2112115558
 31
0.0
  0
LINE
  5
92
330
1F
100
AcDbEntity
  8
0
  6
Continuous
 62
     7
370
    25
100
AcDbLine
 10
0.1615770128
 20
0.2083132576
 30
0.0
 11
0.1590670128
 21
0.2068641085
 31
0.0
  0
LINE
  5
93
330
1F
100
AcDbEntity
  8
0
  6
Continuous
 62
     7
370
    25
100
AcDbLine
 10
0.1590670128
 20
0.2126607049
 30
0.0
 11
0.1615770128
 21
0.2112115558
 31
0.0
  0
LINE
  5
94
330
1F
100
AcDbEntity
  8
0
  6
Continuous
 62
     7
370
    25
100
AcDbLine
 10
0.1615770128
 20
0.2112115558
 30
0.0
 11
0.1615770128
 21
0.2083132576
 31
0.0
  0
ARC
  5
95
330
1F
100
AcDbEntity
  8
0
  6
Continuous
 62
     7
370
    25
100
AcDbCircle
 10
0.1590670129
 20
0.2097624064
 30
0.0
 40
0.00251
100
AcDbArc
 50
60.0
 51
120.0
  0
ARC
  5
96
330
1F
100
AcDbEntity
  8
0
  6
Continuous
 62
     7
370
    25
100
AcDbCircle
 10
0.1590670129
 20
0.2097624064
 30
0.0
 40
0.00251
100
AcDbArc
 50
300.0
 51
0.0
  0
ARC
  5
97
330
1F
100
AcDbEntity
  8
0
  6
Continuous
 62
     7
370
    25
100
AcDbCircle
 10
0.1590670129
 20
0.2097624064
 30
0.0
 40
0.00251
100
AcDbArc
 50
0.0
 51
60.0
  0
ARC
  5
98
330
1F
100
AcDbEntity
  8
0
  6
Continuous
 62
     7
370
    25
100
AcDbCircle
 10
0.1590670129
 20
0.2097624064
 30
0.0
 40
0.00251
100
AcDbArc
 50
120.0
 51
180.0
  0
ARC
  5
99
330
1F
100
AcDbEntity
  8
0
  6
Continuous
 62
     7
370
    25
100
AcDbCircle
 10
0.1590670129
 20
0.2097624064
 30
0.0
 40
0.00251
100
AcDbArc
 50
240.0
 51
300.0
  0
ARC
  5
9A
330
1F
100
AcDbEntity
  8
0
  6
Continuous
 62
     7
370
    25
100
AcDbCircle
 10
0.1590670129
 20
0.2097624064
 30
0.0
 40
0.00251
100
AcDbArc
 50
180.0
 51
240.0
  0
LINE
  5
9B
330
1F
100
AcDbEntity
  8
0
  6
Continuous
 62
     7
370
    25
100
AcDbLine
 10
0.2576175708
 20
0.2125146214
 30
0.0
 11
0.2605158691
 21
0.2125146214
 31
0.0
  0
LINE
  5
9C
330
1F
100
AcDbEntity
  8
0
  6
Continuous
 62
     7
370
    25
100
AcDbLine
 10
0.2605158691
 20
0.2125146214
 30
0.0
 11
0.2619650182
 21
0.2100046214
 31
0.0
  0
CIRCLE
  5
9D
330
1F
100
AcDbEntity
  8
0
  6
Continuous
 62
     7
370
    25
100
AcDbCircle
 10
0.2590667196
 20
0.2100046212
 30
0.0
 40
0.007785
  0
LINE
  5
9E
330
1F
100
AcDbEntity
  8
0
  6
Continuous
 62
     7
370
    25
100
AcDbLine
 10
0.2561684217
 20
0.2100046214
 30
0.0
 11
0.2576175708
 21
0.2125146214
 31
0.0
  0
LINE
  5
9F
330
1F
100
AcDbEntity
  8
0
  6
Continuous
 62
     7
370
    25
100
AcDbLine
 10
0.2576175708
 20
0.2074946214
 30
0.0
 11
0.2561684217
 21
0.2100046214
 31
0.0
  0
LINE
  5
A0
330
1F
100
AcDbEntity
  8
0
  6
Continuous
 62
     7
370
    25
100
AcDbLine
 10
0.2605158691
 20
0.2074946214
 30
0.0
 11
0.2576175708
 21
0.2074946214
 31
0.0
  0
LINE
  5
A1
330
1F
100
AcDbEntity
  8
0
  6
Continuous
 62
     7
370
    25
100
AcDbLine
 10
0.2619650182
 20
0.2100046214
 30
0.0
 11
0.2605158691
 21
0.2074946214
 31
0.0
  0
ARC
  5
A2
330
1F
100
AcDbEntity
  8
0
  6
Continuous
 62
     7
370
    25
100
AcDbCircle
 10
0.2590667196
 20
0.2100046212
 30
0.0
 40
0.00251
100
AcDbArc
 50
30.0
 51
90.0
  0
ARC
  5
A3
330
1F
100
AcDbEntity
  8
0
  6
Continuous
 62
     7
370
    25
100
AcDbCircle
 10
0.2590667196
 20
0.2100046212
 30
0.0
 40
0.00251
100
AcDbArc
 50
330.0
 51
30.0
  0
ARC
  5
A4
330
1F
100
AcDbEntity
  8
0
  6
Continuous
 62
     7
370
    25
100
AcDbCircle
 10
0.2590667196
 20
0.2100046212
 30
0.0
 40
0.00251
100
AcDbArc
 50
270.0
 51
330.0
  0
ARC
  5
A5
330
1F
100
AcDbEntity
  8
0
  6
Continuous
 62
     7
370
    25
100
AcDbCircle
 10
0.2590667196
 20
0.2100046212
 30
0.0
 40
0.00251
100
AcDbArc
 50
210.0
 51
270.0
  0
ARC
  5
A6
330
1F
100
AcDbEntity
  8
0
  6
Continuous
 62
     7
370
    25
100
AcDbCircle
 10
0.2590667196
 20
0.2100046212
 30
0.0
 40
0.00251
100
AcDbArc
 50
150.0
 51
210.0
  0
ARC
  5
A7
330
1F
100
AcDbEntity
  8
0
  6
Continuous
 62
     7
370
    25
100
AcDbCircle
 10
0.2590667196
 20
0.2100046212
 30
0.0
 40
0.00251
100
AcDbArc
 50
90.0
 51
150.0
  0
SPLINE
  5
A8
330
1F
100
AcDbEntity
  8
0
  6
Continuous
 62
     7
370
    25
100
AcDbSpline
210
0.0
220
0.0
230
1.0
 70
     8
 71
     3
 72
    35
 73
    31
 74
     0
 42
0.000000001
 43
0.00000001
 40
0.0
 40
0.0
 40
0.0
 40
0.0
 40
0.0463432738763336
 40
0.0927139018070314
 40
0.1390422803571373
 40
0.1870759355342135
 40
0.2351634570625882
 40
0.2831569053194187
 40
0.3148980810627613
 40
0.3466353817605847
 40
0.3790415067448148
 40
0.4114422422773582
 40
0.4435260838147242
 40
0.4756047933582946
 40
0.5089035471198677
 40
0.5421992947768789
 40
0.5703008913141843
 40
0.5984033122100971
 40
0.6273909561070249
 40
0.6563814946873929
 40
0.6834413953492757
 40
0.7105040079384334
 40
0.7381056904654691
 40
0.765710076508266
 40
0.8101426049759751
 40
0.8545882908501354
 40
0.900233864752321
 40
0.9458881046559605
 40
0.9715709272249045
 40
1.0
 40
1.0
 40
1.0
 40
1.0
 10
0.3285515722041961
 20
0.3020084623313673
 30
0.0
 10
0.332315779584506
 20
0.3011677960656871
 30
0.0
 10
0.3398464161634117
 20
0.2994859673322069
 30
0.0
 10
0.3509594195288427
 20
0.2962391309936575
 30
0.0
 10
0.3620133056843543
 20
0.2923568994817367
 30
0.0
 10
0.3729290073904159
 20
0.2877121338511401
 30
0.0
 10
0.3836039928837971
 20
0.2822244814771042
 30
0.0
 10
0.3926451412991576
 20
0.2765950875022873
 30
0.0
 10
0.4001231168266126
 20
0.2710976483251774
 30
0.0
 10
0.4062277527104206
 20
0.2659505875559716
 30
0.0
 10
0.4119784165623692
 20
0.2603300868334649
 30
0.0
 10
0.4172828657442295
 20
0.2542463251806603
 30
0.0
 10
0.4220259926422878
 20
0.2477479217469392
 30
0.0
 10
0.4262018715746769
 20
0.2407822191382774
 30
0.0
 10
0.4297133689077705
 20
0.2333449714827321
 30
0.0
 10
0.4323377158259211
 20
0.2258997291214339
 30
0.0
 10
0.4341174968168691
 20
0.2186586142446066
 30
0.0
 10
0.4352034984885481
 20
0.2116444565218803
 30
0.0
 10
0.4356683692622412
 20
0.2044876228060565
 30
0.0
 10
0.4355213523538727
 20
0.1974048406266521
 30
0.0
 10
0.4348244449618132
 20
0.190517905927741
 30
0.0
 10
0.4336512515676276
 20
0.183814047731388
 30
0.0
 10
0.4320048824560389
 20
0.1771640439411925
 30
0.0
 10
0.4294915502098209
 20
0.1692581364641781
 30
0.0
 10
0.4258245821683551
 20
0.1602699817558688
 30
0.0
 10
0.4207055096507945
 20
0.1503021046539944
 30
0.0
 10
0.4147674662368822
 20
0.1406808206889721
 30
0.0
 10
0.4090689899217393
 20
0.1327805276081585
 30
0.0
 10
0.4038976204156849
 20
0.1262839619377028
 30
0.0
 10
0.4009375992352755
 20
0.1228904047150116
 30
0.0
 10
0.3993824761515494
 20
0.1211075123465784
 30
0.0
  0
LINE
  5
A9
330
1F
100
AcDbEntity
  8
0
  6
Continuous
 62
     7
370
    25
100
AcDbLine
 10
0.3993824762
 20
0.1211075123
 30
0.0
 11
0.3971417736
 21
0.1231023271
 31
0.0
  0
SPLINE
  5
AA
330
1F
100
AcDbEntity
  8
0
  6
Continuous
 62
     7
370
    25
100
AcDbSpline
210
0.0
220
0.0
230
1.0
 70
     8
 71
     3
 72
    31
 73
    27
 74
     0
 42
0.000000001
 43
0.00000001
 40
0.0
 40
0.0
 40
0.0
 40
0.0
 40
0.0546247045094641
 40
0.0998241639742979
 40
0.1451582005599025
 40
0.19043180670908
 40
0.2355486579349404
 40
0.2717834233092412
 40
0.3080803739018725
 40
0.3442842056818352
 40
0.3818557021515518
 40
0.4195442479003823
 40
0.4570945163780624
 40
0.4893375913412893
 40
0.5217380835466318
 40
0.5541625033765751
 40
0.5864382985522592
 40
0.6290298064970347
 40
0.6717515794051674
 40
0.7143954066610457
 40
0.7617442826282254
 40
0.8092674004192888
 40
0.8569650883891261
 40
0.9047584670479264
 40
0.9525028930134197
 40
1.0
 40
1.0
 40
1.0
 40
1.0
 10
0.3971417736416694
 20
0.1231023270703085
 30
0.0
 10
0.4000255001745162
 20
0.1264685797777286
 30
0.0
 10
0.4052953793044264
 20
0.1326202535535786
 30
0.0
 10
0.4121563788393465
 20
0.1422036747997571
 30
0.0
 10
0.417972916000479
 20
0.1515678010296324
 30
0.0
 10
0.4230254276830636
 20
0.1613630172989017
 30
0.0
 10
0.4269203246284221
 20
0.1708831630378764
 30
0.0
 10
0.4297227693393451
 20
0.1800162937553393
 30
0.0
 10
0.4315649429555726
 20
0.188653532850992
 30
0.0
 10
0.4325938861944471
 20
0.1975371880157409
 30
0.0
 10
0.4326502837635169
 20
0.2065972009318098
 30
0.0
 10
0.4316745722364878
 20
0.2157144355800416
 30
0.0
 10
0.429741372679779
 20
0.2242379887904251
 30
0.0
 10
0.4269729151515635
 20
0.2320668673473156
 30
0.0
 10
0.4236098466045803
 20
0.2391992302548531
 30
0.0
 10
0.4195846585275863
 20
0.2459821211734199
 30
0.0
 10
0.4144633387279897
 20
0.2530325596989352
 30
0.0
 10
0.4080746858926106
 20
0.2601415518090227
 30
0.0
 10
0.4003770902375345
 20
0.2671262491823056
 30
0.0
 10
0.3917623186400384
 20
0.2736030247642086
 30
0.0
 10
0.3822895109493329
 20
0.2795174646805089
 30
0.0
 10
0.3720106987672407
 20
0.284838916000336
 30
0.0
 10
0.3613419873739258
 20
0.2894165994214765
 30
0.0
 10
0.3503815535273944
 20
0.2932872935117725
 30
0.0
 10
0.3392390662909788
 20
0.2965477967633224
 30
0.0
 10
0.3316983174498524
 20
0.2982320036104099
 30
0.0
 10
0.3279377337699767
 20
0.2990719202972181
 30
0.0
  0
LINE
  5
AB
330
1F
100
AcDbEntity
  8
0
  6
Continuous
 62
     7
370
    25
100
AcDbLine
 10
0.3285515722
 20
0.3020084623
 30
0.0
 11
0.3279377338
 21
0.2990719203
 31
0.0
  0
SPLINE
  5
AC
330
1F
100
AcDbEntity
  8
0
  6
Continuous
 62
     7
370
    25
100
AcDbSpline
210
0.0
220
0.0
230
1.0
 70
     8
 71
     3
 72
    37
 73
    33
 74
     0
 42
0.000000001
 43
0.00000001
 40
0.0
 40
0.0
 40
0.0
 40
0.0
 40
0.0450029134496501
 40
0.090149173866247
 40
0.1352996385260622
 40
0.1803602813466779
 40
0.2252911948368261
 40
0.2593058706619393
 40
0.2934192340982563
 40
0.3274860022592545
 40
0.3614369086105455
 40
0.391845202385361
 40
0.4223200062826758
 40
0.4526788561876318
 40
0.4758193220683957
 40
0.4990189998290455
 40
0.5221437397339553
 40
0.5452866125328614
 40
0.5685068551309187
 40
0.5916569630511259
 40
0.6170487249560478
 40
0.6425769582001165
 40
0.6681472593145662
 40
0.6935966414121838
 40
0.7270797124585955
 40
0.7606492794568879
 40
0.7941718405389391
 40
0.8352003964142568
 40
0.8763621709000289
 40
0.917623461807322
 40
0.9588863422929322
 40
1.0
 40
1.0
 40
1.0
 40
1.0
 10
0.0385035913592216
 20
0.1303630743242033
 30
0.0
 10
0.0372159387204534
 20
0.1259384681800569
 30
0.0
 10
0.0346365319062364
 20
0.1170751622737718
 30
0.0
 10
0.031672878977417
 20
0.1035339053988294
 30
0.0
 10
0.0294709992508476
 20
0.0898452447556793
 30
0.0
 10
0.0281848875048435
 20
0.0760589143989049
 30
0.0
 10
0.0279123685920994
 20
0.063354379551094
 30
0.0
 10
0.0284767421038947
 20
0.0517862514058801
 30
0.0
 10
0.029703385357857
 20
0.0413868717639232
 30
0.0
 10
0.0317314925735481
 20
0.0311181036416731
 30
0.0
 10
0.0345441894231008
 20
0.0214267025356526
 30
0.0
 10
0.03813172504147
 20
0.0123895228122467
 30
0.0
 10
0.0424451419589103
 20
0.0040848429574861
 30
0.0
 10
0.0472582425081196
 20
-0.0030656482323597
 30
0.0
 10
0.0523744458486027
 20
-0.0090395356676042
 30
0.0
 10
0.0575430343537653
 20
-0.0139430314567376
 30
0.0
 10
0.0632144166836519
 20
-0.0182594970756625
 30
0.0
 10
0.0693574531966296
 20
-0.0218786902267468
 30
0.0
 10
0.0758681549474708
 20
-0.0247867721484759
 30
0.0
 10
0.082878421622159
 20
-0.027033918079162
 30
0.0
 10
0.0903363022638945
 20
-0.0284978184795268
 30
0.0
 10
0.0981515828631497
 20
-0.0291685990840957
 30
0.0
 10
0.1059991347406362
 20
-0.0290744223321027
 30
0.0
 10
0.1146151720296229
 20
-0.0281893963752073
 30
0.0
 10
0.1239158908818298
 20
-0.0263202290871115
 30
0.0
 10
0.1337909606280957
 20
-0.023360765829508
 30
0.0
 10
0.1441065334068536
 20
-0.0193182521819825
 30
0.0
 10
0.1547697596233661
 20
-0.0141275246107787
 30
0.0
 10
0.1656819593268588
 20
-0.0077285594234313
 30
0.0
 10
0.1761297432837413
 20
-0.0005609974406275
 30
0.0
 10
0.1861347428270282
 20
0.0072089757920112
 30
0.0
 10
0.1924187975395378
 20
0.0128360285568269
 30
0.0
 10
0.1955551332017418
 20
0.0156444583154448
 30
0.0
  0
LINE
  5
AD
330
1F
100
AcDbEntity
  8
0
  6
Continuous
 62
     7
370
    25
100
AcDbLine
 10
0.1955551332
 20
0.0156444583
 30
0.0
 11
0.1975890998
 21
0.0134392355
 31
0.0
  0
SPLINE
  5
AE
330
1F
100
AcDbEntity
  8
0
  6
Continuous
 62
     7
370
    25
100
AcDbSpline
210
0.0
220
0.0
230
1.0
 70
     8
 71
     3
 72
    41
 73
    37
 74
     0
 42
0.000000001
 43
0.00000001
 40
0.0
 40
0.0
 40
0.0
 40
0.0
 40
0.0503092330940077
 40
0.1006091745363745
 40
0.1350288833766652
 40
0.1694757669031938
 40
0.2038786096362159
 40
0.2288218042413794
 40
0.2537623543860492
 40
0.2791249208847432
 40
0.3044830047763669
 40
0.3297954401806065
 40
0.3551014433694488
 40
0.381399004884018
 40
0.4076880862375684
 40
0.4251884382450764
 40
0.4426876730004969
 40
0.4606927832266093
 40
0.4786977948283796
 40
0.4961645299448615
 40
0.5136321953726602
 40
0.5315692118094785
 40
0.5495080574650694
 40
0.5722061447959189
 40
0.5949088888921306
 40
0.6182496660535016
 40
0.6415945420024296
 40
0.6750779554332711
 40
0.7085720564811094
 40
0.7429493756715649
 40
0.7773329991323527
 40
0.8013243260309342
 40
0.8493329776619262
 40
0.8976072420914106
 40
0.948696589624284
 40
1.0
 40
1.0
 40
1.0
 40
1.0
 10
0.1975890997951862
 20
0.0134392354703672
 30
0.0
 10
0.1936390982757384
 20
0.0099293623789113
 30
0.0
 10
0.1857398247657154
 20
0.0029102644372083
 30
0.0
 10
0.1743305822926614
 20
-0.0055392011387832
 30
0.0
 10
0.1638257529488467
 20
-0.0123442756660738
 30
0.0
 10
0.1543746041842376
 20
-0.017673969194009
 30
0.0
 10
0.1454859407973463
 20
-0.0219323760563826
 30
0.0
 10
0.137271587404685
 20
-0.0252366426363993
 30
0.0
 10
0.1297754023009142
 20
-0.0277472354451232
 30
0.0
 10
0.1220874968356864
 20
-0.0297726384282163
 30
0.0
 10
0.1142327708255761
 20
-0.031241003897563
 30
0.0
 10
0.1062895258865473
 20
-0.0320702998938712
 30
0.0
 10
0.0982031090050232
 20
-0.0321971553052784
 30
0.0
 10
0.0900392566656163
 20
-0.0315040951413776
 30
0.0
 10
0.0828022412774003
 20
-0.0300788093267509
 30
0.0
 10
0.0766381985544446
 20
-0.0282089827791479
 30
0.0
 10
0.0714553703771969
 20
-0.0261641981848631
 30
0.0
 10
0.0664189084729352
 20
-0.0236588710547049
 30
0.0
 10
0.0616201071302983
 20
-0.0207303264166795
 30
0.0
 10
0.0571368079331182
 20
-0.0174339602939893
 30
0.0
 10
0.0529435939638419
 20
-0.0137871105652479
 30
0.0
 10
0.0490268811292042
 20
-0.0097751246220751
 30
0.0
 10
0.045083406461604
 20
-0.0050485275059836
 30
0.0
 10
0.0412660811464514
 20
0.0004087057519236
 30
0.0
 10
0.0376535640987043
 20
0.0066664253165203
 30
0.0
 10
0.0345347708633176
 20
0.0132589615993486
 30
0.0
 10
0.0315136763715147
 20
0.0211225898519273
 30
0.0
 10
0.0288599069205631
 20
0.0302419913317644
 30
0.0
 10
0.0267771867945537
 20
0.0406892609689581
 30
0.0
 10
0.025496933054054
 20
0.0513585398415191
 30
0.0
 10
0.0250137048815609
 20
0.0610923667115828
 30
0.0
 10
0.0250539043806326
 20
0.0722642946716036
 30
0.0
 10
0.0258695044996466
 20
0.0848806098169285
 30
0.0
 10
0.0280004491950732
 20
0.1002156789208205
 30
0.0
 10
0.031165846391965
 20
0.1157319583016417
 30
0.0
 10
0.0341435439069795
 20
0.1260653579939331
 30
0.0
 10
0.0356355052595969
 20
0.1312428593701847
 30
0.0
  0
LINE
  5
AF
330
1F
100
AcDbEntity
  8
0
  6
Continuous
 62
     7
370
    25
100
AcDbLine
 10
0.0385035914
 20
0.1303630743
 30
0.0
 11
0.0356355053
 21
0.1312428594
 31
0.0
  0
SPLINE
  5
B0
330
1F
100
AcDbEntity
  8
0
  6
Continuous
 62
     7
370
    25
100
AcDbSpline
210
0.0
220
0.0
230
1.0
 70
     8
 71
     3
 72
    39
 73
    35
 74
     0
 42
0.000000001
 43
0.00000001
 40
0.0
 40
0.0
 40
0.0
 40
0.0
 40
0.0505443948289931
 40
0.1010821817246563
 40
0.1358102395288271
 40
0.1705696387846482
 40
0.2052879049361852
 40
0.2384699783988377
 40
0.2716482402246665
 40
0.3056269662369915
 40
0.3395998783150084
 40
0.3669348531399193
 40
0.3942668939659356
 40
0.4223408088045893
 40
0.450411526949997
 40
0.4779179046104787
 40
0.5054223026245603
 40
0.5339512317976068
 40
0.5624800074414927
 40
0.5868840408664141
 40
0.6112891254114663
 40
0.6363655699306234
 40
0.6614439356020204
 40
0.6865186014491848
 40
0.7115953814045984
 40
0.7371991367496881
 40
0.7628049965605217
 40
0.7998774891692071
 40
0.8369571379424238
 40
0.8750821618488073
 40
0.9132125802486996
 40
0.9377926732473699
 40
0.9688512007261952
 40
1.0
 40
1.0
 40
1.0
 40
1.0
 10
0.1121407266860839
 20
0.2962058905578382
 30
0.0
 10
0.1136051589887885
 20
0.3007750698459742
 30
0.0
 10
0.1165338321412966
 20
0.3099128310695188
 30
0.0
 10
0.1216939379999036
 20
0.3217454815465991
 30
0.0
 10
0.1269399969229946
 20
0.331858466479641
 30
0.0
 10
0.1320445378386432
 20
0.340334838419565
 30
0.0
 10
0.1376114550166878
 20
0.3483368330304706
 30
0.0
 10
0.1436242386321268
 20
0.3558183282230596
 30
0.0
 10
0.1501103791885673
 20
0.362799300369176
 30
0.0
 10
0.1571779920481229
 20
0.3693048535516453
 30
0.0
 10
0.1643314581023942
 20
0.3748533480742395
 30
0.0
 10
0.1713850085122937
 20
0.379447852364904
 30
0.0
 10
0.1782803392699719
 20
0.3832183937157039
 30
0.0
 10
0.185529887175104
 20
0.3864325323019855
 30
0.0
 10
0.1930485590703286
 20
0.3890084853474621
 30
0.0
 10
0.2007184838506418
 20
0.3908751566085692
 30
0.0
 10
0.2085708140555045
 20
0.3920380136099665
 30
0.0
 10
0.2165971841904041
 20
0.3924391402565082
 30
0.0
 10
0.224330363179988
 20
0.3920686074349839
 30
0.0
 10
0.2316049421634747
 20
0.3910446843118673
 30
0.0
 10
0.2384509506342857
 20
0.3894993966331848
 30
0.0
 10
0.2452073805186947
 20
0.3873757212625838
 30
0.0
 10
0.2518309756111727
 20
0.3846955773546872
 30
0.0
 10
0.2582259052934473
 20
0.3815092264731172
 30
0.0
 10
0.2644114804264249
 20
0.3778360974614277
 30
0.0
 10
0.2703602987542533
 20
0.3737020268705741
 30
0.0
 10
0.2769025500970126
 20
0.3684618980636012
 30
0.0
 10
0.2838073730094568
 20
0.3619678815401015
 30
0.0
 10
0.2909176553049786
 20
0.3540187393178447
 30
0.0
 10
0.2974158440254712
 20
0.3454367975384385
 30
0.0
 10
0.3025992528911695
 20
0.3373837380179611
 30
0.0
 10
0.3069601234923174
 20
0.3296267187631093
 30
0.0
 10
0.3106604947633578
 20
0.3222633423518759
 30
0.0
 10
0.3129512536556062
 20
0.3168222424610294
 30
0.0
 10
0.3140982952123519
 20
0.3140977446056135
 30
0.0
  0
LINE
  5
B1
330
1F
100
AcDbEntity
  8
0
  6
Continuous
 62
     7
370
    25
100
AcDbLine
 10
0.3140982952
 20
0.3140977446
 30
0.0
 11
0.3113164719
 21
0.3129746143
 31
0.0
  0
SPLINE
  5
B2
330
1F
100
AcDbEntity
  8
0
  6
Continuous
 62
     7
370
    25
100
AcDbSpline
210
0.0
220
0.0
230
1.0
 70
     8
 71
     3
 72
    34
 73
    30
 74
     0
 42
0.000000001
 43
0.00000001
 40
0.0
 40
0.0
 40
0.0
 40
0.0
 40
0.0437332459435149
 40
0.0874607481520636
 40
0.1251470888540896
 40
0.1629544867029025
 40
0.2007269625481714
 40
0.2383654878363422
 40
0.2720146184958921
 40
0.3057280523159718
 40
0.3393530818991957
 40
0.3720188194880152
 40
0.4047733132894987
 40
0.4374220473070139
 40
0.4743339776050903
 40
0.5114033369062727
 40
0.548328302461682
 40
0.5850021717592615
 40
0.6218060033932707
 40
0.6585149596232175
 40
0.6920758647461648
 40
0.7257459015481533
 40
0.7594425336056402
 40
0.7930398372008165
 40
0.8342995823775254
 40
0.8757113860677791
 40
0.9172093194451482
 40
0.9586858143749487
 40
1.0
 40
1.0
 40
1.0
 40
1.0
 10
0.3113164719348784
 20
0.3129746142841108
 30
0.0
 10
0.3097261226097582
 20
0.3166913904810032
 30
0.0
 10
0.3065456328291049
 20
0.3241244547295122
 30
0.0
 10
0.3010027156189592
 20
0.3342931627486245
 30
0.0
 10
0.2950502067292061
 20
0.3435713589538719
 30
0.0
 10
0.2887353465077619
 20
0.3519315721258145
 30
0.0
 10
0.2817725199724747
 20
0.3597550623338666
 30
0.0
 10
0.2744290571125356
 20
0.3666773274287438
 30
0.0
 10
0.2667817009931248
 20
0.3726683049709798
 30
0.0
 10
0.2589328694179865
 20
0.3777397973383879
 30
0.0
 10
0.2507080999182491
 20
0.3819869415549862
 30
0.0
 10
0.2421636816362846
 20
0.385312371923238
 30
0.0
 10
0.2334031322591805
 20
0.3876945910603001
 30
0.0
 10
0.2240444087752625
 20
0.38916974092782
 30
0.0
 10
0.2141673625569914
 20
0.3894697332635054
 30
0.0
 10
0.2039411447150361
 20
0.3884825817827965
 30
0.0
 10
0.1939363240626986
 20
0.3862398202680223
 30
0.0
 10
0.1843174107662042
 20
0.3827702679157239
 30
0.0
 10
0.1751692670227491
 20
0.3782573786010895
 30
0.0
 10
0.1667907179043867
 20
0.3729623867877839
 30
0.0
 10
0.1591928863855389
 20
0.3670680981433221
 30
0.0
 10
0.1523189206316264
 20
0.3607512027024231
 30
0.0
 10
0.1459527558707672
 20
0.3539199126726397
 30
0.0
 10
0.139659162389435
 20
0.3460993646491545
 30
0.0
 10
0.1335754594824253
 20
0.3372302883479629
 30
0.0
 10
0.1278271138356089
 20
0.3272880575507089
 30
0.0
 10
0.1228167231670781
 20
0.3169359208890184
 30
0.0
 10
0.1184743592037926
 20
0.3062909985762219
 30
0.0
 10
0.1161679663745638
 20
0.298994445028017
 30
0.0
 10
0.1150170307761069
 20
0.2953533206201323
 30
0.0
  0
LINE
  5
B3
330
1F
100
AcDbEntity
  8
0
  6
Continuous
 62
     7
370
    25
100
AcDbLine
 10
0.1121407267
 20
0.2962058906
 30
0.0
 11
0.1150170308
 21
0.2953533206
 31
0.0
  0
SPLINE
  5
B4
330
1F
100
AcDbEntity
  8
0
  6
Continuous
 62
     7
370
    25
100
AcDbSpline
210
0.0
220
0.0
230
1.0
 70
     8
 71
     3
 72
    36
 73
    32
 74
     0
 42
0.000000001
 43
0.00000001
 40
0.0
 40
0.0
 40
0.0
 40
0.0
 40
0.0396313175700186
 40
0.0793947849294161
 40
0.1191263377195834
 40
0.1587139854553974
 40
0.1887334298225795
 40
0.218851281145571
 40
0.2489447884807892
 40
0.2789308660872498
 40
0.308228413312523
 40
0.3375905889360867
 40
0.3668696357974902
 40
0.3974382369674078
 40
0.4281080666116586
 40
0.4586680460055872
 40
0.4857054841442295
 40
0.5128820803233647
 40
0.5400748612184965
 40
0.5671344983927111
 40
0.6029084898901876
 40
0.6388091336335271
 40
0.6746213245080981
 40
0.7085288889725722
 40
0.7425504839642703
 40
0.7765981935408971
 40
0.8105415770936661
 40
0.8577935802832874
 40
0.9052330520331225
 40
0.952704377703768
 40
1.0
 40
1.0
 40
1.0
 40
1.0
 10
0.2293880921011802
 20
0.0127496246314771
 30
0.0
 10
0.2317158834038882
 20
0.0098507963255637
 30
0.0
 10
0.23637922798012
 20
0.0040434736321234
 30
0.0
 10
0.2441971636456803
 20
-0.0039585113226717
 30
0.0
 10
0.2525967484673344
 20
-0.0113311910079067
 30
0.0
 10
0.2608870634536367
 20
-0.0173897504779872
 30
0.0
 10
0.2688810010063701
 20
-0.0222562951148573
 30
0.0
 10
0.2764317064740007
 20
-0.0260925353217659
 30
0.0
 10
0.2842667868318445
 20
-0.0293025130000872
 30
0.0
 10
0.29228051039539
 20
-0.0317943316429849
 30
0.0
 10
0.3004270367631867
 20
-0.0335057576950301
 30
0.0
 10
0.308635277712163
 20
-0.0344175820639433
 30
0.0
 10
0.3170154326049091
 20
-0.0344945011386187
 30
0.0
 10
0.3254758754600021
 20
-0.0336090603218874
 30
0.0
 10
0.3338957999668666
 20
-0.0317351073604303
 30
0.0
 10
0.3417306459853972
 20
-0.0290048648086123
 30
0.0
 10
0.3488951676857954
 20
-0.0255276898806934
 30
0.0
 10
0.3553951298715833
 20
-0.0215019308552289
 30
0.0
 10
0.3614721836974638
 20
-0.0168599338150372
 30
0.0
 10
0.3676657521268638
 20
-0.0111060360298118
 30
0.0
 10
0.3737277378016344
 20
-0.004078665777799
 30
0.0
 10
0.3794316176750517
 20
0.004252992508951
 30
0.0
 10
0.3841584190198805
 20
0.0129750553621962
 30
0.0
 10
0.3879621955138943
 20
0.0219414159311495
 30
0.0
 10
0.3909424140190746
 20
0.0310379687948067
 30
0.0
 10
0.3931978045439551
 20
0.0403431772055968
 30
0.0
 10
0.3949584350198115
 20
0.0510131816495675
 30
0.0
 10
0.3959166361945184
 20
0.0630567501732665
 30
0.0
 10
0.395741212832059
 20
0.076398900390457
 30
0.0
 10
0.3944960537898596
 20
0.0896980957710143
 30
0.0
 10
0.3927508961927813
 20
0.098415795214101
 30
0.0
 10
0.3918799352055427
 20
0.1027665633774527
 30
0.0
  0
LINE
  5
B5
330
1F
100
AcDbEntity
  8
0
  6
Continuous
 62
     7
370
    25
100
AcDbLine
 10
0.3918799352
 20
0.1027665634
 30
0.0
 11
0.3948069554
 21
0.103424241
 31
0.0
  0
LINE
  5
B6
330
1F
100
AcDbEntity
  8
0
  6
Continuous
 62
     7
370
    25
100
AcDbLine
 10
0.2293880921
 20
0.0127496246
 30
0.0
 11
0.2270090658
 21
0.0109219972
 31
0.0
  0
SPLINE
  5
B7
330
1F
100
AcDbEntity
  8
0
  6
Continuous
 62
     7
370
    25
100
AcDbSpline
210
0.0
220
0.0
230
1.0
 70
     8
 71
     3
 72
    37
 73
    33
 74
     0
 42
0.000000001
 43
0.00000001
 40
0.0
 40
0.0
 40
0.0
 40
0.0
 40
0.0468710087129872
 40
0.0939162354675433
 40
0.1409304809239265
 40
0.1877590892352085
 40
0.2215756350193463
 40
0.255496200920496
 40
0.289391352522357
 40
0.3231730926347871
 40
0.3591072542641751
 40
0.3951307078828953
 40
0.4310277462878553
 40
0.4583605132283629
 40
0.4858278754384158
 40
0.5132794885240577
 40
0.5405907422885681
 40
0.5715034652190191
 40
0.6025271697735894
 40
0.6334483041239358
 40
0.6629404025794915
 40
0.6925158788325813
 40
0.7220259663195643
 40
0.7520229397123344
 40
0.7821271381659555
 40
0.8122550680354806
 40
0.8422844218433815
 40
0.8627656667412767
 40
0.903921705315297
 40
0.9450852587789855
 40
0.972542154861006
 40
1.0
 40
1.0
 40
1.0
 40
1.0
 10
0.394806955397689
 20
0.1034242410279043
 30
0.0
 10
0.3956948192472096
 20
0.098987979301589
 30
0.0
 10
0.3974738471078068
 20
0.0900989664058876
 30
0.0
 10
0.3987411069593757
 20
0.0765382508051267
 30
0.0
 10
0.3989177851582903
 20
0.0629339105418583
 30
0.0
 10
0.3979384029922697
 20
0.0506366729336897
 30
0.0
 10
0.3961361700693959
 20
0.0397232570158274
 30
0.0
 10
0.3938218201850788
 20
0.030185640609723
 30
0.0
 10
0.3907645500215149
 20
0.0208620346917393
 30
0.0
 10
0.3868546474016177
 20
0.0116489325631486
 30
0.0
 10
0.3819840286037194
 20
0.0026657730368863
 30
0.0
 10
0.3760925093473501
 20
-0.0059338643401247
 30
0.0
 10
0.369821286180247
 20
-0.0132007745316192
 30
0.0
 10
0.3634005331505326
 20
-0.0191641057891611
 30
0.0
 10
0.3570836254822565
 20
-0.023986847680859
 30
0.0
 10
0.3503272999672826
 20
-0.0281690775514834
 30
0.0
 10
0.3428770938053614
 20
-0.0317837236431917
 30
0.0
 10
0.3347266705150745
 20
-0.03462449869754
 30
0.0
 10
0.3259638550641831
 20
-0.0365756823044004
 30
0.0
 10
0.3171707081827737
 20
-0.0374965418018294
 30
0.0
 10
0.3084733486895619
 20
-0.0374180200351989
 30
0.0
 10
0.299966504401448
 20
-0.0364750682547661
 30
0.0
 10
0.2915431045621504
 20
-0.0347067852880354
 30
0.0
 10
0.2832760726365079
 20
-0.0321376096584814
 30
0.0
 10
0.275210812044929
 20
-0.0288362766084931
 30
0.0
 10
0.2674385399571964
 20
-0.0248903306155256
 30
0.0
 10
0.2607861600292025
 20
-0.0208423803379368
 30
0.0
 10
0.2535269178223667
 20
-0.0157874441443608
 30
0.0
 10
0.2457977953871589
 20
-0.0095480257942993
 30
0.0
 10
0.2381764301343839
 20
-0.0021781076108377
 30
0.0
 10
0.2319447716954538
 20
0.0046916071513179
 30
0.0
 10
0.2286543200789059
 20
0.00884517659663
 30
0.0
 10
0.2270090658372279
 20
0.0109219972110517
 30
0.0
  0
SPLINE
  5
B8
330
1F
100
AcDbEntity
  8
0
  6
Continuous
 62
     7
370
    25
100
AcDbSpline
210
0.0
220
0.0
230
1.0
 70
     8
 71
     3
 72
    32
 73
    28
 74
     0
 42
0.000000001
 43
0.00000001
 40
0.0
 40
0.0
 40
0.0
 40
0.0
 40
0.0561996462790497
 40
0.1124807587999538
 40
0.1687110370239486
 40
0.2248413326783606
 40
0.2627968941757273
 40
0.3008500127450719
 40
0.3388363244416498
 40
0.3767005270246567
 40
0.4063636249829459
 40
0.4360820673829852
 40
0.4656838242177942
 40
0.4971410902770809
 40
0.5285724136168246
 40
0.5600372090212163
 40
0.5915142739438702
 40
0.6238400389408453
 40
0.6563619410074711
 40
0.6887917552004844
 40
0.7207216001295638
 40
0.752719306390558
 40
0.7846857259223696
 40
0.8383862779358054
 40
0.89223844140794
 40
0.9461787706370967
 40
1.0
 40
1.0
 40
1.0
 40
1.0
 10
0.0948276486402389
 20
0.2803161416269072
 30
0.0
 10
0.0908048395198024
 20
0.2802803189907951
 30
0.0
 10
0.0827533898696156
 20
0.2802086217905657
 30
0.0
 10
0.0706976157305078
 20
0.2794100845980188
 30
0.0
 10
0.0587065452515452
 20
0.277978229270952
 30
0.0
 10
0.0481207586380762
 20
0.2760057372659317
 30
0.0
 10
0.0389441589133352
 20
0.2736999609113334
 30
0.0
 10
0.0311616140755653
 20
0.2712296175285149
 30
0.0
 10
0.0235863654488038
 20
0.2681941270657386
 30
0.0
 10
0.0168355651257869
 20
0.264782988361542
 30
0.0
 10
0.0109325013497419
 20
0.2610787629694623
 30
0.0
 10
0.0058826691496497
 20
0.2571791290356882
 30
0.0
 10
0.0012081352019415
 20
0.2526426815519702
 30
0.0
 10
-0.0028694330439378
 20
0.2473965727550173
 30
0.0
 10
-0.0061514764470878
 20
0.2414576209890508
 30
0.0
 10
-0.0083314050136788
 20
0.235028347928625
 30
0.0
 10
-0.0094294455042596
 20
0.228267276221531
 30
0.0
 10
-0.0093945462343395
 20
0.2213449603092058
 30
0.0
 10
-0.008390534448913
 20
0.2144365814507392
 30
0.0
 10
-0.0065828148016997
 20
0.2077276951981552
 30
0.0
 10
-0.0041245984148518
 20
0.2012741521066891
 30
0.0
 10
-0.0011560560497577
 20
0.1950783644046728
 30
0.0
 10
0.0030184453294757
 20
0.1877581572164799
 30
0.0
 10
0.0086318836676476
 20
0.1794815866663688
 30
0.0
 10
0.0158926400132691
 20
0.1704764865366639
 30
0.0
 10
0.0237330651761853
 20
0.1619585266646126
 30
0.0
 10
0.0293304758980937
 20
0.1566499656333737
 30
0.0
 10
0.0321260880833503
 20
0.1539986186727114
 30
0.0
  0
LINE
  5
B9
330
1F
100
AcDbEntity
  8
0
  6
Continuous
 62
     7
370
    25
100
AcDbLine
 10
0.0321260881
 20
0.1539986187
 30
0.0
 11
0.0300898444
 21
0.1517955076
 31
0.0
  0
SPLINE
  5
BA
330
1F
100
AcDbEntity
  8
0
  6
Continuous
 62
     7
370
    25
100
AcDbSpline
210
0.0
220
0.0
230
1.0
 70
     8
 71
     3
 72
    35
 73
    31
 74
     0
 42
0.000000001
 43
0.00000001
 40
0.0
 40
0.0
 40
0.0
 40
0.0
 40
0.052569549657311
 40
0.1051304145817668
 40
0.1586072300301516
 40
0.212058419413763
 40
0.2597110475333538
 40
0.2838508547581302
 40
0.3079863554976845
 40
0.3324056898386222
 40
0.3568176962724804
 40
0.3821450793918059
 40
0.4074615368500286
 40
0.4397283797844049
 40
0.4729240104071871
 40
0.5050653217060298
 40
0.5380575639167807
 40
0.5603538148092613
 40
0.5826561570257948
 40
0.6055646402995959
 40
0.6284777626300817
 40
0.6657529527507281
 40
0.703044954926813
 40
0.7412343712756233
 40
0.7794316881067628
 40
0.8306953956874519
 40
0.8728813108653231
 40
0.9150705735949205
 40
0.9575344330406069
 40
1.0
 40
1.0
 40
1.0
 40
1.0
 10
0.030089844406211
 20
0.1517955076015718
 30
0.0
 10
0.0272697417884027
 20
0.1544742576698221
 30
0.0
 10
0.0216300024467879
 20
0.1598313152644162
 30
0.0
 10
0.0136906721139615
 20
0.1684823213588124
 30
0.0
 10
0.0062606294837009
 20
0.1776583055536814
 30
0.0
 10
-0.000184595850046
 20
0.1871223745378895
 30
0.0
 10
-0.004656152074445
 20
0.1952562955159096
 30
0.0
 10
-0.0075308501046926
 20
0.2017484021790591
 30
0.0
 10
-0.0093843001417199
 20
0.2068008912009087
 30
0.0
 10
-0.0108625682183372
 20
0.2119978935680134
 30
0.0
 10
-0.0119137096392762
 20
0.2173894405200706
 30
0.0
 10
-0.0124358701355723
 20
0.222927427125243
 30
0.0
 10
-0.0123328815359854
 20
0.2290728132609817
 30
0.0
 10
-0.0112760071453628
 20
0.2357356838739398
 30
0.0
 10
-0.0089327701989195
 20
0.242604669700763
 30
0.0
 10
-0.0054246871964139
 20
0.2490136264781078
 30
0.0
 10
-0.001436397701655
 20
0.254138775459236
 30
0.0
 10
0.0026128552774293
 20
0.2582163734424222
 30
0.0
 10
0.0064310458026195
 20
0.2614438357013178
 30
0.0
 10
0.0105299165453354
 20
0.2643836361898814
 30
0.0
 10
0.0157712271325274
 20
0.2676030937089469
 30
0.0
 10
0.0222173533635984
 20
0.2708605932328026
 30
0.0
 10
0.0299637028795502
 20
0.273974503537306
 30
0.0
 10
0.0379774756022596
 20
0.2765435526024252
 30
0.0
 10
0.04713662147808
 20
0.2788599473403004
 30
0.0
 10
0.0567154562382631
 20
0.2806551641347772
 30
0.0
 10
0.0666664756783774
 20
0.2819647444126367
 30
0.0
 10
0.076016017839498
 20
0.2827773673930108
 30
0.0
 10
0.0854102295854451
 20
0.2832516532064259
 30
0.0
 10
0.0916930613743776
 20
0.2832946393176752
 30
0.0
 10
0.094834540427291
 20
0.2833161328054197
 30
0.0
  0
LINE
  5
BB
330
1F
100
AcDbEntity
  8
0
  6
Continuous
 62
     7
370
    25
100
AcDbLine
 10
0.0948345404
 20
0.2833161328
 30
0.0
 11
0.0948276486
 21
0.2803161416
 31
0.0
  0
CIRCLE
  5
BC
330
1F
100
AcDbEntity
  8
0
  6
Continuous
 62
     7
370
    25
100
AcDbCircle
 10
0.2590667196
 20
0.2100046212
 30
0.0
 40
0.00865
  0
ARC
  5
BD
330
1F
100
AcDbEntity
  8
0
  6
Continuous
 62
     7
370
    25
100
AcDbCircle
 10
0.0948759035
 20
0.3013233881
 30
0.0
 40
0.0180073050067309
100
AcDbArc
 50
269.8683913602
 51
343.48954017
  0
ARC
  5
BE
330
1F
100
AcDbEntity
  8
0
  6
Continuous
 62
     7
370
    25
100
AcDbCircle
 10
0.0948759035
 20
0.3013233881
 30
0.0
 40
0.0210073050067308
100
AcDbArc
 50
269.8683913602
 51
343.48954017
  0
ARC
  5
BF
330
1F
100
AcDbEntity
  8
0
  6
Continuous
 62
     7
370
    25
100
AcDbCircle
 10
0.3326438161
 20
0.3215853195
 30
0.0
 40
0.0200000000000001
100
AcDbArc
 50
201.9859109845
 51
258.1932031765
  0
ARC
  5
C0
330
1F
100
AcDbEntity
  8
0
  6
Continuous
 62
     7
370
    25
100
AcDbCircle
 10
0.3326438161
 20
0.3215853195
 30
0.0
 40
0.0230000000000002
100
AcDbArc
 50
201.9859109845
 51
258.1932031765
  0
CIRCLE
  5
C1
330
1F
100
AcDbEntity
  8
0
  6
Continuous
 62
     7
370
    25
100
AcDbCircle
 10
0.2593089344
 20
0.1100049146
 30
0.0
 40
0.00865
  0
CIRCLE
  5
C2
330
1F
100
AcDbEntity
  8
0
  6
Continuous
 62
     7
370
    25
100
AcDbCircle
 10
0.1590670129
 20
0.2097624064
 30
0.0
 40
0.00865
  0
ARC
  5
C3
330
1F
100
AcDbEntity
  8
0
  6
Continuous
 62
     7
370
    25
100
AcDbCircle
 10
0.0165148591
 20
0.1371081011
 30
0.0
 40
0.023
100
AcDbArc
 50
342.946648578
 51
47.25403615
  0
ARC
  5
C4
330
1F
100
AcDbEntity
  8
0
  6
Continuous
 62
     7
370
    25
100
AcDbCircle
 10
0.0165148591
 20
0.1371081011
 30
0.0
 40
0.02
100
AcDbArc
 50
342.946648578
 51
47.25403615
  0
ARC
  5
C5
330
1F
100
AcDbEntity
  8
0
  6
Continuous
 62
     7
370
    25
100
AcDbCircle
 10
0.2111488818
 20
-0.0012622025
 30
0.0
 40
0.023
100
AcDbArc
 50
37.5323808186
 51
132.6867022868
  0
ARC
  5
C6
330
1F
100
AcDbEntity
  8
0
  6
Continuous
 62
     7
370
    25
100
AcDbCircle
 10
0.2111488818
 20
-0.0012622025
 30
0.0
 40
0.02
100
AcDbArc
 50
37.5323808186
 51
132.6867022868
  0
ARC
  5
C7
330
1F
100
AcDbEntity
  8
0
  6
Continuous
 62
     7
370
    25
100
AcDbCircle
 10
0.4143204424
 20
0.107808749
 30
0.0
 40
0.0229999999999999
100
AcDbArc
 50
138.3224131259
 51
192.6635409035
  0
ARC
  5
C8
330
1F
100
AcDbEntity
  8
0
  6
Continuous
 62
     7
370
    25
100
AcDbCircle
 10
0.4143204424
 20
0.107808749
 30
0.0
 40
0.02
100
AcDbArc
 50
138.3224131259
 51
192.6635409035
  0
CIRCLE
  5
C9
330
1F
100
AcDbEntity
  8
0
  6
Continuous
 62
     7
370
    25
100
AcDbCircle
 10
0.1593092278
 20
0.1097626997
 30
0.0
 40
0.00865
  0
ENDSEC
  0
SECTION
  2
OBJECTS
  0
DICTIONARY
  5
C
330
0
100
AcDbDictionary
281
     1
  3
ACAD_GROUP
350
D
  3
ACAD_LAYOUT
350
1A
  3
ACAD_MLINESTYLE
350
17
  3
ACAD_PLOTSETTINGS
350
19
  3
ACAD_PLOTSTYLENAME
350
E
  3
ACAD_SCALELIST
350
47
  0
DICTIONARY
  5
D
102
{ACAD_REACTORS
330
C
102
}
330
C
100
AcDbDictionary
281
     1
  0
DICTIONARY
  5
1A
102
{ACAD_REACTORS
330
C
102
}
330
C
100
AcDbDictionary
281
     1
  3
Layout1
350
1E
  3
Layout2
350
26
  3
Model
350
22
  0
DICTIONARY
  5
17
102
{ACAD_REACTORS
330
C
102
}
330
C
100
AcDbDictionary
281
     1
  3
Standard
350
18
  0
DICTIONARY
  5
19
102
{ACAD_REACTORS
330
C
102
}
330
C
100
AcDbDictionary
281
     1
  0
ACDBDICTIONARYWDFLT
  5
E
102
{ACAD_REACTORS
330
C
102
}
330
C
100
AcDbDictionary
281
     1
  3
Normal
350
F
100
AcDbDictionaryWithDefault
340
F
  0
DICTIONARY
  5
47
102
{ACAD_REACTORS
330
C
102
}
330
C
100
AcDbDictionary
281
     1
  3
A0
350
48
  3
A1
350
49
  3
A2
350
4A
  3
A3
350
4B
  3
A4
350
4C
  3
A5
350
4D
  3
A6
350
4E
  3
A7
350
4F
  3
A8
350
50
  3
A9
350
51
  3
B0
350
52
  3
B1
350
53
  3
B2
350
54
  3
B3
350
55
  3
B4
350
56
  3
B5
350
57
  3
B6
350
58
  3
B7
350
59
  3
B8
350
5A
  3
B9
350
5B
  3
C0
350
5C
  3
C1
350
5D
  3
C2
350
5E
  3
C3
350
5F
  3
C4
350
60
  3
C5
350
61
  3
C6
350
62
  3
C7
350
63
  3
C8
350
64
  3
C9
350
65
  3
D0
350
66
  3
D1
350
67
  3
D2
350
68
  0
LAYOUT
  5
1E
102
{ACAD_REACTORS
330
1A
102
}
330
1A
100
AcDbPlotSettings
  1

  2
none_device
  4

  6

 40
0.0
 41
0.0
 42
0.0
 43
0.0
 44
0.0
 45
0.0
 46
0.0
 47
0.0
 48
0.0
 49
0.0
140
0.0
141
0.0
142
1.0
143
1.0
 70
   688
 72
     1
 73
     0
 74
     5
  7

 75
    16
147
1.0
148
0.0
149
0.0
100
AcDbLayout
  1
Layout1
 70
     1
 71
     1
 10
0.0
 20
0.0
 11
420.0
 21
297.0
 12
0.0
 22
0.0
 32
0.0
 14
1.0000000000E+20
 24
1.0000000000E+20
 34
1.0000000000E+20
 15
-1.0000000000E+20
 25
-1.0000000000E+20
 35
-1.0000000000E+20
146
0.0
 13
0.0
 23
0.0
 33
0.0
 16
1.0
 26
0.0
 36
0.0
 17
0.0
 27
1.0
 37
0.0
 76
     0
330
1B
  0
LAYOUT
  5
26
102
{ACAD_REACTORS
330
1A
102
}
330
1A
100
AcDbPlotSettings
  1

  2
none_device
  4

  6

 40
0.0
 41
0.0
 42
0.0
 43
0.0
 44
0.0
 45
0.0
 46
0.0
 47
0.0
 48
0.0
 49
0.0
140
0.0
141
0.0
142
1.0
143
1.0
 70
   688
 72
     1
 73
     0
 74
     5
  7

 75
    16
147
1.0
148
0.0
149
0.0
100
AcDbLayout
  1
Layout2
 70
     1
 71
     2
 10
0.0
 20
0.0
 11
0.0
 21
0.0
 12
0.0
 22
0.0
 32
0.0
 14
0.0
 24
0.0
 34
0.0
 15
0.0
 25
0.0
 35
0.0
146
0.0
 13
0.0
 23
0.0
 33
0.0
 16
1.0
 26
0.0
 36
0.0
 17
0.0
 27
1.0
 37
0.0
 76
     0
330
23
  0
LAYOUT
  5
22
102
{ACAD_REACTORS
330
1A
102
}
330
1A
100
AcDbPlotSettings
  1

  2
none_device
  4
Letter_(8.50_x_11.00_Inches)
  6

 40
6.35
 41
6.35
 42
6.35000508
 43
6.35000508
 44
215.9
 45
279.4
 46
0.0
 47
0.0
 48
0.0
 49
0.0
140
0.0
141
0.0
142
1.0
143
1.0
 70
  1712
 72
     1
 73
     0
 74
     0
  7

 75
     0
147
1.0
148
0.0
149
0.0
100
AcDbLayout
  1
Model
 70
     1
 71
     0
 10
0.0
 20
0.0
 11
0.4318
 21
0.2794
 12
0.0
 22
0.0
 32
0.0
 14
0.0
 24
0.0
 34
0.0
 15
0.4318
 25
0.2794
 35
0.0
146
0.0
 13
0.0
 23
0.0
 33
0.0
 16
1.0
 26
0.0
 36
0.0
 17
0.0
 27
1.0
 37
0.0
 76
     0
330
1F
331
29
  0
MLINESTYLE
  5
18
102
{ACAD_REACTORS
330
17
102
}
330
17
100
AcDbMlineStyle
  2
Standard
 70
     0
  3

 62
   256
 51
90.0
 52
90.0
 71
     2
 49
0.5
 62
   256
  6
BYLAYER
 49
-0.5
 62
   256
  6
BYLAYER
  0
ACDBPLACEHOLDER
  5
F
102
{ACAD_REACTORS
330
E
102
}
330
E
  0
SCALE
  5
48
102
{ACAD_REACTORS
330
47
102
}
330
47
100
AcDbScale
 70
     0
300
1:1
140
1.0
141
1.0
290
     1
  0
SCALE
  5
49
102
{ACAD_REACTORS
330
47
102
}
330
47
100
AcDbScale
 70
     0
300
1:2
140
1.0
141
2.0
290
     0
  0
SCALE
  5
4A
102
{ACAD_REACTORS
330
47
102
}
330
47
100
AcDbScale
 70
     0
300
1:4
140
1.0
141
4.0
290
     0
  0
SCALE
  5
4B
102
{ACAD_REACTORS
330
47
102
}
330
47
100
AcDbScale
 70
     0
300
1:5
140
1.0
141
5.0
290
     0
  0
SCALE
  5
4C
102
{ACAD_REACTORS
330
47
102
}
330
47
100
AcDbScale
 70
     0
300
1:8
140
1.0
141
8.0
290
     0
  0
SCALE
  5
4D
102
{ACAD_REACTORS
330
47
102
}
330
47
100
AcDbScale
 70
     0
300
1:10
140
1.0
141
10.0
290
     0
  0
SCALE
  5
4E
102
{ACAD_REACTORS
330
47
102
}
330
47
100
AcDbScale
 70
     0
300
1:16
140
1.0
141
16.0
290
     0
  0
SCALE
  5
4F
102
{ACAD_REACTORS
330
47
102
}
330
47
100
AcDbScale
 70
     0
300
1:20
140
1.0
141
20.0
290
     0
  0
SCALE
  5
50
102
{ACAD_REACTORS
330
47
102
}
330
47
100
AcDbScale
 70
     0
300
1:30
140
1.0
141
30.0
290
     0
  0
SCALE
  5
51
102
{ACAD_REACTORS
330
47
102
}
330
47
100
AcDbScale
 70
     0
300
1:40
140
1.0
141
40.0
290
     0
  0
SCALE
  5
52
102
{ACAD_REACTORS
330
47
102
}
330
47
100
AcDbScale
 70
     0
300
1:50
140
1.0
141
50.0
290
     0
  0
SCALE
  5
53
102
{ACAD_REACTORS
330
47
102
}
330
47
100
AcDbScale
 70
     0
300
1:100
140
1.0
141
100.0
290
     0
  0
SCALE
  5
54
102
{ACAD_REACTORS
330
47
102
}
330
47
100
AcDbScale
 70
     0
300
2:1
140
2.0
141
1.0
290
     0
  0
SCALE
  5
55
102
{ACAD_REACTORS
330
47
102
}
330
47
100
AcDbScale
 70
     0
300
4:1
140
4.0
141
1.0
290
     0
  0
SCALE
  5
56
102
{ACAD_REACTORS
330
47
102
}
330
47
100
AcDbScale
 70
     0
300
8:1
140
8.0
141
1.0
290
     0
  0
SCALE
  5
57
102
{ACAD_REACTORS
330
47
102
}
330
47
100
AcDbScale
 70
     0
300
10:1
140
10.0
141
1.0
290
     0
  0
SCALE
  5
58
102
{ACAD_REACTORS
330
47
102
}
330
47
100
AcDbScale
 70
     0
300
100:1
140
100.0
141
1.0
290
     0
  0
SCALE
  5
59
102
{ACAD_REACTORS
330
47
102
}
330
47
100
AcDbScale
 70
     0
300
1/128" = 1'-0"
140
0.0078125
141
12.0
290
     0
  0
SCALE
  5
5A
102
{ACAD_REACTORS
330
47
102
}
330
47
100
AcDbScale
 70
     0
300
1/64" = 1'-0"
140
0.015625
141
12.0
290
     0
  0
SCALE
  5
5B
102
{ACAD_REACTORS
330
47
102
}
330
47
100
AcDbScale
 70
     0
300
1/32" = 1'-0"
140
0.03125
141
12.0
290
     0
  0
SCALE
  5
5C
102
{ACAD_REACTORS
330
47
102
}
330
47
100
AcDbScale
 70
     0
300
1/16" = 1'-0"
140
0.0625
141
12.0
290
     0
  0
SCALE
  5
5D
102
{ACAD_REACTORS
330
47
102
}
330
47
100
AcDbScale
 70
     0
300
3/32" = 1'-0"
140
0.09375
141
12.0
290
     0
  0
SCALE
  5
5E
102
{ACAD_REACTORS
330
47
102
}
330
47
100
AcDbScale
 70
     0
300
1/8" = 1'-0"
140
0.125
141
12.0
290
     0
  0
SCALE
  5
5F
102
{ACAD_REACTORS
330
47
102
}
330
47
100
AcDbScale
 70
     0
300
3/16" = 1'-0"
140
0.1875
141
12.0
290
     0
  0
SCALE
  5
60
102
{ACAD_REACTORS
330
47
102
}
330
47
100
AcDbScale
 70
     0
300
1/4" = 1'-0"
140
0.25
141
12.0
290
     0
  0
SCALE
  5
61
102
{ACAD_REACTORS
330
47
102
}
330
47
100
AcDbScale
 70
     0
300
3/8" = 1'-0"
140
0.375
141
12.0
290
     0
  0
SCALE
  5
62
102
{ACAD_REACTORS
330
47
102
}
330
47
100
AcDbScale
 70
     0
300
1/2" = 1'-0"
140
0.5
141
12.0
290
     0
  0
SCALE
  5
63
102
{ACAD_REACTORS
330
47
102
}
330
47
100
AcDbScale
 70
     0
300
3/4" = 1'-0"
140
0.75
141
12.0
290
     0
  0
SCALE
  5
64
102
{ACAD_REACTORS
330
47
102
}
330
47
100
AcDbScale
 70
     0
300
1" = 1'-0"
140
1.0
141
12.0
290
     0
  0
SCALE
  5
65
102
{ACAD_REACTORS
330
47
102
}
330
47
100
AcDbScale
 70
     0
300
1-1/2" = 1'-0"
140
1.5
141
12.0
290
     0
  0
SCALE
  5
66
102
{ACAD_REACTORS
330
47
102
}
330
47
100
AcDbScale
 70
     0
300
3" = 1'-0"
140
3.0
141
12.0
290
     0
  0
SCALE
  5
67
102
{ACAD_REACTORS
330
47
102
}
330
47
100
AcDbScale
 70
     0
300
6" = 1'-0"
140
6.0
141
12.0
290
     0
  0
SCALE
  5
68
102
{ACAD_REACTORS
330
47
102
}
330
47
100
AcDbScale
 70
     0
300
1'-0" = 1'-0"
140
12.0
141
12.0
290
     0
  0
ENDSEC
  0
EOF
